  0
SECTION
  2
HEADER
  9
$ACADVER
  1
AC1015
  9
$ACADMAINTVER
 70
    20
  9
$DWGCODEPAGE
  3
ANSI_932
  9
$INSBASE
 10
0.0
 20
0.0
 30
0.0
  9
$EXTMIN
 10
-1.434358822144076
 20
-3.43396522260495
 30
0.0
  9
$EXTMAX
 10
226.6996578953851
 20
175.284722802734
 30
0.0
  9
$LIMMIN
 10
0.0
 20
0.0
  9
$LIMMAX
 10
420.0
 20
297.0
  9
$ORTHOMODE
 70
     0
  9
$REGENMODE
 70
     1
  9
$FILLMODE
 70
     1
  9
$QTEXTMODE
 70
     0
  9
$MIRRTEXT
 70
     1
  9
$LTSCALE
 40
1.0
  9
$ATTMODE
 70
     1
  9
$TEXTSIZE
 40
1.0
  9
$TRACEWID
 40
1.0
  9
$TEXTSTYLE
  7
ACISOTS
  9
$CLAYER
  8
AM_0
  9
$CELTYPE
  6
ByLayer
  9
$CECOLOR
 62
   256
  9
$CELTSCALE
 40
1.0
  9
$DISPSILH
 70
     0
  9
$DIMSCALE
 40
1.0
  9
$DIMASZ
 40
2.5
  9
$DIMEXO
 40
1.0
  9
$DIMDLI
 40
10.0
  9
$DIMRND
 40
0.0
  9
$DIMDLE
 40
0.0
  9
$DIMEXE
 40
1.0
  9
$DIMTP
 40
0.1
  9
$DIMTM
 40
0.1
  9
$DIMTXT
 40
3.5
  9
$DIMCEN
 40
0.0
  9
$DIMTSZ
 40
0.0
  9
$DIMTOL
 70
     0
  9
$DIMLIM
 70
     0
  9
$DIMTIH
 70
     0
  9
$DIMTOH
 70
     0
  9
$DIMSE1
 70
     0
  9
$DIMSE2
 70
     0
  9
$DIMTAD
 70
     1
  9
$DIMZIN
 70
     8
  9
$DIMBLK
  1

  9
$DIMASO
 70
     1
  9
$DIMSHO
 70
     1
  9
$DIMPOST
  1

  9
$DIMAPOST
  1
"
  9
$DIMALT
 70
     0
  9
$DIMALTD
 70
     2
  9
$DIMALTF
 40
0.0393701
  9
$DIMLFAC
 40
1.0
  9
$DIMTOFL
 70
     1
  9
$DIMTVP
 40
0.0
  9
$DIMTIX
 70
     0
  9
$DIMSOXD
 70
     0
  9
$DIMSAH
 70
     0
  9
$DIMBLK1
  1

  9
$DIMBLK2
  1

  9
$DIMSTYLE
  2
AM_ISO
  9
$DIMCLRD
 70
   256
  9
$DIMCLRE
 70
   256
  9
$DIMCLRT
 70
     2
  9
$DIMTFAC
 40
0.71
  9
$DIMGAP
 40
1.5
  9
$DIMJUST
 70
     0
  9
$DIMSD1
 70
     0
  9
$DIMSD2
 70
     0
  9
$DIMTOLJ
 70
     0
  9
$DIMTZIN
 70
     8
  9
$DIMALTZ
 70
     0
  9
$DIMALTTZ
 70
     0
  9
$DIMUPT
 70
     0
  9
$DIMDEC
 70
     2
  9
$DIMTDEC
 70
     3
  9
$DIMALTU
 70
     2
  9
$DIMALTTD
 70
     4
  9
$DIMTXSTY
  7
STANDARD
  9
$DIMAUNIT
 70
     0
  9
$DIMADEC
 70
     0
  9
$DIMALTRND
 40
0.0
  9
$DIMAZIN
 70
     2
  9
$DIMDSEP
 70
    46
  9
$DIMATFIT
 70
     3
  9
$DIMFRAC
 70
     0
  9
$DIMLDRBLK
  1

  9
$DIMLUNIT
 70
     2
  9
$DIMLWD
 70
    -1
  9
$DIMLWE
 70
    -1
  9
$DIMTMOVE
 70
     0
  9
$LUNITS
 70
     2
  9
$LUPREC
 70
     2
  9
$SKETCHINC
 40
1.0
  9
$FILLETRAD
 40
2.5
  9
$AUNITS
 70
     0
  9
$AUPREC
 70
     0
  9
$MENU
  1
.
  9
$ELEVATION
 40
0.0
  9
$PELEVATION
 40
0.0
  9
$THICKNESS
 40
0.0
  9
$LIMCHECK
 70
     0
  9
$CHAMFERA
 40
2.5
  9
$CHAMFERB
 40
2.5
  9
$CHAMFERC
 40
20.0
  9
$CHAMFERD
 40
0.0
  9
$SKPOLY
 70
     0
  9
$TDCREATE
 40
2456406.494575463
  9
$TDUCREATE
 40
2456406.119575463
  9
$TDUPDATE
 40
2456406.644867060
  9
$TDUUPDATE
 40
2456406.269867060
  9
$TDINDWG
 40
0.0008137731
  9
$TDUSRTIMER
 40
0.0008087153
  9
$USRTIMER
 70
     1
  9
$ANGBASE
 50
0.0
  9
$ANGDIR
 70
     0
  9
$PDMODE
 70
     0
  9
$PDSIZE
 40
0.0
  9
$PLINEWID
 40
0.0
  9
$SPLFRAME
 70
     0
  9
$SPLINETYPE
 70
     6
  9
$SPLINESEGS
 70
     8
  9
$HANDSEED
  5
8D3
  9
$SURFTAB1
 70
     6
  9
$SURFTAB2
 70
     6
  9
$SURFTYPE
 70
     6
  9
$SURFU
 70
     6
  9
$SURFV
 70
     6
  9
$UCSBASE
  2

  9
$UCSNAME
  2

  9
$UCSORG
 10
0.0
 20
0.0
 30
0.0
  9
$UCSXDIR
 10
1.0
 20
0.0
 30
0.0
  9
$UCSYDIR
 10
0.0
 20
1.0
 30
0.0
  9
$UCSORTHOREF
  2

  9
$UCSORTHOVIEW
 70
     0
  9
$UCSORGTOP
 10
0.0
 20
0.0
 30
0.0
  9
$UCSORGBOTTOM
 10
0.0
 20
0.0
 30
0.0
  9
$UCSORGLEFT
 10
0.0
 20
0.0
 30
0.0
  9
$UCSORGRIGHT
 10
0.0
 20
0.0
 30
0.0
  9
$UCSORGFRONT
 10
0.0
 20
0.0
 30
0.0
  9
$UCSORGBACK
 10
0.0
 20
0.0
 30
0.0
  9
$PUCSBASE
  2

  9
$PUCSNAME
  2

  9
$PUCSORG
 10
0.0
 20
0.0
 30
0.0
  9
$PUCSXDIR
 10
1.0
 20
0.0
 30
0.0
  9
$PUCSYDIR
 10
0.0
 20
1.0
 30
0.0
  9
$PUCSORTHOREF
  2

  9
$PUCSORTHOVIEW
 70
     0
  9
$PUCSORGTOP
 10
0.0
 20
0.0
 30
0.0
  9
$PUCSORGBOTTOM
 10
0.0
 20
0.0
 30
0.0
  9
$PUCSORGLEFT
 10
0.0
 20
0.0
 30
0.0
  9
$PUCSORGRIGHT
 10
0.0
 20
0.0
 30
0.0
  9
$PUCSORGFRONT
 10
0.0
 20
0.0
 30
0.0
  9
$PUCSORGBACK
 10
0.0
 20
0.0
 30
0.0
  9
$USERI1
 70
     0
  9
$USERI2
 70
     0
  9
$USERI3
 70
     0
  9
$USERI4
 70
     0
  9
$USERI5
 70
     0
  9
$USERR1
 40
0.0
  9
$USERR2
 40
0.0
  9
$USERR3
 40
0.0
  9
$USERR4
 40
0.0
  9
$USERR5
 40
0.0
  9
$WORLDVIEW
 70
     1
  9
$SHADEDGE
 70
     3
  9
$SHADEDIF
 70
    70
  9
$TILEMODE
 70
     1
  9
$MAXACTVP
 70
    64
  9
$PINSBASE
 10
0.0
 20
0.0
 30
0.0
  9
$PLIMCHECK
 70
     0
  9
$PEXTMIN
 10
1.000000000000000E+20
 20
1.000000000000000E+20
 30
1.000000000000000E+20
  9
$PEXTMAX
 10
-1.000000000000000E+20
 20
-1.000000000000000E+20
 30
-1.000000000000000E+20
  9
$PLIMMIN
 10
0.0
 20
0.0
  9
$PLIMMAX
 10
420.0
 20
297.0
  9
$UNITMODE
 70
     0
  9
$VISRETAIN
 70
     1
  9
$PLINEGEN
 70
     0
  9
$PSLTSCALE
 70
     1
  9
$TREEDEPTH
 70
  3020
  9
$CMLSTYLE
  2
Standard
  9
$CMLJUST
 70
     0
  9
$CMLSCALE
 40
20.0
  9
$PROXYGRAPHICS
 70
     1
  9
$MEASUREMENT
 70
     1
  9
$CELWEIGHT
370
    -1
  9
$ENDCAPS
280
     0
  9
$JOINSTYLE
280
     0
  9
$LWDISPLAY
290
     0
  9
$INSUNITS
 70
     4
  9
$HYPERLINKBASE
  1

  9
$STYLESHEET
  1

  9
$XEDIT
290
     1
  9
$CEPSNTYPE
380
     0
  9
$PSTYLEMODE
290
     1
  9
$FINGERPRINTGUID
  2
{B286AFFF-9696-468B-A997-8ABBB81D54F9}
  9
$VERSIONGUID
  2
{1D29D5CA-F577-4AF4-89DC-528A71771638}
  9
$EXTNAMES
290
     1
  9
$PSVPSCALE
 40
0.0
  9
$OLESTARTUP
290
     0
  0
ENDSEC
  0
SECTION
  2
CLASSES
  0
CLASS
  1
ACDBDICTIONARYWDFLT
  2
AcDbDictionaryWithDefault
  3
ObjectDBX Classes
 90
        0
280
     0
281
     0
  0
CLASS
  1
ACDBPLACEHOLDER
  2
AcDbPlaceHolder
  3
ObjectDBX Classes
 90
        0
280
     0
281
     0
  0
CLASS
  1
LAYOUT
  2
AcDbLayout
  3
ObjectDBX Classes
 90
        0
280
     0
281
     0
  0
CLASS
  1
ACME_DOCUMENT
  2
AcMeDbDoc
  3
AcMeServices
 90
        0
280
     0
281
     0
  0
CLASS
  1
AMGSETTINGSOBJ
  2
AmgSettingsObj
  3
"AcadM|Product Description: AutoCAD Mechanical 2000|Company: Autodesk"
 90
        0
280
     0
281
     0
  0
CLASS
  1
ACMESCOPE
  2
AcMeScope
  3
AcMeServices
 90
        0
280
     0
281
     0
  0
CLASS
  1
ACMECOMMANDHISTORY
  2
AcMeCommandHistory
  3
AcMeServices
 90
        0
280
     0
281
     0
  0
CLASS
  1
ACIMSYSVARMAN
  2
AcImSysVarManager
  3
AcMeServices
 90
        0
280
     0
281
     0
  0
CLASS
  1
ACIMREALSYSVAR
  2
AcImRealSysVar
  3
AcMeServices
 90
        0
280
     0
281
     0
  0
CLASS
  1
ACIMINTSYSVAR
  2
AcImIntSysVar
  3
AcMeServices
 90
        0
280
     0
281
     0
  0
CLASS
  1
ACMEDRAWINGMAN
  2
AcMeDrawingMan
  3
AcMeServices
 90
        0
280
     0
281
     0
  0
CLASS
  1
ACMEVIEW
  2
AcMeView
  3
AcMeServices
 90
        0
280
     0
281
     0
  0
CLASS
  1
ACDBENTITYCACHE
  2
AcMeEntityCache
  3
AcMeServices
 90
        0
280
     0
281
     0
  0
CLASS
  1
GSMANAGER
  2
AcMeGSManager
  3
AcMeServices
 90
        0
280
     0
281
     0
  0
CLASS
  1
AMDTINTERNALREACTOR
  2
AmdtInternalReactor
  3
AcMeServices
 90
        0
280
     0
281
     0
  0
CLASS
  1
ACMESTATEMGR
  2
AcMeStateMgr
  3
AcMeServices
 90
        0
280
     0
281
     0
  0
CLASS
  1
ACGREFMASTER
  2
AcGrefMaster
  3
AcAttribServices
 90
        0
280
     0
281
     0
  0
CLASS
  1
ACME_DATABASE
  2
AcMeDbDatabase
  3
AcMeServices
 90
        0
280
     0
281
     0
  0
CLASS
  1
ACRFINSADJUSTERMGR
  2
AcRfInsAdjusterMgr
  3
AcMeServices
 90
        0
280
     0
281
     0
  0
CLASS
  1
ACGREFACADMASTER
  2
AcGrefacadMaster
  3
AcGrefServices
 90
        0
280
     0
281
     0
  0
CLASS
  1
AMIMASTER
  2
AmiMaster
  3
AmiServices
 90
        0
280
     0
281
     0
  0
CLASS
  1
ACMDATADICTIONARY
  2
AcmDataDictionary
  3
"AcmSymBB|Product Description: AutoCAD Mechanical 2004 DX|Company: Autodesk"
 90
        0
280
     0
281
     0
  0
CLASS
  1
ACMDATAENTRYBLOCK
  2
AcmDataEntryBlock
  3
"AcmSymBB|Product Description: AutoCAD Mechanical 2004 DX|Company: Autodesk"
 90
    32768
280
     0
281
     0
  0
CLASS
  1
ACIMSTRSYSVAR
  2
AcImStrSysVar
  3
AcMeServices
 90
        0
280
     0
281
     0
  0
CLASS
  1
ACMSTANDARDISO
  2
AcmStandardISO
  3
"Amdt_StdImp|Product Description: AutoCAD Mechanical 2004 DX|Company: Autodesk"
 90
    32768
280
     0
281
     0
  0
CLASS
  1
AMGOBJPROPCFG
  2
AmgObjPropCfg
  3
"AmgLay|Product Description: AutoCAD Mechanical 2000|Company: Autodesk"
 90
        1
280
     0
281
     0
  0
CLASS
  1
AMDTEDGESTANDARDISO
  2
AmdtEdgeStdISO
  3
"Amdt_StdImp|Product Description: AutoCAD Mechanical 2004 DX|Company: Autodesk"
 90
    32768
280
     0
281
     0
  0
CLASS
  1
ACMSURFSTANDARDISO
  2
AcmSurfTextStdISO
  3
"Amdt_StdImp|Product Description: AutoCAD Mechanical 2004 DX|Company: Autodesk"
 90
    32768
280
     0
281
     0
  0
CLASS
  1
ACMFCFSTANDARDISO
  2
AcmFCFStdISO
  3
"Amdt_StdImp|Product Description: AutoCAD Mechanical 2004 DX|Company: Autodesk"
 90
    32768
280
     0
281
     0
  0
CLASS
  1
ACMWELDSTANDARDISO
  2
AcmWeldingStdISO
  3
"Amdt_StdImp|Product Description: AutoCAD Mechanical 2004 DX|Company: Autodesk"
 90
    32768
280
     0
281
     0
  0
CLASS
  1
ACMIDSTANDARDISO
  2
AcmIdStdISO
  3
"Amdt_StdImp|Product Description: AutoCAD Mechanical 2004 DX|Company: Autodesk"
 90
    32768
280
     0
281
     0
  0
CLASS
  1
ACMDATUMSTANDARDISO
  2
AcmDatumStdISO
  3
"Amdt_StdImp|Product Description: AutoCAD Mechanical 2004 DX|Company: Autodesk"
 90
    32768
280
     0
281
     0
  0
CLASS
  1
ACMBOMSTANDARDISO
  2
AcmBOMStdISO
  3
"Amdt_StdImp|Product Description: AutoCAD Mechanical 2004 DX|Company: Autodesk"
 90
    32768
280
     0
281
     0
  0
CLASS
  1
ACMDETAILSTANDARDISO
  2
AmdtDetailSymStdISO
  3
"Amdt_StdImp|Product Description: AutoCAD Mechanical 2004 DX|Company: Autodesk"
 90
    32768
280
     0
281
     0
  0
CLASS
  1
ACMSECTIONSTANDARDISO
  2
AmdtSectionSymStdISO
  3
"Amdt_StdImp|Product Description: AutoCAD Mechanical 2004 DX|Company: Autodesk"
 90
    32768
280
     0
281
     0
  0
CLASS
  1
ACMCENTERLINESTANDARDISO
  2
AmdtCenterLineStdISO
  3
"Amdt_StdImp|Product Description: AutoCAD Mechanical 2004 DX|Company: Autodesk"
 90
    32768
280
     0
281
     0
  0
CLASS
  1
ACMNOTESTANDARDISO
  2
AmdtNoteStdISO
  3
"Amdt_StdImp|Product Description: AutoCAD Mechanical 2004 DX|Company: Autodesk"
 90
    32768
280
     0
281
     0
  0
CLASS
  1
ACAMGLAYSTD
  2
AcAmgLayStd
  3
"AcAmgLayStd|Product Description: AutoCAD Mechanical 2000|Company: Autodesk"
 90
        0
280
     0
281
     0
  0
CLASS
  1
ACAMGDIMSTD
  2
AcAmgDimStd
  3
"AcAmgDimStd|Product Description: AutoCAD Mechanical 2000|Company: Autodesk"
 90
        0
280
     0
281
     0
  0
CLASS
  1
ACAMGHOLECHARTSTDISO
  2
AcAmgHoleChartStdISO
  3
ACMSYMBB_MODULE_NAME
 90
    32768
280
     0
281
     0
  0
CLASS
  1
ACAMGTITLESTD
  2
AcAmgTitleStd
  3
"TITLEAPP"
 90
        0
280
     0
281
     0
  0
CLASS
  1
LAYER_INDEX
  2
AcDbLayerIndex
  3
ObjectDBX Classes
 90
    32768
280
     0
281
     0
  0
CLASS
  1
IDBUFFER
  2
AcDbIdBuffer
  3
ObjectDBX Classes
 90
    32768
280
     0
281
     0
  0
CLASS
  1
DICTIONARYVAR
  2
AcDbDictionaryVar
  3
ObjectDBX Classes
 90
        0
280
     0
281
     0
  0
CLASS
  1
AM_DRAWING_MGR
  2
AcDmDwgMgr
  3
AcMechDwgViewMgmt
 90
        0
280
     0
281
     0
  0
CLASS
  1
AM_DWG_DOCUMENT
  2
AcDmDwgDocument
  3
AcMechDwgViewMgmt
 90
        0
280
     0
281
     0
  0
CLASS
  1
AM_DWG_SHEET
  2
AcDmSheet
  3
AcMechDwgViewMgmt
 90
        0
280
     0
281
     0
  0
CLASS
  1
AM_VIEWDIMPARMAP
  2
AcDmViewDimParMap
  3
AcMechDwgViewMgmt
 90
        0
280
     0
281
     0
  0
CLASS
  1
AM_DWGMGR_NAME
  2
AcDmDwgMgrName
  3
AcMechDwgViewMgmt
 90
        0
280
     0
281
     0
  0
CLASS
  1
AMDTMENUSTATEMGR
  2
AmdtMenuStateMgr
  3
McadcomServices
 90
        0
280
     0
281
     0
  0
CLASS
  1
AMDTMCOMMENUSTATE
  2
AmdtMcomMenuState
  3
McadcomServices
 90
        0
280
     0
281
     0
  0
CLASS
  1
MAPIAMMOUDLE
  2
MApiAmModule
  3
MApiAmServices
 90
        0
280
     0
281
     0
  0
CLASS
  1
AMDTADMENUSTATE
  2
AmdtAdMenuState
  3
DesignerServices
 90
        0
280
     0
281
     0
  0
CLASS
  1
ADAPPL
  2
AcAdAppl
  3
DesignerServices
 90
        0
280
     0
281
     0
  0
CLASS
  1
DEPMGR
  2
AcAdDepMgr
  3
DesignerServices
 90
        0
280
     0
281
     0
  0
CLASS
  1
PARAMMGR
  2
AcAdParamMgr
  3
DesignerServices
 90
        0
280
     0
281
     0
  0
CLASS
  1
PARAMSCOPE
  2
AcAdParamScope
  3
DesignerServices
 90
        0
280
     0
281
     0
  0
CLASS
  1
NAMEDAPPL
  2
AcAdNamedAppl
  3
DesignerServices
 90
        0
280
     0
281
     0
  0
CLASS
  1
AMDTDMMENUSTATE
  2
AmdtDmMenuState
  3
AcMechDwgViewMgmt
 90
        0
280
     0
281
     0
  0
CLASS
  1
AMDTAMMENUSTATE
  2
AmdtAmMenuState
  3
DesignerAssemblies
 90
        0
280
     0
281
     0
  0
CLASS
  1
ACAMPROJECT
  2
AcAmProject
  3
DesignerAssemblies
 90
        0
280
     0
281
     0
  0
CLASS
  1
ACAMGRCOMPDEF
  2
AcAmGrCompDef
  3
DesignerAssemblies
 90
        0
280
     0
281
     0
  0
CLASS
  1
ACCMCONTEXT
  2
AcCmContext
  3
DesignerAssemblies
 90
        0
280
     0
281
     0
  0
CLASS
  1
ACAMCOMPDEF
  2
AcAmCompDef
  3
DesignerAssemblies
 90
        0
280
     0
281
     0
  0
CLASS
  1
ACAMCOMPDEFMGR
  2
AcAmCompDefMgr
  3
DesignerAssemblies
 90
        0
280
     0
281
     0
  0
CLASS
  1
AMCONTEXTMGR
  2
AcAmContextMgr
  3
DesignerAssemblies
 90
        0
280
     0
281
     0
  0
CLASS
  1
ACAMCONTEXTMODELER
  2
AcAmContextModeler
  3
DesignerAssemblies
 90
        0
280
     0
281
     0
  0
CLASS
  1
ACMTHREADLINESTANDARDISO
  2
AmdtThreadLineStdISO
  3
"Amdt_StdImp|Product Description: AutoCAD Mechanical 2004 DX|Company: Autodesk"
 90
    32768
280
     0
281
     0
  0
CLASS
  1
CATALOGSTATE
  2
AcAmCatalogState
  3
DesignerAssemblies
 90
        0
280
     0
281
     0
  0
CLASS
  1
ACAMGRCOMPDEFSET
  2
AcAmGrCompDefSet
  3
DesignerAssemblies
 90
        0
280
     0
281
     0
  0
CLASS
  1
AMDTBROWSERDBTAB
  2
AmdtBrowserDbTab
  3
McadcomServices
 90
        0
280
     0
281
     0
  0
CLASS
  1
CBROWSERAPPOBJECT
  2
CBrowserAppObject
  3
McadcomServices
 90
        0
280
     0
281
     0
  0
CLASS
  1
DM_PLACEHOLDER
  2
AcDmSelsetPlaceholder
  3
AcMechDwgViewMgmt
 90
        0
280
     0
281
     0
  0
CLASS
  1
TABLESTYLE
  2
AcDbTableStyle
  3
ObjectDBX Classes
 90
     2047
280
     0
281
     0
  0
CLASS
  1
VAACXREFPANELOBJECT
  2
VaAcXREFPanelObject
  3
VAAC_ADDIN
 90
    32768
280
     0
281
     0
  0
CLASS
  1
VAACIMAGEINVENTORY
  2
VaAcImageInventory
  3
VAAC_ADDIN
 90
    32768
280
     0
281
     0
  0
CLASS
  1
AMDTNOTETEMPLATEDB
  2
AmdtNoteTemplateDB
  3
AMDT_STDIMP_MODULE_NAME
 90
        0
280
     0
281
     0
  0
CLASS
  1
ACMBOM
  2
AcmBom
  3
"AcmSymBB|Product Description: AutoCAD Mechanical 2004 DX|Company: Autodesk"
 90
    32768
280
     0
281
     0
  0
CLASS
  1
AMDTFORMULAUPDATEDISPATCHER
  2
AmdtFormulaUpdateDispatcher
  3
AcMeServices
 90
    32768
280
     0
281
     0
  0
CLASS
  1
ACMPARTLIST
  2
AcmPartList
  3
"AcmSymBB|Product Description: AutoCAD Mechanical 2004 DX|Company: Autodesk"
 90
    33791
280
     0
281
     1
  0
CLASS
  1
ACAMGFILTERDAT
  2
AcAmgFilterDat
  3
"AcadM|Product Description: AutoCAD Mechanical 2000|Company: Autodesk"
 90
    32768
280
     0
281
     0
  0
CLASS
  1
SORTENTSTABLE
  2
AcDbSortentsTable
  3
ObjectDBX Classes
 90
    32768
280
     0
281
     0
  0
CLASS
  1
ACMSTANDARDJIS
  2
AcmStandardJIS
  3
"Amdt_StdImp|Product Description: AutoCAD Mechanical 2004 DX|Company: Autodesk"
 90
        0
280
     0
281
     0
  0
CLASS
  1
ACMSURFSTANDARDJIS
  2
AcmSurfTextStdJIS
  3
"Amdt_StdImp|Product Description: AutoCAD Mechanical 2004 DX|Company: Autodesk"
 90
        0
280
     0
281
     0
  0
CLASS
  1
ACMFCFSTANDARDJIS
  2
AcmFCFStdJIS
  3
"Amdt_StdImp|Product Description: AutoCAD Mechanical 2004 DX|Company: Autodesk"
 90
        0
280
     0
281
     0
  0
CLASS
  1
ACMWELDSTANDARDJIS
  2
AcmWeldingStdJIS
  3
"Amdt_StdImp|Product Description: AutoCAD Mechanical 2004 DX|Company: Autodesk"
 90
        0
280
     0
281
     0
  0
CLASS
  1
ACMIDSTANDARDJIS
  2
AcmIdStdJIS
  3
"Amdt_StdImp|Product Description: AutoCAD Mechanical 2004 DX|Company: Autodesk"
 90
        0
280
     0
281
     0
  0
CLASS
  1
ACMDATUMSTANDARDJIS
  2
AcmDatumStdJIS
  3
"Amdt_StdImp|Product Description: AutoCAD Mechanical 2004 DX|Company: Autodesk"
 90
        0
280
     0
281
     0
  0
CLASS
  1
ACMBOMSTANDARDJIS
  2
AcmBOMStdJIS
  3
"Amdt_StdImp|Product Description: AutoCAD Mechanical 2004 DX|Company: Autodesk"
 90
        0
280
     0
281
     0
  0
CLASS
  1
ACMDETAILSTANDARDJIS
  2
AmdtDetailSymStdJIS
  3
"Amdt_StdImp|Product Description: AutoCAD Mechanical 2004 DX|Company: Autodesk"
 90
        0
280
     0
281
     0
  0
CLASS
  1
ACMSECTIONSTANDARDJIS
  2
AmdtSectionSymStdJIS
  3
"Amdt_StdImp|Product Description: AutoCAD Mechanical 2004 DX|Company: Autodesk"
 90
        0
280
     0
281
     0
  0
CLASS
  1
ACMCENTERLINESTANDARDJIS
  2
AmdtCenterLineStdJIS
  3
"Amdt_StdImp|Product Description: AutoCAD Mechanical 2004 DX|Company: Autodesk"
 90
        0
280
     0
281
     0
  0
CLASS
  1
ACMTHREADLINESTANDARDJIS
  2
AmdtThreadLineStdJIS
  3
"Amdt_StdImp|Product Description: AutoCAD Mechanical 2004 DX|Company: Autodesk"
 90
        0
280
     0
281
     0
  0
CLASS
  1
ACMNOTESTANDARDJIS
  2
AmdtNoteStdJIS
  3
"Amdt_StdImp|Product Description: AutoCAD Mechanical 2004 DX|Company: Autodesk"
 90
        0
280
     0
281
     0
  0
CLASS
  1
ACAMGHOLECHARTSTDJIS
  2
AcAmgHoleChartStdJIS
  3
ACMSYMBB_MODULE_NAME
 90
        0
280
     0
281
     0
  0
CLASS
  1
ACRFATTGENMGR
  2
AcRfAttGeneralMgr
  3
AcAttribServices
 90
    32768
280
     0
281
     0
  0
ENDSEC
  0
SECTION
  2
TABLES
  0
TABLE
  2
VPORT
  5
8
330
0
100
AcDbSymbolTable
 70
     3
  0
VPORT
  5
8CA
330
8
100
AcDbSymbolTableRecord
100
AcDbViewportTableRecord
  2
*Active
 70
     0
 10
0.0
 20
0.0
 11
1.0
 21
1.0
 12
112.6359566750889
 22
85.92633881446245
 13
0.0
 23
0.0
 14
2.5
 24
2.5
 15
10.0
 25
10.0
 16
0.0
 26
0.0
 36
1.0
 17
0.0
 27
0.0
 37
0.0
 40
359.7552832736014
 41
1.954070981210856
 42
50.0
 43
0.0
 44
0.0
 50
0.0
 51
0.0
 71
     0
 72
   100
 73
     1
 74
     3
 75
     0
 76
     0
 77
     0
 78
     0
281
     0
 65
     1
110
0.0
120
0.0
130
0.0
111
1.0
121
0.0
131
0.0
112
0.0
122
1.0
132
0.0
 79
     0
146
0.0
  0
ENDTAB
  0
TABLE
  2
LTYPE
  5
5
330
0
100
AcDbSymbolTable
 70
    16
  0
LTYPE
  5
14
330
5
100
AcDbSymbolTableRecord
100
AcDbLinetypeTableRecord
  2
ByBlock
 70
     0
  3

 72
    65
 73
     0
 40
0.0
  0
LTYPE
  5
15
330
5
100
AcDbSymbolTableRecord
100
AcDbLinetypeTableRecord
  2
ByLayer
 70
     0
  3

 72
    65
 73
     0
 40
0.0
  0
LTYPE
  5
16
330
5
100
AcDbSymbolTableRecord
100
AcDbLinetypeTableRecord
  2
Continuous
 70
     0
  3
Solid line
 72
    65
 73
     0
 40
0.0
  0
LTYPE
  5
64
330
5
100
AcDbSymbolTableRecord
100
AcDbLinetypeTableRecord
  2
AM_ISO02W050
 70
     0
  3
__ __ __ __ __ __ __ __ __ __ __ __ __ __ __
 72
    65
 73
     2
 40
7.5
 49
6.0
 74
     0
 49
-1.5
 74
     0
  0
LTYPE
  5
65
330
5
100
AcDbSymbolTableRecord
100
AcDbLinetypeTableRecord
  2
AM_ISO08W050
 70
     0
  3
____ . ____ . ____ . ____ . ____ . ____ . ____
 72
    65
 73
     4
 40
18.0
 49
12.0
 74
     0
 49
-1.5
 74
     0
 49
3.0
 74
     0
 49
-1.5
 74
     0
  0
LTYPE
  5
66
330
5
100
AcDbSymbolTableRecord
100
AcDbLinetypeTableRecord
  2
AM_ISO09W050
 70
     0
  3
_____ . . _____ . . _____ . . ____ .. ____
 72
    65
 73
     6
 40
22.5
 49
12.0
 74
     0
 49
-1.5
 74
     0
 49
3.0
 74
     0
 49
-1.5
 74
     0
 49
3.0
 74
     0
 49
-1.5
 74
     0
  0
LTYPE
  5
67
330
5
100
AcDbSymbolTableRecord
100
AcDbLinetypeTableRecord
  2
Amconstr
 70
     0
  3
_______________________
 72
    65
 73
     2
 40
9999.0
 49
9999.0
 74
     0
 49
0.0
 74
     0
  0
LTYPE
  5
68
330
5
100
AcDbSymbolTableRecord
100
AcDbLinetypeTableRecord
  2
AM_ISO08W050x2
 70
     0
  3
__ . __ . __ . __ . __ . __
 72
    65
 73
     4
 40
9.0
 49
6.0
 74
     0
 49
-0.75
 74
     0
 49
1.5
 74
     0
 49
-0.75
 74
     0
  0
LTYPE
  5
69
330
5
100
AcDbSymbolTableRecord
100
AcDbLinetypeTableRecord
  2
AM_ISO02W050x2
 70
     0
  3
 _ _ _ _ _ _ _ _ _ _ _ _
 72
    65
 73
     2
 40
3.75
 49
3.0
 74
     0
 49
-0.75
 74
     0
  0
LTYPE
  5
6C
330
5
100
AcDbSymbolTableRecord
100
AcDbLinetypeTableRecord
  2
Amzigzag
 70
     0
  3
/\/-/\/-/\/-/\/-/\/-/\/
 72
    65
 73
     2
 40
11.0001
 49
0.0001
 74
     4
 75
   135
340
6B
 46
0.04
 50
0.0
 44
0.0
 45
0.0
 49
-11.0
 74
     0
  0
LTYPE
  5
7A
330
5
100
AcDbSymbolTableRecord
100
AcDbLinetypeTableRecord
  2
ACISOWELD
 70
     0
  3
_ _ _ _ _
 72
    65
 73
     2
 40
2.0
 49
2.0
 74
     0
 49
-1.0
 74
     0
  0
LTYPE
  5
7B
330
5
100
AcDbSymbolTableRecord
100
AcDbLinetypeTableRecord
  2
ACISOTGB
 70
     0
  3
__ . . __ . .
 72
    65
 73
     6
 40
9.0
 49
4.0
 74
     0
 49
-1.0
 74
     0
 49
1.0
 74
     0
 49
-1.0
 74
     0
 49
1.0
 74
     0
 49
-1.0
 74
     0
  0
LTYPE
  5
7C
330
5
100
AcDbSymbolTableRecord
100
AcDbLinetypeTableRecord
  2
ACISOTGL
 70
     0
  3
_ _ _ _ _
 72
    65
 73
     2
 40
3.0
 49
2.0
 74
     0
 49
-1.0
 74
     0
  0
LTYPE
  5
7E
330
5
100
AcDbSymbolTableRecord
100
AcDbLinetypeTableRecord
  2
CENTER
 70
     0
  3
__ . __
 72
    65
 73
     4
 40
7.0
 49
4.0
 74
     0
 49
-1.0
 74
     0
 49
1.0
 74
     0
 49
-1.0
 74
     0
  0
LTYPE
  5
D8
330
5
100
AcDbSymbolTableRecord
100
AcDbLinetypeTableRecord
  2
HIDDEN
 70
     0
  3
Hidden __ __ __ __ __ __ __ __ __ __ __ __ __ _
 72
    65
 73
     2
 40
9.524999999999996
 49
6.349999999999998
 74
     0
 49
-3.174999999999998
 74
     0
  0
LTYPE
  5
D9
330
5
100
AcDbSymbolTableRecord
100
AcDbLinetypeTableRecord
  2
PHANTOM2
 70
     0
  3
Phantom (.5x) ___ _ _ ___ _ _ ___ _ _ ___ _ _
 72
    65
 73
     6
 40
31.75
 49
15.875
 74
     0
 49
-3.174999999999998
 74
     0
 49
3.174999999999998
 74
     0
 49
-3.174999999999998
 74
     0
 49
3.174999999999998
 74
     0
 49
-3.174999999999998
 74
     0
  0
LTYPE
  5
207
330
5
100
AcDbSymbolTableRecord
100
AcDbLinetypeTableRecord
  2
ACJISTGB
 70
     0
  3
__ . . __ . .
 72
    65
 73
     6
 40
9.0
 49
4.0
 74
     0
 49
-1.0
 74
     0
 49
1.0
 74
     0
 49
-1.0
 74
     0
 49
1.0
 74
     0
 49
-1.0
 74
     0
  0
LTYPE
  5
208
330
5
100
AcDbSymbolTableRecord
100
AcDbLinetypeTableRecord
  2
ACJISTGL
 70
     0
  3
_ _ _ _ _
 72
    65
 73
     2
 40
3.0
 49
2.0
 74
     0
 49
-1.0
 74
     0
  0
ENDTAB
  0
TABLE
  2
LAYER
  5
2
102
{ACAD_XDICTIONARY
360
217
102
}
330
0
100
AcDbSymbolTable
 70
     3
  0
LAYER
  5
10
330
2
100
AcDbSymbolTableRecord
100
AcDbLayerTableRecord
  2
0
 70
     0
 62
     7
  6
Continuous
370
    -3
390
F
  0
LAYER
  5
1B0
330
2
100
AcDbSymbolTableRecord
100
AcDbLayerTableRecord
  2
AM_5
 70
     0
 62
     3
  6
Continuous
370
    25
390
F
  0
LAYER
  5
1FD
330
2
100
AcDbSymbolTableRecord
100
AcDbLayerTableRecord
  2
AM_0
 70
     0
 62
     7
  6
Continuous
370
    50
390
F
  0
ENDTAB
  0
TABLE
  2
STYLE
  5
3
330
0
100
AcDbSymbolTable
 70
     9
  0
STYLE
  5
11
330
3
100
AcDbSymbolTableRecord
100
AcDbTextStyleTableRecord
  2
STANDARD
 70
     0
 40
0.0
 41
1.0
 50
0.0
 71
     0
 42
2.5
  3
ISOCP.SHX
  4
extfont.shx
  0
STYLE
  5
6B
330
3
100
AcDbSymbolTableRecord
100
AcDbTextStyleTableRecord
  2

 70
     1
 40
0.0
 41
1.0
 50
0.0
 71
     0
 42
2.5
  3
ltypeshp.shx
  4

  0
STYLE
  5
6D
330
3
100
AcDbSymbolTableRecord
100
AcDbTextStyleTableRecord
  2
ACISOTS
 70
     0
 40
1.0
 41
1.0
 50
0.0
 71
     0
 42
1.0
  3
isocp.shx
  4
extfont.shx
  0
STYLE
  5
79
330
3
100
AcDbSymbolTableRecord
100
AcDbTextStyleTableRecord
  2
ACISOGDT
 70
     0
 40
0.0
 41
1.0
 50
0.0
 71
     0
 42
2.5
  3
amgdt.shx
  4
extfont.shx
  0
STYLE
  5
1F8
330
3
100
AcDbSymbolTableRecord
100
AcDbTextStyleTableRecord
  2
USER1
 70
     0
 40
0.0
 41
1.0
 50
0.0
 71
     0
 42
1.0
  3
TXT.SHX
  4

  0
STYLE
  5
1F9
330
3
100
AcDbSymbolTableRecord
100
AcDbTextStyleTableRecord
  2
USER2
 70
     0
 40
0.0
 41
1.0
 50
0.0
 71
     0
 42
1.0
  3
SIMPLEX.SHX
  4

  0
STYLE
  5
1FA
330
3
100
AcDbSymbolTableRecord
100
AcDbTextStyleTableRecord
  2
USER3
 70
     0
 40
0.0
 41
1.0
 50
0.0
 71
     0
 42
1.0
  3
ITALIC.SHX
  4

  0
STYLE
  5
1FB
330
3
100
AcDbSymbolTableRecord
100
AcDbTextStyleTableRecord
  2
ACJISTS
 70
     0
 40
1.0
 41
1.0
 50
0.0
 71
     0
 42
2.5
  3
isocp.shx
  4
extfont.shx
  0
STYLE
  5
1FC
330
3
100
AcDbSymbolTableRecord
100
AcDbTextStyleTableRecord
  2
ACJISGDT
 70
     0
 40
0.0
 41
1.0
 50
0.0
 71
     0
 42
2.5
  3
amgdt.shx
  4
extfont.shx
  0
ENDTAB
  0
TABLE
  2
VIEW
  5
6
330
0
100
AcDbSymbolTable
 70
     0
  0
ENDTAB
  0
TABLE
  2
UCS
  5
7
330
0
100
AcDbSymbolTable
 70
     0
  0
ENDTAB
  0
TABLE
  2
APPID
  5
9
330
0
100
AcDbSymbolTable
 70
    16
  0
APPID
  5
12
330
9
100
AcDbSymbolTableRecord
100
AcDbRegAppTableRecord
  2
ACAD
 70
     0
  0
APPID
  5
46
330
9
100
AcDbSymbolTableRecord
100
AcDbRegAppTableRecord
  2
MCAD_NO_VIS
 70
     0
  0
APPID
  5
47
330
9
100
AcDbSymbolTableRecord
100
AcDbRegAppTableRecord
  2
ACAD_TEMP_GRAPHIC
 70
     0
  0
APPID
  5
58
330
9
100
AcDbSymbolTableRecord
100
AcDbRegAppTableRecord
  2
ACATTRIBSERVICES
 70
     0
  0
APPID
  5
EE
330
9
100
AcDbSymbolTableRecord
100
AcDbRegAppTableRecord
  2
AD_DRAW
 70
     0
  0
APPID
  5
10C
330
9
100
AcDbSymbolTableRecord
100
AcDbRegAppTableRecord
  2
DESIGNERASSEMBLIES
 70
     0
  0
APPID
  5
111
330
9
100
AcDbSymbolTableRecord
100
AcDbRegAppTableRecord
  2
ACADM_DIM_EDIT
 70
     0
  0
APPID
  5
112
330
9
100
AcDbSymbolTableRecord
100
AcDbRegAppTableRecord
  2
AMDT_DM_ADJ
 70
     0
  0
APPID
  5
20F
330
9
100
AcDbSymbolTableRecord
100
AcDbRegAppTableRecord
  2
GENIUS_GENODEF_13
 70
     0
  0
APPID
  5
210
330
9
100
AcDbSymbolTableRecord
100
AcDbRegAppTableRecord
  2
GENIUS_GENOBJ-N-FIL_13
 70
     0
  0
APPID
  5
211
330
9
100
AcDbSymbolTableRecord
100
AcDbRegAppTableRecord
  2
GENIUS_GENOREF_13
 70
     0
  0
APPID
  5
212
330
9
100
AcDbSymbolTableRecord
100
AcDbRegAppTableRecord
  2
GENIUS_GENOBJ-N-CEN_13
 70
     0
  0
APPID
  5
213
330
9
100
AcDbSymbolTableRecord
100
AcDbRegAppTableRecord
  2
GENIUS_GENCEN_19
 70
     0
  0
APPID
  5
214
330
9
100
AcDbSymbolTableRecord
100
AcDbRegAppTableRecord
  2
GENIUS_GENFIL_13
 70
     0
  0
APPID
  5
215
330
9
100
AcDbSymbolTableRecord
100
AcDbRegAppTableRecord
  2
GENIUS_GENOBJ-N-CHA_13
 70
     0
  0
APPID
  5
216
330
9
100
AcDbSymbolTableRecord
100
AcDbRegAppTableRecord
  2
ACAD_PSEXT
 70
     0
  0
ENDTAB
  0
TABLE
  2
DIMSTYLE
  5
A
330
0
100
AcDbSymbolTable
 70
    15
100
AcDbDimStyleTable
 71
     2
340
81
340
1FE
  0
DIMSTYLE
105
27
330
A
100
AcDbSymbolTableRecord
100
AcDbDimStyleTableRecord
  2
ISO-25
 70
     0
 41
2.5
 42
0.625
 43
3.75
 44
1.25
 73
     0
 74
     0
 77
     1
 78
     8
140
2.5
141
2.5
143
0.03937007874016
147
0.625
171
     3
172
     1
271
     2
272
     2
274
     3
278
    44
283
     0
284
     8
340
11
  0
DIMSTYLE
105
81
330
A
100
AcDbSymbolTableRecord
100
AcDbDimStyleTableRecord
  2
AM_ISO
 70
     0
  4
"
 41
2.5
 42
1.0
 43
10.0
 44
1.0
 47
0.1
 48
0.1
 73
     0
 74
     0
 77
     1
 78
     8
 79
     2
140
3.5
141
0.0
143
0.0393701
146
0.71
147
1.5
172
     1
176
   256
177
   256
178
     2
271
     2
272
     3
274
     4
283
     0
284
     8
340
11
371
    -1
372
    -1
  0
DIMSTYLE
105
82
330
A
100
AcDbSymbolTableRecord
100
AcDbDimStyleTableRecord
  2
AM_ISO$3
 70
     0
  4
"
 41
2.5
 42
1.0
 43
10.0
 44
1.0
 47
0.1
 48
0.1
 73
     0
 77
     1
 78
     8
 79
     2
140
3.5
141
0.0
143
0.0393701
146
0.71
147
1.5
176
   256
177
   256
178
     2
271
     2
272
     3
274
     4
283
     0
284
     8
288
     1
289
     0
340
11
371
    -1
372
    -1
  0
DIMSTYLE
105
83
330
A
100
AcDbSymbolTableRecord
100
AcDbDimStyleTableRecord
  2
AM_ISO$4
 70
     0
  4
"
 41
2.5
 42
1.0
 43
10.0
 44
1.0
 47
0.1
 48
0.1
 73
     0
 77
     1
 78
     8
 79
     2
140
3.5
141
0.0
143
0.0393701
146
0.71
147
1.5
176
   256
177
   256
178
     2
271
     2
272
     3
274
     4
283
     0
284
     8
288
     1
289
     0
340
11
371
    -1
372
    -1
  0
DIMSTYLE
105
84
330
A
100
AcDbSymbolTableRecord
100
AcDbDimStyleTableRecord
  2
AM_ISO$6
 70
     0
  4
"
 41
2.5
 42
1.0
 43
10.0
 44
1.0
 47
0.1
 48
0.1
 73
     0
 74
     0
 78
     8
 79
     2
140
3.5
141
0.0
143
0.0393701
146
0.71
147
1.5
172
     1
176
   256
177
   256
178
     2
271
     2
272
     3
274
     4
283
     0
284
     8
340
11
371
    -1
372
    -1
  0
DIMSTYLE
105
85
330
A
100
AcDbSymbolTableRecord
100
AcDbDimStyleTableRecord
  2
AM_ISO$7
 70
     0
  4
"
 41
2.5
 42
1.0
 43
10.0
 44
1.0
 47
0.1
 48
0.1
 73
     0
 74
     0
 77
     1
 78
     8
 79
     2
140
5.0
141
0.0
143
0.0393701
146
0.71
147
1.5
172
     1
176
   256
177
   256
178
     2
271
     2
272
     3
274
     4
283
     0
284
     8
340
11
371
    -1
372
    -1
  0
DIMSTYLE
105
86
330
A
100
AcDbSymbolTableRecord
100
AcDbDimStyleTableRecord
  2
AM_ISO$SF
 70
     0
  4
"
 41
2.5
 42
1.0
 43
10.0
 44
1.0
 47
0.1
 48
0.1
 73
     0
 74
     0
 75
     1
 76
     1
 77
     1
 78
     8
 79
     2
140
3.5
141
0.0
143
0.0393701
146
0.71
147
1.5
172
     1
176
   256
177
   256
178
     2
271
     2
272
     3
274
     4
283
     0
284
     8
340
11
371
    -1
372
    -1
  0
DIMSTYLE
105
8B
330
A
100
AcDbSymbolTableRecord
100
AcDbDimStyleTableRecord
  2
AM_ISO$SH
 70
     0
  4
"
 41
2.5
 42
1.0
 43
10.0
 44
1.0
 47
0.1
 48
0.1
 73
     0
 74
     0
 75
     1
 76
     1
 77
     1
 78
     8
 79
     2
140
3.5
141
0.0
143
0.0393701
144
2.0
146
0.71
147
1.5
172
     1
173
     1
176
   256
177
   256
178
     2
271
     2
272
     3
274
     4
283
     0
284
     8
340
11
343
87
371
    -1
372
    -1
  0
DIMSTYLE
105
1FE
330
A
100
AcDbSymbolTableRecord
100
AcDbDimStyleTableRecord
  2
AM_JIS
 70
     0
  4
"
 41
2.5
 42
1.0
 43
10.0
 44
1.0
 47
0.1
 48
0.1
 73
     0
 74
     0
 77
     3
 78
     8
 79
     2
140
3.5
141
0.0
143
0.0393701
146
0.71
147
1.5
172
     1
176
   256
177
   256
178
     2
271
     2
272
     3
274
     4
283
     0
284
     8
340
11
341
1FF
342
1FF
343
1FF
344
1FF
371
    -1
372
    -1
  0
DIMSTYLE
105
209
330
A
100
AcDbSymbolTableRecord
100
AcDbDimStyleTableRecord
  2
AM_JIS$3
 70
     0
  4
"
 41
2.5
 42
1.0
 43
10.0
 44
1.0
 47
0.1
 48
0.1
 73
     0
 77
     3
 78
     8
 79
     2
140
3.5
141
0.0
143
0.0393701
146
0.71
147
1.5
176
   256
177
   256
178
     2
271
     2
272
     3
274
     4
283
     0
284
     8
288
     1
289
     0
340
11
341
1FF
342
1FF
343
1FF
344
1FF
371
    -1
372
    -1
  0
DIMSTYLE
105
20A
330
A
100
AcDbSymbolTableRecord
100
AcDbDimStyleTableRecord
  2
AM_JIS$4
 70
     0
  4
"
 41
2.5
 42
1.0
 43
10.0
 44
1.0
 47
0.1
 48
0.1
 73
     0
 77
     3
 78
     8
 79
     2
140
3.5
141
0.0
143
0.0393701
146
0.71
147
1.5
176
   256
177
   256
178
     2
271
     2
272
     3
274
     4
283
     0
284
     8
288
     1
289
     0
340
11
341
1FF
342
1FF
343
1FF
344
1FF
371
    -1
372
    -1
  0
DIMSTYLE
105
20B
330
A
100
AcDbSymbolTableRecord
100
AcDbDimStyleTableRecord
  2
AM_JIS$6
 70
     0
  4
"
 41
2.5
 42
1.0
 43
10.0
 44
1.0
 47
0.1
 48
0.1
 73
     0
 74
     0
 78
     8
 79
     2
140
3.5
141
0.0
143
0.0393701
146
0.71
147
1.5
172
     1
176
   256
177
   256
178
     2
271
     2
272
     3
274
     4
283
     0
284
     8
340
11
341
1FF
342
1FF
343
1FF
344
1FF
371
    -1
372
    -1
  0
DIMSTYLE
105
20C
330
A
100
AcDbSymbolTableRecord
100
AcDbDimStyleTableRecord
  2
AM_JIS$7
 70
     0
  4
"
 41
2.5
 42
1.0
 43
10.0
 44
1.0
 47
0.1
 48
0.1
 73
     0
 74
     0
 77
     3
 78
     8
 79
     2
140
3.5
141
0.0
143
0.0393701
146
0.71
147
1.5
172
     1
176
   256
177
   256
178
     2
271
     2
272
     3
274
     4
283
     0
284
     8
340
11
341
1FF
342
1FF
343
1FF
344
1FF
371
    -1
372
    -1
  0
DIMSTYLE
105
20D
330
A
100
AcDbSymbolTableRecord
100
AcDbDimStyleTableRecord
  2
AM_JIS$SF
 70
     0
  4
"
 41
2.5
 42
1.0
 43
10.0
 44
1.0
 47
0.1
 48
0.1
 73
     0
 74
     0
 75
     1
 76
     1
 77
     3
 78
     8
 79
     2
140
3.5
141
0.0
143
0.0393701
146
0.71
147
1.5
172
     1
176
   256
177
   256
178
     2
271
     2
272
     3
274
     4
283
     0
284
     8
340
11
341
1FF
342
1FF
343
1FF
344
1FF
371
    -1
372
    -1
  0
DIMSTYLE
105
20E
330
A
100
AcDbSymbolTableRecord
100
AcDbDimStyleTableRecord
  2
AM_JIS$SH
 70
     0
  4
"
 41
2.5
 42
1.0
 43
10.0
 44
1.0
 47
0.1
 48
0.1
 73
     0
 74
     0
 75
     1
 76
     1
 77
     3
 78
     8
 79
     2
140
3.5
141
0.0
143
0.0393701
144
2.0
146
0.71
147
1.5
172
     1
173
     1
176
   256
177
   256
178
     2
271
     2
272
     3
274
     4
283
     0
284
     8
340
11
341
1FF
342
1FF
343
87
344
1FF
371
    -1
372
    -1
  0
ENDTAB
  0
TABLE
  2
BLOCK_RECORD
  5
1
330
0
100
AcDbSymbolTable
 70
     4
  0
BLOCK_RECORD
  5
1F
102
{ACAD_XDICTIONARY
360
8F
102
}
330
1
100
AcDbSymbolTableRecord
100
AcDbBlockTableRecord
  2
*Model_Space
340
22
  0
BLOCK_RECORD
  5
1B
330
1
100
AcDbSymbolTableRecord
100
AcDbBlockTableRecord
  2
*Paper_Space
340
1E
  0
BLOCK_RECORD
  5
23
330
1
100
AcDbSymbolTableRecord
100
AcDbBlockTableRecord
  2
*Paper_Space0
340
26
  0
BLOCK_RECORD
  5
87
330
1
100
AcDbSymbolTableRecord
100
AcDbBlockTableRecord
  2
GENAXEH
340
0
  0
BLOCK_RECORD
  5
1FF
330
1
100
AcDbSymbolTableRecord
100
AcDbBlockTableRecord
  2
_Open30
340
0
  0
ENDTAB
  0
ENDSEC
  0
SECTION
  2
BLOCKS
  0
BLOCK
  5
20
330
1F
100
AcDbEntity
  8
0
100
AcDbBlockBegin
  2
*Model_Space
 70
     0
 10
0.0
 20
0.0
 30
0.0
  3
*Model_Space
  1

  0
ENDBLK
  5
21
330
1F
100
AcDbEntity
  8
0
100
AcDbBlockEnd
  0
BLOCK
  5
1C
330
1B
100
AcDbEntity
 67
     1
  8
0
100
AcDbBlockBegin
  2
*Paper_Space
 70
     0
 10
0.0
 20
0.0
 30
0.0
  3
*Paper_Space
  1

  0
ENDBLK
  5
1D
330
1B
100
AcDbEntity
 67
     1
  8
0
100
AcDbBlockEnd
  0
BLOCK
  5
24
330
23
100
AcDbEntity
  8
0
100
AcDbBlockBegin
  2
*Paper_Space0
 70
     0
 10
0.0
 20
0.0
 30
0.0
  3
*Paper_Space0
  1

  0
ENDBLK
  5
25
330
23
100
AcDbEntity
  8
0
100
AcDbBlockEnd
  0
BLOCK
  5
8BE
330
87
100
AcDbEntity
  8
0
100
AcDbBlockBegin
  2
GENAXEH
 70
     0
 10
0.0
 20
0.0
 30
0.0
  3
GENAXEH
  1

  0
LINE
  5
8BF
330
87
100
AcDbEntity
  8
0
100
AcDbLine
 10
-1.0
 20
0.0
 30
0.0
 11
1.0
 21
0.0
 31
0.0
  0
ENDBLK
  5
8C0
330
87
100
AcDbEntity
  8
0
100
AcDbBlockEnd
  0
BLOCK
  5
8B2
330
1FF
100
AcDbEntity
  8
0
100
AcDbBlockBegin
  2
_Open30
 70
     0
 10
0.0
 20
0.0
 30
0.0
  3
_Open30
  1

  0
LINE
  5
8B3
330
1FF
100
AcDbEntity
  8
0
  6
ByBlock
 62
     0
370
    -2
100
AcDbLine
 10
-1.0
 20
0.26794919
 30
0.0
 11
0.0
 21
0.0
 31
0.0
  0
LINE
  5
8B4
330
1FF
100
AcDbEntity
  8
0
  6
ByBlock
 62
     0
370
    -2
100
AcDbLine
 10
0.0
 20
0.0
 30
0.0
 11
-1.0
 21
-0.26794919
 31
0.0
  0
LINE
  5
8B5
330
1FF
100
AcDbEntity
  8
0
  6
ByBlock
 62
     0
370
    -2
100
AcDbLine
 10
0.0
 20
0.0
 30
0.0
 11
-1.0
 21
0.0
 31
0.0
  0
ENDBLK
  5
8B6
330
1FF
100
AcDbEntity
  8
0
100
AcDbBlockEnd
  0
ENDSEC
  0
SECTION
  2
ENTITIES
  0
LINE
  5
52E
330
1F
100
AcDbEntity
  8
0
100
AcDbLine
 10
106.6826495366204
 20
171.0999790181498
 30
0.0
 11
106.6826495366204
 21
72.19997901814688
 31
0.0
  0
LINE
  5
52F
330
1F
100
AcDbEntity
  8
0
100
AcDbLine
 10
105.0826495366204
 20
5.286159450254898
 30
0.0
 11
106.6826495366204
 21
5.286159450254898
 31
0.0
  0
LINE
  5
530
330
1F
100
AcDbEntity
  8
0
100
AcDbLine
 10
105.0826495366206
 20
171.0999790181498
 30
0.0
 11
106.6826495366205
 21
171.0999790181498
 31
0.0
  0
ARC
  5
531
330
1F
100
AcDbEntity
  8
0
100
AcDbCircle
 10
-948.6173504633796
 20
116.9999790181486
 30
0.0
 40
999.5
100
AcDbArc
 50
2.860239960929261
 51
2.860239960929261
  0
ARC
  5
532
330
1F
100
AcDbEntity
  8
0
100
AcDbCircle
 10
24.52764953662043
 20
140.0999790181494
 30
0.0
 40
1.0
100
AcDbArc
 50
175.0000000000001
 51
221.4999999999992
  0
ARC
  5
533
330
1F
100
AcDbEntity
  8
0
100
AcDbCircle
 10
24.52484423471218
 20
140.1028232754017
 30
0.0
 40
1.0
100
AcDbArc
 50
175.0000000000001
 51
221.6211626396135
  0
LINE
  5
534
330
1F
100
AcDbEntity
  8
0
100
AcDbLine
 10
23.93764953662044
 20
144.8549790181494
 30
0.0
 11
23.53264953662044
 21
140.1899790181493
 31
0.0
  0
LINE
  5
535
330
1F
100
AcDbEntity
  8
0
100
AcDbLine
 10
23.93864953662043
 20
144.8549790181494
 30
0.0
 11
23.52864953662042
 21
140.1899790181493
 31
0.0
  0
LINE
  5
536
330
1F
100
AcDbEntity
  8
0
100
AcDbLine
 10
34.57964953662041
 20
150.5549790181494
 30
0.0
 11
34.19964953662044
 21
146.2149790181493
 31
0.0
  0
LINE
  5
537
330
1F
100
AcDbEntity
  8
0
100
AcDbLine
 10
32.15964953662042
 20
150.4349790181493
 30
0.0
 11
31.78964953662042
 21
146.2299790181494
 31
0.0
  0
LINE
  5
538
330
1F
100
AcDbEntity
  8
0
100
AcDbLine
 10
28.89864953662044
 20
146.4449790181494
 30
0.0
 11
29.27364953662044
 21
150.7099790181493
 31
0.0
  0
LINE
  5
539
330
1F
100
AcDbEntity
  8
0
100
AcDbLine
 10
30.97464953662042
 20
150.6999790181493
 30
0.0
 11
30.60464953662041
 21
146.4349790181494
 31
0.0
  0
LINE
  5
53A
330
1F
100
AcDbEntity
  8
0
100
AcDbLine
 10
28.05364953662044
 20
150.5549790181494
 30
0.0
 11
27.67364953662043
 21
146.2149790181493
 31
0.0
  0
LINE
  5
53B
330
1F
100
AcDbEntity
  8
0
100
AcDbLine
 10
37.69264953662044
 20
149.5349790181493
 30
0.0
 11
37.46264953662044
 21
146.9049790181493
 31
0.0
  0
LINE
  5
53C
330
1F
100
AcDbEntity
  8
0
100
AcDbLine
 10
37.15434626486273
 20
149.5131917564644
 30
0.0
 11
36.87264953662042
 21
146.3049790181494
 31
0.0
  0
LINE
  5
53D
330
1F
100
AcDbEntity
  8
0
100
AcDbLine
 10
35.42464953662041
 20
146.4449790181494
 30
0.0
 11
35.79964953662041
 21
150.7099790181493
 31
0.0
  0
LINE
  5
53E
330
1F
100
AcDbEntity
  8
0
100
AcDbLine
 10
32.00964953662043
 20
145.0499790181494
 30
0.0
 11
33.76464953662044
 21
145.0499790181494
 31
0.0
  0
LINE
  5
53F
330
1F
100
AcDbEntity
  8
0
100
AcDbLine
 10
33.87964953662042
 20
146.2499790181494
 30
0.0
 11
32.12964953662042
 21
146.2499790181494
 31
0.0
  0
LINE
  5
540
330
1F
100
AcDbEntity
  8
0
100
AcDbLine
 10
31.05464953662042
 20
139.0999790181494
 30
0.0
 11
33.68464953662041
 21
139.0999790181494
 31
0.0
  0
LINE
  5
541
330
1F
100
AcDbEntity
  8
0
100
AcDbLine
 10
33.51964953662042
 20
140.2999790181493
 30
0.0
 11
31.44964953662043
 21
140.2999790181493
 31
0.0
  0
LINE
  5
542
330
1F
100
AcDbEntity
  8
0
100
AcDbLine
 10
30.46464953662043
 20
144.8549790181494
 30
0.0
 11
30.05464953662042
 21
140.1899790181493
 31
0.0
  0
LINE
  5
543
330
1F
100
AcDbEntity
  8
0
100
AcDbLine
 10
30.46364953662041
 20
144.8549790181494
 30
0.0
 11
30.05864953662044
 21
140.1899790181493
 31
0.0
  0
LINE
  5
544
330
1F
100
AcDbEntity
  8
0
100
AcDbLine
 10
31.68964953662044
 20
145.0849790181493
 30
0.0
 11
31.27964953662041
 21
140.4149790181494
 31
0.0
  0
LINE
  5
545
330
1F
100
AcDbEntity
  8
0
100
AcDbLine
 10
25.16364953662044
 20
145.0849790181493
 30
0.0
 11
24.75364953662043
 21
140.4149790181494
 31
0.0
  0
LINE
  5
546
330
1F
100
AcDbEntity
  8
0
100
AcDbLine
 10
24.52864953662042
 20
139.0999790181494
 30
0.0
 11
27.15864953662043
 21
139.0999790181494
 31
0.0
  0
LINE
  5
547
330
1F
100
AcDbEntity
  8
0
100
AcDbLine
 10
26.99364953662044
 20
140.2999790181493
 30
0.0
 11
24.92364953662043
 21
140.2999790181493
 31
0.0
  0
LINE
  5
548
330
1F
100
AcDbEntity
  8
0
100
AcDbLine
 10
27.83106702659046
 20
139.307112772556
 30
0.0
 11
26.99364953662044
 21
140.2999790181493
 31
0.0
  0
ARC
  5
549
330
1F
100
AcDbEntity
  8
0
100
AcDbCircle
 10
27.15864953662043
 20
140.2949790181494
 30
0.0
 40
1.194999999999998
100
AcDbArc
 50
270.0
 51
304.2422045816798
  0
LINE
  5
54A
330
1F
100
AcDbEntity
  8
0
100
AcDbLine
 10
23.92295147237611
 20
139.3042844442263
 30
0.0
 11
24.92364953662043
 21
140.2999790181493
 31
0.0
  0
LINE
  5
54B
330
1F
100
AcDbEntity
  8
0
100
AcDbLine
 10
23.77729142150251
 20
139.4386209030314
 30
0.0
 11
24.75364953662043
 21
140.4149790181494
 31
0.0
  0
ARC
  5
54C
330
1F
100
AcDbEntity
  8
0
100
AcDbCircle
 10
24.52864953662042
 20
140.0999790181494
 30
0.0
 40
1.0
100
AcDbArc
 50
232.7209092036895
 51
270.0
  0
ARC
  5
54D
330
1F
100
AcDbEntity
  8
0
100
AcDbCircle
 10
31.05464953662042
 20
140.0999790181494
 30
0.0
 40
1.0
100
AcDbArc
 50
232.7209092036895
 51
270.0
  0
LINE
  5
54E
330
1F
100
AcDbEntity
  8
0
100
AcDbLine
 10
30.30329142150249
 20
139.4386209030314
 30
0.0
 11
31.27964953662041
 21
140.4149790181494
 31
0.0
  0
LINE
  5
54F
330
1F
100
AcDbEntity
  8
0
100
AcDbLine
 10
30.4489514723761
 20
139.3042844442263
 30
0.0
 11
31.44964953662043
 21
140.2999790181493
 31
0.0
  0
ARC
  5
550
330
1F
100
AcDbEntity
  8
0
100
AcDbCircle
 10
31.05084423471217
 20
140.1028232754017
 30
0.0
 40
1.0
100
AcDbArc
 50
175.0000000000001
 51
221.6211626396135
  0
ARC
  5
551
330
1F
100
AcDbEntity
  8
0
100
AcDbCircle
 10
31.05364953662044
 20
140.0999790181494
 30
0.0
 40
1.0
100
AcDbArc
 50
175.0000000000001
 51
221.4999999999992
  0
LINE
  5
552
330
1F
100
AcDbEntity
  8
0
100
AcDbLine
 10
28.11364953662043
 20
145.7849790181494
 30
0.0
 11
27.67364953662043
 21
146.2149790181493
 31
0.0
  0
LINE
  5
553
330
1F
100
AcDbEntity
  8
0
100
AcDbLine
 10
27.35364953662044
 20
146.2499790181494
 30
0.0
 11
25.60364953662044
 21
146.2499790181494
 31
0.0
  0
LINE
  5
554
330
1F
100
AcDbEntity
  8
0
100
AcDbLine
 10
25.48364953662043
 20
145.0499790181494
 30
0.0
 11
27.23864953662043
 21
145.0499790181494
 31
0.0
  0
LINE
  5
555
330
1F
100
AcDbEntity
  8
0
100
AcDbLine
 10
24.72364953662043
 20
145.5149790181494
 30
0.0
 11
25.16364953662044
 21
145.0849790181493
 31
0.0
  0
LINE
  5
556
330
1F
100
AcDbEntity
  8
0
100
AcDbLine
 10
24.87864953662043
 20
145.6449790181493
 30
0.0
 11
25.48364953662043
 21
145.0499790181494
 31
0.0
  0
LINE
  5
557
330
1F
100
AcDbEntity
  8
0
100
AcDbLine
 10
24.87864953662043
 20
145.6449790181493
 30
0.0
 11
25.60364953662044
 21
146.2499790181494
 31
0.0
  0
LINE
  5
558
330
1F
100
AcDbEntity
  8
0
100
AcDbLine
 10
27.95864953662043
 20
145.6599790181494
 30
0.0
 11
27.23864953662043
 21
145.0499790181494
 31
0.0
  0
LINE
  5
559
330
1F
100
AcDbEntity
  8
0
100
AcDbLine
 10
27.95864953662043
 20
145.6599790181494
 30
0.0
 11
27.35364953662044
 21
146.2499790181494
 31
0.0
  0
LINE
  5
55A
330
1F
100
AcDbEntity
  8
0
100
AcDbLine
 10
23.93864953662043
 20
144.8549790181494
 30
0.0
 11
24.72364953662043
 21
145.5149790181494
 31
0.0
  0
LINE
  5
55B
330
1F
100
AcDbEntity
  8
0
100
AcDbLine
 10
30.46464953662043
 20
144.8549790181494
 30
0.0
 11
31.24964953662044
 21
145.5149790181494
 31
0.0
  0
LINE
  5
55C
330
1F
100
AcDbEntity
  8
0
100
AcDbLine
 10
31.24964953662044
 20
145.5149790181494
 30
0.0
 11
31.68964953662044
 21
145.0849790181493
 31
0.0
  0
LINE
  5
55D
330
1F
100
AcDbEntity
  8
0
100
AcDbLine
 10
31.40464953662041
 20
145.6449790181493
 30
0.0
 11
32.00964953662043
 21
145.0499790181494
 31
0.0
  0
LINE
  5
55E
330
1F
100
AcDbEntity
  8
0
100
AcDbLine
 10
31.40464953662041
 20
145.6449790181493
 30
0.0
 11
32.12964953662042
 21
146.2499790181494
 31
0.0
  0
LINE
  5
55F
330
1F
100
AcDbEntity
  8
0
100
AcDbLine
 10
31.26464953662044
 20
145.7849790181494
 30
0.0
 11
31.78964953662042
 21
146.2299790181494
 31
0.0
  0
LINE
  5
560
330
1F
100
AcDbEntity
  8
0
100
AcDbLine
 10
31.26464953662044
 20
145.7849790181494
 30
0.0
 11
30.60464953662041
 21
146.4349790181494
 31
0.0
  0
LINE
  5
561
330
1F
100
AcDbEntity
  8
0
100
AcDbLine
 10
28.11364953662043
 20
145.7849790181494
 30
0.0
 11
28.89864953662044
 21
146.4449790181494
 31
0.0
  0
LINE
  5
562
330
1F
100
AcDbEntity
  8
0
100
AcDbLine
 10
39.22973615079366
 20
144.0608057898029
 30
0.0
 11
39.0651692216598
 21
142.1812782307478
 31
0.0
  0
LINE
  5
563
330
1F
100
AcDbEntity
  8
0
100
AcDbLine
 10
39.59568103268342
 20
142.2808845299604
 30
0.0
 11
39.75808260748657
 21
144.1279317740549
 31
0.0
  0
LINE
  5
564
330
1F
100
AcDbEntity
  8
0
100
AcDbLine
 10
37.66851567835269
 20
144.1236010653935
 30
0.0
 11
37.50827945788024
 21
142.276553821299
 31
0.0
  0
LINE
  5
565
330
1F
100
AcDbEntity
  8
0
100
AcDbLine
 10
38.18170465473065
 20
144.0088372858659
 30
0.0
 11
38.02146843425822
 21
142.1877742937399
 31
0.0
  0
LINE
  5
566
330
1F
100
AcDbEntity
  8
0
100
AcDbLine
 10
34.87964953662042
 20
140.1949790181494
 30
0.0
 11
35.28464953662042
 21
144.8699790181494
 31
0.0
  0
LINE
  5
567
330
1F
100
AcDbEntity
  8
0
100
AcDbLine
 10
34.09964953662042
 20
145.0749790181494
 30
0.0
 11
33.69464953662043
 21
140.4099790181494
 31
0.0
  0
CIRCLE
  5
568
330
1F
100
AcDbEntity
  8
0
100
AcDbCircle
 10
36.64764953662042
 20
139.2999790181493
 30
0.0
 40
0.2
  0
ARC
  5
569
330
1F
100
AcDbEntity
  8
0
100
AcDbCircle
 10
33.68421589891034
 20
140.2995659094465
 30
0.0
 40
1.199999999999999
100
AcDbArc
 50
313.6581624010759
 51
355.0000000000002
  0
LINE
  5
56A
330
1F
100
AcDbEntity
  8
0
100
AcDbLine
 10
34.51264129487468
 20
139.4313999208512
 30
0.0
 11
33.69464953662043
 21
140.4099790181494
 31
0.0
  0
LINE
  5
56B
330
1F
100
AcDbEntity
  8
0
100
AcDbLine
 10
34.35706702659047
 20
139.307112772556
 30
0.0
 11
33.51964953662042
 21
140.2999790181493
 31
0.0
  0
ARC
  5
56C
330
1F
100
AcDbEntity
  8
0
100
AcDbCircle
 10
33.68464953662041
 20
140.2949790181494
 30
0.0
 40
1.194999999999998
100
AcDbArc
 50
270.0
 51
304.2422045816798
  0
LINE
  5
56D
330
1F
100
AcDbEntity
  8
0
100
AcDbLine
 10
39.25572040276215
 20
141.9950577583068
 30
0.0
 11
39.0651692216598
 21
142.1812782307478
 31
0.0
  0
LINE
  5
56E
330
1F
100
AcDbEntity
  8
0
100
AcDbLine
 10
39.18859441851017
 20
141.9409239000391
 30
0.0
 11
38.92658654449444
 21
142.1964357110628
 31
0.0
  0
LINE
  5
56F
330
1F
100
AcDbEntity
  8
0
100
AcDbLine
 10
39.25138969410074
 20
141.8781286244485
 30
0.0
 11
39.02186213504562
 21
141.6875774433462
 31
0.0
  0
LINE
  5
570
330
1F
100
AcDbEntity
  8
0
100
AcDbLine
 10
39.18859441851017
 20
141.9409239000391
 30
0.0
 11
38.87678339488814
 21
141.6767506716927
 31
0.0
  0
LINE
  5
571
330
1F
100
AcDbEntity
  8
0
100
AcDbLine
 10
39.53505111142357
 20
141.5987979157872
 30
0.0
 11
39.25138969410074
 21
141.8781286244485
 31
0.0
  0
LINE
  5
572
330
1F
100
AcDbEntity
  8
0
100
AcDbLine
 10
39.25572040276215
 20
141.9950577583068
 30
0.0
 11
39.59568103268342
 21
142.2808845299604
 31
0.0
  0
ARC
  5
573
330
1F
100
AcDbEntity
  8
0
100
AcDbCircle
 10
38.84194992973812
 20
139.6194851521757
 30
0.0
 40
0.5196850393700787
100
AcDbArc
 50
313.6581624010759
 51
355.0000000000002
  0
LINE
  5
574
330
1F
100
AcDbEntity
  8
0
100
AcDbLine
 10
39.35965741063617
 20
139.5741916165746
 30
0.0
 11
39.53505111142357
 21
141.5987979157872
 31
0.0
  0
LINE
  5
575
330
1F
100
AcDbEntity
  8
0
100
AcDbLine
 10
37.78761016654167
 20
141.8781286244485
 30
0.0
 11
37.97816134764403
 21
141.6919081520076
 31
0.0
  0
LINE
  5
576
330
1F
100
AcDbEntity
  8
0
100
AcDbLine
 10
37.79410622953381
 20
141.9950577583068
 30
0.0
 11
38.02146843425822
 21
142.1877742937399
 31
0.0
  0
LINE
  5
577
330
1F
100
AcDbEntity
  8
0
100
AcDbLine
 10
37.44764953662043
 20
141.592301852795
 30
0.0
 11
37.78761016654167
 21
141.8781286244485
 31
0.0
  0
LINE
  5
578
330
1F
100
AcDbEntity
  8
0
100
AcDbLine
 10
37.79410622953381
 20
141.9950577583068
 30
0.0
 11
37.50827945788024
 21
142.276553821299
 31
0.0
  0
LINE
  5
579
330
1F
100
AcDbEntity
  8
0
100
AcDbLine
 10
37.85473615079366
 20
141.934427837047
 30
0.0
 11
38.11674402480939
 21
141.6767506716927
 31
0.0
  0
LINE
  5
57A
330
1F
100
AcDbEntity
  8
0
100
AcDbLine
 10
37.85473615079366
 20
141.934427837047
 30
0.0
 11
38.16871252874643
 21
142.1964357110628
 31
0.0
  0
LINE
  5
57B
330
1F
100
AcDbEntity
  8
0
100
AcDbLine
 10
38.77068103268341
 20
139.6196640575194
 30
0.0
 11
37.87422433977004
 21
139.6196640575194
 31
0.0
  0
LINE
  5
57C
330
1F
100
AcDbEntity
  8
0
100
AcDbLine
 10
37.70316134764404
 20
139.0999790181494
 30
0.0
 11
38.84213772559681
 21
139.0999790181494
 31
0.0
  0
ARC
  5
57D
330
1F
100
AcDbEntity
  8
0
100
AcDbCircle
 10
37.70272827677791
 20
139.5330498842911
 30
0.0
 40
0.4330708661417324
100
AcDbArc
 50
175.0000000000001
 51
221.4999999999992
  0
ARC
  5
57E
330
1F
100
AcDbEntity
  8
0
100
AcDbCircle
 10
37.70151338225071
 20
139.5342816492429
 30
0.0
 40
0.4330708661417324
100
AcDbArc
 50
175.0000000000001
 51
221.6211626396135
  0
ARC
  5
57F
330
1F
100
AcDbEntity
  8
0
100
AcDbCircle
 10
37.70316134764404
 20
139.5330498842911
 30
0.0
 40
0.4330708661417324
100
AcDbArc
 50
232.7209092036895
 51
270.0
  0
LINE
  5
580
330
1F
100
AcDbEntity
  8
0
100
AcDbLine
 10
37.44085116234137
 20
139.1884577459779
 30
0.0
 11
37.87422433977004
 21
139.6196640575194
 31
0.0
  0
LINE
  5
581
330
1F
100
AcDbEntity
  8
0
100
AcDbLine
 10
37.37777003794731
 20
139.246634952547
 30
0.0
 11
37.80060229252594
 21
139.6694672071257
 31
0.0
  0
LINE
  5
582
330
1F
100
AcDbEntity
  8
0
100
AcDbLine
 10
37.44721646575428
 20
141.592301852795
 30
0.0
 11
37.27182276496686
 21
139.5720262622438
 31
0.0
  0
LINE
  5
583
330
1F
100
AcDbEntity
  8
0
100
AcDbLine
 10
37.44764953662043
 20
141.592301852795
 30
0.0
 11
37.27009048150232
 21
139.5720262622438
 31
0.0
  0
LINE
  5
584
330
1F
100
AcDbEntity
  8
0
100
AcDbLine
 10
37.97816134764403
 20
141.6919081520076
 30
0.0
 11
37.80060229252594
 21
139.6694672071257
 31
0.0
  0
LINE
  5
585
330
1F
100
AcDbEntity
  8
0
100
AcDbLine
 10
38.11674402480939
 20
141.6767506716927
 30
0.0
 11
38.87678339488814
 21
141.6767506716927
 31
0.0
  0
LINE
  5
586
330
1F
100
AcDbEntity
  8
0
100
AcDbLine
 10
38.92658654449444
 20
142.1964357110628
 30
0.0
 11
38.16871252874643
 21
142.1964357110628
 31
0.0
  0
LINE
  5
587
330
1F
100
AcDbEntity
  8
0
100
AcDbLine
 10
39.02186213504562
 20
141.6875774433462
 30
0.0
 11
38.84646843425822
 21
139.667301852795
 31
0.0
  0
LINE
  5
588
330
1F
100
AcDbEntity
  8
0
100
AcDbLine
 10
39.20071683350217
 20
139.2435077555399
 30
0.0
 11
38.84646843425822
 21
139.667301852795
 31
0.0
  0
ARC
  5
589
330
1F
100
AcDbEntity
  8
0
100
AcDbCircle
 10
38.84213772559681
 20
139.6174987031887
 30
0.0
 40
0.5175196850393701
100
AcDbArc
 50
270.0
 51
304.2422045816798
  0
LINE
  5
58A
330
1F
100
AcDbEntity
  8
0
100
AcDbLine
 10
39.13334215038697
 20
139.1896826125775
 30
0.0
 11
38.77068103268341
 21
139.6196640575194
 31
0.0
  0
LINE
  5
58B
330
1F
100
AcDbEntity
  8
0
100
AcDbLine
 10
34.62964953662042
 20
145.5149790181494
 30
0.0
 11
34.09964953662042
 21
145.0749790181494
 31
0.0
  0
LINE
  5
58C
330
1F
100
AcDbEntity
  8
0
100
AcDbLine
 10
34.63964953662044
 20
145.7849790181494
 30
0.0
 11
34.19964953662044
 21
146.2149790181493
 31
0.0
  0
LINE
  5
58D
330
1F
100
AcDbEntity
  8
0
100
AcDbLine
 10
35.28464953662042
 20
144.8699790181494
 30
0.0
 11
34.62964953662042
 21
145.5149790181494
 31
0.0
  0
LINE
  5
58E
330
1F
100
AcDbEntity
  8
0
100
AcDbLine
 10
34.63964953662044
 20
145.7849790181494
 30
0.0
 11
35.42464953662041
 21
146.4449790181494
 31
0.0
  0
LINE
  5
58F
330
1F
100
AcDbEntity
  8
0
100
AcDbLine
 10
34.48464953662041
 20
145.6599790181494
 30
0.0
 11
33.76464953662044
 21
145.0499790181494
 31
0.0
  0
LINE
  5
590
330
1F
100
AcDbEntity
  8
0
100
AcDbLine
 10
34.48464953662041
 20
145.6599790181494
 30
0.0
 11
33.87964953662042
 21
146.2499790181494
 31
0.0
  0
LINE
  5
591
330
1F
100
AcDbEntity
  8
0
100
AcDbLine
 10
39.5271282444804
 20
144.5510564478419
 30
0.0
 11
39.13229520591175
 21
144.0802939787793
 31
0.0
  0
ARC
  5
592
330
1F
100
AcDbEntity
  8
0
100
AcDbCircle
 10
39.32880659542397
 20
144.1653705985124
 30
0.0
 40
0.4309055118110237
100
AcDbArc
 50
355.0156249999998
 51
51.19291966846494
  0
LINE
  5
593
330
1F
100
AcDbEntity
  8
0
100
AcDbLine
 10
39.59885512851683
 20
144.5011582544551
 30
0.0
 11
39.22973615079366
 21
144.0608057898029
 31
0.0
  0
ARC
  5
594
330
1F
100
AcDbEntity
  8
0
100
AcDbCircle
 10
39.32717709567554
 20
144.1669081520077
 30
0.0
 40
0.4330708661417324
100
AcDbArc
 50
62.50279258408536
 51
90.0
  0
LINE
  5
595
330
1F
100
AcDbEntity
  8
0
100
AcDbLine
 10
39.71264953662043
 20
147.2849790181494
 30
0.0
 11
39.20764953662042
 21
146.3049790181494
 31
0.0
  0
LINE
  5
596
330
1F
100
AcDbEntity
  8
0
100
AcDbLine
 10
39.14495501779079
 20
146.9365059264015
 30
0.0
 11
39.54181166893808
 21
147.3484330832885
 31
0.0
  0
LINE
  5
597
330
1F
100
AcDbEntity
  8
0
100
AcDbLine
 10
39.54181166893808
 20
147.3484330832885
 30
0.0
 11
39.71264953662043
 21
147.2849790181494
 31
0.0
  0
LINE
  5
598
330
1F
100
AcDbEntity
  8
0
100
AcDbLine
 10
37.92764953662042
 20
146.4749790181494
 30
0.0
 11
38.32764953662041
 21
146.4749790181494
 31
0.0
  0
ARC
  5
599
330
1F
100
AcDbEntity
  8
0
100
AcDbCircle
 10
38.18820071772279
 20
144.08245933311
 30
0.0
 40
0.5175196850393701
100
AcDbArc
 50
90.0
 51
131.6077059495951
  0
LINE
  5
59A
330
1F
100
AcDbEntity
  8
0
100
AcDbLine
 10
37.84455378708564
 20
144.4694133503613
 30
0.0
 11
38.23367315866766
 21
144.0802939787793
 31
0.0
  0
ARC
  5
59B
330
1F
100
AcDbEntity
  8
0
100
AcDbCircle
 10
38.18622315925077
 20
144.0783075297923
 30
0.0
 40
0.5196850393700787
100
AcDbArc
 50
140.7778921832465
 51
175.0000000000001
  0
LINE
  5
59C
330
1F
100
AcDbEntity
  8
0
100
AcDbLine
 10
37.78362286829699
 20
144.4069190722996
 30
0.0
 11
38.18170465473065
 21
144.0088372858659
 31
0.0
  0
ARC
  5
59D
330
1F
100
AcDbEntity
  8
0
100
AcDbCircle
 10
37.8563371444651
 20
146.8728065543093
 30
0.0
 40
0.395
100
AcDbArc
 50
175.3281249999993
 51
265.8844748645921
  0
LINE
  5
59E
330
1F
100
AcDbEntity
  8
0
100
AcDbLine
 10
36.87264953662042
 20
146.3049790181494
 30
0.0
 11
37.81264953662041
 21
146.3049790181494
 31
0.0
  0
LINE
  5
59F
330
1F
100
AcDbEntity
  8
0
100
AcDbLine
 10
37.91264953662043
 20
146.3049790181494
 30
0.0
 11
37.92764953662042
 21
146.4749790181494
 31
0.0
  0
LINE
  5
5A0
330
1F
100
AcDbEntity
  8
0
100
AcDbLine
 10
37.81264953662041
 20
146.3049790181494
 30
0.0
 11
37.82798889783928
 21
146.478825111963
 31
0.0
  0
LINE
  5
5A1
330
1F
100
AcDbEntity
  8
0
100
AcDbLine
 10
37.91264953662043
 20
146.3049790181494
 30
0.0
 11
39.20764953662042
 21
146.3049790181494
 31
0.0
  0
LINE
  5
5A2
330
1F
100
AcDbEntity
  8
0
100
AcDbLine
 10
39.32717709567554
 20
144.5999790181494
 30
0.0
 11
38.18820071772279
 21
144.5999790181494
 31
0.0
  0
LINE
  5
5A3
330
1F
100
AcDbEntity
  8
0
100
AcDbLine
 10
38.23367315866767
 20
144.0802939787793
 30
0.0
 11
39.13229520591178
 21
144.0802939787793
 31
0.0
  0
ARC
  5
5A4
330
1F
100
AcDbEntity
  8
0
100
AcDbCircle
 10
37.88438117808143
 20
148.2143864351503
 30
0.0
 40
1.794999999999999
100
AcDbArc
 50
284.2968749999993
 51
314.6093749999996
  0
LINE
  5
5A5
330
1F
100
AcDbEntity
  8
0
100
AcDbLine
 10
34.80464953662043
 20
151.7999790181494
 30
0.0
 11
32.17464953662042
 21
151.7999790181494
 31
0.0
  0
LINE
  5
5A6
330
1F
100
AcDbEntity
  8
0
100
AcDbLine
 10
32.27964953662041
 20
150.5999790181494
 30
0.0
 11
34.35464953662041
 21
150.5999790181494
 31
0.0
  0
LINE
  5
5A7
330
1F
100
AcDbEntity
  8
0
100
AcDbLine
 10
28.27864953662043
 20
151.7999790181494
 30
0.0
 11
25.64864953662044
 21
151.7999790181494
 31
0.0
  0
LINE
  5
5A8
330
1F
100
AcDbEntity
  8
0
100
AcDbLine
 10
28.74035491658802
 20
151.687012355803
 30
0.0
 11
27.82864953662044
 21
150.5999790181493
 31
0.0
  0
LINE
  5
5A9
330
1F
100
AcDbEntity
  8
0
100
AcDbLine
 10
25.75364953662044
 20
150.5999790181494
 30
0.0
 11
27.82864953662044
 21
150.5999790181494
 31
0.0
  0
ARC
  5
5AA
330
1F
100
AcDbEntity
  8
0
100
AcDbCircle
 10
25.64864953662044
 20
150.6049790181493
 30
0.0
 40
1.194999999999998
100
AcDbArc
 50
90.0
 51
131.6077059495951
  0
LINE
  5
5AB
330
1F
100
AcDbEntity
  8
0
100
AcDbLine
 10
24.85513753314923
 20
151.4984910216206
 30
0.0
 11
25.75364953662043
 21
150.5999790181493
 31
0.0
  0
ARC
  5
5AC
330
1F
100
AcDbEntity
  8
0
100
AcDbCircle
 10
32.17464953662042
 20
150.6049790181493
 30
0.0
 40
1.194999999999998
100
AcDbArc
 50
90.0
 51
131.6077059495951
  0
LINE
  5
5AD
330
1F
100
AcDbEntity
  8
0
100
AcDbLine
 10
31.38113753314922
 20
151.4984910216206
 30
0.0
 11
32.27964953662041
 21
150.5999790181493
 31
0.0
  0
LINE
  5
5AE
330
1F
100
AcDbEntity
  8
0
100
AcDbLine
 10
31.24044250249176
 20
151.354186052278
 30
0.0
 11
32.15964953662042
 21
150.4349790181493
 31
0.0
  0
ARC
  5
5AF
330
1F
100
AcDbEntity
  8
0
100
AcDbCircle
 10
32.17008317433052
 20
150.5953921268521
 30
0.0
 40
1.199999999999999
100
AcDbArc
 50
140.7778921832465
 51
175.0000000000001
  0
LINE
  5
5B0
330
1F
100
AcDbEntity
  8
0
100
AcDbLine
 10
28.90597881245397
 20
151.5717928910736
 30
0.0
 11
28.05364953662044
 21
150.5549790181494
 31
0.0
  0
ARC
  5
5B1
330
1F
100
AcDbEntity
  8
0
100
AcDbCircle
 10
28.27864953662043
 20
150.7999790181493
 30
0.0
 40
1.0
100
AcDbArc
 50
62.50279258408536
 51
90.0
  0
ARC
  5
5B2
330
1F
100
AcDbEntity
  8
0
100
AcDbCircle
 10
28.28241219967592
 20
150.7964286673512
 30
0.0
 40
0.9949999999999995
100
AcDbArc
 50
355.0156249999998
 51
51.19291966846494
  0
ARC
  5
5B3
330
1F
100
AcDbEntity
  8
0
100
AcDbCircle
 10
36.84117627672995
 20
151.2614705339759
 30
0.0
 40
0.3537467972984882
100
AcDbArc
 50
32.18523139480581
 51
121.7888691311793
  0
ARC
  5
5B4
330
1F
100
AcDbEntity
  8
0
100
AcDbCircle
 10
36.76770845086115
 20
151.0027007430655
 30
0.0
 40
0.175
100
AcDbArc
 50
213.734374999999
 51
300.1093749999989
  0
ARC
  5
5B5
330
1F
100
AcDbEntity
  8
0
100
AcDbCircle
 10
36.74754889502374
 20
150.9274390883593
 30
0.0
 40
0.3521804863571374
100
AcDbArc
 50
214.5537027862328
 51
299.9227645855494
  0
ARC
  5
5B6
330
1F
100
AcDbEntity
  8
0
100
AcDbCircle
 10
36.8701506237848
 20
151.065306034116
 30
0.0
 40
0.295
100
AcDbArc
 50
120.5937499999999
 51
212.7968750000014
  0
LINE
  5
5B7
330
1F
100
AcDbEntity
  8
0
100
AcDbLine
 10
36.98264953662043
 20
152.9999790181494
 30
0.0
 11
35.76264953662043
 21
152.9999790181494
 31
0.0
  0
LINE
  5
5B8
330
1F
100
AcDbEntity
  8
0
100
AcDbLine
 10
36.65264953662042
 20
154.2249790181493
 30
0.0
 11
36.98264953662043
 21
152.9999790181494
 31
0.0
  0
LINE
  5
5B9
330
1F
100
AcDbEntity
  8
0
100
AcDbLine
 10
35.50764953662044
 20
152.7349790181493
 30
0.0
 11
39.01764953662044
 21
152.7349790181493
 31
0.0
  0
LINE
  5
5BA
330
1F
100
AcDbEntity
  8
0
100
AcDbLine
 10
35.26764953662044
 20
152.4749790181493
 30
0.0
 11
39.24264953662044
 21
152.4749790181493
 31
0.0
  0
LINE
  5
5BB
330
1F
100
AcDbEntity
  8
0
100
AcDbLine
 10
39.01764953662044
 20
154.4799790181493
 30
0.0
 11
35.50764953662044
 21
154.4799790181493
 31
0.0
  0
LINE
  5
5BC
330
1F
100
AcDbEntity
  8
0
100
AcDbLine
 10
35.26764953662044
 20
154.7399790181494
 30
0.0
 11
39.24264953662044
 21
154.7399790181494
 31
0.0
  0
LINE
  5
5BD
330
1F
100
AcDbEntity
  8
0
100
AcDbLine
 10
35.76264953662043
 20
154.2249790181493
 30
0.0
 11
36.65264953662042
 21
154.2249790181493
 31
0.0
  0
LINE
  5
5BE
330
1F
100
AcDbEntity
  8
0
100
AcDbLine
 10
35.50764953662044
 20
153.4599790181493
 30
0.0
 11
35.50764953662044
 21
152.7349790181493
 31
0.0
  0
LINE
  5
5BF
330
1F
100
AcDbEntity
  8
0
100
AcDbLine
 10
35.26764953662044
 20
152.4749790181493
 30
0.0
 11
35.26764953662044
 21
153.4599790181493
 31
0.0
  0
LINE
  5
5C0
330
1F
100
AcDbEntity
  8
0
100
AcDbLine
 10
35.26635491658801
 20
151.687012355803
 30
0.0
 11
34.35464953662041
 21
150.5999790181493
 31
0.0
  0
ARC
  5
5C1
330
1F
100
AcDbEntity
  8
0
100
AcDbCircle
 10
34.80841219967591
 20
150.7964286673512
 30
0.0
 40
0.9949999999999995
100
AcDbArc
 50
355.0156249999998
 51
51.19291966846494
  0
LINE
  5
5C2
330
1F
100
AcDbEntity
  8
0
100
AcDbLine
 10
35.43197881245395
 20
151.5717928910736
 30
0.0
 11
34.57964953662041
 21
150.5549790181494
 31
0.0
  0
ARC
  5
5C3
330
1F
100
AcDbEntity
  8
0
100
AcDbCircle
 10
34.80464953662043
 20
150.7999790181493
 30
0.0
 40
1.0
100
AcDbArc
 50
62.50279258408536
 51
90.0
  0
ARC
  5
5C4
330
1F
100
AcDbEntity
  8
0
100
AcDbCircle
 10
36.95764953662042
 20
151.0499790181493
 30
0.0
 40
0.5950000000000001
100
AcDbArc
 50
120.5937499999999
 51
212.7968750000014
  0
LINE
  5
5C5
330
1F
100
AcDbEntity
  8
0
100
AcDbLine
 10
35.50764953662044
 20
153.7599790181493
 30
0.0
 11
35.26764953662044
 21
153.7599790181493
 31
0.0
  0
LINE
  5
5C6
330
1F
100
AcDbEntity
  8
0
100
AcDbLine
 10
35.26764953662044
 20
153.4599790181493
 30
0.0
 11
35.50764953662044
 21
153.4599790181493
 31
0.0
  0
LINE
  5
5C7
330
1F
100
AcDbEntity
  8
0
100
AcDbLine
 10
35.76264953662043
 20
154.2249790181493
 30
0.0
 11
35.76264953662043
 21
152.9999790181494
 31
0.0
  0
LINE
  5
5C8
330
1F
100
AcDbEntity
  8
0
100
AcDbLine
 10
35.50764953662044
 20
154.4799790181493
 30
0.0
 11
35.50764953662044
 21
153.7599790181493
 31
0.0
  0
LINE
  5
5C9
330
1F
100
AcDbEntity
  8
0
100
AcDbLine
 10
35.26764953662044
 20
153.7599790181493
 30
0.0
 11
35.26764953662044
 21
154.7399790181494
 31
0.0
  0
LINE
  5
5CA
330
1F
100
AcDbEntity
  8
0
100
AcDbLine
 10
39.24264953662044
 20
154.2349790181494
 30
0.0
 11
39.24264953662044
 21
154.7399790181494
 31
0.0
  0
LINE
  5
5CB
330
1F
100
AcDbEntity
  8
0
100
AcDbLine
 10
39.76264953662043
 20
154.2349790181494
 30
0.0
 11
39.24264953662044
 21
154.2349790181494
 31
0.0
  0
LINE
  5
5CC
330
1F
100
AcDbEntity
  8
0
100
AcDbLine
 10
39.24264953662044
 20
152.4749790181493
 30
0.0
 11
39.24264953662044
 21
152.9849790181494
 31
0.0
  0
ARC
  5
5CD
330
1F
100
AcDbEntity
  8
0
100
AcDbCircle
 10
37.96482767346184
 20
148.2787382991881
 30
0.0
 40
1.83
100
AcDbArc
 50
41.79687499999971
 51
54.5468749999997
  0
LINE
  5
5CE
330
1F
100
AcDbEntity
  8
0
100
AcDbLine
 10
39.76264953662043
 20
149.1849790181493
 30
0.0
 11
39.58362619374205
 21
149.1849790181493
 31
0.0
  0
ARC
  5
5CF
330
1F
100
AcDbEntity
  8
0
100
AcDbCircle
 10
35.86937701250191
 20
146.4290802501143
 30
0.0
 40
4.625
100
AcDbArc
 50
36.57467758322344
 51
41.57812500000059
  0
LINE
  5
5D0
330
1F
100
AcDbEntity
  8
0
100
AcDbLine
 10
39.76264953662043
 20
149.1849790181493
 30
0.0
 11
39.42264953662041
 21
150.1099790181493
 31
0.0
  0
LINE
  5
5D1
330
1F
100
AcDbEntity
  8
0
100
AcDbLine
 10
39.53264953662042
 20
153.2799790181493
 30
0.0
 11
39.53264953662042
 21
153.9349790181493
 31
0.0
  0
LINE
  5
5D2
330
1F
100
AcDbEntity
  8
0
100
AcDbLine
 10
39.24264953662044
 20
153.9349790181493
 30
0.0
 11
39.24264953662044
 21
153.2799790181493
 31
0.0
  0
LINE
  5
5D3
330
1F
100
AcDbEntity
  8
0
100
AcDbLine
 10
39.53264953662042
 20
153.9349790181493
 30
0.0
 11
39.24264953662044
 21
153.9349790181493
 31
0.0
  0
LINE
  5
5D4
330
1F
100
AcDbEntity
  8
0
100
AcDbLine
 10
39.24264953662044
 20
153.2799790181493
 30
0.0
 11
39.53264953662042
 21
153.2799790181493
 31
0.0
  0
LINE
  5
5D5
330
1F
100
AcDbEntity
  8
0
100
AcDbLine
 10
39.24264953662044
 20
152.9849790181494
 30
0.0
 11
39.76264953662043
 21
152.9849790181494
 31
0.0
  0
LINE
  5
5D6
330
1F
100
AcDbEntity
  8
0
100
AcDbLine
 10
39.01764953662044
 20
152.7349790181493
 30
0.0
 11
39.01764953662044
 21
154.4799790181493
 31
0.0
  0
LINE
  5
5D7
330
1F
100
AcDbEntity
  8
0
100
AcDbLine
 10
39.76264953662043
 20
152.9849790181494
 30
0.0
 11
39.76264953662043
 21
154.2349790181494
 31
0.0
  0
LINE
  5
5D8
330
1F
100
AcDbEntity
  8
0
100
AcDbLine
 10
36.91264953662044
 20
154.2249790181493
 30
0.0
 11
38.75764953662044
 21
154.2249790181493
 31
0.0
  0
LINE
  5
5D9
330
1F
100
AcDbEntity
  8
0
100
AcDbLine
 10
37.98721237847381
 20
149.9399790181494
 30
0.0
 11
38.51264953662043
 21
149.9399790181494
 31
0.0
  0
ARC
  5
5DA
330
1F
100
AcDbEntity
  8
0
100
AcDbCircle
 10
37.84547931641534
 20
149.4399790181493
 30
0.0
 40
0.6950000000000001
100
AcDbArc
 50
105.4143688030717
 51
173.9531249999999
  0
ARC
  5
5DB
330
1F
100
AcDbEntity
  8
0
100
AcDbCircle
 10
38.20387896408185
 20
149.4727739339722
 30
0.0
 40
0.5150000000000003
100
AcDbArc
 50
114.8795356100249
 51
173.0624999999998
  0
ARC
  5
5DC
330
1F
100
AcDbEntity
  8
0
100
AcDbCircle
 10
36.63487517951305
 20
151.1403001718889
 30
0.0
 40
0.5929334923362895
100
AcDbArc
 50
299.0986865482751
 51
31.47615530255983
  0
ARC
  5
5DD
330
1F
100
AcDbEntity
  8
0
100
AcDbCircle
 10
36.81530875396247
 20
151.1692295942937
 30
0.0
 40
0.1777221344526809
100
AcDbArc
 50
32.14834111149601
 51
122.4264902738646
  0
ARC
  5
5DE
330
1F
100
AcDbEntity
  8
0
100
AcDbCircle
 10
36.71395870461255
 20
151.1101412341226
 30
0.0
 40
0.295
100
AcDbArc
 50
298.6718749999992
 51
31.39062500000016
  0
LINE
  5
5DF
330
1F
100
AcDbEntity
  8
0
100
AcDbLine
 10
38.75764953662044
 20
152.9999790181494
 30
0.0
 11
37.24264953662043
 21
152.9999790181494
 31
0.0
  0
LINE
  5
5E0
330
1F
100
AcDbEntity
  8
0
100
AcDbLine
 10
37.24264953662043
 20
152.9999790181494
 30
0.0
 11
36.91264953662044
 21
154.2249790181493
 31
0.0
  0
LINE
  5
5E1
330
1F
100
AcDbEntity
  8
0
100
AcDbLine
 10
38.75764953662044
 20
152.9999790181494
 30
0.0
 11
38.75764953662044
 21
154.2249790181493
 31
0.0
  0
LINE
  5
5E2
330
1F
100
AcDbEntity
  8
0
100
AcDbLine
 10
39.42264953662041
 20
150.1099790181493
 30
0.0
 11
37.66074978439622
 21
150.1099790181493
 31
0.0
  0
ARC
  5
5E3
330
1F
100
AcDbEntity
  8
0
100
AcDbCircle
 10
38.49734863687074
 20
149.0351083740975
 30
0.0
 40
0.905
100
AcDbArc
 50
54.23437499999889
 51
89.03124999999995
  0
LINE
  5
5E4
330
1F
100
AcDbEntity
  8
0
100
AcDbLine
 10
40.88264953662043
 20
131.8999790181493
 30
0.0
 11
40.88264953662043
 21
155.4999790181494
 31
0.0
  0
LINE
  5
5E5
330
1F
100
AcDbEntity
  8
0
100
AcDbLine
 10
15.88264953662043
 20
155.4999790181494
 30
0.0
 11
15.88264953662043
 21
131.8999790181493
 31
0.0
  0
LINE
  5
5E6
330
1F
100
AcDbEntity
  8
0
100
AcDbLine
 10
15.88264953662043
 20
131.8999790181493
 30
0.0
 11
40.88264953662043
 21
131.8999790181493
 31
0.0
  0
LINE
  5
5E7
330
1F
100
AcDbEntity
  8
0
100
AcDbLine
 10
40.88264953662043
 20
155.4999790181494
 30
0.0
 11
15.88264953662043
 21
155.4999790181494
 31
0.0
  0
ARC
  5
5E8
330
1F
100
AcDbEntity
  8
0
100
AcDbCircle
 10
202.6326495366206
 20
159.4999790181496
 30
0.0
 40
0.75
100
AcDbArc
 50
0.0
 51
89.99999999999673
1001
GENIUS_GENODEF_13
1002
{
1000
HIER
1070
     0
1002
}
1002
{
1000
MANEDIT
1070
     0
1002
}
1002
{
1000
NOSEL
1070
     0
1002
}
1002
{
1000
BEHIND
1070
     0
1002
}
1002
{
1000
REACTOR
1002
}
1001
GENIUS_GENOBJ-N-FIL_13
1002
{
1000
OWNER
1000
GEN
1002
}
  0
ARC
  5
5E9
330
1F
100
AcDbEntity
  8
0
100
AcDbCircle
 10
202.6326495366206
 20
151.4999790181496
 30
0.0
 40
0.75
100
AcDbArc
 50
270.0
 51
0.0
1001
GENIUS_GENODEF_13
1002
{
1000
HIER
1070
     0
1002
}
1002
{
1000
MANEDIT
1070
     0
1002
}
1002
{
1000
NOSEL
1070
     0
1002
}
1002
{
1000
BEHIND
1070
     0
1002
}
1002
{
1000
REACTOR
1002
}
1001
GENIUS_GENOBJ-N-FIL_13
1002
{
1000
OWNER
1000
GEN
1002
}
  0
LINE
  5
5EA
330
1F
100
AcDbEntity
  8
0
100
AcDbLine
 10
219.0046733417162
 20
100.9999790181536
 30
0.0
 11
173.760625731525
 21
100.9999790181536
 31
0.0
  0
LINE
  5
5EB
330
1F
100
AcDbEntity
  8
0
100
AcDbLine
 10
201.8826495366207
 20
159.4999790181496
 30
0.0
 11
201.8826495366207
 21
151.4999790181496
 31
0.0
  0
LINE
  5
5EC
330
1F
100
AcDbEntity
  8
0
100
AcDbLine
 10
190.8826495366207
 20
159.4999790181496
 30
0.0
 11
190.8826495366207
 21
151.4999790181496
 31
0.0
  0
LINE
  5
5ED
330
1F
100
AcDbEntity
  8
0
100
AcDbLine
 10
189.3826495366207
 20
159.4999790181496
 30
0.0
 11
189.3826495366207
 21
151.4999790181496
 31
0.0
  0
ARC
  5
5EE
330
1F
100
AcDbEntity
  8
0
100
AcDbCircle
 10
190.1326495366206
 20
151.4999790181496
 30
0.0
 40
0.75
100
AcDbArc
 50
270.0
 51
0.0
1001
GENIUS_GENODEF_13
1002
{
1000
HIER
1070
     0
1002
}
1002
{
1000
MANEDIT
1070
     0
1002
}
1002
{
1000
NOSEL
1070
     0
1002
}
1002
{
1000
BEHIND
1070
     0
1002
}
1002
{
1000
REACTOR
1002
}
1001
GENIUS_GENOBJ-N-FIL_13
1002
{
1000
OWNER
1000
GEN
1002
}
  0
ARC
  5
5EF
330
1F
100
AcDbEntity
  8
0
100
AcDbCircle
 10
190.1326495366206
 20
151.4999790181496
 30
0.0
 40
0.75
100
AcDbArc
 50
180.0
 51
270.0
1001
GENIUS_GENODEF_13
1002
{
1000
HIER
1070
     0
1002
}
1002
{
1000
MANEDIT
1070
     0
1002
}
1002
{
1000
NOSEL
1070
     0
1002
}
1002
{
1000
BEHIND
1070
     0
1002
}
1002
{
1000
REACTOR
1002
}
1001
GENIUS_GENOBJ-N-FIL_13
1002
{
1000
OWNER
1000
GEN
1002
}
  0
LINE
  5
5F0
330
1F
100
AcDbEntity
  8
0
100
AcDbLine
 10
190.1326495366206
 20
150.7499790181497
 30
0.0
 11
190.1326495366206
 21
150.7499790181497
 31
0.0
  0
LINE
  5
5F1
330
1F
100
AcDbEntity
  8
0
100
AcDbLine
 10
202.6326495366207
 20
150.7499790181497
 30
0.0
 11
202.6326495366207
 21
150.7499790181497
 31
0.0
  0
ARC
  5
5F2
330
1F
100
AcDbEntity
  8
0
100
AcDbCircle
 10
202.6326495366206
 20
151.4999790181496
 30
0.0
 40
0.75
100
AcDbArc
 50
180.0
 51
269.9999999999968
1001
GENIUS_GENODEF_13
1002
{
1000
HIER
1070
     0
1002
}
1002
{
1000
MANEDIT
1070
     0
1002
}
1002
{
1000
NOSEL
1070
     0
1002
}
1002
{
1000
BEHIND
1070
     0
1002
}
1002
{
1000
REACTOR
1002
}
1001
GENIUS_GENOBJ-N-FIL_13
1002
{
1000
OWNER
1000
GEN
1002
}
  0
ARC
  5
5F3
330
1F
100
AcDbEntity
  8
0
100
AcDbCircle
 10
190.1326495366206
 20
159.4999790181496
 30
0.0
 40
0.75
100
AcDbArc
 50
0.0
 51
90.0
1001
GENIUS_GENODEF_13
1002
{
1000
HIER
1070
     0
1002
}
1002
{
1000
MANEDIT
1070
     0
1002
}
1002
{
1000
NOSEL
1070
     0
1002
}
1002
{
1000
BEHIND
1070
     0
1002
}
1002
{
1000
REACTOR
1002
}
1001
GENIUS_GENOBJ-N-FIL_13
1002
{
1000
OWNER
1000
GEN
1002
}
  0
ARC
  5
5F4
330
1F
100
AcDbEntity
  8
0
100
AcDbCircle
 10
190.1326495366206
 20
159.4999790181496
 30
0.0
 40
0.75
100
AcDbArc
 50
90.0
 51
180.0
1001
GENIUS_GENODEF_13
1002
{
1000
HIER
1070
     0
1002
}
1002
{
1000
MANEDIT
1070
     0
1002
}
1002
{
1000
NOSEL
1070
     0
1002
}
1002
{
1000
BEHIND
1070
     0
1002
}
1002
{
1000
REACTOR
1002
}
1001
GENIUS_GENOBJ-N-FIL_13
1002
{
1000
OWNER
1000
GEN
1002
}
  0
LINE
  5
5F5
330
1F
100
AcDbEntity
  8
0
100
AcDbLine
 10
190.1326495366206
 20
160.2499790181497
 30
0.0
 11
190.1326495366206
 21
160.2499790181497
 31
0.0
  0
LINE
  5
5F6
330
1F
100
AcDbEntity
  8
0
100
AcDbLine
 10
202.6326495366207
 20
160.2499790181497
 30
0.0
 11
202.6326495366207
 21
160.2499790181497
 31
0.0
  0
ARC
  5
5F7
330
1F
100
AcDbEntity
  8
0
100
AcDbCircle
 10
202.6326495366206
 20
159.4999790181496
 30
0.0
 40
0.75
100
AcDbArc
 50
90.0
 51
180.0
1001
GENIUS_GENODEF_13
1002
{
1000
HIER
1070
     0
1002
}
1002
{
1000
MANEDIT
1070
     0
1002
}
1002
{
1000
NOSEL
1070
     0
1002
}
1002
{
1000
BEHIND
1070
     0
1002
}
1002
{
1000
REACTOR
1002
}
1001
GENIUS_GENOBJ-N-FIL_13
1002
{
1000
OWNER
1000
GEN
1002
}
  0
LINE
  5
5F8
330
1F
100
AcDbEntity
  8
0
100
AcDbLine
 10
203.3826495366206
 20
159.4999790181496
 30
0.0
 11
203.3826495366207
 21
151.4999790181496
 31
0.0
  0
LINE
  5
5F9
330
1F
100
AcDbEntity
  8
0
100
AcDbLine
 10
191.3826495366205
 20
105.314300823508
 30
0.0
 11
191.3826495366205
 21
100.9999790181536
 31
0.0
1001
GENIUS_GENODEF_13
1002
{
1000
HIER
1070
     0
1002
}
1002
{
1000
MANEDIT
1070
     0
1002
}
1002
{
1000
NOSEL
1070
     0
1002
}
1002
{
1000
BEHIND
1070
     0
1002
}
1002
{
1000
REACTOR
1002
}
1001
GENIUS_GENOBJ-N-CEN_13
1002
{
1000
OWNER
1000
GEN
1002
}
  0
LINE
  5
5FA
330
1F
100
AcDbEntity
  8
0
100
AcDbLine
 10
201.3826495366205
 20
105.3143008235082
 30
0.0
 11
201.3826495366205
 21
100.9999790181536
 31
0.0
1001
GENIUS_GENODEF_13
1002
{
1000
HIER
1070
     0
1002
}
1002
{
1000
MANEDIT
1070
     0
1002
}
1002
{
1000
NOSEL
1070
     0
1002
}
1002
{
1000
BEHIND
1070
     0
1002
}
1002
{
1000
REACTOR
1002
}
1001
GENIUS_GENOBJ-N-CEN_13
1002
{
1000
OWNER
1000
GEN
1002
}
  0
ARC
  5
5FB
330
1F
100
AcDbEntity
  8
0
100
AcDbCircle
 10
157.9350035670417
 20
62.19997901814699
 30
0.0
 40
5.0
100
AcDbArc
 50
3.048485679159379
 51
90.0
1001
GENIUS_GENODEF_13
1002
{
1000
HIER
1070
     0
1002
}
1002
{
1000
MANEDIT
1070
     0
1002
}
1002
{
1000
NOSEL
1070
     0
1002
}
1002
{
1000
BEHIND
1070
     0
1002
}
1002
{
1000
REACTOR
1002
}
1001
GENIUS_GENOBJ-N-FIL_13
1002
{
1000
OWNER
1000
GEN
1002
}
  0
ARC
  5
5FC
330
1F
100
AcDbEntity
  8
0
100
AcDbCircle
 10
1171.898099542432
 20
116.199979018146
 30
0.0
 40
1004.65
100
AcDbArc
 50
182.5927179006219
 51
185.3725306056643
  0
ARC
  5
5FD
330
1F
100
AcDbEntity
  8
0
100
AcDbCircle
 10
1171.898099542432
 20
116.199979018146
 30
0.0
 40
1010.4
100
AcDbArc
 50
183.048485679156
 51
185.3725306056643
  0
ARC
  5
5FE
330
1F
100
AcDbEntity
  8
0
100
AcDbCircle
 10
193.7142528318146
 20
24.20752261862322
 30
0.0
 40
22.15
100
AcDbArc
 50
185.3725306056659
 51
220.0000000000004
1001
GENIUS_GENODEF_13
1002
{
1000
HIER
1070
     0
1002
}
1002
{
1000
MANEDIT
1070
     0
1002
}
1002
{
1000
NOSEL
1070
     0
1002
}
1002
{
1000
BEHIND
1070
     0
1002
}
1002
{
1000
REACTOR
1002
}
1001
GENIUS_GENOBJ-N-FIL_13
1002
{
1000
OWNER
1000
GEN
1002
}
  0
LINE
  5
5FF
330
1F
100
AcDbEntity
  8
0
100
AcDbLine
 10
178.2018248865097
 20
8.580235472389404
 30
0.0
 11
174.9677658636261
 21
5.866537739082275
 31
0.0
  0
LINE
  5
600
330
1F
100
AcDbEntity
  8
0
100
AcDbLine
 10
176.7463684167292
 20
9.969777064066363
 30
0.0
 11
178.0319436361023
 21
8.43768817782842
 31
0.0
  0
ARC
  5
601
330
1F
100
AcDbEntity
  8
0
100
AcDbCircle
 10
193.7142528318146
 20
24.20752261862322
 30
0.0
 40
27.9
100
AcDbArc
 50
185.3725306056659
 51
204.1547384202971
1001
GENIUS_GENODEF_13
1002
{
1000
HIER
1070
     0
1002
}
1002
{
1000
MANEDIT
1070
     0
1002
}
1002
{
1000
NOSEL
1070
     0
1002
}
1002
{
1000
BEHIND
1070
     0
1002
}
1002
{
1000
REACTOR
1002
}
1001
GENIUS_GENOBJ-N-FIL_13
1002
{
1000
OWNER
1000
GEN
1002
}
  0
ARC
  5
602
330
1F
100
AcDbEntity
  8
0
100
AcDbCircle
 10
193.7142528318146
 20
24.20752261862322
 30
0.0
 40
26.15
100
AcDbArc
 50
207.3341740013549
 51
220.0000000000004
1001
GENIUS_GENODEF_13
1002
{
1000
HIER
1070
     0
1002
}
1002
{
1000
MANEDIT
1070
     0
1002
}
1002
{
1000
NOSEL
1070
     0
1002
}
1002
{
1000
BEHIND
1070
     0
1002
}
1002
{
1000
REACTOR
1002
}
1001
GENIUS_GENOBJ-N-FIL_13
1002
{
1000
OWNER
1000
GEN
1002
}
  0
LINE
  5
603
330
1F
100
AcDbEntity
  8
0
100
AcDbLine
 10
173.6821906442533
 20
7.398626625320176
 30
0.0
 11
174.9677658636264
 21
5.866537739082216
 31
0.0
  0
LINE
  5
604
330
1F
100
AcDbEntity
  8
0
100
AcDbLine
 10
175.4018368723967
 20
12.19997901814685
 30
0.0
 11
169.1695184905426
 21
12.19997901814685
 31
0.0
  0
ARC
  5
605
330
1F
100
AcDbEntity
  8
0
100
AcDbCircle
 10
169.1695184905426
 20
13.19997901814685
 30
0.0
 40
1.0
100
AcDbArc
 50
204.1547384202971
 51
270.0
1001
GENIUS_GENODEF_13
1002
{
1000
HIER
1070
     0
1002
}
1002
{
1000
MANEDIT
1070
     0
1002
}
1002
{
1000
NOSEL
1070
     0
1002
}
1002
{
1000
BEHIND
1070
     0
1002
}
1002
{
1000
REACTOR
1002
}
1001
GENIUS_GENOBJ-N-FIL_13
1002
{
1000
OWNER
1000
GEN
1002
}
  0
LINE
  5
606
330
1F
100
AcDbEntity
  8
0
100
AcDbLine
 10
164.7765324166557
 20
56.69997901814678
 30
0.0
 11
164.7765324166557
 21
42.69997901814678
 31
0.0
  0
LINE
  5
607
330
1F
100
AcDbEntity
  8
0
100
AcDbLine
 10
166.7765324166558
 20
56.69997901814678
 30
0.0
 11
166.7765324166558
 21
42.69997901814678
 31
0.0
  0
LINE
  5
608
330
1F
100
AcDbEntity
  8
0
100
AcDbLine
 10
166.2765324166558
 20
57.19997901814679
 30
0.0
 11
166.2765324166558
 21
42.19997901814678
 31
0.0
  0
LINE
  5
609
330
1F
100
AcDbEntity
  8
0
100
AcDbLine
 10
165.2765324166557
 20
57.19997901814679
 30
0.0
 11
165.2765324166557
 21
42.19997901814678
 31
0.0
  0
LINE
  5
60A
330
1F
100
AcDbEntity
  8
0
100
AcDbLine
 10
166.2765324166558
 20
42.19997901814678
 30
0.0
 11
165.2765324166557
 21
42.19997901814678
 31
0.0
  0
LINE
  5
60B
330
1F
100
AcDbEntity
  8
0
100
AcDbLine
 10
164.7765324166557
 20
42.69997901814678
 30
0.0
 11
165.2765324166557
 21
42.19997901814678
 31
0.0
1001
GENIUS_GENFIL_13
1070
     0
1040
0.5
1040
0.5
1040
0.4999999999999716
1040
44.99999999999674
1002
{
1002
}
1001
GENIUS_GENODEF_13
1002
{
1000
HIER
1070
     0
1002
}
1002
{
1000
MANEDIT
1070
     0
1002
}
1002
{
1000
NOSEL
1070
     0
1002
}
1002
{
1000
BEHIND
1070
     0
1002
}
1002
{
1000
REACTOR
1002
}
1001
GENIUS_GENOBJ-N-CHA_13
1002
{
1000
OWNER
1000
GEN
1002
}
  0
LINE
  5
60C
330
1F
100
AcDbEntity
  8
0
100
AcDbLine
 10
166.7765324166558
 20
42.69997901814678
 30
0.0
 11
166.2765324166558
 21
42.19997901814678
 31
0.0
1001
GENIUS_GENFIL_13
1070
     0
1040
0.5
1040
0.5
1040
0.4999999999999716
1040
44.99999999999674
1000
~T
  0
ARC
  5
60D
330
1F
100
AcDbEntity
  8
0
100
AcDbCircle
 10
163.2042671532383
 20
49.44997901814687
 30
0.0
 40
0.85
100
AcDbArc
 50
90.0
 51
183.7860103659324
1001
GENIUS_GENODEF_13
1002
{
1000
HIER
1070
     0
1002
}
1002
{
1000
MANEDIT
1070
     0
1002
}
1002
{
1000
NOSEL
1070
     0
1002
}
1002
{
1000
BEHIND
1070
     0
1002
}
1002
{
1000
REACTOR
1002
}
1001
GENIUS_GENOBJ-N-FIL_13
1002
{
1000
OWNER
1000
GEN
1002
}
  0
ARC
  5
60E
330
1F
100
AcDbEntity
  8
0
100
AcDbCircle
 10
163.2042671532383
 20
49.44997901814687
 30
0.0
 40
0.85
100
AcDbArc
 50
183.7860103659324
 51
270.0
1001
GENIUS_GENODEF_13
1002
{
1000
HIER
1070
     0
1002
}
1002
{
1000
MANEDIT
1070
     0
1002
}
1002
{
1000
NOSEL
1070
     0
1002
}
1002
{
1000
BEHIND
1070
     0
1002
}
1002
{
1000
REACTOR
1002
}
1001
GENIUS_GENOBJ-N-FIL_13
1002
{
1000
OWNER
1000
GEN
1002
}
  0
LINE
  5
60F
330
1F
100
AcDbEntity
  8
0
100
AcDbLine
 10
163.7619976196813
 20
48.59997901814689
 30
0.0
 11
163.2042671532383
 21
48.59997901814689
 31
0.0
  0
ARC
  5
610
330
1F
100
AcDbEntity
  8
0
100
AcDbCircle
 10
162.9475321210154
 20
53.44997901814688
 30
0.0
 40
0.85
100
AcDbArc
 50
90.0
 51
183.5588317631741
1001
GENIUS_GENODEF_13
1002
{
1000
HIER
1070
     0
1002
}
1002
{
1000
MANEDIT
1070
     0
1002
}
1002
{
1000
NOSEL
1070
     0
1002
}
1002
{
1000
BEHIND
1070
     0
1002
}
1002
{
1000
REACTOR
1002
}
1001
GENIUS_GENOBJ-N-FIL_13
1002
{
1000
OWNER
1000
GEN
1002
}
  0
ARC
  5
611
330
1F
100
AcDbEntity
  8
0
100
AcDbCircle
 10
162.9475321210154
 20
53.44997901814688
 30
0.0
 40
0.85
100
AcDbArc
 50
183.5588317631741
 51
270.0
1001
GENIUS_GENODEF_13
1002
{
1000
HIER
1070
     0
1002
}
1002
{
1000
MANEDIT
1070
     0
1002
}
1002
{
1000
NOSEL
1070
     0
1002
}
1002
{
1000
BEHIND
1070
     0
1002
}
1002
{
1000
REACTOR
1002
}
1001
GENIUS_GENOBJ-N-FIL_13
1002
{
1000
OWNER
1000
GEN
1002
}
  0
LINE
  5
612
330
1F
100
AcDbEntity
  8
0
100
AcDbLine
 10
163.5017488945339
 20
52.59997901814688
 30
0.0
 11
162.9475321210154
 21
52.59997901814688
 31
0.0
  0
LINE
  5
613
330
1F
100
AcDbEntity
  8
0
100
AcDbLine
 10
163.6494446958219
 20
50.29997901814688
 30
0.0
 11
163.2042671532383
 21
50.29997901814688
 31
0.0
  0
ARC
  5
614
330
1F
100
AcDbEntity
  8
0
100
AcDbCircle
 10
1171.898099542432
 20
116.199979018146
 30
0.0
 40
1011.75
100
AcDbArc
 50
183.5588317631953
 51
183.5588317631953
  0
LINE
  5
615
330
1F
100
AcDbEntity
  8
0
100
AcDbLine
 10
163.3959676656576
 20
54.29997901814688
 30
0.0
 11
162.9475321210154
 21
54.29997901814688
 31
0.0
  0
LINE
  5
616
330
1F
100
AcDbEntity
  8
0
100
AcDbLine
 10
165.2765324166557
 20
57.19997901814679
 30
0.0
 11
164.7765324166557
 21
56.69997901814678
 31
0.0
1001
GENIUS_GENFIL_13
1070
     0
1040
0.5
1040
0.5
1040
0.4999999999999716
1040
44.99999999999674
1002
{
1002
}
1001
GENIUS_GENODEF_13
1002
{
1000
HIER
1070
     0
1002
}
1002
{
1000
MANEDIT
1070
     0
1002
}
1002
{
1000
NOSEL
1070
     0
1002
}
1002
{
1000
BEHIND
1070
     0
1002
}
1002
{
1000
REACTOR
1002
}
1001
GENIUS_GENOBJ-N-CHA_13
1002
{
1000
OWNER
1000
GEN
1002
}
  0
LINE
  5
617
330
1F
100
AcDbEntity
  8
0
100
AcDbLine
 10
166.7765324166558
 20
56.69997901814678
 30
0.0
 11
166.2765324166558
 21
57.19997901814679
 31
0.0
1001
GENIUS_GENFIL_13
1070
     0
1040
0.5
1040
0.5
1040
0.4999999999999716
1040
44.99999999999674
1002
{
1002
}
1001
GENIUS_GENODEF_13
1002
{
1000
HIER
1070
     0
1002
}
1002
{
1000
MANEDIT
1070
     0
1002
}
1002
{
1000
NOSEL
1070
     0
1002
}
1002
{
1000
BEHIND
1070
     0
1002
}
1002
{
1000
REACTOR
1002
}
1001
GENIUS_GENOBJ-N-CHA_13
1002
{
1000
OWNER
1000
GEN
1002
}
  0
LINE
  5
618
330
1F
100
AcDbEntity
  8
0
100
AcDbLine
 10
166.2765324166558
 20
57.19997901814679
 30
0.0
 11
165.2765324166557
 21
57.19997901814679
 31
0.0
  0
LINE
  5
619
330
1F
100
AcDbEntity
  8
0
100
AcDbLine
 10
163.1584155803115
 20
58.29997901814689
 30
0.0
 11
162.7067165530611
 21
58.29997901814689
 31
0.0
  0
LINE
  5
61A
330
1F
100
AcDbEntity
  8
0
100
AcDbLine
 10
163.2574301264111
 20
56.59997901814689
 30
0.0
 11
162.7067165530611
 21
56.59997901814689
 31
0.0
  0
ARC
  5
61B
330
1F
100
AcDbEntity
  8
0
100
AcDbCircle
 10
1171.898099542432
 20
116.199979018146
 30
0.0
 40
1011.75
100
AcDbArc
 50
183.3317091686745
 51
183.3317091686745
  0
ARC
  5
61C
330
1F
100
AcDbEntity
  8
0
100
AcDbCircle
 10
162.7067165530611
 20
57.44997901814688
 30
0.0
 40
0.85
100
AcDbArc
 50
90.0
 51
183.3317091686598
1001
GENIUS_GENODEF_13
1002
{
1000
HIER
1070
     0
1002
}
1002
{
1000
MANEDIT
1070
     0
1002
}
1002
{
1000
NOSEL
1070
     0
1002
}
1002
{
1000
BEHIND
1070
     0
1002
}
1002
{
1000
REACTOR
1002
}
1001
GENIUS_GENOBJ-N-FIL_13
1002
{
1000
OWNER
1000
GEN
1002
}
  0
ARC
  5
61D
330
1F
100
AcDbEntity
  8
0
100
AcDbCircle
 10
162.7067165530611
 20
57.44997901814688
 30
0.0
 40
0.85
100
AcDbArc
 50
183.3317091686598
 51
270.0
1001
GENIUS_GENODEF_13
1002
{
1000
HIER
1070
     0
1002
}
1002
{
1000
MANEDIT
1070
     0
1002
}
1002
{
1000
NOSEL
1070
     0
1002
}
1002
{
1000
BEHIND
1070
     0
1002
}
1002
{
1000
REACTOR
1002
}
1001
GENIUS_GENOBJ-N-FIL_13
1002
{
1000
OWNER
1000
GEN
1002
}
  0
LINE
  5
61E
330
1F
100
AcDbEntity
  8
0
100
AcDbLine
 10
163.0290297419952
 20
60.59997901814679
 30
0.0
 11
162.4818090556979
 21
60.59997901814689
 31
0.0
  0
ARC
  5
61F
330
1F
100
AcDbEntity
  8
0
100
AcDbCircle
 10
1171.898099542432
 20
116.199979018146
 30
0.0
 40
1011.75
100
AcDbArc
 50
183.1046389746054
 51
183.1046389746054
  0
LINE
  5
620
330
1F
100
AcDbEntity
  8
0
100
AcDbLine
 10
162.9367771915707
 20
62.29997901814678
 30
0.0
 11
162.4818090556979
 21
62.29997901814688
 31
0.0
  0
ARC
  5
621
330
1F
100
AcDbEntity
  8
0
100
AcDbCircle
 10
1171.898099542432
 20
116.199979018146
 30
0.0
 40
1010.4
100
AcDbArc
 50
183.048485679156
 51
183.057906870968
  0
ARC
  5
622
330
1F
100
AcDbEntity
  8
0
100
AcDbCircle
 10
162.4818090556979
 20
61.44997901814686
 30
0.0
 40
0.85
100
AcDbArc
 50
183.1046389746054
 51
270.0
1001
GENIUS_GENODEF_13
1002
{
1000
HIER
1070
     0
1002
}
1002
{
1000
MANEDIT
1070
     0
1002
}
1002
{
1000
NOSEL
1070
     0
1002
}
1002
{
1000
BEHIND
1070
     0
1002
}
1002
{
1000
REACTOR
1002
}
1001
GENIUS_GENOBJ-N-FIL_13
1002
{
1000
OWNER
1000
GEN
1002
}
  0
ARC
  5
623
330
1F
100
AcDbEntity
  8
0
100
AcDbCircle
 10
162.4818090556979
 20
61.44997901814686
 30
0.0
 40
0.85
100
AcDbArc
 50
90.0
 51
183.1046389746054
1001
GENIUS_GENODEF_13
1002
{
1000
HIER
1070
     0
1002
}
1002
{
1000
MANEDIT
1070
     0
1002
}
1002
{
1000
NOSEL
1070
     0
1002
}
1002
{
1000
BEHIND
1070
     0
1002
}
1002
{
1000
REACTOR
1002
}
1001
GENIUS_GENOBJ-N-FIL_13
1002
{
1000
OWNER
1000
GEN
1002
}
  0
LINE
  5
624
330
1F
100
AcDbEntity
  8
0
100
AcDbLine
 10
166.6762886917855
 20
74.19997901814688
 30
0.0
 11
167.3850450085186
 21
114.8046012093561
 31
0.0
  0
LINE
  5
625
330
1F
100
AcDbEntity
  8
0
100
AcDbLine
 10
168.3806793892965
 20
72.19997901814688
 30
0.0
 11
161.7765324166559
 21
72.19997901814688
 31
0.0
  0
LINE
  5
626
330
1F
100
AcDbEntity
  8
0
100
AcDbLine
 10
168.2935191606113
 20
74.19997901814681
 30
0.0
 11
164.2765324166559
 21
74.19997901814681
 31
0.0
  0
LINE
  5
627
330
1F
100
AcDbEntity
  8
0
100
AcDbLine
 10
168.2765324166559
 20
74.19997901814688
 30
0.0
 11
168.2765324166559
 21
70.75360952618637
 31
0.0
  0
ARC
  5
628
330
1F
100
AcDbEntity
  8
0
100
AcDbCircle
 10
155.2765324166557
 20
70.00853906957478
 30
0.0
 40
1.5
100
AcDbArc
 50
95.9999999999952
 51
180.0
1001
GENIUS_GENODEF_13
1002
{
1000
HIER
1070
     0
1002
}
1002
{
1000
MANEDIT
1070
     0
1002
}
1002
{
1000
NOSEL
1070
     0
1002
}
1002
{
1000
BEHIND
1070
     0
1002
}
1002
{
1000
REACTOR
1002
}
1001
GENIUS_GENOBJ-N-FIL_13
1002
{
1000
OWNER
1000
GEN
1002
}
  0
LINE
  5
629
330
1F
100
AcDbEntity
  8
0
100
AcDbLine
 10
153.7765324166558
 20
70.00853906957478
 30
0.0
 11
153.7765324166558
 21
68.69997901814706
 31
0.0
  0
LINE
  5
62A
330
1F
100
AcDbEntity
  8
0
100
AcDbLine
 10
155.2765324166557
 20
67.19997901814699
 30
0.0
 11
157.9350035670417
 21
67.19997901814689
 31
0.0
  0
LINE
  5
62B
330
1F
100
AcDbEntity
  8
0
100
AcDbLine
 10
155.2765324166557
 20
67.19997901814699
 30
0.0
 11
153.7765324166558
 21
68.69997901814706
 31
0.0
1001
GENIUS_GENFIL_13
1070
     0
1040
1.5
1040
1.5
1040
0.4999999999999716
1040
44.99999999999674
1002
{
1002
}
1001
GENIUS_GENODEF_13
1002
{
1000
HIER
1070
     0
1002
}
1002
{
1000
MANEDIT
1070
     0
1002
}
1002
{
1000
NOSEL
1070
     0
1002
}
1002
{
1000
BEHIND
1070
     0
1002
}
1002
{
1000
REACTOR
1002
}
1001
GENIUS_GENOBJ-N-CHA_13
1002
{
1000
OWNER
1000
GEN
1002
}
  0
LINE
  5
62C
330
1F
100
AcDbEntity
  8
0
100
AcDbLine
 10
161.7765324166559
 20
72.19997901814688
 30
0.0
 11
155.1197397217543
 21
71.50032191262718
 31
0.0
  0
LINE
  5
62D
330
1F
100
AcDbEntity
  8
0
100
AcDbLine
 10
164.2765324166559
 20
74.19997901814688
 30
0.0
 11
164.2765324166559
 21
72.1999790181468
 31
0.0
  0
ARC
  5
62E
330
1F
100
AcDbEntity
  8
0
100
AcDbCircle
 10
67.33029550619773
 20
62.19997901814699
 30
0.0
 40
5.0
100
AcDbArc
 50
90.0
 51
176.9515143208406
1001
GENIUS_GENODEF_13
1002
{
1000
HIER
1070
     0
1002
}
1002
{
1000
MANEDIT
1070
     0
1002
}
1002
{
1000
NOSEL
1070
     0
1002
}
1002
{
1000
BEHIND
1070
     0
1002
}
1002
{
1000
REACTOR
1002
}
1001
GENIUS_GENOBJ-N-FIL_13
1002
{
1000
OWNER
1000
GEN
1002
}
  0
ARC
  5
62F
330
1F
100
AcDbEntity
  8
0
100
AcDbCircle
 10
-946.6328004691932
 20
116.199979018146
 30
0.0
 40
1004.65
100
AcDbArc
 50
354.6274693943357
 51
357.4072820993781
  0
ARC
  5
630
330
1F
100
AcDbEntity
  8
0
100
AcDbCircle
 10
-946.6328004691932
 20
116.199979018146
 30
0.0
 40
1010.4
100
AcDbArc
 50
354.6274693943357
 51
356.9515143208439
  0
ARC
  5
631
330
1F
100
AcDbEntity
  8
0
100
AcDbCircle
 10
31.55104624142494
 20
24.20752261862322
 30
0.0
 40
22.15
100
AcDbArc
 50
319.9999999999996
 51
354.6274693943341
1001
GENIUS_GENODEF_13
1002
{
1000
HIER
1070
     0
1002
}
1002
{
1000
MANEDIT
1070
     0
1002
}
1002
{
1000
NOSEL
1070
     0
1002
}
1002
{
1000
BEHIND
1070
     0
1002
}
1002
{
1000
REACTOR
1002
}
1001
GENIUS_GENOBJ-N-FIL_13
1002
{
1000
OWNER
1000
GEN
1002
}
  0
LINE
  5
632
330
1F
100
AcDbEntity
  8
0
100
AcDbLine
 10
47.06347418673053
 20
8.580235472388665
 30
0.0
 11
50.29753320961322
 21
5.866537739082275
 31
0.0
  0
LINE
  5
633
330
1F
100
AcDbEntity
  8
0
100
AcDbLine
 10
48.51893065651022
 20
9.969777064066363
 30
0.0
 11
47.23335543713722
 21
8.43768817782842
 31
0.0
  0
ARC
  5
634
330
1F
100
AcDbEntity
  8
0
100
AcDbCircle
 10
31.55104624142494
 20
24.20752261862322
 30
0.0
 40
27.9
100
AcDbArc
 50
335.8452615797026
 51
354.6274693943341
1001
GENIUS_GENODEF_13
1002
{
1000
HIER
1070
     0
1002
}
1002
{
1000
MANEDIT
1070
     0
1002
}
1002
{
1000
NOSEL
1070
     0
1002
}
1002
{
1000
BEHIND
1070
     0
1002
}
1002
{
1000
REACTOR
1002
}
1001
GENIUS_GENOBJ-N-FIL_13
1002
{
1000
OWNER
1000
GEN
1002
}
  0
ARC
  5
635
330
1F
100
AcDbEntity
  8
0
100
AcDbCircle
 10
31.55104624142494
 20
24.20752261862322
 30
0.0
 40
26.15
100
AcDbArc
 50
319.9999999999996
 51
332.6658259986451
1001
GENIUS_GENODEF_13
1002
{
1000
HIER
1070
     0
1002
}
1002
{
1000
MANEDIT
1070
     0
1002
}
1002
{
1000
NOSEL
1070
     0
1002
}
1002
{
1000
BEHIND
1070
     0
1002
}
1002
{
1000
REACTOR
1002
}
1001
GENIUS_GENOBJ-N-FIL_13
1002
{
1000
OWNER
1000
GEN
1002
}
  0
LINE
  5
636
330
1F
100
AcDbEntity
  8
0
100
AcDbLine
 10
51.58310842898612
 20
7.398626625320217
 30
0.0
 11
50.29753320961312
 21
5.866537739082275
 31
0.0
  0
LINE
  5
637
330
1F
100
AcDbEntity
  8
0
100
AcDbLine
 10
49.86346220084424
 20
12.19997901814685
 30
0.0
 11
56.09578058269683
 21
12.1999790181469
 31
0.0
  0
ARC
  5
638
330
1F
100
AcDbEntity
  8
0
100
AcDbCircle
 10
56.09578058269683
 20
13.1999790181469
 30
0.0
 40
1.0
100
AcDbArc
 50
270.0
 51
335.8452615797026
1001
GENIUS_GENODEF_13
1002
{
1000
HIER
1070
     0
1002
}
1002
{
1000
MANEDIT
1070
     0
1002
}
1002
{
1000
NOSEL
1070
     0
1002
}
1002
{
1000
BEHIND
1070
     0
1002
}
1002
{
1000
REACTOR
1002
}
1001
GENIUS_GENOBJ-N-FIL_13
1002
{
1000
OWNER
1000
GEN
1002
}
  0
LINE
  5
639
330
1F
100
AcDbEntity
  8
0
100
AcDbLine
 10
60.48876665658375
 20
56.69997901814678
 30
0.0
 11
60.48876665658375
 21
42.69997901814678
 31
0.0
  0
LINE
  5
63A
330
1F
100
AcDbEntity
  8
0
100
AcDbLine
 10
58.48876665658375
 20
56.69997901814678
 30
0.0
 11
58.48876665658375
 21
42.69997901814686
 31
0.0
  0
LINE
  5
63B
330
1F
100
AcDbEntity
  8
0
100
AcDbLine
 10
58.98876665658375
 20
57.19997901814688
 30
0.0
 11
58.98876665658375
 21
42.19997901814688
 31
0.0
  0
LINE
  5
63C
330
1F
100
AcDbEntity
  8
0
100
AcDbLine
 10
59.98876665658375
 20
57.19997901814688
 30
0.0
 11
59.98876665658375
 21
42.19997901814678
 31
0.0
  0
LINE
  5
63D
330
1F
100
AcDbEntity
  8
0
100
AcDbLine
 10
58.98876665658375
 20
42.19997901814688
 30
0.0
 11
59.98876665658375
 21
42.19997901814678
 31
0.0
  0
LINE
  5
63E
330
1F
100
AcDbEntity
  8
0
100
AcDbLine
 10
60.48876665658375
 20
42.69997901814678
 30
0.0
 11
59.98876665658375
 21
42.19997901814678
 31
0.0
1001
GENIUS_GENFIL_13
1070
     0
1040
0.5
1040
0.5
1040
0.4999999999999716
1040
44.99999999999674
1002
{
1002
}
1001
GENIUS_GENODEF_13
1002
{
1000
HIER
1070
     0
1002
}
1002
{
1000
MANEDIT
1070
     0
1002
}
1002
{
1000
NOSEL
1070
     0
1002
}
1002
{
1000
BEHIND
1070
     0
1002
}
1002
{
1000
REACTOR
1002
}
1001
GENIUS_GENOBJ-N-CHA_13
1002
{
1000
OWNER
1000
GEN
1002
}
  0
LINE
  5
63F
330
1F
100
AcDbEntity
  8
0
100
AcDbLine
 10
58.48876665658375
 20
42.69997901814686
 30
0.0
 11
58.98876665658375
 21
42.19997901814688
 31
0.0
1001
GENIUS_GENFIL_13
1070
     0
1040
0.5
1040
0.5
1040
0.4999999999999716
1040
44.99999999999674
1000
~T
  0
ARC
  5
640
330
1F
100
AcDbEntity
  8
0
100
AcDbCircle
 10
62.0610319200011
 20
49.44997901814687
 30
0.0
 40
0.85
100
AcDbArc
 50
356.2139896340676
 51
90.0
1001
GENIUS_GENODEF_13
1002
{
1000
HIER
1070
     0
1002
}
1002
{
1000
MANEDIT
1070
     0
1002
}
1002
{
1000
NOSEL
1070
     0
1002
}
1002
{
1000
BEHIND
1070
     0
1002
}
1002
{
1000
REACTOR
1002
}
1001
GENIUS_GENOBJ-N-FIL_13
1002
{
1000
OWNER
1000
GEN
1002
}
  0
ARC
  5
641
330
1F
100
AcDbEntity
  8
0
100
AcDbCircle
 10
62.0610319200011
 20
49.44997901814687
 30
0.0
 40
0.85
100
AcDbArc
 50
270.0
 51
356.2139896340676
1001
GENIUS_GENODEF_13
1002
{
1000
HIER
1070
     0
1002
}
1002
{
1000
MANEDIT
1070
     0
1002
}
1002
{
1000
NOSEL
1070
     0
1002
}
1002
{
1000
BEHIND
1070
     0
1002
}
1002
{
1000
REACTOR
1002
}
1001
GENIUS_GENOBJ-N-FIL_13
1002
{
1000
OWNER
1000
GEN
1002
}
  0
LINE
  5
642
330
1F
100
AcDbEntity
  8
0
100
AcDbLine
 10
61.50330145355813
 20
48.59997901814689
 30
0.0
 11
62.0610319200011
 21
48.59997901814689
 31
0.0
  0
ARC
  5
643
330
1F
100
AcDbEntity
  8
0
100
AcDbCircle
 10
62.31776695222413
 20
53.44997901814688
 30
0.0
 40
0.85
100
AcDbArc
 50
356.4411682368259
 51
90.0
1001
GENIUS_GENODEF_13
1002
{
1000
HIER
1070
     0
1002
}
1002
{
1000
MANEDIT
1070
     0
1002
}
1002
{
1000
NOSEL
1070
     0
1002
}
1002
{
1000
BEHIND
1070
     0
1002
}
1002
{
1000
REACTOR
1002
}
1001
GENIUS_GENOBJ-N-FIL_13
1002
{
1000
OWNER
1000
GEN
1002
}
  0
ARC
  5
644
330
1F
100
AcDbEntity
  8
0
100
AcDbCircle
 10
62.31776695222413
 20
53.44997901814688
 30
0.0
 40
0.85
100
AcDbArc
 50
270.0
 51
356.4411682368259
1001
GENIUS_GENODEF_13
1002
{
1000
HIER
1070
     0
1002
}
1002
{
1000
MANEDIT
1070
     0
1002
}
1002
{
1000
NOSEL
1070
     0
1002
}
1002
{
1000
BEHIND
1070
     0
1002
}
1002
{
1000
REACTOR
1002
}
1001
GENIUS_GENOBJ-N-FIL_13
1002
{
1000
OWNER
1000
GEN
1002
}
  0
LINE
  5
645
330
1F
100
AcDbEntity
  8
0
100
AcDbLine
 10
61.76355017870554
 20
52.59997901814688
 30
0.0
 11
62.31776695222413
 21
52.59997901814688
 31
0.0
  0
LINE
  5
646
330
1F
100
AcDbEntity
  8
0
100
AcDbLine
 10
61.61585437741755
 20
50.29997901814688
 30
0.0
 11
62.0610319200011
 21
50.29997901814688
 31
0.0
  0
ARC
  5
647
330
1F
100
AcDbEntity
  8
0
100
AcDbCircle
 10
-946.6328004691932
 20
116.199979018146
 30
0.0
 40
1011.75
100
AcDbArc
 50
356.4411682368046
 51
356.4411682368046
  0
LINE
  5
648
330
1F
100
AcDbEntity
  8
0
100
AcDbLine
 10
61.86933140758181
 20
54.29997901814688
 30
0.0
 11
62.31776695222413
 21
54.29997901814688
 31
0.0
  0
LINE
  5
649
330
1F
100
AcDbEntity
  8
0
100
AcDbLine
 10
59.98876665658375
 20
57.19997901814688
 30
0.0
 11
60.48876665658375
 21
56.69997901814678
 31
0.0
1001
GENIUS_GENFIL_13
1070
     0
1040
0.5
1040
0.5
1040
0.4999999999999716
1040
44.99999999999674
1002
{
1002
}
1001
GENIUS_GENODEF_13
1002
{
1000
HIER
1070
     0
1002
}
1002
{
1000
MANEDIT
1070
     0
1002
}
1002
{
1000
NOSEL
1070
     0
1002
}
1002
{
1000
BEHIND
1070
     0
1002
}
1002
{
1000
REACTOR
1002
}
1001
GENIUS_GENOBJ-N-CHA_13
1002
{
1000
OWNER
1000
GEN
1002
}
  0
LINE
  5
64A
330
1F
100
AcDbEntity
  8
0
100
AcDbLine
 10
58.48876665658375
 20
56.69997901814678
 30
0.0
 11
58.98876665658375
 21
57.19997901814688
 31
0.0
1001
GENIUS_GENFIL_13
1070
     0
1040
0.5
1040
0.5
1040
0.4999999999999716
1040
44.99999999999674
1002
{
1002
}
1001
GENIUS_GENODEF_13
1002
{
1000
HIER
1070
     0
1002
}
1002
{
1000
MANEDIT
1070
     0
1002
}
1002
{
1000
NOSEL
1070
     0
1002
}
1002
{
1000
BEHIND
1070
     0
1002
}
1002
{
1000
REACTOR
1002
}
1001
GENIUS_GENOBJ-N-CHA_13
1002
{
1000
OWNER
1000
GEN
1002
}
  0
LINE
  5
64B
330
1F
100
AcDbEntity
  8
0
100
AcDbLine
 10
58.98876665658375
 20
57.19997901814688
 30
0.0
 11
59.98876665658375
 21
57.19997901814688
 31
0.0
  0
LINE
  5
64C
330
1F
100
AcDbEntity
  8
0
100
AcDbLine
 10
62.10688349292794
 20
58.29997901814689
 30
0.0
 11
62.55858252017825
 21
58.29997901814689
 31
0.0
  0
LINE
  5
64D
330
1F
100
AcDbEntity
  8
0
100
AcDbLine
 10
62.00786894682835
 20
56.59997901814689
 30
0.0
 11
62.55858252017825
 21
56.59997901814689
 31
0.0
  0
ARC
  5
64E
330
1F
100
AcDbEntity
  8
0
100
AcDbCircle
 10
-946.6328004691932
 20
116.199979018146
 30
0.0
 40
1011.75
100
AcDbArc
 50
356.6682908313255
 51
356.6682908313255
  0
ARC
  5
64F
330
1F
100
AcDbEntity
  8
0
100
AcDbCircle
 10
62.55858252017825
 20
57.44997901814688
 30
0.0
 40
0.85
100
AcDbArc
 50
356.6682908313402
 51
90.0
1001
GENIUS_GENODEF_13
1002
{
1000
HIER
1070
     0
1002
}
1002
{
1000
MANEDIT
1070
     0
1002
}
1002
{
1000
NOSEL
1070
     0
1002
}
1002
{
1000
BEHIND
1070
     0
1002
}
1002
{
1000
REACTOR
1002
}
1001
GENIUS_GENOBJ-N-FIL_13
1002
{
1000
OWNER
1000
GEN
1002
}
  0
ARC
  5
650
330
1F
100
AcDbEntity
  8
0
100
AcDbCircle
 10
62.55858252017825
 20
57.44997901814688
 30
0.0
 40
0.85
100
AcDbArc
 50
270.0
 51
356.6682908313402
1001
GENIUS_GENODEF_13
1002
{
1000
HIER
1070
     0
1002
}
1002
{
1000
MANEDIT
1070
     0
1002
}
1002
{
1000
NOSEL
1070
     0
1002
}
1002
{
1000
BEHIND
1070
     0
1002
}
1002
{
1000
REACTOR
1002
}
1001
GENIUS_GENOBJ-N-FIL_13
1002
{
1000
OWNER
1000
GEN
1002
}
  0
LINE
  5
651
330
1F
100
AcDbEntity
  8
0
100
AcDbLine
 10
62.23626933124432
 20
60.59997901814689
 30
0.0
 11
62.78349001754154
 21
60.59997901814689
 31
0.0
  0
ARC
  5
652
330
1F
100
AcDbEntity
  8
0
100
AcDbCircle
 10
-946.6328004691932
 20
116.199979018146
 30
0.0
 40
1011.75
100
AcDbArc
 50
356.8953610253945
 51
356.8953610253945
  0
LINE
  5
653
330
1F
100
AcDbEntity
  8
0
100
AcDbLine
 10
62.32852188166873
 20
62.29997901814678
 30
0.0
 11
62.78349001754154
 21
62.29997901814688
 31
0.0
  0
ARC
  5
654
330
1F
100
AcDbEntity
  8
0
100
AcDbCircle
 10
-946.6328004691932
 20
116.199979018146
 30
0.0
 40
1010.4
100
AcDbArc
 50
356.9420931290319
 51
356.9515143208439
  0
ARC
  5
655
330
1F
100
AcDbEntity
  8
0
100
AcDbCircle
 10
62.78349001754154
 20
61.44997901814686
 30
0.0
 40
0.85
100
AcDbArc
 50
270.0
 51
356.8953610253945
1001
GENIUS_GENODEF_13
1002
{
1000
HIER
1070
     0
1002
}
1002
{
1000
MANEDIT
1070
     0
1002
}
1002
{
1000
NOSEL
1070
     0
1002
}
1002
{
1000
BEHIND
1070
     0
1002
}
1002
{
1000
REACTOR
1002
}
1001
GENIUS_GENOBJ-N-FIL_13
1002
{
1000
OWNER
1000
GEN
1002
}
  0
ARC
  5
656
330
1F
100
AcDbEntity
  8
0
100
AcDbCircle
 10
62.78349001754154
 20
61.44997901814686
 30
0.0
 40
0.85
100
AcDbArc
 50
356.8953610253945
 51
90.0
1001
GENIUS_GENODEF_13
1002
{
1000
HIER
1070
     0
1002
}
1002
{
1000
MANEDIT
1070
     0
1002
}
1002
{
1000
NOSEL
1070
     0
1002
}
1002
{
1000
BEHIND
1070
     0
1002
}
1002
{
1000
REACTOR
1002
}
1001
GENIUS_GENOBJ-N-FIL_13
1002
{
1000
OWNER
1000
GEN
1002
}
  0
LINE
  5
657
330
1F
100
AcDbEntity
  8
0
100
AcDbLine
 10
58.58901038145393
 20
74.19997901814688
 30
0.0
 11
57.88025406472097
 21
114.8046012093562
 31
0.0
  0
LINE
  5
658
330
1F
100
AcDbEntity
  8
0
100
AcDbLine
 10
56.88461968394282
 20
72.19997901814688
 30
0.0
 11
63.48876665658375
 21
72.19997901814688
 31
0.0
  0
LINE
  5
659
330
1F
100
AcDbEntity
  8
0
100
AcDbLine
 10
56.97177991262825
 20
74.19997901814688
 30
0.0
 11
60.98876665658375
 21
74.19997901814681
 31
0.0
  0
LINE
  5
65A
330
1F
100
AcDbEntity
  8
0
100
AcDbLine
 10
56.98876665658374
 20
74.19997901814688
 30
0.0
 11
56.98876665658374
 21
70.75360952618648
 31
0.0
  0
ARC
  5
65B
330
1F
100
AcDbEntity
  8
0
100
AcDbCircle
 10
69.98876665658372
 20
70.00853906957478
 30
0.0
 40
1.5
100
AcDbArc
 50
0.0
 51
84.00000000000479
1001
GENIUS_GENODEF_13
1002
{
1000
HIER
1070
     0
1002
}
1002
{
1000
MANEDIT
1070
     0
1002
}
1002
{
1000
NOSEL
1070
     0
1002
}
1002
{
1000
BEHIND
1070
     0
1002
}
1002
{
1000
REACTOR
1002
}
1001
GENIUS_GENOBJ-N-FIL_13
1002
{
1000
OWNER
1000
GEN
1002
}
  0
LINE
  5
65C
330
1F
100
AcDbEntity
  8
0
100
AcDbLine
 10
71.48876665658372
 20
70.00853906957478
 30
0.0
 11
71.48876665658372
 21
68.69997901814706
 31
0.0
  0
LINE
  5
65D
330
1F
100
AcDbEntity
  8
0
100
AcDbLine
 10
69.98876665658372
 20
67.19997901814709
 30
0.0
 11
67.33029550619773
 21
67.19997901814689
 31
0.0
  0
LINE
  5
65E
330
1F
100
AcDbEntity
  8
0
100
AcDbLine
 10
69.98876665658372
 20
67.19997901814709
 30
0.0
 11
71.48876665658372
 21
68.69997901814706
 31
0.0
1001
GENIUS_GENFIL_13
1070
     0
1040
1.5
1040
1.5
1040
0.4999999999999716
1040
44.99999999999674
1002
{
1002
}
1001
GENIUS_GENODEF_13
1002
{
1000
HIER
1070
     0
1002
}
1002
{
1000
MANEDIT
1070
     0
1002
}
1002
{
1000
NOSEL
1070
     0
1002
}
1002
{
1000
BEHIND
1070
     0
1002
}
1002
{
1000
REACTOR
1002
}
1001
GENIUS_GENOBJ-N-CHA_13
1002
{
1000
OWNER
1000
GEN
1002
}
  0
LINE
  5
65F
330
1F
100
AcDbEntity
  8
0
100
AcDbLine
 10
63.48876665658375
 20
72.19997901814688
 30
0.0
 11
70.14555935148513
 21
71.50032191262718
 31
0.0
  0
LINE
  5
660
330
1F
100
AcDbEntity
  8
0
100
AcDbLine
 10
60.98876665658375
 20
74.19997901814688
 30
0.0
 11
60.98876665658375
 21
72.1999790181468
 31
0.0
  0
LINE
  5
661
330
1F
100
AcDbEntity
  8
0
100
AcDbLine
 10
121.1826495366206
 20
5.686159450254733
 30
0.0
 11
116.2826495366205
 21
5.686159450254749
 31
0.0
  0
LINE
  5
662
330
1F
100
AcDbEntity
  8
0
100
AcDbLine
 10
107.2826495366204
 20
170.6999790181495
 30
0.0
 11
107.2826495366204
 21
72.19997901814688
 31
0.0
  0
LINE
  5
663
330
1F
100
AcDbEntity
  8
0
100
AcDbLine
 10
107.2826495366204
 20
6.886159450254751
 30
0.0
 11
106.6826495366204
 21
6.886159450254751
 31
0.0
  0
LINE
  5
664
330
1F
100
AcDbEntity
  8
0
100
AcDbLine
 10
121.1826495366206
 20
5.549979018149627
 30
0.0
 11
122.6826495366205
 21
5.549979018149627
 31
0.0
  0
LINE
  5
665
330
1F
100
AcDbEntity
  8
0
100
AcDbLine
 10
121.1826495366204
 20
102.9999790181504
 30
0.0
 11
121.1826495366205
 21
72.19997901814697
 31
0.0
  0
LINE
  5
666
330
1F
100
AcDbEntity
  8
0
100
AcDbLine
 10
107.2826495366204
 20
170.6999790181495
 30
0.0
 11
122.6826495366203
 21
170.6999790181495
 31
0.0
  0
LINE
  5
667
330
1F
100
AcDbEntity
  8
0
100
AcDbLine
 10
107.2826495366203
 20
169.9999790181495
 30
0.0
 11
106.6826495366205
 21
169.9999790181495
 31
0.0
  0
ARC
  5
668
330
1F
100
AcDbEntity
  8
0
100
AcDbCircle
 10
114.8826495366205
 20
14.99997901814959
 30
0.0
 40
6.5
100
AcDbArc
 50
205.5163873662658
 51
219.7151372318268
  0
LINE
  5
669
330
1F
100
AcDbEntity
  8
0
100
AcDbLine
 10
121.1826495366204
 20
102.9999790181504
 30
0.0
 11
122.6826495366204
 21
102.9999790181504
 31
0.0
  0
LINE
  5
66A
330
1F
100
AcDbEntity
  8
0
100
AcDbLine
 10
118.3467511517588
 20
9.499979018149955
 30
0.0
 11
117.8826495366204
 21
9.499979018149955
 31
0.0
  0
ARC
  5
66B
330
1F
100
AcDbEntity
  8
0
100
AcDbCircle
 10
114.8826495366205
 20
14.99997901814959
 30
0.0
 40
6.0
100
AcDbArc
 50
207.8181392846829
 51
213.5573097619211
  0
LINE
  5
66C
330
1F
100
AcDbEntity
  8
0
100
AcDbLine
 10
216.3716844229637
 20
123.690731113452
 30
0.0
 11
214.9628357512183
 21
164.0348785148521
 31
0.0
  0
LINE
  5
66D
330
1F
100
AcDbEntity
  8
0
100
AcDbLine
 10
194.8826495366205
 20
158.2499790181497
 30
0.0
 11
194.8826495366205
 21
147.9999790181496
 31
0.0
  0
LINE
  5
66E
330
1F
100
AcDbEntity
  8
0
100
AcDbLine
 10
197.8826495366205
 20
158.2499790181496
 30
0.0
 11
197.8826495366205
 21
147.9999790181496
 31
0.0
  0
LINE
  5
66F
330
1F
100
AcDbEntity
  8
0
100
AcDbLine
 10
205.8826495366205
 20
164.9999790181496
 30
0.0
 11
205.8826495366205
 21
147.9999790181496
 31
0.0
  0
LINE
  5
670
330
1F
100
AcDbEntity
  8
0
100
AcDbLine
 10
186.8826495366205
 20
164.9999790181496
 30
0.0
 11
186.8826495366205
 21
147.9999790181496
 31
0.0
  0
LINE
  5
671
330
1F
100
AcDbEntity
  8
0
100
AcDbLine
 10
176.3936146502764
 20
123.6907311134523
 30
0.0
 11
177.8024633220223
 21
164.0348785148521
 31
0.0
  0
LINE
  5
672
330
1F
100
AcDbEntity
  8
0
100
AcDbLine
 10
205.3826495366205
 20
147.9999790181496
 30
0.0
 11
187.3826495366204
 21
147.9999790181496
 31
0.0
  0
LINE
  5
673
330
1F
100
AcDbEntity
  8
0
100
AcDbLine
 10
205.3826495366205
 20
123.9999790181496
 30
0.0
 11
187.3826495366204
 21
123.9999790181496
 31
0.0
  0
ARC
  5
674
330
1F
100
AcDbEntity
  8
0
100
AcDbCircle
 10
198.38264953662
 20
123.062540172807
 30
0.0
 40
18.0
100
AcDbArc
 50
273.5833216984719
 51
2.000000000000385
1001
GENIUS_GENODEF_13
1002
{
1000
HIER
1070
     0
1002
}
1002
{
1000
MANEDIT
1070
     0
1002
}
1002
{
1000
NOSEL
1070
     0
1002
}
1002
{
1000
BEHIND
1070
     0
1002
}
1002
{
1000
REACTOR
1002
}
1001
GENIUS_GENOBJ-N-FIL_13
1002
{
1000
OWNER
1000
GEN
1002
}
  0
ARC
  5
675
330
1F
100
AcDbEntity
  8
0
100
AcDbCircle
 10
194.38264953662
 20
123.062540172807
 30
0.0
 40
18.0
100
AcDbArc
 50
177.9999999999996
 51
266.4166783015281
1001
GENIUS_GENODEF_13
1002
{
1000
HIER
1070
     0
1002
}
1002
{
1000
MANEDIT
1070
     0
1002
}
1002
{
1000
NOSEL
1070
     0
1002
}
1002
{
1000
BEHIND
1070
     0
1002
}
1002
{
1000
REACTOR
1002
}
1001
GENIUS_GENOBJ-N-FIL_13
1002
{
1000
OWNER
1000
GEN
1002
}
  0
ARC
  5
676
330
1F
100
AcDbEntity
  8
0
100
AcDbCircle
 10
196.3826495366199
 20
154.9999790181496
 30
0.0
 40
50.0
100
AcDbArc
 50
266.4166783015281
 51
273.5833216984719
  0
LINE
  5
677
330
1F
100
AcDbEntity
  8
0
100
AcDbLine
 10
186.3826495366204
 20
146.9999790181496
 30
0.0
 11
186.3826495366204
 21
124.9999790181496
 31
0.0
  0
ARC
  5
678
330
1F
100
AcDbEntity
  8
0
100
AcDbCircle
 10
187.3826495366204
 20
124.9999790181496
 30
0.0
 40
1.0
100
AcDbArc
 50
180.0
 51
270.0
1001
GENIUS_GENODEF_13
1002
{
1000
HIER
1070
     0
1002
}
1002
{
1000
MANEDIT
1070
     0
1002
}
1002
{
1000
NOSEL
1070
     0
1002
}
1002
{
1000
BEHIND
1070
     0
1002
}
1002
{
1000
REACTOR
1002
}
1001
GENIUS_GENOBJ-N-FIL_13
1002
{
1000
OWNER
1000
GEN
1002
}
  0
ARC
  5
679
330
1F
100
AcDbEntity
  8
0
100
AcDbCircle
 10
187.3826495366204
 20
146.9999790181496
 30
0.0
 40
1.0
100
AcDbArc
 50
90.0
 51
180.0
1001
GENIUS_GENODEF_13
1002
{
1000
HIER
1070
     0
1002
}
1002
{
1000
MANEDIT
1070
     0
1002
}
1002
{
1000
NOSEL
1070
     0
1002
}
1002
{
1000
BEHIND
1070
     0
1002
}
1002
{
1000
REACTOR
1002
}
1001
GENIUS_GENOBJ-N-FIL_13
1002
{
1000
OWNER
1000
GEN
1002
}
  0
LINE
  5
67A
330
1F
100
AcDbEntity
  8
0
100
AcDbLine
 10
206.3826495366205
 20
146.9999790181495
 30
0.0
 11
206.3826495366205
 21
124.9999790181496
 31
0.0
  0
ARC
  5
67B
330
1F
100
AcDbEntity
  8
0
100
AcDbCircle
 10
205.3826495366205
 20
124.9999790181496
 30
0.0
 40
1.0
100
AcDbArc
 50
270.0
 51
0.0
1001
GENIUS_GENODEF_13
1002
{
1000
HIER
1070
     0
1002
}
1002
{
1000
MANEDIT
1070
     0
1002
}
1002
{
1000
NOSEL
1070
     0
1002
}
1002
{
1000
BEHIND
1070
     0
1002
}
1002
{
1000
REACTOR
1002
}
1001
GENIUS_GENOBJ-N-FIL_13
1002
{
1000
OWNER
1000
GEN
1002
}
  0
ARC
  5
67C
330
1F
100
AcDbEntity
  8
0
100
AcDbCircle
 10
205.3826495366205
 20
146.9999790181495
 30
0.0
 40
1.0
100
AcDbArc
 50
0.0
 51
90.0
1001
GENIUS_GENODEF_13
1002
{
1000
HIER
1070
     0
1002
}
1002
{
1000
MANEDIT
1070
     0
1002
}
1002
{
1000
NOSEL
1070
     0
1002
}
1002
{
1000
BEHIND
1070
     0
1002
}
1002
{
1000
REACTOR
1002
}
1001
GENIUS_GENOBJ-N-FIL_13
1002
{
1000
OWNER
1000
GEN
1002
}
  0
ARC
  5
67D
330
1F
100
AcDbEntity
  8
0
100
AcDbCircle
 10
202.6326495366205
 20
159.4999790181496
 30
0.0
 40
0.75
100
AcDbArc
 50
0.0
 51
89.99999999999673
1001
GENIUS_GENODEF_13
1002
{
1000
HIER
1070
     0
1002
}
1002
{
1000
MANEDIT
1070
     0
1002
}
1002
{
1000
NOSEL
1070
     0
1002
}
1002
{
1000
BEHIND
1070
     0
1002
}
1002
{
1000
REACTOR
1002
}
1001
GENIUS_GENOBJ-N-FIL_13
1002
{
1000
OWNER
1000
GEN
1002
}
  0
ARC
  5
67E
330
1F
100
AcDbEntity
  8
0
100
AcDbCircle
 10
202.6326495366205
 20
151.4999790181496
 30
0.0
 40
0.75
100
AcDbArc
 50
270.0
 51
0.0
1001
GENIUS_GENODEF_13
1002
{
1000
HIER
1070
     0
1002
}
1002
{
1000
MANEDIT
1070
     0
1002
}
1002
{
1000
NOSEL
1070
     0
1002
}
1002
{
1000
BEHIND
1070
     0
1002
}
1002
{
1000
REACTOR
1002
}
1001
GENIUS_GENOBJ-N-FIL_13
1002
{
1000
OWNER
1000
GEN
1002
}
  0
LINE
  5
67F
330
1F
100
AcDbEntity
  8
0
100
AcDbLine
 10
178.8018541490415
 20
164.9999790181496
 30
0.0
 11
213.9634449241992
 21
164.9999790181496
 31
0.0
  0
CIRCLE
  5
680
330
1F
100
AcDbEntity
  8
0
100
AcDbCircle
 10
181.6326495366204
 20
154.9999790181496
 30
0.0
 40
2.75
  0
ARC
  5
681
330
1F
100
AcDbEntity
  8
0
100
AcDbCircle
 10
178.8018541490415
 20
163.9999790181496
 30
0.0
 40
1.0
100
AcDbArc
 50
90.0
 51
177.9999999999996
1001
GENIUS_GENODEF_13
1002
{
1000
HIER
1070
     0
1002
}
1002
{
1000
MANEDIT
1070
     0
1002
}
1002
{
1000
NOSEL
1070
     0
1002
}
1002
{
1000
BEHIND
1070
     0
1002
}
1002
{
1000
REACTOR
1002
}
1001
GENIUS_GENOBJ-N-FIL_13
1002
{
1000
OWNER
1000
GEN
1002
}
  0
LINE
  5
682
330
1F
100
AcDbEntity
  8
0
100
AcDbLine
 10
199.3826495366205
 20
159.7499790181496
 30
0.0
 11
199.3826495366205
 21
158.7499790181496
 31
0.0
  0
ARC
  5
683
330
1F
100
AcDbEntity
  8
0
100
AcDbCircle
 10
202.6326495366205
 20
159.4999790181496
 30
0.0
 40
0.75
100
AcDbArc
 50
90.0
 51
180.0
1001
GENIUS_GENODEF_13
1002
{
1000
HIER
1070
     0
1002
}
1002
{
1000
MANEDIT
1070
     0
1002
}
1002
{
1000
NOSEL
1070
     0
1002
}
1002
{
1000
BEHIND
1070
     0
1002
}
1002
{
1000
REACTOR
1002
}
1001
GENIUS_GENOBJ-N-FIL_13
1002
{
1000
OWNER
1000
GEN
1002
}
  0
LINE
  5
684
330
1F
100
AcDbEntity
  8
0
100
AcDbLine
 10
200.3826495366205
 20
159.7499790181496
 30
0.0
 11
200.3826495366205
 21
158.7499790181496
 31
0.0
  0
LINE
  5
685
330
1F
100
AcDbEntity
  8
0
100
AcDbLine
 10
192.3826495366204
 20
159.7499790181496
 30
0.0
 11
192.3826495366204
 21
158.7499790181496
 31
0.0
  0
LINE
  5
686
330
1F
100
AcDbEntity
  8
0
100
AcDbLine
 10
193.3826495366204
 20
159.7499790181496
 30
0.0
 11
193.3826495366204
 21
158.7499790181496
 31
0.0
  0
ARC
  5
687
330
1F
100
AcDbEntity
  8
0
100
AcDbCircle
 10
190.1326495366205
 20
159.4999790181496
 30
0.0
 40
0.75
100
AcDbArc
 50
90.0
 51
180.0
1001
GENIUS_GENODEF_13
1002
{
1000
HIER
1070
     0
1002
}
1002
{
1000
MANEDIT
1070
     0
1002
}
1002
{
1000
NOSEL
1070
     0
1002
}
1002
{
1000
BEHIND
1070
     0
1002
}
1002
{
1000
REACTOR
1002
}
1001
GENIUS_GENOBJ-N-FIL_13
1002
{
1000
OWNER
1000
GEN
1002
}
  0
ARC
  5
688
330
1F
100
AcDbEntity
  8
0
100
AcDbCircle
 10
190.1326495366205
 20
159.4999790181496
 30
0.0
 40
0.75
100
AcDbArc
 50
0.0
 51
90.0
1001
GENIUS_GENODEF_13
1002
{
1000
HIER
1070
     0
1002
}
1002
{
1000
MANEDIT
1070
     0
1002
}
1002
{
1000
NOSEL
1070
     0
1002
}
1002
{
1000
BEHIND
1070
     0
1002
}
1002
{
1000
REACTOR
1002
}
1001
GENIUS_GENOBJ-N-FIL_13
1002
{
1000
OWNER
1000
GEN
1002
}
  0
LINE
  5
689
330
1F
100
AcDbEntity
  8
0
100
AcDbLine
 10
190.8826495366205
 20
159.4999790181496
 30
0.0
 11
190.8826495366205
 21
151.4999790181496
 31
0.0
  0
LINE
  5
68A
330
1F
100
AcDbEntity
  8
0
100
AcDbLine
 10
189.3826495366204
 20
159.4999790181496
 30
0.0
 11
189.3826495366204
 21
151.4999790181496
 31
0.0
  0
LINE
  5
68B
330
1F
100
AcDbEntity
  8
0
100
AcDbLine
 10
193.8826495366205
 20
157.2499790181496
 30
0.0
 11
193.8826495366205
 21
149.9999790181496
 31
0.0
  0
ARC
  5
68C
330
1F
100
AcDbEntity
  8
0
100
AcDbCircle
 10
190.1326495366205
 20
151.4999790181496
 30
0.0
 40
0.75
100
AcDbArc
 50
270.0
 51
0.0
1001
GENIUS_GENODEF_13
1002
{
1000
HIER
1070
     0
1002
}
1002
{
1000
MANEDIT
1070
     0
1002
}
1002
{
1000
NOSEL
1070
     0
1002
}
1002
{
1000
BEHIND
1070
     0
1002
}
1002
{
1000
REACTOR
1002
}
1001
GENIUS_GENOBJ-N-FIL_13
1002
{
1000
OWNER
1000
GEN
1002
}
  0
LINE
  5
68D
330
1F
100
AcDbEntity
  8
0
100
AcDbLine
 10
190.1326495366205
 20
150.7499790181497
 30
0.0
 11
190.1326495366205
 21
150.7499790181497
 31
0.0
  0
ARC
  5
68E
330
1F
100
AcDbEntity
  8
0
100
AcDbCircle
 10
190.1326495366205
 20
151.4999790181496
 30
0.0
 40
0.75
100
AcDbArc
 50
180.0
 51
270.0
1001
GENIUS_GENODEF_13
1002
{
1000
HIER
1070
     0
1002
}
1002
{
1000
MANEDIT
1070
     0
1002
}
1002
{
1000
NOSEL
1070
     0
1002
}
1002
{
1000
BEHIND
1070
     0
1002
}
1002
{
1000
REACTOR
1002
}
1001
GENIUS_GENOBJ-N-FIL_13
1002
{
1000
OWNER
1000
GEN
1002
}
  0
LINE
  5
68F
330
1F
100
AcDbEntity
  8
0
100
AcDbLine
 10
194.8826495366205
 20
149.9999790181496
 30
0.0
 11
193.8826495366205
 21
149.9999790181496
 31
0.0
  0
LINE
  5
690
330
1F
100
AcDbEntity
  8
0
100
AcDbLine
 10
193.8826495366205
 20
158.2499790181497
 30
0.0
 11
194.8826495366205
 21
158.2499790181497
 31
0.0
  0
ARC
  5
691
330
1F
100
AcDbEntity
  8
0
100
AcDbCircle
 10
193.8826495366205
 20
158.7499790181496
 30
0.0
 40
1.5
100
AcDbArc
 50
180.0
 51
270.0
1001
GENIUS_GENODEF_13
1002
{
1000
HIER
1070
     0
1002
}
1002
{
1000
MANEDIT
1070
     0
1002
}
1002
{
1000
NOSEL
1070
     0
1002
}
1002
{
1000
BEHIND
1070
     0
1002
}
1002
{
1000
REACTOR
1002
}
1001
GENIUS_GENOBJ-N-FIL_13
1002
{
1000
OWNER
1000
GEN
1002
}
  0
LINE
  5
692
330
1F
100
AcDbEntity
  8
0
100
AcDbLine
 10
193.8826495366205
 20
157.2499790181496
 30
0.0
 11
193.8826495366205
 21
157.2499790181496
 31
0.0
  0
ARC
  5
693
330
1F
100
AcDbEntity
  8
0
100
AcDbCircle
 10
193.8826495366205
 20
158.7499790181496
 30
0.0
 40
0.5
100
AcDbArc
 50
180.0
 51
270.0
1001
GENIUS_GENODEF_13
1002
{
1000
HIER
1070
     0
1002
}
1002
{
1000
MANEDIT
1070
     0
1002
}
1002
{
1000
NOSEL
1070
     0
1002
}
1002
{
1000
BEHIND
1070
     0
1002
}
1002
{
1000
REACTOR
1002
}
1001
GENIUS_GENOBJ-N-FIL_13
1002
{
1000
OWNER
1000
GEN
1002
}
  0
LINE
  5
694
330
1F
100
AcDbEntity
  8
0
100
AcDbLine
 10
201.8826495366205
 20
159.4999790181496
 30
0.0
 11
201.8826495366205
 21
151.4999790181496
 31
0.0
  0
LINE
  5
695
330
1F
100
AcDbEntity
  8
0
100
AcDbLine
 10
203.3826495366205
 20
159.4999790181496
 30
0.0
 11
203.3826495366205
 21
151.4999790181496
 31
0.0
  0
LINE
  5
696
330
1F
100
AcDbEntity
  8
0
100
AcDbLine
 10
198.8826495366204
 20
157.2499790181496
 30
0.0
 11
198.8826495366204
 21
149.9999790181496
 31
0.0
  0
LINE
  5
697
330
1F
100
AcDbEntity
  8
0
100
AcDbLine
 10
198.8826495366204
 20
149.9999790181496
 30
0.0
 11
197.8826495366205
 21
149.9999790181496
 31
0.0
  0
LINE
  5
698
330
1F
100
AcDbEntity
  8
0
100
AcDbLine
 10
202.6326495366205
 20
150.7499790181497
 30
0.0
 11
202.6326495366205
 21
150.7499790181497
 31
0.0
  0
ARC
  5
699
330
1F
100
AcDbEntity
  8
0
100
AcDbCircle
 10
202.6326495366205
 20
151.4999790181496
 30
0.0
 40
0.75
100
AcDbArc
 50
180.0
 51
269.9999999999968
1001
GENIUS_GENODEF_13
1002
{
1000
HIER
1070
     0
1002
}
1002
{
1000
MANEDIT
1070
     0
1002
}
1002
{
1000
NOSEL
1070
     0
1002
}
1002
{
1000
BEHIND
1070
     0
1002
}
1002
{
1000
REACTOR
1002
}
1001
GENIUS_GENOBJ-N-FIL_13
1002
{
1000
OWNER
1000
GEN
1002
}
  0
ARC
  5
69A
330
1F
100
AcDbEntity
  8
0
100
AcDbCircle
 10
198.8826495366204
 20
158.7499790181496
 30
0.0
 40
1.5
100
AcDbArc
 50
270.0
 51
0.0
1001
GENIUS_GENODEF_13
1002
{
1000
HIER
1070
     0
1002
}
1002
{
1000
MANEDIT
1070
     0
1002
}
1002
{
1000
NOSEL
1070
     0
1002
}
1002
{
1000
BEHIND
1070
     0
1002
}
1002
{
1000
REACTOR
1002
}
1001
GENIUS_GENOBJ-N-FIL_13
1002
{
1000
OWNER
1000
GEN
1002
}
  0
ARC
  5
69B
330
1F
100
AcDbEntity
  8
0
100
AcDbCircle
 10
198.8826495366204
 20
158.7499790181496
 30
0.0
 40
0.5
100
AcDbArc
 50
270.0
 51
0.0
1001
GENIUS_GENODEF_13
1002
{
1000
HIER
1070
     0
1002
}
1002
{
1000
MANEDIT
1070
     0
1002
}
1002
{
1000
NOSEL
1070
     0
1002
}
1002
{
1000
BEHIND
1070
     0
1002
}
1002
{
1000
REACTOR
1002
}
1001
GENIUS_GENOBJ-N-FIL_13
1002
{
1000
OWNER
1000
GEN
1002
}
  0
LINE
  5
69C
330
1F
100
AcDbEntity
  8
0
100
AcDbLine
 10
197.8826495366205
 20
158.2499790181497
 30
0.0
 11
198.8826495366204
 21
158.2499790181497
 31
0.0
  0
LINE
  5
69D
330
1F
100
AcDbEntity
  8
0
100
AcDbLine
 10
198.8826495366204
 20
157.2499790181496
 30
0.0
 11
198.8826495366204
 21
157.2499790181496
 31
0.0
  0
LINE
  5
69E
330
1F
100
AcDbEntity
  8
0
100
AcDbLine
 10
193.8826495366205
 20
161.2499790181496
 30
0.0
 11
198.8826495366204
 21
161.2499790181496
 31
0.0
  0
LINE
  5
69F
330
1F
100
AcDbEntity
  8
0
100
AcDbLine
 10
193.8826495366205
 20
160.2499790181497
 30
0.0
 11
198.8826495366204
 21
160.2499790181497
 31
0.0
  0
LINE
  5
6A0
330
1F
100
AcDbEntity
  8
0
100
AcDbLine
 10
190.1326495366205
 20
160.2499790181497
 30
0.0
 11
190.1326495366205
 21
160.2499790181497
 31
0.0
  0
ARC
  5
6A1
330
1F
100
AcDbEntity
  8
0
100
AcDbCircle
 10
193.8826495366205
 20
159.7499790181496
 30
0.0
 40
1.5
100
AcDbArc
 50
90.0
 51
180.0
1001
GENIUS_GENODEF_13
1002
{
1000
HIER
1070
     0
1002
}
1002
{
1000
MANEDIT
1070
     0
1002
}
1002
{
1000
NOSEL
1070
     0
1002
}
1002
{
1000
BEHIND
1070
     0
1002
}
1002
{
1000
REACTOR
1002
}
1001
GENIUS_GENOBJ-N-FIL_13
1002
{
1000
OWNER
1000
GEN
1002
}
  0
ARC
  5
6A2
330
1F
100
AcDbEntity
  8
0
100
AcDbCircle
 10
193.8826495366205
 20
159.7499790181496
 30
0.0
 40
0.5
100
AcDbArc
 50
90.0
 51
180.0
1001
GENIUS_GENODEF_13
1002
{
1000
HIER
1070
     0
1002
}
1002
{
1000
MANEDIT
1070
     0
1002
}
1002
{
1000
NOSEL
1070
     0
1002
}
1002
{
1000
BEHIND
1070
     0
1002
}
1002
{
1000
REACTOR
1002
}
1001
GENIUS_GENOBJ-N-FIL_13
1002
{
1000
OWNER
1000
GEN
1002
}
  0
ARC
  5
6A3
330
1F
100
AcDbEntity
  8
0
100
AcDbCircle
 10
198.8826495366204
 20
159.7499790181496
 30
0.0
 40
1.5
100
AcDbArc
 50
0.0
 51
90.0
1001
GENIUS_GENODEF_13
1002
{
1000
HIER
1070
     0
1002
}
1002
{
1000
MANEDIT
1070
     0
1002
}
1002
{
1000
NOSEL
1070
     0
1002
}
1002
{
1000
BEHIND
1070
     0
1002
}
1002
{
1000
REACTOR
1002
}
1001
GENIUS_GENOBJ-N-FIL_13
1002
{
1000
OWNER
1000
GEN
1002
}
  0
ARC
  5
6A4
330
1F
100
AcDbEntity
  8
0
100
AcDbCircle
 10
198.8826495366204
 20
159.7499790181496
 30
0.0
 40
0.5
100
AcDbArc
 50
0.0
 51
90.0
1001
GENIUS_GENODEF_13
1002
{
1000
HIER
1070
     0
1002
}
1002
{
1000
MANEDIT
1070
     0
1002
}
1002
{
1000
NOSEL
1070
     0
1002
}
1002
{
1000
BEHIND
1070
     0
1002
}
1002
{
1000
REACTOR
1002
}
1001
GENIUS_GENOBJ-N-FIL_13
1002
{
1000
OWNER
1000
GEN
1002
}
  0
LINE
  5
6A5
330
1F
100
AcDbEntity
  8
0
100
AcDbLine
 10
202.6326495366205
 20
160.2499790181497
 30
0.0
 11
202.6326495366205
 21
160.2499790181497
 31
0.0
  0
CIRCLE
  5
6A6
330
1F
100
AcDbEntity
  8
0
100
AcDbCircle
 10
211.1326495366204
 20
154.9999790181494
 30
0.0
 40
2.75
  0
ARC
  5
6A7
330
1F
100
AcDbEntity
  8
0
100
AcDbCircle
 10
213.9634449241992
 20
163.9999790181496
 30
0.0
 40
1.0
100
AcDbArc
 50
2.000000000000385
 51
90.0
1001
GENIUS_GENODEF_13
1002
{
1000
HIER
1070
     0
1002
}
1002
{
1000
MANEDIT
1070
     0
1002
}
1002
{
1000
NOSEL
1070
     0
1002
}
1002
{
1000
BEHIND
1070
     0
1002
}
1002
{
1000
REACTOR
1002
}
1001
GENIUS_GENOBJ-N-FIL_13
1002
{
1000
OWNER
1000
GEN
1002
}
  0
CIRCLE
  5
6A8
330
1F
100
AcDbEntity
  8
0
100
AcDbCircle
 10
181.6326495366205
 20
154.9999790181496
 30
0.0
 40
2.5
  0
LINE
  5
6A9
330
1F
100
AcDbEntity
  8
0
370
    15
100
AcDbLine
 10
179.8121949911659
 20
155.3272517454223
 30
0.0
 11
179.8121949911659
 21
154.6727062908769
 31
0.0
  0
LINE
  5
6AA
330
1F
100
AcDbEntity
  8
0
370
    15
100
AcDbLine
 10
183.4531040820752
 20
155.3272517454223
 30
0.0
 11
183.4531040820751
 21
154.6727062908769
 31
0.0
  0
LINE
  5
6AB
330
1F
100
AcDbEntity
  8
0
370
    15
100
AcDbLine
 10
181.9599222638931
 20
154.6727062908768
 30
0.0
 11
183.4531040820751
 21
154.6727062908769
 31
0.0
  0
LINE
  5
6AC
330
1F
100
AcDbEntity
  8
0
370
    15
100
AcDbLine
 10
181.9599222638931
 20
154.6727062908768
 30
0.0
 11
181.9599222638932
 21
153.179524472695
 31
0.0
  0
LINE
  5
6AD
330
1F
100
AcDbEntity
  8
0
370
    15
100
AcDbLine
 10
181.3053768093477
 20
154.6727062908768
 30
0.0
 11
181.3053768093478
 21
153.179524472695
 31
0.0
  0
LINE
  5
6AE
330
1F
100
AcDbEntity
  8
0
370
    15
100
AcDbLine
 10
181.3053768093478
 20
153.179524472695
 30
0.0
 11
181.9599222638932
 21
153.179524472695
 31
0.0
  0
LINE
  5
6AF
330
1F
100
AcDbEntity
  8
0
370
    15
100
AcDbLine
 10
179.8121949911659
 20
154.6727062908768
 30
0.0
 11
181.3053768093477
 21
154.6727062908769
 31
0.0
  0
LINE
  5
6B0
330
1F
100
AcDbEntity
  8
0
370
    15
100
AcDbLine
 10
181.9599222638932
 20
155.3272517454223
 30
0.0
 11
183.4531040820751
 21
155.3272517454223
 31
0.0
  0
LINE
  5
6B1
330
1F
100
AcDbEntity
  8
0
370
    15
100
AcDbLine
 10
181.9599222638932
 20
156.8204335636041
 30
0.0
 11
181.9599222638931
 21
155.3272517454223
 31
0.0
  0
LINE
  5
6B2
330
1F
100
AcDbEntity
  8
0
370
    15
100
AcDbLine
 10
181.3053768093479
 20
156.8204335636041
 30
0.0
 11
181.9599222638932
 21
156.8204335636041
 31
0.0
  0
LINE
  5
6B3
330
1F
100
AcDbEntity
  8
0
370
    15
100
AcDbLine
 10
181.3053768093478
 20
156.8204335636041
 30
0.0
 11
181.3053768093477
 21
155.3272517454223
 31
0.0
  0
LINE
  5
6B4
330
1F
100
AcDbEntity
  8
0
370
    15
100
AcDbLine
 10
179.8121949911659
 20
155.3272517454223
 30
0.0
 11
181.3053768093477
 21
155.3272517454223
 31
0.0
  0
CIRCLE
  5
6B5
330
1F
100
AcDbEntity
  8
0
100
AcDbCircle
 10
211.1326495366204
 20
154.9999790181496
 30
0.0
 40
2.5
  0
LINE
  5
6B6
330
1F
100
AcDbEntity
  8
0
370
    15
100
AcDbLine
 10
209.3121949911659
 20
155.3272517454223
 30
0.0
 11
209.3121949911659
 21
154.6727062908769
 31
0.0
  0
LINE
  5
6B7
330
1F
100
AcDbEntity
  8
0
370
    15
100
AcDbLine
 10
212.9531040820752
 20
155.3272517454223
 30
0.0
 11
212.9531040820751
 21
154.6727062908769
 31
0.0
  0
LINE
  5
6B8
330
1F
100
AcDbEntity
  8
0
370
    15
100
AcDbLine
 10
211.459922263893
 20
154.6727062908768
 30
0.0
 11
212.9531040820751
 21
154.6727062908769
 31
0.0
  0
LINE
  5
6B9
330
1F
100
AcDbEntity
  8
0
370
    15
100
AcDbLine
 10
211.459922263893
 20
154.6727062908768
 30
0.0
 11
211.4599222638931
 21
153.179524472695
 31
0.0
  0
LINE
  5
6BA
330
1F
100
AcDbEntity
  8
0
370
    15
100
AcDbLine
 10
210.8053768093476
 20
154.6727062908768
 30
0.0
 11
210.8053768093477
 21
153.179524472695
 31
0.0
  0
LINE
  5
6BB
330
1F
100
AcDbEntity
  8
0
370
    15
100
AcDbLine
 10
210.8053768093477
 20
153.179524472695
 30
0.0
 11
211.4599222638931
 21
153.179524472695
 31
0.0
  0
LINE
  5
6BC
330
1F
100
AcDbEntity
  8
0
370
    15
100
AcDbLine
 10
209.3121949911659
 20
154.6727062908768
 30
0.0
 11
210.8053768093476
 21
154.6727062908769
 31
0.0
  0
LINE
  5
6BD
330
1F
100
AcDbEntity
  8
0
370
    15
100
AcDbLine
 10
211.4599222638931
 20
155.3272517454223
 30
0.0
 11
212.9531040820751
 21
155.3272517454223
 31
0.0
  0
LINE
  5
6BE
330
1F
100
AcDbEntity
  8
0
370
    15
100
AcDbLine
 10
211.4599222638931
 20
156.8204335636041
 30
0.0
 11
211.459922263893
 21
155.3272517454223
 31
0.0
  0
LINE
  5
6BF
330
1F
100
AcDbEntity
  8
0
370
    15
100
AcDbLine
 10
210.8053768093478
 20
156.8204335636041
 30
0.0
 11
211.4599222638931
 21
156.8204335636041
 31
0.0
  0
LINE
  5
6C0
330
1F
100
AcDbEntity
  8
0
370
    15
100
AcDbLine
 10
210.8053768093477
 20
156.8204335636041
 30
0.0
 11
210.8053768093476
 21
155.3272517454223
 31
0.0
  0
LINE
  5
6C1
330
1F
100
AcDbEntity
  8
0
370
    15
100
AcDbLine
 10
209.3121949911659
 20
155.3272517454223
 30
0.0
 11
210.8053768093476
 21
155.3272517454223
 31
0.0
  0
LINE
  5
6C2
330
1F
100
AcDbEntity
  8
0
100
AcDbLine
 10
128.3826495366205
 20
5.096270219933018
 30
0.0
 11
128.3826495366205
 21
170.9036878163661
 31
0.0
  0
LINE
  5
6C3
330
1F
100
AcDbEntity
  8
0
100
AcDbLine
 10
99.38264953662054
 20
5.096270219933018
 30
0.0
 11
99.38264953662054
 21
170.9036878163661
 31
0.0
  0
LINE
  5
6C4
330
1F
100
AcDbEntity
  8
0
100
AcDbLine
 10
122.6826495366206
 20
1.499979018149474
 30
0.0
 11
122.6826495366205
 21
12.24603981672996
 31
0.0
  0
LINE
  5
6C5
330
1F
100
AcDbEntity
  8
0
100
AcDbLine
 10
105.0826495366205
 20
1.499979018149588
 30
0.0
 11
105.0826495366205
 21
12.24603981672987
 31
0.0
  0
LINE
  5
6C6
330
1F
100
AcDbEntity
  8
0
100
AcDbLine
 10
123.1826495366205
 20
174.9999790181496
 30
0.0
 11
125.544133055907
 21
174.9999790181496
 31
0.0
  0
LINE
  5
6C7
330
1F
100
AcDbEntity
  8
0
100
AcDbLine
 10
123.1826495366205
 20
174.9999790181496
 30
0.0
 11
122.6826495366205
 21
174.4999790181496
 31
0.0
1001
GENIUS_GENFIL_13
1070
     0
1040
0.5
1040
0.5
1040
0.5
1040
44.99999999999835
1000
~T
1001
GENIUS_GENOREF_13
1005
0
  0
LINE
  5
6C8
330
1F
100
AcDbEntity
  8
0
100
AcDbLine
 10
127.4010864376775
 20
173.7427603708579
 30
0.0
 11
128.239602918391
 21
171.6464691690742
 31
0.0
  0
ARC
  5
6C9
330
1F
100
AcDbEntity
  8
0
100
AcDbCircle
 10
125.544133055907
 20
172.9999790181496
 30
0.0
 40
2.0
100
AcDbArc
 50
21.80140948635212
 51
90.0
1001
GENIUS_GENODEF_13
1002
{
1000
HIER
1070
     0
1002
}
1002
{
1000
MANEDIT
1070
     0
1002
}
1002
{
1000
NOSEL
1070
     0
1002
}
1002
{
1000
BEHIND
1070
     0
1002
}
1002
{
1000
REACTOR
1002
}
1001
GENIUS_GENOBJ-N-FIL_13
1002
{
1000
OWNER
1000
GEN
1002
}
  0
ARC
  5
6CA
330
1F
100
AcDbEntity
  8
0
100
AcDbCircle
 10
126.3826495366205
 20
170.9036878163661
 30
0.0
 40
2.0
100
AcDbArc
 50
0.0
 51
21.80140948635212
1001
GENIUS_GENODEF_13
1002
{
1000
HIER
1070
     0
1002
}
1002
{
1000
MANEDIT
1070
     0
1002
}
1002
{
1000
NOSEL
1070
     0
1002
}
1002
{
1000
BEHIND
1070
     0
1002
}
1002
{
1000
REACTOR
1002
}
1001
GENIUS_GENOBJ-N-FIL_13
1002
{
1000
OWNER
1000
GEN
1002
}
  0
ARC
  5
6CB
330
1F
100
AcDbEntity
  8
0
100
AcDbCircle
 10
102.2211660173339
 20
172.9999790181496
 30
0.0
 40
2.0
100
AcDbArc
 50
90.0
 51
158.1985905136479
1001
GENIUS_GENODEF_13
1002
{
1000
HIER
1070
     0
1002
}
1002
{
1000
MANEDIT
1070
     0
1002
}
1002
{
1000
NOSEL
1070
     0
1002
}
1002
{
1000
BEHIND
1070
     0
1002
}
1002
{
1000
REACTOR
1002
}
1001
GENIUS_GENOBJ-N-FIL_13
1002
{
1000
OWNER
1000
GEN
1002
}
  0
LINE
  5
6CC
330
1F
100
AcDbEntity
  8
0
100
AcDbLine
 10
104.5826495366205
 20
174.9999790181496
 30
0.0
 11
105.0826495366205
 21
174.4999790181496
 31
0.0
1001
GENIUS_GENFIL_13
1070
     0
1040
0.5
1040
0.5
1040
0.5
1040
44.99999999999835
1000
~T
  0
LINE
  5
6CD
330
1F
100
AcDbEntity
  8
0
100
AcDbLine
 10
104.5826495366205
 20
174.9999790181496
 30
0.0
 11
102.2211660173339
 21
174.9999790181496
 31
0.0
  0
ARC
  5
6CE
330
1F
100
AcDbEntity
  8
0
100
AcDbCircle
 10
101.3826495366205
 20
170.9036878163661
 30
0.0
 40
2.0
100
AcDbArc
 50
158.1985905136479
 51
180.0
1001
GENIUS_GENODEF_13
1002
{
1000
HIER
1070
     0
1002
}
1002
{
1000
MANEDIT
1070
     0
1002
}
1002
{
1000
NOSEL
1070
     0
1002
}
1002
{
1000
BEHIND
1070
     0
1002
}
1002
{
1000
REACTOR
1002
}
1001
GENIUS_GENOBJ-N-FIL_13
1002
{
1000
OWNER
1000
GEN
1002
}
  0
LINE
  5
6CF
330
1F
100
AcDbEntity
  8
0
100
AcDbLine
 10
100.3642126355634
 20
173.7427603708579
 30
0.0
 11
99.52569615485003
 21
171.6464691690742
 31
0.0
  0
ARC
  5
6D0
330
1F
100
AcDbEntity
  8
0
100
AcDbCircle
 10
125.544133055907
 20
2.999979018149388
 30
0.0
 40
2.0
100
AcDbArc
 50
270.0
 51
338.198590513648
1001
GENIUS_GENODEF_13
1002
{
1000
HIER
1070
     0
1002
}
1002
{
1000
MANEDIT
1070
     0
1002
}
1002
{
1000
NOSEL
1070
     0
1002
}
1002
{
1000
BEHIND
1070
     0
1002
}
1002
{
1000
REACTOR
1002
}
1001
GENIUS_GENOBJ-N-FIL_13
1002
{
1000
OWNER
1000
GEN
1002
}
  0
LINE
  5
6D1
330
1F
100
AcDbEntity
  8
0
100
AcDbLine
 10
123.1826495366205
 20
0.9999790181495241
 30
0.0
 11
122.6826495366205
 21
1.499979018149559
 31
0.0
1001
GENIUS_GENFIL_13
1070
     0
1040
0.5
1040
0.5
1040
0.5
1040
44.99999999999835
1000
~T
  0
LINE
  5
6D2
330
1F
100
AcDbEntity
  8
0
100
AcDbLine
 10
123.1826495366205
 20
0.9999790181495241
 30
0.0
 11
125.544133055907
 21
0.999979018149389
 31
0.0
  0
ARC
  5
6D3
330
1F
100
AcDbEntity
  8
0
100
AcDbCircle
 10
126.3826495366205
 20
5.096270219933018
 30
0.0
 40
2.0
100
AcDbArc
 50
338.198590513648
 51
0.0
1001
GENIUS_GENODEF_13
1002
{
1000
HIER
1070
     0
1002
}
1002
{
1000
MANEDIT
1070
     0
1002
}
1002
{
1000
NOSEL
1070
     0
1002
}
1002
{
1000
BEHIND
1070
     0
1002
}
1002
{
1000
REACTOR
1002
}
1001
GENIUS_GENOBJ-N-FIL_13
1002
{
1000
OWNER
1000
GEN
1002
}
  0
LINE
  5
6D4
330
1F
100
AcDbEntity
  8
0
100
AcDbLine
 10
127.4010864376775
 20
2.257197665441218
 30
0.0
 11
128.239602918391
 21
4.353488867224797
 31
0.0
  0
ARC
  5
6D5
330
1F
100
AcDbEntity
  8
0
100
AcDbCircle
 10
102.2211660173339
 20
2.999979018149388
 30
0.0
 40
2.0
100
AcDbArc
 50
201.8014094863521
 51
270.0
1001
GENIUS_GENODEF_13
1002
{
1000
HIER
1070
     0
1002
}
1002
{
1000
MANEDIT
1070
     0
1002
}
1002
{
1000
NOSEL
1070
     0
1002
}
1002
{
1000
BEHIND
1070
     0
1002
}
1002
{
1000
REACTOR
1002
}
1001
GENIUS_GENOBJ-N-FIL_13
1002
{
1000
OWNER
1000
GEN
1002
}
  0
LINE
  5
6D6
330
1F
100
AcDbEntity
  8
0
100
AcDbLine
 10
104.5826495366205
 20
0.9999790181495241
 30
0.0
 11
102.2211660173339
 21
0.999979018149389
 31
0.0
  0
LINE
  5
6D7
330
1F
100
AcDbEntity
  8
0
100
AcDbLine
 10
100.3642126355634
 20
2.257197665441218
 30
0.0
 11
99.52569615485003
 21
4.353488867224797
 31
0.0
  0
ARC
  5
6D8
330
1F
100
AcDbEntity
  8
0
100
AcDbCircle
 10
101.3826495366205
 20
5.096270219933018
 30
0.0
 40
2.0
100
AcDbArc
 50
180.0
 51
201.8014094863521
1001
GENIUS_GENODEF_13
1002
{
1000
HIER
1070
     0
1002
}
1002
{
1000
MANEDIT
1070
     0
1002
}
1002
{
1000
NOSEL
1070
     0
1002
}
1002
{
1000
BEHIND
1070
     0
1002
}
1002
{
1000
REACTOR
1002
}
1001
GENIUS_GENOBJ-N-FIL_13
1002
{
1000
OWNER
1000
GEN
1002
}
  0
LINE
  5
6D9
330
1F
100
AcDbEntity
  8
0
100
AcDbLine
 10
104.5826495366205
 20
0.9999790181495241
 30
0.0
 11
105.0826495366205
 21
1.499979018149559
 31
0.0
1001
GENIUS_GENFIL_13
1070
     0
1040
0.5
1040
0.5
1040
0.5
1040
44.99999999999835
1000
~T
  0
LINE
  5
6DA
330
1F
100
AcDbEntity
  8
0
100
AcDbLine
 10
123.3826495366205
 20
71.19997901814688
 30
0.0
 11
123.3826495366205
 21
13.19997901814689
 31
0.0
  0
LINE
  5
6DB
330
1F
100
AcDbEntity
  8
0
100
AcDbLine
 10
104.3826495366204
 20
71.19997901814688
 30
0.0
 11
104.3826495366204
 21
13.19997901814685
 31
0.0
  0
ELLIPSE
  5
6DC
330
1F
100
AcDbEntity
  8
0
100
AcDbEllipse
 10
113.8826495366204
 20
8.437688177840982
 30
0.0
 11
3.999999999999971
 21
-0.0000000000244516
 31
0.0
210
0.0
220
0.0
230
1.0
 40
0.6427876142002919
 41
3.141592653589811
 42
6.283185307179605
  0
LINE
  5
6DD
330
1F
100
AcDbEntity
  8
0
100
AcDbLine
 10
105.3826495366204
 20
12.19997901814688
 30
0.0
 11
122.3826495366205
 21
12.19997901814688
 31
0.0
  0
ARC
  5
6DE
330
1F
100
AcDbEntity
  8
0
100
AcDbCircle
 10
105.3826495366204
 20
13.19997901814685
 30
0.0
 40
1.0
100
AcDbArc
 50
180.0
 51
270.0
1001
GENIUS_GENODEF_13
1002
{
1000
HIER
1070
     0
1002
}
1002
{
1000
MANEDIT
1070
     0
1002
}
1002
{
1000
NOSEL
1070
     0
1002
}
1002
{
1000
BEHIND
1070
     0
1002
}
1002
{
1000
REACTOR
1002
}
1001
GENIUS_GENOBJ-N-FIL_13
1002
{
1000
OWNER
1000
GEN
1002
}
  0
ARC
  5
6DF
330
1F
100
AcDbEntity
  8
0
100
AcDbCircle
 10
122.3826495366205
 20
13.19997901814689
 30
0.0
 40
1.0
100
AcDbArc
 50
270.0
 51
0.0
1001
GENIUS_GENODEF_13
1002
{
1000
HIER
1070
     0
1002
}
1002
{
1000
MANEDIT
1070
     0
1002
}
1002
{
1000
NOSEL
1070
     0
1002
}
1002
{
1000
BEHIND
1070
     0
1002
}
1002
{
1000
REACTOR
1002
}
1001
GENIUS_GENOBJ-N-FIL_13
1002
{
1000
OWNER
1000
GEN
1002
}
  0
LINE
  5
6E0
330
1F
100
AcDbEntity
  8
0
100
AcDbLine
 10
109.8826495366205
 20
12.19997901814688
 30
0.0
 11
109.8826495366205
 21
8.437688177865366
 31
0.0
1001
GENIUS_GENODEF_13
1002
{
1000
HIER
1070
     0
1002
}
1002
{
1000
MANEDIT
1070
     0
1002
}
1002
{
1000
NOSEL
1070
     0
1002
}
1002
{
1000
BEHIND
1070
     0
1002
}
1002
{
1000
REACTOR
1002
}
1001
GENIUS_GENOBJ-N-CEN_13
1002
{
1000
OWNER
1000
GEN
1002
}
  0
LINE
  5
6E1
330
1F
100
AcDbEntity
  8
0
100
AcDbLine
 10
117.8826495366205
 20
12.19997901814688
 30
0.0
 11
117.8826495366204
 21
8.437688177816582
 31
0.0
1001
GENIUS_GENODEF_13
1002
{
1000
HIER
1070
     0
1002
}
1002
{
1000
MANEDIT
1070
     0
1002
}
1002
{
1000
NOSEL
1070
     0
1002
}
1002
{
1000
BEHIND
1070
     0
1002
}
1002
{
1000
REACTOR
1002
}
1001
GENIUS_GENOBJ-N-CEN_13
1002
{
1000
OWNER
1000
GEN
1002
}
  0
LINE
  5
6E2
330
1F
100
AcDbEntity
  8
0
100
AcDbLine
 10
123.3826495366204
 20
67.19997901814699
 30
0.0
 11
104.3826495366204
 21
67.19997901814699
 31
0.0
  0
LINE
  5
6E3
330
1F
100
AcDbEntity
  8
0
100
AcDbLine
 10
123.3826495366204
 20
68.69997901814706
 30
0.0
 11
104.3826495366204
 21
68.69997901814706
 31
0.0
  0
LINE
  5
6E4
330
1F
100
AcDbEntity
  8
0
100
AcDbLine
 10
120.5326495366205
 20
62.29997901814688
 30
0.0
 11
107.2326495366205
 21
62.29997901814688
 31
0.0
  0
LINE
  5
6E5
330
1F
100
AcDbEntity
  8
0
100
AcDbLine
 10
120.5326495366205
 20
60.59997901814679
 30
0.0
 11
107.2326495366205
 21
60.59997901814679
 31
0.0
  0
LINE
  5
6E6
330
1F
100
AcDbEntity
  8
0
100
AcDbLine
 10
120.5326495366205
 20
58.29997901814689
 30
0.0
 11
107.2326495366205
 21
58.29997901814689
 31
0.0
  0
LINE
  5
6E7
330
1F
100
AcDbEntity
  8
0
100
AcDbLine
 10
120.5326495366205
 20
56.59997901814678
 30
0.0
 11
107.2326495366205
 21
56.59997901814678
 31
0.0
  0
LINE
  5
6E8
330
1F
100
AcDbEntity
  8
0
100
AcDbLine
 10
120.5326495366205
 20
54.29997901814688
 30
0.0
 11
107.2326495366205
 21
54.29997901814688
 31
0.0
  0
LINE
  5
6E9
330
1F
100
AcDbEntity
  8
0
100
AcDbLine
 10
120.5326495366205
 20
52.59997901814678
 30
0.0
 11
107.2326495366205
 21
52.59997901814678
 31
0.0
  0
LINE
  5
6EA
330
1F
100
AcDbEntity
  8
0
100
AcDbLine
 10
120.5326495366205
 20
50.29997901814688
 30
0.0
 11
107.2326495366205
 21
50.29997901814688
 31
0.0
  0
LINE
  5
6EB
330
1F
100
AcDbEntity
  8
0
100
AcDbLine
 10
120.5326495366205
 20
48.59997901814678
 30
0.0
 11
107.2326495366205
 21
48.59997901814678
 31
0.0
  0
ARC
  5
6EC
330
1F
100
AcDbEntity
  8
0
100
AcDbCircle
 10
107.2326495366205
 20
49.44997901814677
 30
0.0
 40
0.85
100
AcDbArc
 50
180.0
 51
270.0
1001
GENIUS_GENODEF_13
1002
{
1000
HIER
1070
     0
1002
}
1002
{
1000
MANEDIT
1070
     0
1002
}
1002
{
1000
NOSEL
1070
     0
1002
}
1002
{
1000
BEHIND
1070
     0
1002
}
1002
{
1000
REACTOR
1002
}
1001
GENIUS_GENOBJ-N-FIL_13
1002
{
1000
OWNER
1000
GEN
1002
}
  0
LINE
  5
6ED
330
1F
100
AcDbEntity
  8
0
100
AcDbLine
 10
102.8826495366205
 20
56.69997901814689
 30
0.0
 11
102.8826495366205
 21
42.69997901814678
 31
0.0
  0
LINE
  5
6EE
330
1F
100
AcDbEntity
  8
0
100
AcDbLine
 10
103.3826495366204
 20
57.19997901814688
 30
0.0
 11
103.3826495366204
 21
42.19997901814678
 31
0.0
  0
LINE
  5
6EF
330
1F
100
AcDbEntity
  8
0
100
AcDbLine
 10
103.3826495366204
 20
42.19997901814678
 30
0.0
 11
102.8826495366205
 21
42.69997901814678
 31
0.0
1001
GENIUS_GENFIL_13
1070
     0
1040
0.5
1040
0.5
1040
0.25
1040
44.99999999999674
1002
{
1002
}
1001
GENIUS_GENODEF_13
1002
{
1000
HIER
1070
     0
1002
}
1002
{
1000
MANEDIT
1070
     0
1002
}
1002
{
1000
NOSEL
1070
     0
1002
}
1002
{
1000
BEHIND
1070
     0
1002
}
1002
{
1000
REACTOR
1002
}
1001
GENIUS_GENOBJ-N-CHA_13
1002
{
1000
OWNER
1000
GEN
1002
}
  0
LINE
  5
6F0
330
1F
100
AcDbEntity
  8
0
100
AcDbLine
 10
103.3826495366204
 20
42.19997901814678
 30
0.0
 11
104.3826495366204
 21
42.19997901814678
 31
0.0
  0
LINE
  5
6F1
330
1F
100
AcDbEntity
  8
0
100
AcDbLine
 10
106.3826495366205
 20
53.44997901814688
 30
0.0
 11
106.3826495366205
 21
53.44997901814679
 31
0.0
  0
ARC
  5
6F2
330
1F
100
AcDbEntity
  8
0
100
AcDbCircle
 10
107.2326495366205
 20
53.44997901814679
 30
0.0
 40
0.85
100
AcDbArc
 50
180.0
 51
270.0
1001
GENIUS_GENODEF_13
1002
{
1000
HIER
1070
     0
1002
}
1002
{
1000
MANEDIT
1070
     0
1002
}
1002
{
1000
NOSEL
1070
     0
1002
}
1002
{
1000
BEHIND
1070
     0
1002
}
1002
{
1000
REACTOR
1002
}
1001
GENIUS_GENOBJ-N-FIL_13
1002
{
1000
OWNER
1000
GEN
1002
}
  0
ARC
  5
6F3
330
1F
100
AcDbEntity
  8
0
100
AcDbCircle
 10
107.2326495366205
 20
53.44997901814688
 30
0.0
 40
0.85
100
AcDbArc
 50
90.0
 51
180.0
1001
GENIUS_GENODEF_13
1002
{
1000
HIER
1070
     0
1002
}
1002
{
1000
MANEDIT
1070
     0
1002
}
1002
{
1000
NOSEL
1070
     0
1002
}
1002
{
1000
BEHIND
1070
     0
1002
}
1002
{
1000
REACTOR
1002
}
1001
GENIUS_GENOBJ-N-FIL_13
1002
{
1000
OWNER
1000
GEN
1002
}
  0
LINE
  5
6F4
330
1F
100
AcDbEntity
  8
0
100
AcDbLine
 10
106.3826495366205
 20
49.44997901814687
 30
0.0
 11
106.3826495366205
 21
49.44997901814677
 31
0.0
  0
ARC
  5
6F5
330
1F
100
AcDbEntity
  8
0
100
AcDbCircle
 10
107.2326495366205
 20
49.44997901814687
 30
0.0
 40
0.85
100
AcDbArc
 50
90.0
 51
180.0
1001
GENIUS_GENODEF_13
1002
{
1000
HIER
1070
     0
1002
}
1002
{
1000
MANEDIT
1070
     0
1002
}
1002
{
1000
NOSEL
1070
     0
1002
}
1002
{
1000
BEHIND
1070
     0
1002
}
1002
{
1000
REACTOR
1002
}
1001
GENIUS_GENOBJ-N-FIL_13
1002
{
1000
OWNER
1000
GEN
1002
}
  0
LINE
  5
6F6
330
1F
100
AcDbEntity
  8
0
100
AcDbLine
 10
102.8826495366205
 20
56.69997901814689
 30
0.0
 11
103.3826495366204
 21
57.19997901814688
 31
0.0
1001
GENIUS_GENFIL_13
1070
     0
1040
0.5
1040
0.5
1040
0.25
1040
44.99999999999674
1002
{
1002
}
1001
GENIUS_GENODEF_13
1002
{
1000
HIER
1070
     0
1002
}
1002
{
1000
MANEDIT
1070
     0
1002
}
1002
{
1000
NOSEL
1070
     0
1002
}
1002
{
1000
BEHIND
1070
     0
1002
}
1002
{
1000
REACTOR
1002
}
1001
GENIUS_GENOBJ-N-CHA_13
1002
{
1000
OWNER
1000
GEN
1002
}
  0
LINE
  5
6F7
330
1F
100
AcDbEntity
  8
0
100
AcDbLine
 10
103.3826495366204
 20
57.19997901814688
 30
0.0
 11
104.3826495366204
 21
57.19997901814688
 31
0.0
  0
LINE
  5
6F8
330
1F
100
AcDbEntity
  8
0
100
AcDbLine
 10
106.3826495366205
 20
57.44997901814688
 30
0.0
 11
106.3826495366205
 21
57.44997901814677
 31
0.0
  0
ARC
  5
6F9
330
1F
100
AcDbEntity
  8
0
100
AcDbCircle
 10
107.2326495366205
 20
57.44997901814677
 30
0.0
 40
0.85
100
AcDbArc
 50
180.0
 51
270.0
1001
GENIUS_GENODEF_13
1002
{
1000
HIER
1070
     0
1002
}
1002
{
1000
MANEDIT
1070
     0
1002
}
1002
{
1000
NOSEL
1070
     0
1002
}
1002
{
1000
BEHIND
1070
     0
1002
}
1002
{
1000
REACTOR
1002
}
1001
GENIUS_GENOBJ-N-FIL_13
1002
{
1000
OWNER
1000
GEN
1002
}
  0
ARC
  5
6FA
330
1F
100
AcDbEntity
  8
0
100
AcDbCircle
 10
107.2326495366205
 20
57.44997901814688
 30
0.0
 40
0.85
100
AcDbArc
 50
90.0
 51
180.0
1001
GENIUS_GENODEF_13
1002
{
1000
HIER
1070
     0
1002
}
1002
{
1000
MANEDIT
1070
     0
1002
}
1002
{
1000
NOSEL
1070
     0
1002
}
1002
{
1000
BEHIND
1070
     0
1002
}
1002
{
1000
REACTOR
1002
}
1001
GENIUS_GENOBJ-N-FIL_13
1002
{
1000
OWNER
1000
GEN
1002
}
  0
LINE
  5
6FB
330
1F
100
AcDbEntity
  8
0
100
AcDbLine
 10
106.3826495366205
 20
61.44997901814686
 30
0.0
 11
106.3826495366205
 21
61.44997901814678
 31
0.0
  0
ARC
  5
6FC
330
1F
100
AcDbEntity
  8
0
100
AcDbCircle
 10
107.2326495366205
 20
61.44997901814686
 30
0.0
 40
0.85
100
AcDbArc
 50
90.0
 51
180.0
1001
GENIUS_GENODEF_13
1002
{
1000
HIER
1070
     0
1002
}
1002
{
1000
MANEDIT
1070
     0
1002
}
1002
{
1000
NOSEL
1070
     0
1002
}
1002
{
1000
BEHIND
1070
     0
1002
}
1002
{
1000
REACTOR
1002
}
1001
GENIUS_GENOBJ-N-FIL_13
1002
{
1000
OWNER
1000
GEN
1002
}
  0
ARC
  5
6FD
330
1F
100
AcDbEntity
  8
0
100
AcDbCircle
 10
107.2326495366205
 20
61.44997901814678
 30
0.0
 40
0.85
100
AcDbArc
 50
180.0
 51
270.0
1001
GENIUS_GENODEF_13
1002
{
1000
HIER
1070
     0
1002
}
1002
{
1000
MANEDIT
1070
     0
1002
}
1002
{
1000
NOSEL
1070
     0
1002
}
1002
{
1000
BEHIND
1070
     0
1002
}
1002
{
1000
REACTOR
1002
}
1001
GENIUS_GENOBJ-N-FIL_13
1002
{
1000
OWNER
1000
GEN
1002
}
  0
ARC
  5
6FE
330
1F
100
AcDbEntity
  8
0
100
AcDbCircle
 10
120.5326495366205
 20
49.44997901814677
 30
0.0
 40
0.85
100
AcDbArc
 50
270.0
 51
0.0
1001
GENIUS_GENODEF_13
1002
{
1000
HIER
1070
     0
1002
}
1002
{
1000
MANEDIT
1070
     0
1002
}
1002
{
1000
NOSEL
1070
     0
1002
}
1002
{
1000
BEHIND
1070
     0
1002
}
1002
{
1000
REACTOR
1002
}
1001
GENIUS_GENOBJ-N-FIL_13
1002
{
1000
OWNER
1000
GEN
1002
}
  0
LINE
  5
6FF
330
1F
100
AcDbEntity
  8
0
100
AcDbLine
 10
124.8826495366205
 20
56.69997901814689
 30
0.0
 11
124.8826495366204
 21
42.69997901814678
 31
0.0
  0
LINE
  5
700
330
1F
100
AcDbEntity
  8
0
100
AcDbLine
 10
124.3826495366205
 20
57.19997901814679
 30
0.0
 11
124.3826495366205
 21
42.19997901814678
 31
0.0
  0
LINE
  5
701
330
1F
100
AcDbEntity
  8
0
100
AcDbLine
 10
124.8826495366204
 20
42.69997901814678
 30
0.0
 11
124.3826495366204
 21
42.19997901814678
 31
0.0
1001
GENIUS_GENFIL_13
1070
     0
1040
0.5
1040
0.5
1040
0.4999999999999716
1040
44.99999999999674
1000
~T
  0
LINE
  5
702
330
1F
100
AcDbEntity
  8
0
100
AcDbLine
 10
123.3826495366205
 20
42.19997901814678
 30
0.0
 11
124.3826495366204
 21
42.19997901814678
 31
0.0
  0
LINE
  5
703
330
1F
100
AcDbEntity
  8
0
100
AcDbLine
 10
121.3826495366205
 20
53.44997901814688
 30
0.0
 11
121.3826495366205
 21
53.44997901814679
 31
0.0
  0
ARC
  5
704
330
1F
100
AcDbEntity
  8
0
100
AcDbCircle
 10
120.5326495366205
 20
53.44997901814688
 30
0.0
 40
0.85
100
AcDbArc
 50
0.0
 51
90.0
1001
GENIUS_GENODEF_13
1002
{
1000
HIER
1070
     0
1002
}
1002
{
1000
MANEDIT
1070
     0
1002
}
1002
{
1000
NOSEL
1070
     0
1002
}
1002
{
1000
BEHIND
1070
     0
1002
}
1002
{
1000
REACTOR
1002
}
1001
GENIUS_GENOBJ-N-FIL_13
1002
{
1000
OWNER
1000
GEN
1002
}
  0
ARC
  5
705
330
1F
100
AcDbEntity
  8
0
100
AcDbCircle
 10
120.5326495366205
 20
53.44997901814679
 30
0.0
 40
0.85
100
AcDbArc
 50
270.0
 51
0.0
1001
GENIUS_GENODEF_13
1002
{
1000
HIER
1070
     0
1002
}
1002
{
1000
MANEDIT
1070
     0
1002
}
1002
{
1000
NOSEL
1070
     0
1002
}
1002
{
1000
BEHIND
1070
     0
1002
}
1002
{
1000
REACTOR
1002
}
1001
GENIUS_GENOBJ-N-FIL_13
1002
{
1000
OWNER
1000
GEN
1002
}
  0
LINE
  5
706
330
1F
100
AcDbEntity
  8
0
100
AcDbLine
 10
121.3826495366205
 20
49.44997901814687
 30
0.0
 11
121.3826495366205
 21
49.44997901814677
 31
0.0
  0
ARC
  5
707
330
1F
100
AcDbEntity
  8
0
100
AcDbCircle
 10
120.5326495366205
 20
49.44997901814687
 30
0.0
 40
0.85
100
AcDbArc
 50
0.0
 51
90.0
1001
GENIUS_GENODEF_13
1002
{
1000
HIER
1070
     0
1002
}
1002
{
1000
MANEDIT
1070
     0
1002
}
1002
{
1000
NOSEL
1070
     0
1002
}
1002
{
1000
BEHIND
1070
     0
1002
}
1002
{
1000
REACTOR
1002
}
1001
GENIUS_GENOBJ-N-FIL_13
1002
{
1000
OWNER
1000
GEN
1002
}
  0
LINE
  5
708
330
1F
100
AcDbEntity
  8
0
100
AcDbLine
 10
121.3826495366205
 20
57.44997901814688
 30
0.0
 11
121.3826495366205
 21
57.44997901814677
 31
0.0
  0
ARC
  5
709
330
1F
100
AcDbEntity
  8
0
100
AcDbCircle
 10
120.5326495366205
 20
57.44997901814688
 30
0.0
 40
0.85
100
AcDbArc
 50
0.0
 51
90.0
1001
GENIUS_GENODEF_13
1002
{
1000
HIER
1070
     0
1002
}
1002
{
1000
MANEDIT
1070
     0
1002
}
1002
{
1000
NOSEL
1070
     0
1002
}
1002
{
1000
BEHIND
1070
     0
1002
}
1002
{
1000
REACTOR
1002
}
1001
GENIUS_GENOBJ-N-FIL_13
1002
{
1000
OWNER
1000
GEN
1002
}
  0
ARC
  5
70A
330
1F
100
AcDbEntity
  8
0
100
AcDbCircle
 10
120.5326495366205
 20
57.44997901814677
 30
0.0
 40
0.85
100
AcDbArc
 50
270.0
 51
0.0
1001
GENIUS_GENODEF_13
1002
{
1000
HIER
1070
     0
1002
}
1002
{
1000
MANEDIT
1070
     0
1002
}
1002
{
1000
NOSEL
1070
     0
1002
}
1002
{
1000
BEHIND
1070
     0
1002
}
1002
{
1000
REACTOR
1002
}
1001
GENIUS_GENOBJ-N-FIL_13
1002
{
1000
OWNER
1000
GEN
1002
}
  0
LINE
  5
70B
330
1F
100
AcDbEntity
  8
0
100
AcDbLine
 10
121.3826495366205
 20
61.44997901814686
 30
0.0
 11
121.3826495366205
 21
61.44997901814678
 31
0.0
  0
ARC
  5
70C
330
1F
100
AcDbEntity
  8
0
100
AcDbCircle
 10
120.5326495366205
 20
61.44997901814686
 30
0.0
 40
0.85
100
AcDbArc
 50
0.0
 51
90.0
1001
GENIUS_GENODEF_13
1002
{
1000
HIER
1070
     0
1002
}
1002
{
1000
MANEDIT
1070
     0
1002
}
1002
{
1000
NOSEL
1070
     0
1002
}
1002
{
1000
BEHIND
1070
     0
1002
}
1002
{
1000
REACTOR
1002
}
1001
GENIUS_GENOBJ-N-FIL_13
1002
{
1000
OWNER
1000
GEN
1002
}
  0
ARC
  5
70D
330
1F
100
AcDbEntity
  8
0
100
AcDbCircle
 10
120.5326495366205
 20
61.44997901814678
 30
0.0
 40
0.85
100
AcDbArc
 50
270.0
 51
0.0
1001
GENIUS_GENODEF_13
1002
{
1000
HIER
1070
     0
1002
}
1002
{
1000
MANEDIT
1070
     0
1002
}
1002
{
1000
NOSEL
1070
     0
1002
}
1002
{
1000
BEHIND
1070
     0
1002
}
1002
{
1000
REACTOR
1002
}
1001
GENIUS_GENOBJ-N-FIL_13
1002
{
1000
OWNER
1000
GEN
1002
}
  0
LINE
  5
70E
330
1F
100
AcDbEntity
  8
0
100
AcDbLine
 10
124.3826495366205
 20
57.19997901814688
 30
0.0
 11
124.8826495366205
 21
56.69997901814689
 31
0.0
1001
GENIUS_GENFIL_13
1070
     0
1040
0.5
1040
0.5
1040
0.25
1040
44.99999999999674
1002
{
1002
}
1001
GENIUS_GENODEF_13
1002
{
1000
HIER
1070
     0
1002
}
1002
{
1000
MANEDIT
1070
     0
1002
}
1002
{
1000
NOSEL
1070
     0
1002
}
1002
{
1000
BEHIND
1070
     0
1002
}
1002
{
1000
REACTOR
1002
}
1001
GENIUS_GENOBJ-N-CHA_13
1002
{
1000
OWNER
1000
GEN
1002
}
  0
LINE
  5
70F
330
1F
100
AcDbEntity
  8
0
100
AcDbLine
 10
123.3826495366205
 20
57.19997901814688
 30
0.0
 11
124.3826495366205
 21
57.19997901814688
 31
0.0
  0
LINE
  5
710
330
1F
100
AcDbEntity
  8
0
100
AcDbLine
 10
114.6826495366205
 20
149.1999790181466
 30
0.0
 11
114.6826495366205
 21
168.3999790181469
 31
0.0
  0
LINE
  5
711
330
1F
100
AcDbEntity
  8
0
100
AcDbLine
 10
113.0826495366205
 20
149.1999790181466
 30
0.0
 11
113.0826495366205
 21
168.3999790181469
 31
0.0
  0
LINE
  5
712
330
1F
100
AcDbEntity
  8
0
100
AcDbLine
 10
115.4826495366205
 20
74.19997901814681
 30
0.0
 11
115.4826495366205
 21
144.1999790181466
 31
0.0
  0
LINE
  5
713
330
1F
100
AcDbEntity
  8
0
100
AcDbLine
 10
112.2826495366205
 20
74.19997901814681
 30
0.0
 11
112.2826495366205
 21
144.1999790181466
 31
0.0
  0
LINE
  5
714
330
1F
100
AcDbEntity
  8
0
100
AcDbLine
 10
105.3826495366204
 20
72.19997901814688
 30
0.0
 11
122.3826495366205
 21
72.19997901814697
 31
0.0
  0
ARC
  5
715
330
1F
100
AcDbEntity
  8
0
100
AcDbCircle
 10
105.3826495366204
 20
71.19997901814688
 30
0.0
 40
1.0
100
AcDbArc
 50
90.0
 51
180.0
1001
GENIUS_GENODEF_13
1002
{
1000
HIER
1070
     0
1002
}
1002
{
1000
MANEDIT
1070
     0
1002
}
1002
{
1000
NOSEL
1070
     0
1002
}
1002
{
1000
BEHIND
1070
     0
1002
}
1002
{
1000
REACTOR
1002
}
1001
GENIUS_GENOBJ-N-FIL_13
1002
{
1000
OWNER
1000
GEN
1002
}
  0
ARC
  5
716
330
1F
100
AcDbEntity
  8
0
100
AcDbCircle
 10
122.3826495366205
 20
71.19997901814688
 30
0.0
 40
1.0
100
AcDbArc
 50
0.0
 51
90.0
1001
GENIUS_GENODEF_13
1002
{
1000
HIER
1070
     0
1002
}
1002
{
1000
MANEDIT
1070
     0
1002
}
1002
{
1000
NOSEL
1070
     0
1002
}
1002
{
1000
BEHIND
1070
     0
1002
}
1002
{
1000
REACTOR
1002
}
1001
GENIUS_GENOBJ-N-FIL_13
1002
{
1000
OWNER
1000
GEN
1002
}
  0
LINE
  5
717
330
1F
100
AcDbEntity
  8
0
100
AcDbLine
 10
109.8826495366205
 20
74.19997901814681
 30
0.0
 11
117.8826495366205
 21
74.19997901814681
 31
0.0
  0
LINE
  5
718
330
1F
100
AcDbEntity
  8
0
100
AcDbLine
 10
109.8826495366205
 20
74.19997901814681
 30
0.0
 11
109.8826495366205
 21
72.19997901814688
 31
0.0
  0
LINE
  5
719
330
1F
100
AcDbEntity
  8
0
100
AcDbLine
 10
117.8826495366205
 20
74.19997901814681
 30
0.0
 11
117.8826495366204
 21
72.19997901814688
 31
0.0
  0
ARC
  5
71A
330
1F
100
AcDbEntity
  8
0
100
AcDbCircle
 10
114.8826495366205
 20
14.99997901814959
 30
0.0
 40
6.5
100
AcDbArc
 50
297.4864262503806
 51
334.4836126337342
  0
LINE
  5
71B
330
1F
100
AcDbEntity
  8
0
100
AcDbLine
 10
107.2826495366205
 20
12.19997901814688
 30
0.0
 11
107.2826495366204
 21
5.686159450254733
 31
0.0
  0
LINE
  5
71C
330
1F
100
AcDbEntity
  8
0
100
AcDbLine
 10
106.6826495366204
 20
12.19997901814688
 30
0.0
 11
106.6826495366204
 21
5.286159450254898
 31
0.0
  0
LINE
  5
71D
330
1F
100
AcDbEntity
  8
0
100
AcDbLine
 10
105.0826495366205
 20
72.15391821956379
 30
0.0
 11
105.0826495366205
 21
174.4999790181496
 31
0.0
  0
LINE
  5
71E
330
1F
100
AcDbEntity
  8
0
100
AcDbLine
 10
122.6826495366205
 20
72.15391821956379
 30
0.0
 11
122.6826495366205
 21
174.4999790181495
 31
0.0
  0
ARC
  5
71F
330
1F
100
AcDbEntity
  8
0
100
AcDbCircle
 10
-781.1173504633793
 20
116.9999790181504
 30
0.0
 40
1000.25
100
AcDbArc
 50
354.6274693943357
 51
359.1121018456314
  0
ARC
  5
720
330
1F
100
AcDbEntity
  8
0
100
AcDbCircle
 10
197.0664962472383
 20
25.0075226186259
 30
0.0
 40
17.75
100
AcDbArc
 50
271.2640228655387
 51
354.6274693943357
1001
GENIUS_GENODEF_13
1002
{
1000
HIER
1070
     0
1002
}
1002
{
1000
MANEDIT
1070
     0
1002
}
1002
{
1000
NOSEL
1070
     0
1002
}
1002
{
1000
BEHIND
1070
     0
1002
}
1002
{
1000
REACTOR
1002
}
1001
GENIUS_GENOBJ-N-FIL_13
1002
{
1000
OWNER
1000
GEN
1002
}
  0
ARC
  5
721
330
1F
100
AcDbEntity
  8
0
100
AcDbCircle
 10
195.6988028260024
 20
25.0075226186259
 30
0.0
 40
17.75
100
AcDbArc
 50
185.3725306056651
 51
268.7359771344613
1001
GENIUS_GENODEF_13
1002
{
1000
HIER
1070
     0
1002
}
1002
{
1000
MANEDIT
1070
     0
1002
}
1002
{
1000
NOSEL
1070
     0
1002
}
1002
{
1000
BEHIND
1070
     0
1002
}
1002
{
1000
REACTOR
1002
}
1001
GENIUS_GENOBJ-N-FIL_13
1002
{
1000
OWNER
1000
GEN
1002
}
  0
ARC
  5
722
330
1F
100
AcDbEntity
  8
0
100
AcDbCircle
 10
196.3826495366205
 20
55.99997901814957
 30
0.0
 40
48.75
100
AcDbArc
 50
268.7359771344613
 51
271.2640228655387
  0
ARC
  5
723
330
1F
100
AcDbEntity
  8
0
100
AcDbCircle
 10
195.6988028260024
 20
25.0075226186259
 30
0.0
 40
17.75
100
AcDbArc
 50
268.7359771344613
 51
268.7359771344613
1001
GENIUS_GENODEF_13
1002
{
1000
HIER
1070
     0
1002
}
1002
{
1000
MANEDIT
1070
     0
1002
}
1002
{
1000
NOSEL
1070
     0
1002
}
1002
{
1000
BEHIND
1070
     0
1002
}
1002
{
1000
REACTOR
1002
}
1001
GENIUS_GENOBJ-N-FIL_13
1002
{
1000
OWNER
1000
GEN
1002
}
  0
ARC
  5
724
330
1F
100
AcDbEntity
  8
0
100
AcDbCircle
 10
1173.88264953662
 20
116.9999790181486
 30
0.0
 40
1000.25
100
AcDbArc
 50
180.8878981543685
 51
185.3725306056643
  0
ARC
  5
725
330
1F
100
AcDbEntity
  8
0
100
AcDbCircle
 10
-948.6173504633788
 20
116.9999790181504
 30
0.0
 40
1006.5
100
AcDbArc
 50
354.6274693943357
 51
2.957428676917568
  0
ARC
  5
726
330
1F
100
AcDbEntity
  8
0
100
AcDbCircle
 10
1006.38264953662
 20
116.9999790181486
 30
0.0
 40
1006.5
100
AcDbArc
 50
177.0425713230816
 51
185.3725306056643
  0
ARC
  5
727
330
1F
100
AcDbEntity
  8
0
100
AcDbCircle
 10
-948.6173504633788
 20
116.9999790181504
 30
0.0
 40
1000.25
100
AcDbArc
 50
354.6274693943357
 51
2.89682974882933
  0
ARC
  5
728
330
1F
100
AcDbEntity
  8
0
100
AcDbCircle
 10
1006.38264953662
 20
116.9999790181486
 30
0.0
 40
1000.25
100
AcDbArc
 50
177.1031702511706
 51
185.3725306056643
  0
ARC
  5
729
330
1F
100
AcDbEntity
  8
0
100
AcDbCircle
 10
28.19880282600247
 20
25.0075226186259
 30
0.0
 40
17.75
100
AcDbArc
 50
185.3725306056659
 51
268.7359771344613
1001
GENIUS_GENODEF_13
1002
{
1000
HIER
1070
     0
1002
}
1002
{
1000
MANEDIT
1070
     0
1002
}
1002
{
1000
NOSEL
1070
     0
1002
}
1002
{
1000
BEHIND
1070
     0
1002
}
1002
{
1000
REACTOR
1002
}
1001
GENIUS_GENOBJ-N-FIL_13
1002
{
1000
OWNER
1000
GEN
1002
}
  0
ARC
  5
72A
330
1F
100
AcDbEntity
  8
0
100
AcDbCircle
 10
28.19880282600247
 20
25.0075226186259
 30
0.0
 40
24.0
100
AcDbArc
 50
185.3725306056659
 51
268.7359771344613
1001
GENIUS_GENODEF_13
1002
{
1000
HIER
1070
     0
1002
}
1002
{
1000
MANEDIT
1070
     0
1002
}
1002
{
1000
NOSEL
1070
     0
1002
}
1002
{
1000
BEHIND
1070
     0
1002
}
1002
{
1000
REACTOR
1002
}
1001
GENIUS_GENOBJ-N-FIL_13
1002
{
1000
OWNER
1000
GEN
1002
}
  0
ARC
  5
72B
330
1F
100
AcDbEntity
  8
0
100
AcDbCircle
 10
29.56649624723853
 20
25.0075226186259
 30
0.0
 40
24.0
100
AcDbArc
 50
271.2640228655387
 51
354.6274693943357
1001
GENIUS_GENODEF_13
1002
{
1000
HIER
1070
     0
1002
}
1002
{
1000
MANEDIT
1070
     0
1002
}
1002
{
1000
NOSEL
1070
     0
1002
}
1002
{
1000
BEHIND
1070
     0
1002
}
1002
{
1000
REACTOR
1002
}
1001
GENIUS_GENOBJ-N-FIL_13
1002
{
1000
OWNER
1000
GEN
1002
}
  0
ARC
  5
72C
330
1F
100
AcDbEntity
  8
0
100
AcDbCircle
 10
29.56649624723853
 20
25.0075226186259
 30
0.0
 40
17.75
100
AcDbArc
 50
271.2640228655387
 51
354.6274693943357
1001
GENIUS_GENODEF_13
1002
{
1000
HIER
1070
     0
1002
}
1002
{
1000
MANEDIT
1070
     0
1002
}
1002
{
1000
NOSEL
1070
     0
1002
}
1002
{
1000
BEHIND
1070
     0
1002
}
1002
{
1000
REACTOR
1002
}
1001
GENIUS_GENOBJ-N-FIL_13
1002
{
1000
OWNER
1000
GEN
1002
}
  0
ARC
  5
72D
330
1F
100
AcDbEntity
  8
0
100
AcDbCircle
 10
28.88264953662054
 20
55.99997901814957
 30
0.0
 40
55.0
100
AcDbArc
 50
268.7359771344613
 51
271.2640228655387
  0
ARC
  5
72E
330
1F
100
AcDbEntity
  8
0
100
AcDbCircle
 10
28.88264953662054
 20
55.99997901814957
 30
0.0
 40
48.75
100
AcDbArc
 50
268.7359771344613
 51
271.2640228655387
  0
ARC
  5
72F
330
1F
100
AcDbEntity
  8
0
100
AcDbCircle
 10
28.88264953662048
 20
-24.00002098185041
 30
0.0
 40
199.0
100
AcDbArc
 50
83.29047680081755
 51
96.70952319918242
  0
ARC
  5
730
330
1F
100
AcDbEntity
  8
0
100
AcDbCircle
 10
28.88264953662048
 20
-24.00002098185041
 30
0.0
 40
192.75
100
AcDbArc
 50
83.60412815195767
 51
96.39587184804232
  0
ARC
  5
731
330
1F
100
AcDbEntity
  8
0
100
AcDbCircle
 10
6.216502095221981
 20
168.6713203228823
 30
0.0
 40
5.0
100
AcDbArc
 50
96.70952319917589
 51
177.0425713230783
1001
GENIUS_GENODEF_13
1002
{
1000
HIER
1070
     0
1002
}
1002
{
1000
MANEDIT
1070
     0
1002
}
1002
{
1000
NOSEL
1070
     0
1002
}
1002
{
1000
BEHIND
1070
     0
1002
}
1002
{
1000
REACTOR
1002
}
1001
GENIUS_GENOBJ-N-FIL_13
1002
{
1000
OWNER
1000
GEN
1002
}
  0
ARC
  5
732
330
1F
100
AcDbEntity
  8
0
100
AcDbCircle
 10
51.54879697801955
 20
168.6713203228821
 30
0.0
 40
5.0
100
AcDbArc
 50
2.957428676917568
 51
83.29047680081755
1001
GENIUS_GENODEF_13
1002
{
1000
HIER
1070
     0
1002
}
1002
{
1000
MANEDIT
1070
     0
1002
}
1002
{
1000
NOSEL
1070
     0
1002
}
1002
{
1000
BEHIND
1070
     0
1002
}
1002
{
1000
REACTOR
1002
}
1001
GENIUS_GENOBJ-N-FIL_13
1002
{
1000
OWNER
1000
GEN
1002
}
  0
ARC
  5
733
330
1F
100
AcDbEntity
  8
0
100
AcDbCircle
 10
-781.117350463379
 20
116.9999790181504
 30
0.0
 40
1006.5
100
AcDbArc
 50
354.6274693943357
 51
2.957428676917568
  0
ARC
  5
734
330
1F
100
AcDbEntity
  8
0
100
AcDbCircle
 10
1173.88264953662
 20
116.9999790181486
 30
0.0
 40
1006.5
100
AcDbArc
 50
177.0425713230816
 51
185.3725306056643
  0
ARC
  5
735
330
1F
100
AcDbEntity
  8
0
100
AcDbCircle
 10
1173.88264953662
 20
116.9999790181486
 30
0.0
 40
1000.25
100
AcDbArc
 50
177.1031702511706
 51
180.8878981543685
  0
ARC
  5
736
330
1F
100
AcDbEntity
  8
0
100
AcDbCircle
 10
195.6988028260024
 20
25.0075226186259
 30
0.0
 40
24.0
100
AcDbArc
 50
185.3725306056659
 51
268.7359771344613
1001
GENIUS_GENODEF_13
1002
{
1000
HIER
1070
     0
1002
}
1002
{
1000
MANEDIT
1070
     0
1002
}
1002
{
1000
NOSEL
1070
     0
1002
}
1002
{
1000
BEHIND
1070
     0
1002
}
1002
{
1000
REACTOR
1002
}
1001
GENIUS_GENOBJ-N-FIL_13
1002
{
1000
OWNER
1000
GEN
1002
}
  0
ARC
  5
737
330
1F
100
AcDbEntity
  8
0
100
AcDbCircle
 10
197.0664962472385
 20
25.0075226186259
 30
0.0
 40
24.0
100
AcDbArc
 50
271.2640228655387
 51
354.6274693943357
1001
GENIUS_GENODEF_13
1002
{
1000
HIER
1070
     0
1002
}
1002
{
1000
MANEDIT
1070
     0
1002
}
1002
{
1000
NOSEL
1070
     0
1002
}
1002
{
1000
BEHIND
1070
     0
1002
}
1002
{
1000
REACTOR
1002
}
1001
GENIUS_GENOBJ-N-FIL_13
1002
{
1000
OWNER
1000
GEN
1002
}
  0
ARC
  5
738
330
1F
100
AcDbEntity
  8
0
100
AcDbCircle
 10
196.3826495366206
 20
55.99997901814957
 30
0.0
 40
55.0
100
AcDbArc
 50
268.7359771344613
 51
271.2640228655387
  0
ARC
  5
739
330
1F
100
AcDbEntity
  8
0
100
AcDbCircle
 10
196.3826495366205
 20
-24.00002098185041
 30
0.0
 40
199.0
100
AcDbArc
 50
83.29047680081755
 51
96.70952319918242
  0
ARC
  5
73A
330
1F
100
AcDbEntity
  8
0
100
AcDbCircle
 10
196.3826495366205
 20
-24.00002098185041
 30
0.0
 40
192.75
100
AcDbArc
 50
83.60412815195767
 51
96.39587184804232
  0
ARC
  5
73B
330
1F
100
AcDbEntity
  8
0
100
AcDbCircle
 10
173.7165020952219
 20
168.6713203228823
 30
0.0
 40
5.0
100
AcDbArc
 50
96.70952319917589
 51
177.0425713230783
1001
GENIUS_GENODEF_13
1002
{
1000
HIER
1070
     0
1002
}
1002
{
1000
MANEDIT
1070
     0
1002
}
1002
{
1000
NOSEL
1070
     0
1002
}
1002
{
1000
BEHIND
1070
     0
1002
}
1002
{
1000
REACTOR
1002
}
1001
GENIUS_GENOBJ-N-FIL_13
1002
{
1000
OWNER
1000
GEN
1002
}
  0
ARC
  5
73C
330
1F
100
AcDbEntity
  8
0
100
AcDbCircle
 10
219.0487969780195
 20
168.6713203228821
 30
0.0
 40
5.0
100
AcDbArc
 50
2.957428676917568
 51
83.29047680081755
1001
GENIUS_GENODEF_13
1002
{
1000
HIER
1070
     0
1002
}
1002
{
1000
MANEDIT
1070
     0
1002
}
1002
{
1000
NOSEL
1070
     0
1002
}
1002
{
1000
BEHIND
1070
     0
1002
}
1002
{
1000
REACTOR
1002
}
1001
GENIUS_GENOBJ-N-FIL_13
1002
{
1000
OWNER
1000
GEN
1002
}
  0
LINE
  5
73D
330
1F
100
AcDbEntity
  8
0
100
AcDbLine
 10
133.0794268754776
 20
147.0769873248405
 30
0.0
 11
129.8151026948815
 21
113.1756845110536
 31
0.0
  0
LINE
  5
73E
330
1F
100
AcDbEntity
  8
0
100
AcDbLine
 10
135.368838131722
 20
146.8565420940442
 30
0.0
 11
132.1045139511259
 21
112.9552392802571
 31
0.0
  0
ARC
  5
73F
330
1F
100
AcDbEntity
  8
0
100
AcDbCircle
 10
133.2850550820456
 20
106.1499790181495
 30
0.0
 40
1.149999999999999
100
AcDbArc
 50
199.9999999999982
 51
19.99999999999866
  0
LINE
  5
740
330
1F
100
AcDbEntity
  8
0
100
AcDbLine
 10
132.2044085681418
 20
105.756655853325
 30
0.0
 11
129.9822134276253
 21
111.8620868235159
 31
0.0
  0
LINE
  5
741
330
1F
100
AcDbEntity
  8
0
100
AcDbLine
 10
134.3657015959492
 20
106.5433021829741
 30
0.0
 11
132.1435064554329
 21
112.648733153165
 31
0.0
  0
ARC
  5
742
330
1F
100
AcDbEntity
  8
0
100
AcDbCircle
 10
132.801291289983
 20
112.888147253493
 30
0.0
 40
3.0
100
AcDbArc
 50
174.4999999999994
 51
199.9999999999982
1001
GENIUS_GENODEF_13
1002
{
1000
HIER
1070
     0
1002
}
1002
{
1000
MANEDIT
1070
     0
1002
}
1002
{
1000
NOSEL
1070
     0
1002
}
1002
{
1000
BEHIND
1070
     0
1002
}
1002
{
1000
REACTOR
1002
}
1001
GENIUS_GENOBJ-N-FIL_13
1002
{
1000
OWNER
1000
GEN
1002
}
  0
ARC
  5
743
330
1F
100
AcDbEntity
  8
0
100
AcDbCircle
 10
129.3826495366205
 20
112.4999790181496
 30
0.0
 40
1.0
100
AcDbArc
 50
90.0
 51
180.0
1001
GENIUS_GENODEF_13
1002
{
1000
HIER
1070
     0
1002
}
1002
{
1000
MANEDIT
1070
     0
1002
}
1002
{
1000
NOSEL
1070
     0
1002
}
1002
{
1000
BEHIND
1070
     0
1002
}
1002
{
1000
REACTOR
1002
}
1001
GENIUS_GENOBJ-N-FIL_13
1002
{
1000
OWNER
1000
GEN
1002
}
  0
ARC
  5
744
330
1F
100
AcDbEntity
  8
0
100
AcDbCircle
 10
129.3826495366205
 20
112.4999790181496
 30
0.0
 40
1.0
100
AcDbArc
 50
180.0
 51
270.0
1001
GENIUS_GENODEF_13
1002
{
1000
HIER
1070
     0
1002
}
1002
{
1000
MANEDIT
1070
     0
1002
}
1002
{
1000
NOSEL
1070
     0
1002
}
1002
{
1000
BEHIND
1070
     0
1002
}
1002
{
1000
REACTOR
1002
}
1001
GENIUS_GENOBJ-N-FIL_13
1002
{
1000
OWNER
1000
GEN
1002
}
  0
LINE
  5
745
330
1F
100
AcDbEntity
  8
0
100
AcDbLine
 10
129.3826495366205
 20
111.4999790181496
 30
0.0
 11
130.1140098903741
 21
111.4999790181495
 31
0.0
  0
LINE
  5
746
330
1F
100
AcDbEntity
  8
0
100
AcDbLine
 10
129.3826495366205
 20
113.4999790181496
 30
0.0
 11
129.8463287043054
 21
113.4999790181496
 31
0.0
  0
ARC
  5
747
330
1F
100
AcDbEntity
  8
0
100
AcDbCircle
 10
132.801291289983
 20
112.888147253493
 30
0.0
 40
0.7
100
AcDbArc
 50
174.4999999999994
 51
199.9999999999982
1001
GENIUS_GENODEF_13
1002
{
1000
HIER
1070
     0
1002
}
1002
{
1000
MANEDIT
1070
     0
1002
}
1002
{
1000
NOSEL
1070
     0
1002
}
1002
{
1000
BEHIND
1070
     0
1002
}
1002
{
1000
REACTOR
1002
}
1001
GENIUS_GENOBJ-N-FIL_13
1002
{
1000
OWNER
1000
GEN
1002
}
  0
ARC
  5
748
330
1F
100
AcDbEntity
  8
0
100
AcDbCircle
 10
134.3826495366205
 20
163.9999790181496
 30
0.0
 40
1.0
100
AcDbArc
 50
0.0
 51
90.0
1001
GENIUS_GENODEF_13
1002
{
1000
HIER
1070
     0
1002
}
1002
{
1000
MANEDIT
1070
     0
1002
}
1002
{
1000
NOSEL
1070
     0
1002
}
1002
{
1000
BEHIND
1070
     0
1002
}
1002
{
1000
REACTOR
1002
}
1001
GENIUS_GENOBJ-N-FIL_13
1002
{
1000
OWNER
1000
GEN
1002
}
  0
LINE
  5
749
330
1F
100
AcDbEntity
  8
0
100
AcDbLine
 10
133.0826495366205
 20
147.1440793516046
 30
0.0
 11
133.0826495366205
 21
164.9999790181496
 31
0.0
  0
LINE
  5
74A
330
1F
100
AcDbEntity
  8
0
100
AcDbLine
 10
131.3826495366205
 20
158.9999790181496
 30
0.0
 11
131.3826495366205
 21
150.9999790181496
 31
0.0
  0
LINE
  5
74B
330
1F
100
AcDbEntity
  8
0
100
AcDbLine
 10
133.0826495366205
 20
150.9999790181496
 30
0.0
 11
131.3826495366205
 21
150.9999790181496
 31
0.0
  0
LINE
  5
74C
330
1F
100
AcDbEntity
  8
0
100
AcDbLine
 10
128.3826495366205
 20
147.9999790181494
 30
0.0
 11
133.0826495366205
 21
147.9999790181494
 31
0.0
  0
ARC
  5
74D
330
1F
100
AcDbEntity
  8
0
100
AcDbCircle
 10
132.3826495366205
 20
147.1440793516046
 30
0.0
 40
0.7
100
AcDbArc
 50
354.5000000000011
 51
359.9999999999984
1001
GENIUS_GENODEF_13
1002
{
1000
HIER
1070
     0
1002
}
1002
{
1000
MANEDIT
1070
     0
1002
}
1002
{
1000
NOSEL
1070
     0
1002
}
1002
{
1000
BEHIND
1070
     0
1002
}
1002
{
1000
REACTOR
1002
}
1001
GENIUS_GENOBJ-N-FIL_13
1002
{
1000
OWNER
1000
GEN
1002
}
  0
LINE
  5
74E
330
1F
100
AcDbEntity
  8
0
100
AcDbLine
 10
131.3826495366205
 20
151.7499790181496
 30
0.0
 11
128.3826495366205
 21
151.7499790181496
 31
0.0
  0
LINE
  5
74F
330
1F
100
AcDbEntity
  8
0
100
AcDbLine
 10
133.0826495366205
 20
158.9999790181496
 30
0.0
 11
131.3826495366205
 21
158.9999790181496
 31
0.0
  0
LINE
  5
750
330
1F
100
AcDbEntity
  8
0
100
AcDbLine
 10
131.3826495366205
 20
158.2499790181496
 30
0.0
 11
128.3826495366205
 21
158.2499790181496
 31
0.0
  0
LINE
  5
751
330
1F
100
AcDbEntity
  8
0
100
AcDbLine
 10
134.3826495366205
 20
164.9999790181496
 30
0.0
 11
128.3826495366205
 21
164.9999790181496
 31
0.0
  0
LINE
  5
752
330
1F
100
AcDbEntity
  8
0
100
AcDbLine
 10
132.8826495366205
 20
164.9999790181496
 30
0.0
 11
131.8826495366205
 21
164.9999790181496
 31
0.0
  0
LINE
  5
753
330
1F
100
AcDbEntity
  8
0
100
AcDbLine
 10
135.3826495366205
 20
163.9999790181496
 30
0.0
 11
135.3826495366205
 21
147.1440793516049
 31
0.0
  0
ARC
  5
754
330
1F
100
AcDbEntity
  8
0
100
AcDbCircle
 10
132.3826495366205
 20
147.1440793516049
 30
0.0
 40
3.0
100
AcDbArc
 50
354.5000000000011
 51
0.0
1001
GENIUS_GENODEF_13
1002
{
1000
HIER
1070
     0
1002
}
1002
{
1000
MANEDIT
1070
     0
1002
}
1002
{
1000
NOSEL
1070
     0
1002
}
1002
{
1000
BEHIND
1070
     0
1002
}
1002
{
1000
REACTOR
1002
}
1001
GENIUS_GENOBJ-N-FIL_13
1002
{
1000
OWNER
1000
GEN
1002
}
  0
ARC
  5
755
330
1F
100
AcDbEntity
  8
0
100
AcDbCircle
 10
-948.6173504633796
 20
116.9999790181487
 30
0.0
 40
999.5
100
AcDbArc
 50
358.4481993781407
 51
2.860239960929261
  0
ARC
  5
756
330
1F
100
AcDbEntity
  8
0
100
AcDbCircle
 10
1006.382649536619
 20
116.9999790181504
 30
0.0
 40
999.5
100
AcDbArc
 50
177.1397600390707
 51
181.5518006218594
  0
LINE
  5
757
330
1F
100
AcDbEntity
  8
0
100
AcDbLine
 10
40.88264953662043
 20
155.4999790181494
 30
0.0
 11
15.8826495366204
 21
155.4999790181494
 31
0.0
  0
LINE
  5
758
330
1F
100
AcDbEntity
  8
0
100
AcDbLine
 10
40.88264953662043
 20
131.8999790181494
 30
0.0
 11
15.8826495366204
 21
131.8999790181494
 31
0.0
  0
ARC
  5
759
330
1F
100
AcDbEntity
  8
0
100
AcDbCircle
 10
28.88264953662032
 20
185.9999790181496
 30
0.0
 40
100.0
100
AcDbArc
 50
258.442652577658
 51
281.5573474223421
  0
ARC
  5
75A
330
1F
100
AcDbEntity
  8
0
100
AcDbCircle
 10
9.248482587584703
 20
89.98696173290126
 30
0.0
 40
2.0
100
AcDbArc
 50
181.5518006218512
 51
258.442652577658
1001
GENIUS_GENODEF_13
1002
{
1000
HIER
1070
     0
1002
}
1002
{
1000
MANEDIT
1070
     0
1002
}
1002
{
1000
NOSEL
1070
     0
1002
}
1002
{
1000
BEHIND
1070
     0
1002
}
1002
{
1000
REACTOR
1002
}
1001
GENIUS_GENOBJ-N-FIL_13
1002
{
1000
OWNER
1000
GEN
1002
}
  0
LINE
  5
75B
330
1F
100
AcDbEntity
  8
0
100
AcDbLine
 10
15.8826495366204
 20
155.4999790181494
 30
0.0
 11
15.8826495366204
 21
131.8999790181494
 31
0.0
1001
GENIUS_GENODEF_13
1002
{
1000
HIER
1070
     0
1002
}
1002
{
1000
MANEDIT
1070
     0
1002
}
1002
{
1000
NOSEL
1070
     0
1002
}
1002
{
1000
BEHIND
1070
     0
1002
}
1002
{
1000
REACTOR
1002
}
1001
GENIUS_GENOBJ-N-CEN_13
1002
{
1000
OWNER
1000
GEN
1002
}
  0
ARC
  5
75C
330
1F
100
AcDbEntity
  8
0
100
AcDbCircle
 10
48.51681648565584
 20
89.98696173290126
 30
0.0
 40
2.0
100
AcDbArc
 50
281.5573474223405
 51
358.4481993781276
1001
GENIUS_GENODEF_13
1002
{
1000
HIER
1070
     0
1002
}
1002
{
1000
MANEDIT
1070
     0
1002
}
1002
{
1000
NOSEL
1070
     0
1002
}
1002
{
1000
BEHIND
1070
     0
1002
}
1002
{
1000
REACTOR
1002
}
1001
GENIUS_GENOBJ-N-FIL_13
1002
{
1000
OWNER
1000
GEN
1002
}
  0
LINE
  5
75D
330
1F
100
AcDbEntity
  8
0
100
AcDbLine
 10
40.88264953662043
 20
155.4999790181494
 30
0.0
 11
40.88264953662043
 21
131.8999790181494
 31
0.0
1001
GENIUS_GENODEF_13
1002
{
1000
HIER
1070
     0
1002
}
1002
{
1000
MANEDIT
1070
     0
1002
}
1002
{
1000
NOSEL
1070
     0
1002
}
1002
{
1000
BEHIND
1070
     0
1002
}
1002
{
1000
REACTOR
1002
}
1001
GENIUS_GENOBJ-N-CEN_13
1002
{
1000
OWNER
1000
GEN
1002
}
  0
ARC
  5
75E
330
1F
100
AcDbEntity
  8
0
100
AcDbCircle
 10
28.88264953662054
 20
-24.00002098185038
 30
0.0
 40
192.0
100
AcDbArc
 50
83.79430513589566
 51
96.20569486410277
  0
ARC
  5
75F
330
1F
100
AcDbEntity
  8
0
100
AcDbCircle
 10
193.8826495366206
 20
24.99997901814959
 30
0.0
 40
25.0
100
AcDbArc
 50
247.9089228101198
 51
291.9426751366876
  0
ARC
  5
760
330
1F
100
AcDbEntity
  8
0
100
AcDbCircle
 10
31.38264953662054
 20
24.99997901814949
 30
0.0
 40
25.0
100
AcDbArc
 50
248.0573248633124
 51
292.0910771898809
  0
LINE
  5
761
330
1F
100
AcDbEntity
  8
0
100
AcDbLine
 10
111.4826495366205
 20
5.686159450254733
 30
0.0
 11
107.2826495366204
 21
5.686159450254733
 31
0.0
  0
ELLIPSE
  5
762
330
1F
100
AcDbEntity
  8
0
100
AcDbEllipse
 10
36.81375039379935
 20
162.1568755698735
 30
0.0
 11
-2.068965517241379
 21
0.0
 31
0.0
210
0.0
220
0.0
230
1.0
 40
0.5833333335538831
 41
0.0
 42
6.283185307179584
  0
ELLIPSE
  5
763
330
1F
100
AcDbEntity
  8
0
100
AcDbEllipse
 10
36.81378358100611
 20
162.1568755698735
 30
0.0
 11
-1.14945847456305
 21
0.0
 31
0.0
210
0.0
220
0.0
230
1.0
 40
0.7499783459728237
 41
0.0
 42
6.283185307179584
  0
ELLIPSE
  5
764
330
1F
100
AcDbEntity
  8
0
100
AcDbEllipse
 10
20.98038387325939
 20
162.1568755698735
 30
0.0
 11
-2.097734336632008
 21
0.0
 31
0.0
210
0.0
220
0.0
230
1.0
 40
0.5753333635477672
 41
3.859128061423156
 42
9.190159774811283
  0
ELLIPSE
  5
765
330
1F
100
AcDbEntity
  8
0
100
AcDbEllipse
 10
21.12384283063497
 20
162.1568755698735
 30
0.0
 11
1.32165306412256
 21
0.0
 31
0.0
210
0.0
220
0.0
230
1.0
 40
0.652265703397408
 41
0.3314984999877911
 42
5.951686807191792
  0
LINE
  5
766
330
1F
100
AcDbEntity
  8
0
100
AcDbLine
 10
23.02064694552354
 20
163.3637721215976
 30
0.0
 11
22.56087683058105
 21
163.3637721215976
 31
0.0
  0
LINE
  5
767
330
1F
100
AcDbEntity
  8
0
100
AcDbLine
 10
23.02064694552354
 20
161.876306338421
 30
0.0
 11
22.3735394228909
 21
161.876306338421
 31
0.0
  0
LINE
  5
768
330
1F
100
AcDbEntity
  8
0
100
AcDbLine
 10
23.02064694552354
 20
162.437444801326
 30
0.0
 11
22.3735394228909
 21
162.437444801326
 31
0.0
  0
LINE
  5
769
330
1F
100
AcDbEntity
  8
0
100
AcDbLine
 10
22.56087683058105
 20
163.3637721215976
 30
0.0
 11
22.56087683058105
 21
162.9504459900473
 31
0.0
  0
LINE
  5
76A
330
1F
100
AcDbEntity
  8
0
100
AcDbLine
 10
27.7332906236845
 20
163.3637721215976
 30
0.0
 11
25.89421016391437
 21
163.3637721215976
 31
0.0
  0
LINE
  5
76B
330
1F
100
AcDbEntity
  8
0
100
AcDbLine
 10
27.7332906236845
 20
160.9499790181494
 30
0.0
 11
25.89421016391437
 21
160.9499790181494
 31
0.0
  0
LINE
  5
76C
330
1F
100
AcDbEntity
  8
0
100
AcDbLine
 10
26.3539802788569
 20
163.0189445353908
 30
0.0
 11
25.89421016391437
 21
163.0189445353908
 31
0.0
  0
LINE
  5
76D
330
1F
100
AcDbEntity
  8
0
100
AcDbLine
 10
25.89421016391437
 20
163.3637721215976
 30
0.0
 11
25.89421016391437
 21
163.0189445353908
 31
0.0
  0
LINE
  5
76E
330
1F
100
AcDbEntity
  8
0
100
AcDbLine
 10
25.26202625586839
 20
163.3637721215976
 30
0.0
 11
25.26202625586839
 21
163.0189445353908
 31
0.0
  0
LINE
  5
76F
330
1F
100
AcDbEntity
  8
0
100
AcDbLine
 10
25.26202625586839
 20
163.0189445353908
 30
0.0
 11
24.80225614092584
 21
163.0189445353908
 31
0.0
  0
LINE
  5
770
330
1F
100
AcDbEntity
  8
0
100
AcDbLine
 10
25.89421016391437
 20
161.2948066043563
 30
0.0
 11
25.89421016391437
 21
160.9499790181494
 31
0.0
  0
LINE
  5
771
330
1F
100
AcDbEntity
  8
0
100
AcDbLine
 10
26.3539802788569
 20
161.2948066043563
 30
0.0
 11
25.89421016391437
 21
161.2948066043563
 31
0.0
  0
LINE
  5
772
330
1F
100
AcDbEntity
  8
0
100
AcDbLine
 10
26.3539802788569
 20
161.9557261445861
 30
0.0
 11
26.3539802788569
 21
161.2948066043563
 31
0.0
  0
LINE
  5
773
330
1F
100
AcDbEntity
  8
0
100
AcDbLine
 10
25.26202625586839
 20
161.2948066043563
 30
0.0
 11
25.26202625586839
 21
160.9499790181494
 31
0.0
  0
LINE
  5
774
330
1F
100
AcDbEntity
  8
0
100
AcDbLine
 10
25.26202625586839
 20
161.2948066043563
 30
0.0
 11
24.80225614092584
 21
161.2948066043563
 31
0.0
  0
LINE
  5
775
330
1F
100
AcDbEntity
  8
0
100
AcDbLine
 10
24.80225614092584
 20
161.9557261445861
 30
0.0
 11
24.80225614092584
 21
161.2948066043563
 31
0.0
  0
LINE
  5
776
330
1F
100
AcDbEntity
  8
0
100
AcDbLine
 10
24.80225614092584
 20
162.3580249951609
 30
0.0
 11
26.3539802788569
 21
162.3580249951609
 31
0.0
  0
LINE
  5
777
330
1F
100
AcDbEntity
  8
0
100
AcDbLine
 10
24.80225614092584
 20
161.9557261445861
 30
0.0
 11
26.3539802788569
 21
161.9557261445861
 31
0.0
  0
LINE
  5
778
330
1F
100
AcDbEntity
  8
0
100
AcDbLine
 10
26.3539802788569
 20
163.0189445353908
 30
0.0
 11
26.3539802788569
 21
162.3580249951609
 31
0.0
  0
LINE
  5
779
330
1F
100
AcDbEntity
  8
0
100
AcDbLine
 10
24.80225614092584
 20
163.0189445353908
 30
0.0
 11
24.80225614092584
 21
162.3580249951609
 31
0.0
  0
LINE
  5
77A
330
1F
100
AcDbEntity
  8
0
100
AcDbLine
 10
23.88271591104082
 20
163.0189445353908
 30
0.0
 11
23.42294579609825
 21
163.0189445353908
 31
0.0
  0
LINE
  5
77B
330
1F
100
AcDbEntity
  8
0
100
AcDbLine
 10
23.42294579609825
 20
163.3637721215976
 30
0.0
 11
23.42294579609825
 21
163.0189445353908
 31
0.0
  0
LINE
  5
77C
330
1F
100
AcDbEntity
  8
0
100
AcDbLine
 10
23.42294579609825
 20
161.2948066043563
 30
0.0
 11
23.42294579609825
 21
160.9499790181494
 31
0.0
  0
LINE
  5
77D
330
1F
100
AcDbEntity
  8
0
100
AcDbLine
 10
23.88271591104082
 20
161.2948066043563
 30
0.0
 11
23.42294579609825
 21
161.2948066043563
 31
0.0
  0
LINE
  5
77E
330
1F
100
AcDbEntity
  8
0
100
AcDbLine
 10
23.88271591104082
 20
163.0189445353908
 30
0.0
 11
23.88271591104082
 21
161.2948066043563
 31
0.0
  0
LINE
  5
77F
330
1F
100
AcDbEntity
  8
0
100
AcDbLine
 10
23.02064694552354
 20
163.3637721215976
 30
0.0
 11
23.02064694552354
 21
162.437444801326
 31
0.0
  0
LINE
  5
780
330
1F
100
AcDbEntity
  8
0
100
AcDbLine
 10
25.26202625586839
 20
160.9499790181494
 30
0.0
 11
23.42294579609825
 21
160.9499790181494
 31
0.0
  0
LINE
  5
781
330
1F
100
AcDbEntity
  8
0
100
AcDbLine
 10
25.26202625586839
 20
163.3637721215976
 30
0.0
 11
23.42294579609825
 21
163.3637721215976
 31
0.0
  0
LINE
  5
782
330
1F
100
AcDbEntity
  8
0
100
AcDbLine
 10
30.03214119839713
 20
163.0189445353908
 30
0.0
 11
29.57237108345454
 21
163.0189445353908
 31
0.0
  0
LINE
  5
783
330
1F
100
AcDbEntity
  8
0
100
AcDbLine
 10
30.03214119839713
 20
163.3637721215976
 30
0.0
 11
30.03214119839713
 21
163.0189445353908
 31
0.0
  0
LINE
  5
784
330
1F
100
AcDbEntity
  8
0
100
AcDbLine
 10
28.19306073862703
 20
163.3637721215976
 30
0.0
 11
28.19306073862703
 21
163.0189445353908
 31
0.0
  0
LINE
  5
785
330
1F
100
AcDbEntity
  8
0
100
AcDbLine
 10
27.7332906236845
 20
163.3637721215976
 30
0.0
 11
27.7332906236845
 21
163.0189445353908
 31
0.0
  0
LINE
  5
786
330
1F
100
AcDbEntity
  8
0
100
AcDbLine
 10
28.65283085356958
 20
163.0189445353908
 30
0.0
 11
28.19306073862703
 21
163.0189445353908
 31
0.0
  0
LINE
  5
787
330
1F
100
AcDbEntity
  8
0
100
AcDbLine
 10
30.03214119839713
 20
163.3637721215976
 30
0.0
 11
28.19306073862703
 21
163.3637721215976
 31
0.0
  0
LINE
  5
788
330
1F
100
AcDbEntity
  8
0
100
AcDbLine
 10
27.7332906236845
 20
163.0189445353908
 30
0.0
 11
27.27352050874197
 21
163.0189445353908
 31
0.0
  0
LINE
  5
789
330
1F
100
AcDbEntity
  8
0
100
AcDbLine
 10
30.03214119839713
 20
161.2948066043563
 30
0.0
 11
30.03214119839713
 21
160.9499790181494
 31
0.0
  0
LINE
  5
78A
330
1F
100
AcDbEntity
  8
0
100
AcDbLine
 10
30.03214119839713
 20
161.2948066043563
 30
0.0
 11
29.57237108345463
 21
161.2948066043563
 31
0.0
  0
LINE
  5
78B
330
1F
100
AcDbEntity
  8
0
100
AcDbLine
 10
28.19306073862703
 20
161.2948066043563
 30
0.0
 11
28.19306073862703
 21
160.9499790181494
 31
0.0
  0
LINE
  5
78C
330
1F
100
AcDbEntity
  8
0
100
AcDbLine
 10
27.7332906236845
 20
161.2948066043563
 30
0.0
 11
27.7332906236845
 21
160.9499790181494
 31
0.0
  0
LINE
  5
78D
330
1F
100
AcDbEntity
  8
0
100
AcDbLine
 10
28.65283085356958
 20
161.2948066043563
 30
0.0
 11
28.19306073862703
 21
161.2948066043563
 31
0.0
  0
LINE
  5
78E
330
1F
100
AcDbEntity
  8
0
100
AcDbLine
 10
30.03214119839713
 20
160.9499790181494
 30
0.0
 11
28.19306073862703
 21
160.9499790181494
 31
0.0
  0
LINE
  5
78F
330
1F
100
AcDbEntity
  8
0
100
AcDbLine
 10
27.7332906236845
 20
161.2948066043563
 30
0.0
 11
27.27352050874197
 21
161.2948066043563
 31
0.0
  0
LINE
  5
790
330
1F
100
AcDbEntity
  8
0
100
AcDbLine
 10
29.57237108345454
 20
163.0189445353908
 30
0.0
 11
29.57237108345463
 21
161.2948066043563
 31
0.0
  0
LINE
  5
791
330
1F
100
AcDbEntity
  8
0
100
AcDbLine
 10
28.65283085356958
 20
163.0189445353908
 30
0.0
 11
28.65283085356958
 21
161.2948066043563
 31
0.0
  0
LINE
  5
792
330
1F
100
AcDbEntity
  8
0
100
AcDbLine
 10
27.27352050874197
 20
163.0189445353908
 30
0.0
 11
27.27352050874197
 21
161.2948066043563
 31
0.0
  0
LINE
  5
793
330
1F
100
AcDbEntity
  8
0
100
AcDbLine
 10
34.62984234782233
 20
163.3637721215976
 30
0.0
 11
33.19306073862704
 21
163.3637721215976
 31
0.0
  0
LINE
  5
794
330
1F
100
AcDbEntity
  8
0
100
AcDbLine
 10
34.17007223287982
 20
160.9499790181494
 30
0.0
 11
33.20461304476364
 21
160.9499790181494
 31
0.0
  0
LINE
  5
795
330
1F
100
AcDbEntity
  8
0
100
AcDbLine
 10
33.19306073862704
 20
163.3637721215976
 30
0.0
 11
33.19306073862704
 21
163.0189445353907
 31
0.0
  0
LINE
  5
796
330
1F
100
AcDbEntity
  8
0
100
AcDbLine
 10
33.65283085356954
 20
163.0189445353908
 30
0.0
 11
33.19306073862704
 21
163.0189445353908
 31
0.0
  0
LINE
  5
797
330
1F
100
AcDbEntity
  8
0
100
AcDbLine
 10
30.95168142828212
 20
163.0189445353908
 30
0.0
 11
30.49191131333963
 21
163.0189445353908
 31
0.0
  0
LINE
  5
798
330
1F
100
AcDbEntity
  8
0
100
AcDbLine
 10
30.49191131333963
 20
163.3637721215976
 30
0.0
 11
30.49191131333963
 21
163.0189445353908
 31
0.0
  0
LINE
  5
799
330
1F
100
AcDbEntity
  8
0
100
AcDbLine
 10
31.92869292253504
 20
163.3637721215976
 30
0.0
 11
30.49191131333963
 21
163.3637721215976
 31
0.0
  0
LINE
  5
79A
330
1F
100
AcDbEntity
  8
0
100
AcDbLine
 10
31.92869292253504
 20
161.2948066043563
 30
0.0
 11
31.92869292253504
 21
160.9499790181494
 31
0.0
  0
LINE
  5
79B
330
1F
100
AcDbEntity
  8
0
100
AcDbLine
 10
31.46892280759253
 20
161.2948066043563
 30
0.0
 11
31.92869292253504
 21
161.2948066043563
 31
0.0
  0
LINE
  5
79C
330
1F
100
AcDbEntity
  8
0
100
AcDbLine
 10
30.49191131333963
 20
161.2948066043563
 30
0.0
 11
30.49191131333963
 21
160.9499790181494
 31
0.0
  0
LINE
  5
79D
330
1F
100
AcDbEntity
  8
0
100
AcDbLine
 10
30.95168142828212
 20
161.2948066043563
 30
0.0
 11
30.49191131333963
 21
161.2948066043563
 31
0.0
  0
LINE
  5
79E
330
1F
100
AcDbEntity
  8
0
100
AcDbLine
 10
31.92869292253504
 20
160.9499790181494
 30
0.0
 11
30.49191131333963
 21
160.9499790181494
 31
0.0
  0
LINE
  5
79F
330
1F
100
AcDbEntity
  8
0
100
AcDbLine
 10
30.95168142828212
 20
163.0189445353908
 30
0.0
 11
30.95168142828212
 21
161.2948066043563
 31
0.0
  0
LINE
  5
7A0
330
1F
100
AcDbEntity
  8
0
100
AcDbLine
 10
31.46892280759253
 20
162.6856692553204
 30
0.0
 11
31.46892280759253
 21
161.2948066043563
 31
0.0
  0
LINE
  5
7A1
330
1F
100
AcDbEntity
  8
0
100
AcDbLine
 10
31.92869292253504
 20
163.3637721215976
 30
0.0
 11
33.65283085356954
 21
161.6396341905632
 31
0.0
  0
LINE
  5
7A2
330
1F
100
AcDbEntity
  8
0
100
AcDbLine
 10
31.46892280759253
 20
162.6856692553204
 30
0.0
 11
33.20461304476364
 21
160.9499790181494
 31
0.0
  0
LINE
  5
7A3
330
1F
100
AcDbEntity
  8
0
100
AcDbLine
 10
33.65283085356954
 20
163.0189445353908
 30
0.0
 11
33.65283085356954
 21
161.6396341905632
 31
0.0
  0
LINE
  5
7A4
330
1F
100
AcDbEntity
  8
0
100
AcDbLine
 10
34.62984234782233
 20
163.3637721215976
 30
0.0
 11
34.62984234782233
 21
163.0189445353907
 31
0.0
  0
LINE
  5
7A5
330
1F
100
AcDbEntity
  8
0
100
AcDbLine
 10
34.62984234782246
 20
163.0189445353908
 30
0.0
 11
34.17007223287982
 21
163.0189445353908
 31
0.0
  0
LINE
  5
7A6
330
1F
100
AcDbEntity
  8
0
100
AcDbLine
 10
34.17007223287982
 20
163.0189445353908
 30
0.0
 11
34.17007223287982
 21
160.9499790181494
 31
0.0
  0
ELLIPSE
  5
7A7
330
1F
100
AcDbEntity
  8
0
100
AcDbEllipse
 10
28.88264953663404
 20
119.9999790181496
 30
0.0
 11
-6.797308402774888
 21
3.169636963055225
 31
0.0
210
0.0
220
0.0
230
1.0
 40
0.6666666666666627
 41
0.0
 42
6.283185307179584
  0
ELLIPSE
  5
7A8
330
1F
100
AcDbEntity
  8
0
100
AcDbEllipse
 10
28.88264953663432
 20
104.9999790181506
 30
0.0
 11
-6.797308402774883
 21
3.169636963055222
 31
0.0
210
0.0
220
0.0
230
1.0
 40
0.6666666666666666
 41
0.0
 42
6.283185307179584
  0
LINE
  5
7A9
330
1F
100
AcDbEntity
  8
0
100
AcDbLine
 10
6.892779652990852
 20
112.4999790181496
 30
0.0
 11
50.87251942025573
 21
112.4999790181496
 31
0.0
  0
LINE
  5
7AA
330
1F
100
AcDbEntity
  8
0
100
AcDbLine
 10
43.88264953663224
 20
130.6499790181494
 30
0.0
 11
12.88264953663223
 21
130.6499790181492
 31
0.0
  0
LINE
  5
7AB
330
1F
100
AcDbEntity
  8
0
100
AcDbLine
 10
43.88264953662803
 20
156.7499790181494
 30
0.0
 11
43.8826495366323
 21
130.6499790181494
 31
0.0
1001
GENIUS_GENODEF_13
1002
{
1000
HIER
1070
     0
1002
}
1002
{
1000
MANEDIT
1070
     0
1002
}
1002
{
1000
NOSEL
1070
     0
1002
}
1002
{
1000
BEHIND
1070
     0
1002
}
1002
{
1000
REACTOR
1002
}
1001
GENIUS_GENOBJ-N-CEN_13
1002
{
1000
OWNER
1000
GEN
1002
}
  0
LINE
  5
7AC
330
1F
100
AcDbEntity
  8
0
100
AcDbLine
 10
43.88264953662803
 20
156.7499790181494
 30
0.0
 11
12.88264953662802
 21
156.7499790181493
 31
0.0
  0
LINE
  5
7AD
330
1F
100
AcDbEntity
  8
0
100
AcDbLine
 10
12.88264953662802
 20
156.7499790181493
 30
0.0
 11
12.88264953663223
 21
130.6499790181492
 31
0.0
1001
GENIUS_GENODEF_13
1002
{
1000
HIER
1070
     0
1002
}
1002
{
1000
MANEDIT
1070
     0
1002
}
1002
{
1000
NOSEL
1070
     0
1002
}
1002
{
1000
BEHIND
1070
     0
1002
}
1002
{
1000
REACTOR
1002
}
1001
GENIUS_GENOBJ-N-CEN_13
1002
{
1000
OWNER
1000
GEN
1002
}
  0
LINE
  5
7AE
330
1F
100
AcDbEntity
  8
0
100
AcDbLine
 10
113.0826495366205
 20
149.1999790181466
 30
0.0
 11
114.6826495366205
 21
149.1999790181466
 31
0.0
  0
LINE
  5
7AF
330
1F
100
AcDbEntity
  8
0
100
AcDbLine
 10
112.2826495366205
 20
144.1999790181466
 30
0.0
 11
115.4826495366205
 21
144.1999790181466
 31
0.0
  0
LINE
  5
7B0
330
1F
100
AcDbEntity
  8
0
100
AcDbLine
 10
113.0826495366205
 20
149.1999790181466
 30
0.0
 11
112.2826495366205
 21
144.1999790181466
 31
0.0
  0
LINE
  5
7B1
330
1F
100
AcDbEntity
  8
0
100
AcDbLine
 10
114.6826495366205
 20
149.1999790181466
 30
0.0
 11
115.4826495366205
 21
144.1999790181466
 31
0.0
  0
ARC
  5
7B2
330
1F
100
AcDbEntity
  8
0
100
AcDbCircle
 10
-781.1173504633798
 20
116.999979018145
 30
0.0
 40
1000.25
100
AcDbArc
 50
359.1121018456318
 51
2.896829748829738
  0
ARC
  5
7B3
330
1F
100
AcDbEntity
  8
0
100
AcDbCircle
 10
113.8826495366205
 20
168.3999790181469
 30
0.0
 40
0.8000000000000111
100
AcDbArc
 50
0.0
 51
180.0
  0
ARC
  5
7B4
330
1F
100
AcDbEntity
  8
0
100
AcDbCircle
 10
31.24777303193532
 20
25.11315384348528
 30
0.0
 40
25.5
100
AcDbArc
 50
292.3224736528239
 51
314.3764078784894
  0
LINE
  5
7B5
330
1F
100
AcDbEntity
  8
0
100
AcDbLine
 10
116.2826495366205
 20
6.380767812391438
 30
0.0
 11
116.2826495366204
 21
3.693809071776428
 31
0.0
  0
LINE
  5
7B6
330
1F
100
AcDbEntity
  8
0
100
AcDbLine
 10
111.4826495366205
 20
6.380767812408606
 30
0.0
 11
111.4826495366205
 21
3.693809071776428
 31
0.0
  0
LINE
  5
7B7
330
1F
100
AcDbEntity
  8
0
100
AcDbLine
 10
115.7826495366204
 20
2.258449949847338
 30
0.0
 11
115.7826495366204
 21
1.89997901814948
 31
0.0
1001
GENIUS_GENODEF_13
1002
{
1000
HIER
1070
     0
1002
}
1002
{
1000
MANEDIT
1070
     0
1002
}
1002
{
1000
NOSEL
1070
     0
1002
}
1002
{
1000
BEHIND
1070
     0
1002
}
1002
{
1000
OTHER
1070
     0
1002
}
1002
{
1000
REACTOR
1002
}
1001
GENIUS_GENOBJ-N-CEN_13
1002
{
1000
OWNER
1000
GEN
1002
}
1001
GENIUS_GENCEN_19
1002
{
1040
2.793999999999998
1002
}
  0
LINE
  5
7B8
330
1F
100
AcDbEntity
  8
0
100
AcDbLine
 10
111.9826495366204
 20
2.258449949847338
 30
0.0
 11
111.9826495366204
 21
1.89997901814948
 31
0.0
1001
GENIUS_GENODEF_13
1002
{
1000
HIER
1070
     0
1002
}
1002
{
1000
MANEDIT
1070
     0
1002
}
1002
{
1000
NOSEL
1070
     0
1002
}
1002
{
1000
BEHIND
1070
     0
1002
}
1002
{
1000
OTHER
1070
     0
1002
}
1002
{
1000
REACTOR
1002
}
1001
GENIUS_GENOBJ-N-CEN_13
1002
{
1000
OWNER
1000
GEN
1002
}
1001
GENIUS_GENCEN_19
1002
{
1040
2.793999999999998
1002
}
  0
LINE
  5
7B9
330
1F
100
AcDbEntity
  8
0
100
AcDbLine
 10
40.03312805014154
 20
3.410077892398156
 30
0.0
 11
40.93315839596402
 21
1.524103198106188
 31
0.0
  0
ARC
  5
7BA
330
1F
100
AcDbEntity
  8
0
100
AcDbCircle
 10
193.8826495366207
 20
24.99997901814943
 30
0.0
 40
25.5
100
AcDbArc
 50
225.6235921215106
 51
247.8417773427091
  0
LINE
  5
7BB
330
1F
100
AcDbEntity
  8
0
100
AcDbLine
 10
185.2321710230997
 20
3.410077892398156
 30
0.0
 11
184.2649270967254
 21
1.383260044737119
 31
0.0
  0
ELLIPSE
  5
7BC
330
1F
100
AcDbEntity
  8
0
100
AcDbEllipse
 10
113.8826495366204
 20
3.693809071776428
 30
0.0
 11
2.400000000000003
 21
0.0
 31
0.0
210
0.0
220
0.0
230
0.9999999999999998
 40
0.9627287612663847
 41
3.141592653589792
 42
6.283185307179584
  0
ELLIPSE
  5
7BD
330
1F
100
AcDbEntity
  8
0
100
AcDbEllipse
 10
113.8826495366204
 20
1.89997901814948
 30
0.0
 11
-1.900000000000004
 21
0.0
 31
0.0
210
0.0
220
0.0
230
1.0
 40
0.999988966052458
 41
0.0
 42
3.141592653589792
  0
ARC
  5
7BE
330
1F
100
AcDbEntity
  8
0
100
AcDbCircle
 10
213.3826495366204
 20
92.99997901815364
 30
0.0
 40
3.0
100
AcDbArc
 50
69.47122063449237
 51
210.5287793655089
  0
CIRCLE
  5
7BF
330
1F
100
AcDbEntity
  8
0
100
AcDbCircle
 10
213.3826495366204
 20
92.99997901815364
 30
0.0
 40
3.5
  0
ARC
  5
7C0
330
1F
100
AcDbEntity
  8
0
100
AcDbCircle
 10
213.3826495366204
 20
92.99997901815364
 30
0.0
 40
3.0
100
AcDbArc
 50
249.4712206344887
 51
30.52877936551038
  0
LINE
  5
7C1
330
1F
100
AcDbEntity
  8
0
100
AcDbLine
 10
210.4606299079707
 20
91.0733754549402
 30
0.0
 11
214.7725802790318
 21
96.21215780074024
 31
0.0
  0
LINE
  5
7C2
330
1F
100
AcDbEntity
  8
0
100
AcDbLine
 10
211.9927187942086
 20
89.78780023556714
 30
0.0
 11
216.3046691652698
 21
94.92658258136714
 31
0.0
  0
CIRCLE
  5
7C3
330
1F
100
AcDbEntity
  8
0
100
AcDbCircle
 10
213.3826495366204
 20
92.99997901815359
 30
0.0
 40
3.75
  0
CIRCLE
  5
7C4
330
1F
100
AcDbEntity
  8
0
100
AcDbCircle
 10
213.3826495366204
 20
92.99997901815359
 30
0.0
 40
4.5
  0
CIRCLE
  5
7C5
330
1F
100
AcDbEntity
  8
0
100
AcDbCircle
 10
181.3826495366204
 20
92.99997901815359
 30
0.0
 40
3.75
  0
CIRCLE
  5
7C6
330
1F
100
AcDbEntity
  8
0
100
AcDbCircle
 10
181.3826495366204
 20
92.99997901815359
 30
0.0
 40
4.5
  0
ARC
  5
7C7
330
1F
100
AcDbEntity
  8
0
100
AcDbCircle
 10
181.3826495366205
 20
92.99997901815356
 30
0.0
 40
3.0
100
AcDbArc
 50
79.47122063449177
 51
220.5287793655077
  0
CIRCLE
  5
7C8
330
1F
100
AcDbEntity
  8
0
100
AcDbCircle
 10
181.3826495366205
 20
92.99997901815356
 30
0.0
 40
3.5
  0
ARC
  5
7C9
330
1F
100
AcDbEntity
  8
0
100
AcDbCircle
 10
181.3826495366205
 20
92.99997901815356
 30
0.0
 40
3.0
100
AcDbArc
 50
259.4712206344901
 51
40.52877936550999
  0
LINE
  5
7CA
330
1F
100
AcDbEntity
  8
0
100
AcDbLine
 10
178.8395731497111
 20
90.59524150849803
 30
0.0
 11
182.1936751159608
 21
96.40471652780917
 31
0.0
  0
LINE
  5
7CB
330
1F
100
AcDbEntity
  8
0
100
AcDbLine
 10
180.57162395728
 20
89.59524150849802
 30
0.0
 11
183.9257259235297
 21
95.40471652780915
 31
0.0
  0
LINE
  5
7CC
330
1F
100
AcDbEntity
  8
0
100
AcDbLine
 10
208.8826495366206
 20
77.49997901815359
 30
0.0
 11
208.8826495366206
 21
24.49997901815365
 31
0.0
  0
LINE
  5
7CD
330
1F
100
AcDbEntity
  8
0
100
AcDbLine
 10
183.8826495366205
 20
77.49997901815359
 30
0.0
 11
183.8826495366204
 21
24.49997901815365
 31
0.0
  0
LINE
  5
7CE
330
1F
100
AcDbEntity
  8
0
100
AcDbLine
 10
189.8826495366206
 20
77.49997901815359
 30
0.0
 11
189.8826495366206
 21
45.49997901815358
 31
0.0
  0
LINE
  5
7CF
330
1F
100
AcDbEntity
  8
0
100
AcDbLine
 10
184.8826495366204
 20
23.49997901815365
 30
0.0
 11
207.8826495366205
 21
23.49997901815365
 31
0.0
  0
ARC
  5
7D0
330
1F
100
AcDbEntity
  8
0
100
AcDbCircle
 10
184.8826495366204
 20
24.49997901815365
 30
0.0
 40
1.0
100
AcDbArc
 50
180.0
 51
270.0
1001
GENIUS_GENODEF_13
1002
{
1000
HIER
1070
     0
1002
}
1002
{
1000
MANEDIT
1070
     0
1002
}
1002
{
1000
NOSEL
1070
     0
1002
}
1002
{
1000
BEHIND
1070
     0
1002
}
1002
{
1000
REACTOR
1002
}
1001
GENIUS_GENOBJ-N-FIL_13
1002
{
1000
OWNER
1000
GEN
1002
}
  0
ARC
  5
7D1
330
1F
100
AcDbEntity
  8
0
100
AcDbCircle
 10
207.8826495366205
 20
24.49997901815365
 30
0.0
 40
1.0
100
AcDbArc
 50
270.0
 51
0.0
1001
GENIUS_GENODEF_13
1002
{
1000
HIER
1070
     0
1002
}
1002
{
1000
MANEDIT
1070
     0
1002
}
1002
{
1000
NOSEL
1070
     0
1002
}
1002
{
1000
BEHIND
1070
     0
1002
}
1002
{
1000
REACTOR
1002
}
1001
GENIUS_GENOBJ-N-FIL_13
1002
{
1000
OWNER
1000
GEN
1002
}
  0
LINE
  5
7D2
330
1F
100
AcDbEntity
  8
0
100
AcDbLine
 10
184.8826495366204
 20
78.4999790181536
 30
0.0
 11
207.8826495366206
 21
78.4999790181536
 31
0.0
  0
ARC
  5
7D3
330
1F
100
AcDbEntity
  8
0
100
AcDbCircle
 10
186.8826483712456
 20
72.07277736190538
 30
0.0
 40
2.010074702488397
100
AcDbArc
 50
354.2608283633359
 51
185.739171636662
  0
ARC
  5
7D4
330
1F
100
AcDbEntity
  8
0
100
AcDbCircle
 10
186.8826483823977
 20
75.48990431566531
 30
0.0
 40
2.010074702488397
100
AcDbArc
 50
354.2608295227307
 51
185.7391704772713
  0
ARC
  5
7D5
330
1F
100
AcDbEntity
  8
0
100
AcDbCircle
 10
186.8826483823977
 20
75.48990431566531
 30
0.0
 40
1.407052291741877
100
AcDbArc
 50
351.7867892982687
 51
188.2132107017285
  0
LINE
  5
7D6
330
1F
100
AcDbEntity
  8
0
100
AcDbLine
 10
185.4900277777101
 20
75.28889684541647
 30
0.0
 11
184.8826493057759
 21
75.28889684541647
 31
0.0
  0
LINE
  5
7D7
330
1F
100
AcDbEntity
  8
0
100
AcDbLine
 10
188.8826474590195
 20
75.28889684541647
 30
0.0
 11
188.2752689870852
 21
75.28889684541647
 31
0.0
  0
ARC
  5
7D8
330
1F
100
AcDbEntity
  8
0
100
AcDbCircle
 10
186.8826483712456
 20
72.07277736190538
 30
0.0
 40
1.407052291741877
100
AcDbArc
 50
351.7867876332032
 51
77.6263744189104
  0
ARC
  5
7D9
330
1F
100
AcDbEntity
  8
0
100
AcDbCircle
 10
186.8826483712456
 20
72.07277736190538
 30
0.0
 40
1.407052291741877
100
AcDbArc
 50
102.3736246512801
 51
188.2132123667968
  0
LINE
  5
7DA
330
1F
100
AcDbEntity
  8
0
100
AcDbLine
 10
185.4900277723995
 20
71.8717698511862
 30
0.0
 11
184.8826492986913
 21
71.8717698511862
 31
0.0
  0
LINE
  5
7DB
330
1F
100
AcDbEntity
  8
0
100
AcDbLine
 10
187.1841595877709
 20
72.07277732143506
 30
0.0
 11
187.1841595877709
 21
73.44714526680039
 31
0.0
  0
LINE
  5
7DC
330
1F
100
AcDbEntity
  8
0
100
AcDbLine
 10
186.5811371770244
 20
72.07277732143506
 30
0.0
 11
186.5811371770244
 21
73.4471452716935
 31
0.0
  0
LINE
  5
7DD
330
1F
100
AcDbEntity
  8
0
100
AcDbLine
 10
187.1841595877709
 20
72.07277732143506
 30
0.0
 11
186.5811371770244
 21
72.07277732143506
 31
0.0
  0
LINE
  5
7DE
330
1F
100
AcDbEntity
  8
0
100
AcDbLine
 10
188.8826474438
 20
71.8717698511862
 30
0.0
 11
188.2752689700917
 21
71.8717698511862
 31
0.0
  0
ARC
  5
7DF
330
1F
100
AcDbEntity
  8
0
100
AcDbCircle
 10
184.8826495366204
 20
77.49997901815359
 30
0.0
 40
1.0
100
AcDbArc
 50
90.0
 51
180.0
1001
GENIUS_GENODEF_13
1002
{
1000
HIER
1070
     0
1002
}
1002
{
1000
MANEDIT
1070
     0
1002
}
1002
{
1000
NOSEL
1070
     0
1002
}
1002
{
1000
BEHIND
1070
     0
1002
}
1002
{
1000
REACTOR
1002
}
1001
GENIUS_GENOBJ-N-FIL_13
1002
{
1000
OWNER
1000
GEN
1002
}
  0
ARC
  5
7E0
330
1F
100
AcDbEntity
  8
0
100
AcDbCircle
 10
207.8826495366205
 20
77.49997901815359
 30
0.0
 40
1.0
100
AcDbArc
 50
0.0
 51
90.0
1001
GENIUS_GENODEF_13
1002
{
1000
HIER
1070
     0
1002
}
1002
{
1000
MANEDIT
1070
     0
1002
}
1002
{
1000
NOSEL
1070
     0
1002
}
1002
{
1000
BEHIND
1070
     0
1002
}
1002
{
1000
REACTOR
1002
}
1001
GENIUS_GENOBJ-N-FIL_13
1002
{
1000
OWNER
1000
GEN
1002
}
  0
ELLIPSE
  5
7E1
330
1F
100
AcDbEntity
  8
0
100
AcDbEllipse
 10
189.961414410823
 20
26.5896849441852
 30
0.0
 11
0.0000000000000004
 21
2.068965517241379
 31
0.0
210
0.0
220
0.0
230
1.0
 40
0.5833333335538831
 41
0.0
 42
6.283185307179584
  0
ELLIPSE
  5
7E2
330
1F
100
AcDbEntity
  8
0
100
AcDbEllipse
 10
189.961414410823
 20
26.58965175697843
 30
0.0
 11
0.0000000000000002
 21
1.14945847456305
 31
0.0
210
0.0
220
0.0
230
1.0
 40
0.7499783459728237
 41
0.0
 42
6.283185307179584
  0
ELLIPSE
  5
7E3
330
1F
100
AcDbEntity
  8
0
100
AcDbEllipse
 10
189.961414410823
 20
42.42305146472522
 30
0.0
 11
0.0000000000000004
 21
2.097734336632008
 31
0.0
210
0.0
220
0.0
230
1.0
 40
0.5753333635477672
 41
3.859128061423156
 42
9.190159774811283
  0
ELLIPSE
  5
7E4
330
1F
100
AcDbEntity
  8
0
100
AcDbEllipse
 10
189.961414410823
 20
42.27959250734961
 30
0.0
 11
-0.0000000000000002
 21
-1.32165306412256
 31
0.0
210
0.0
220
0.0
230
1.0
 40
0.652265703397408
 41
0.3314984999877911
 42
5.951686807191792
  0
LINE
  5
7E5
330
1F
100
AcDbEntity
  8
0
100
AcDbLine
 10
191.1683109625472
 20
40.38278839246102
 30
0.0
 11
191.1683109625472
 21
40.84255850740354
 31
0.0
  0
LINE
  5
7E6
330
1F
100
AcDbEntity
  8
0
100
AcDbLine
 10
189.6808451793705
 20
40.38278839246104
 30
0.0
 11
189.6808451793705
 21
41.02989591509369
 31
0.0
  0
LINE
  5
7E7
330
1F
100
AcDbEntity
  8
0
100
AcDbLine
 10
190.2419836422756
 20
40.38278839246104
 30
0.0
 11
190.2419836422756
 21
41.02989591509369
 31
0.0
  0
LINE
  5
7E8
330
1F
100
AcDbEntity
  8
0
100
AcDbLine
 10
191.1683109625472
 20
40.84255850740354
 30
0.0
 11
190.7549848309969
 21
40.84255850740354
 31
0.0
  0
LINE
  5
7E9
330
1F
100
AcDbEntity
  8
0
100
AcDbLine
 10
191.1683109625472
 20
35.6701447143001
 30
0.0
 11
191.1683109625472
 21
37.50922517407021
 31
0.0
  0
LINE
  5
7EA
330
1F
100
AcDbEntity
  8
0
100
AcDbLine
 10
188.7545178590989
 20
35.6701447143001
 30
0.0
 11
188.7545178590989
 21
37.50922517407021
 31
0.0
  0
LINE
  5
7EB
330
1F
100
AcDbEntity
  8
0
100
AcDbLine
 10
190.8234833763403
 20
37.04945505912768
 30
0.0
 11
190.8234833763403
 21
37.50922517407021
 31
0.0
  0
LINE
  5
7EC
330
1F
100
AcDbEntity
  8
0
100
AcDbLine
 10
191.1683109625472
 20
37.50922517407021
 30
0.0
 11
190.8234833763403
 21
37.50922517407021
 31
0.0
  0
LINE
  5
7ED
330
1F
100
AcDbEntity
  8
0
100
AcDbLine
 10
191.1683109625472
 20
38.14140908211621
 30
0.0
 11
190.8234833763403
 21
38.14140908211621
 31
0.0
  0
LINE
  5
7EE
330
1F
100
AcDbEntity
  8
0
100
AcDbLine
 10
190.8234833763403
 20
38.14140908211621
 30
0.0
 11
190.8234833763403
 21
38.60117919705873
 31
0.0
  0
LINE
  5
7EF
330
1F
100
AcDbEntity
  8
0
100
AcDbLine
 10
189.0993454453058
 20
37.50922517407021
 30
0.0
 11
188.7545178590989
 21
37.50922517407021
 31
0.0
  0
LINE
  5
7F0
330
1F
100
AcDbEntity
  8
0
100
AcDbLine
 10
189.0993454453058
 20
37.04945505912768
 30
0.0
 11
189.0993454453058
 21
37.50922517407021
 31
0.0
  0
LINE
  5
7F1
330
1F
100
AcDbEntity
  8
0
100
AcDbLine
 10
189.7602649855357
 20
37.04945505912768
 30
0.0
 11
189.0993454453058
 21
37.04945505912768
 31
0.0
  0
LINE
  5
7F2
330
1F
100
AcDbEntity
  8
0
100
AcDbLine
 10
189.0993454453058
 20
38.14140908211621
 30
0.0
 11
188.7545178590989
 21
38.14140908211621
 31
0.0
  0
LINE
  5
7F3
330
1F
100
AcDbEntity
  8
0
100
AcDbLine
 10
189.0993454453058
 20
38.14140908211621
 30
0.0
 11
189.0993454453058
 21
38.60117919705873
 31
0.0
  0
LINE
  5
7F4
330
1F
100
AcDbEntity
  8
0
100
AcDbLine
 10
189.7602649855357
 20
38.60117919705873
 30
0.0
 11
189.0993454453058
 21
38.60117919705873
 31
0.0
  0
LINE
  5
7F5
330
1F
100
AcDbEntity
  8
0
100
AcDbLine
 10
190.1625638361104
 20
38.60117919705873
 30
0.0
 11
190.1625638361104
 21
37.04945505912768
 31
0.0
  0
LINE
  5
7F6
330
1F
100
AcDbEntity
  8
0
100
AcDbLine
 10
189.7602649855357
 20
38.60117919705873
 30
0.0
 11
189.7602649855357
 21
37.04945505912768
 31
0.0
  0
LINE
  5
7F7
330
1F
100
AcDbEntity
  8
0
100
AcDbLine
 10
190.8234833763403
 20
37.04945505912768
 30
0.0
 11
190.1625638361104
 21
37.04945505912768
 31
0.0
  0
LINE
  5
7F8
330
1F
100
AcDbEntity
  8
0
100
AcDbLine
 10
190.8234833763403
 20
38.60117919705873
 30
0.0
 11
190.1625638361104
 21
38.60117919705873
 31
0.0
  0
LINE
  5
7F9
330
1F
100
AcDbEntity
  8
0
100
AcDbLine
 10
190.8234833763403
 20
39.52071942694379
 30
0.0
 11
190.8234833763403
 21
39.98048954188631
 31
0.0
  0
LINE
  5
7FA
330
1F
100
AcDbEntity
  8
0
100
AcDbLine
 10
191.1683109625472
 20
39.98048954188631
 30
0.0
 11
190.8234833763403
 21
39.98048954188631
 31
0.0
  0
LINE
  5
7FB
330
1F
100
AcDbEntity
  8
0
100
AcDbLine
 10
189.0993454453058
 20
39.98048954188631
 30
0.0
 11
188.7545178590989
 21
39.98048954188631
 31
0.0
  0
LINE
  5
7FC
330
1F
100
AcDbEntity
  8
0
100
AcDbLine
 10
189.0993454453058
 20
39.52071942694379
 30
0.0
 11
189.0993454453058
 21
39.98048954188631
 31
0.0
  0
LINE
  5
7FD
330
1F
100
AcDbEntity
  8
0
100
AcDbLine
 10
190.8234833763403
 20
39.52071942694379
 30
0.0
 11
189.0993454453058
 21
39.52071942694379
 31
0.0
  0
LINE
  5
7FE
330
1F
100
AcDbEntity
  8
0
100
AcDbLine
 10
191.1683109625472
 20
40.38278839246102
 30
0.0
 11
190.2419836422755
 21
40.38278839246102
 31
0.0
  0
LINE
  5
7FF
330
1F
100
AcDbEntity
  8
0
100
AcDbLine
 10
188.7545178590989
 20
38.14140908211621
 30
0.0
 11
188.7545178590989
 21
39.98048954188631
 31
0.0
  0
LINE
  5
800
330
1F
100
AcDbEntity
  8
0
100
AcDbLine
 10
191.1683109625472
 20
38.14140908211621
 30
0.0
 11
191.1683109625472
 21
39.98048954188631
 31
0.0
  0
LINE
  5
801
330
1F
100
AcDbEntity
  8
0
100
AcDbLine
 10
190.8234833763403
 20
33.37129413958745
 30
0.0
 11
190.8234833763403
 21
33.83106425453
 31
0.0
  0
LINE
  5
802
330
1F
100
AcDbEntity
  8
0
100
AcDbLine
 10
191.1683109625472
 20
33.37129413958745
 30
0.0
 11
190.8234833763403
 21
33.37129413958745
 31
0.0
  0
LINE
  5
803
330
1F
100
AcDbEntity
  8
0
100
AcDbLine
 10
191.1683109625472
 20
35.21037459935757
 30
0.0
 11
190.8234833763403
 21
35.21037459935757
 31
0.0
  0
LINE
  5
804
330
1F
100
AcDbEntity
  8
0
100
AcDbLine
 10
191.1683109625472
 20
35.6701447143001
 30
0.0
 11
190.8234833763403
 21
35.6701447143001
 31
0.0
  0
LINE
  5
805
330
1F
100
AcDbEntity
  8
0
100
AcDbLine
 10
190.8234833763403
 20
34.75060448441503
 30
0.0
 11
190.8234833763403
 21
35.21037459935757
 31
0.0
  0
LINE
  5
806
330
1F
100
AcDbEntity
  8
0
100
AcDbLine
 10
191.1683109625472
 20
33.37129413958745
 30
0.0
 11
191.1683109625472
 21
35.21037459935757
 31
0.0
  0
LINE
  5
807
330
1F
100
AcDbEntity
  8
0
100
AcDbLine
 10
190.8234833763403
 20
35.6701447143001
 30
0.0
 11
190.8234833763403
 21
36.12991482924261
 31
0.0
  0
LINE
  5
808
330
1F
100
AcDbEntity
  8
0
100
AcDbLine
 10
189.0993454453058
 20
33.37129413958745
 30
0.0
 11
188.7545178590989
 21
33.37129413958745
 31
0.0
  0
LINE
  5
809
330
1F
100
AcDbEntity
  8
0
100
AcDbLine
 10
189.0993454453058
 20
33.37129413958745
 30
0.0
 11
189.0993454453058
 21
33.83106425452999
 31
0.0
  0
LINE
  5
80A
330
1F
100
AcDbEntity
  8
0
100
AcDbLine
 10
189.0993454453058
 20
35.21037459935757
 30
0.0
 11
188.7545178590989
 21
35.21037459935757
 31
0.0
  0
LINE
  5
80B
330
1F
100
AcDbEntity
  8
0
100
AcDbLine
 10
189.0993454453058
 20
35.6701447143001
 30
0.0
 11
188.7545178590989
 21
35.6701447143001
 31
0.0
  0
LINE
  5
80C
330
1F
100
AcDbEntity
  8
0
100
AcDbLine
 10
189.0993454453058
 20
34.75060448441503
 30
0.0
 11
189.0993454453058
 21
35.21037459935757
 31
0.0
  0
LINE
  5
80D
330
1F
100
AcDbEntity
  8
0
100
AcDbLine
 10
188.7545178590989
 20
33.37129413958745
 30
0.0
 11
188.7545178590989
 21
35.21037459935757
 31
0.0
  0
LINE
  5
80E
330
1F
100
AcDbEntity
  8
0
100
AcDbLine
 10
189.0993454453058
 20
35.6701447143001
 30
0.0
 11
189.0993454453058
 21
36.12991482924261
 31
0.0
  0
LINE
  5
80F
330
1F
100
AcDbEntity
  8
0
100
AcDbLine
 10
190.8234833763403
 20
33.83106425453
 30
0.0
 11
189.0993454453058
 21
33.83106425452999
 31
0.0
  0
LINE
  5
810
330
1F
100
AcDbEntity
  8
0
100
AcDbLine
 10
190.8234833763403
 20
34.75060448441503
 30
0.0
 11
189.0993454453058
 21
34.75060448441503
 31
0.0
  0
LINE
  5
811
330
1F
100
AcDbEntity
  8
0
100
AcDbLine
 10
190.8234833763403
 20
36.12991482924261
 30
0.0
 11
189.0993454453058
 21
36.12991482924261
 31
0.0
  0
LINE
  5
812
330
1F
100
AcDbEntity
  8
0
100
AcDbLine
 10
191.1683109625472
 20
28.7735929901622
 30
0.0
 11
191.1683109625472
 21
30.21037459935757
 31
0.0
  0
LINE
  5
813
330
1F
100
AcDbEntity
  8
0
100
AcDbLine
 10
188.7545178590989
 20
29.23336310510469
 30
0.0
 11
188.7545178590989
 21
30.19882229322097
 31
0.0
  0
LINE
  5
814
330
1F
100
AcDbEntity
  8
0
100
AcDbLine
 10
191.1683109625472
 20
30.21037459935757
 30
0.0
 11
190.8234833763403
 21
30.21037459935757
 31
0.0
  0
LINE
  5
815
330
1F
100
AcDbEntity
  8
0
100
AcDbLine
 10
190.8234833763403
 20
29.75060448441507
 30
0.0
 11
190.8234833763403
 21
30.21037459935757
 31
0.0
  0
LINE
  5
816
330
1F
100
AcDbEntity
  8
0
100
AcDbLine
 10
190.8234833763403
 20
32.45175390970242
 30
0.0
 11
190.8234833763403
 21
32.91152402464495
 31
0.0
  0
LINE
  5
817
330
1F
100
AcDbEntity
  8
0
100
AcDbLine
 10
191.1683109625472
 20
32.91152402464495
 30
0.0
 11
190.8234833763403
 21
32.91152402464495
 31
0.0
  0
LINE
  5
818
330
1F
100
AcDbEntity
  8
0
100
AcDbLine
 10
191.1683109625472
 20
31.47474241544951
 30
0.0
 11
191.1683109625472
 21
32.91152402464495
 31
0.0
  0
LINE
  5
819
330
1F
100
AcDbEntity
  8
0
100
AcDbLine
 10
189.0993454453058
 20
31.47474241544951
 30
0.0
 11
188.7545178590989
 21
31.47474241544951
 31
0.0
  0
LINE
  5
81A
330
1F
100
AcDbEntity
  8
0
100
AcDbLine
 10
189.0993454453058
 20
31.93451253039204
 30
0.0
 11
189.0993454453058
 21
31.47474241544951
 31
0.0
  0
LINE
  5
81B
330
1F
100
AcDbEntity
  8
0
100
AcDbLine
 10
189.0993454453058
 20
32.91152402464495
 30
0.0
 11
188.7545178590989
 21
32.91152402464495
 31
0.0
  0
LINE
  5
81C
330
1F
100
AcDbEntity
  8
0
100
AcDbLine
 10
189.0993454453058
 20
32.45175390970239
 30
0.0
 11
189.0993454453058
 21
32.91152402464495
 31
0.0
  0
LINE
  5
81D
330
1F
100
AcDbEntity
  8
0
100
AcDbLine
 10
188.7545178590989
 20
31.47474241544951
 30
0.0
 11
188.7545178590989
 21
32.91152402464495
 31
0.0
  0
LINE
  5
81E
330
1F
100
AcDbEntity
  8
0
100
AcDbLine
 10
190.8234833763403
 20
32.45175390970239
 30
0.0
 11
189.0993454453058
 21
32.45175390970239
 31
0.0
  0
LINE
  5
81F
330
1F
100
AcDbEntity
  8
0
100
AcDbLine
 10
190.4902080962699
 20
31.93451253039204
 30
0.0
 11
189.0993454453058
 21
31.93451253039204
 31
0.0
  0
LINE
  5
820
330
1F
100
AcDbEntity
  8
0
100
AcDbLine
 10
191.1683109625472
 20
31.47474241544951
 30
0.0
 11
189.4441730315127
 21
29.75060448441503
 31
0.0
  0
LINE
  5
821
330
1F
100
AcDbEntity
  8
0
100
AcDbLine
 10
190.4902080962699
 20
31.93451253039204
 30
0.0
 11
188.7545178590989
 21
30.19882229322097
 31
0.0
  0
LINE
  5
822
330
1F
100
AcDbEntity
  8
0
100
AcDbLine
 10
190.8234833763403
 20
29.75060448441507
 30
0.0
 11
189.4441730315127
 21
29.75060448441503
 31
0.0
  0
LINE
  5
823
330
1F
100
AcDbEntity
  8
0
100
AcDbLine
 10
191.1683109625472
 20
28.7735929901622
 30
0.0
 11
190.8234833763403
 21
28.7735929901622
 31
0.0
  0
LINE
  5
824
330
1F
100
AcDbEntity
  8
0
100
AcDbLine
 10
190.8234833763403
 20
28.77359299016216
 30
0.0
 11
190.8234833763403
 21
29.23336310510469
 31
0.0
  0
LINE
  5
825
330
1F
100
AcDbEntity
  8
0
100
AcDbLine
 10
190.8234833763403
 20
29.23336310510471
 30
0.0
 11
188.7545178590989
 21
29.23336310510469
 31
0.0
  0
ENDSEC
  0
SECTION
  2
OBJECTS
  0
DICTIONARY
  5
C
330
0
100
AcDbDictionary
281
     1
  3
ACAD_COLOR
350
BE
  3
ACAD_GROUP
350
D
  3
ACAD_LAYOUT
350
1A
  3
ACAD_MATERIAL
350
BD
  3
ACAD_MLINESTYLE
350
17
  3
ACAD_PLOTSETTINGS
350
19
  3
ACAD_PLOTSTYLENAME
350
E
  3
ACAD_TABLESTYLE
350
11A
  3
ACDBHEADERROUNDTRIPXREC
350
8CC
  3
AcDbVariableDictionary
350
94
  3
AcmDictionary
350
5B
  3
AMG
350
41
  3
AMGSNAPSETTINGS
350
1B8
  3
DWGPROPS
350
8CB
  0
DICTIONARY
  5
217
330
2
100
AcDbDictionary
280
     1
281
     1
  3
ACAD_LAYERSTATES
360
218
  0
DICTIONARY
  5
8F
330
1F
100
AcDbDictionary
280
     1
281
     1
  0
DICTIONARY
  5
BE
102
{ACAD_REACTORS
330
C
102
}
330
C
100
AcDbDictionary
281
     1
  0
DICTIONARY
  5
D
102
{ACAD_REACTORS
330
C
102
}
330
C
100
AcDbDictionary
281
     1
  0
DICTIONARY
  5
1A
102
{ACAD_REACTORS
330
C
102
}
330
C
100
AcDbDictionary
281
     1
  3
Model
350
22
  3
レイアウト1
350
1E
  3
レイアウト2
350
26
  0
DICTIONARY
  5
BD
102
{ACAD_REACTORS
330
C
102
}
330
C
100
AcDbDictionary
281
     1
  0
DICTIONARY
  5
17
102
{ACAD_REACTORS
330
C
102
}
330
C
100
AcDbDictionary
281
     1
  3
Standard
350
18
  0
DICTIONARY
  5
19
102
{ACAD_REACTORS
330
C
102
}
330
C
100
AcDbDictionary
281
     1
  0
ACDBDICTIONARYWDFLT
  5
E
102
{ACAD_REACTORS
330
C
102
}
330
C
100
AcDbDictionary
281
     1
  3
Normal
350
F
100
AcDbDictionaryWithDefault
340
F
  0
DICTIONARY
  5
11A
102
{ACAD_REACTORS
330
C
102
}
330
C
100
AcDbDictionary
281
     1
  3
Standard
350
11B
  0
DICTIONARY
  5
8CC
102
{ACAD_REACTORS
330
C
102
}
330
C
100
AcDbDictionary
281
     1
  0
DICTIONARY
  5
94
102
{ACAD_REACTORS
330
C
102
}
330
C
100
AcDbDictionary
281
     1
  3
CTABLESTYLE
350
138
  3
DIMASSOC
350
96
  3
INDEXCTL
350
95
  3
PROJECTNAME
350
827
  0
DICTIONARY
  5
5B
102
{ACAD_REACTORS
330
C
102
}
330
C
100
AcDbDictionary
281
     1
  3
AcmBOM
350
1B5
  3
AcmStdDictionary
350
61
  3
AMDTSECTSYM_ARROWCOLOR
350
123
  0
DICTIONARY
  5
41
102
{ACAD_REACTORS
330
C
102
}
330
C
100
AcDbDictionary
281
     1
  0
DICTIONARY
  5
1B8
102
{ACAD_REACTORS
330
C
102
}
330
C
100
AcDbDictionary
281
     1
  0
XRECORD
  5
8CB
102
{ACAD_REACTORS
330
C
102
}
330
C
100
AcDbXrecord
280
     1
  1
DWGPROPS COOKIE
  2

  3

  4

  6

  7

  8

  9

300
AmdtFileType=84
301
=
302
=
303
=
304
=
305
=
306
=
307
=
308
=
309
=
 40
0.000813587962963
 41
2456406.494575463
 42
2456406.64486706
  1

 90
        1
  0
DICTIONARY
  5
218
102
{ACAD_REACTORS
330
217
102
}
330
217
100
AcDbDictionary
281
     1
  0
LAYOUT
  5
22
102
{ACAD_XDICTIONARY
360
8CF
102
}
102
{ACAD_REACTORS
330
1A
102
}
330
1A
100
AcDbPlotSettings
  1

  2

  4

  6

 40
0.0
 41
0.0
 42
0.0
 43
0.0
 44
0.0
 45
0.0
 46
0.0
 47
0.0
 48
0.0
 49
0.0
140
0.0
141
0.0
142
1.0
143
1.0
 70
  1712
 72
     0
 73
     0
 74
     0
  7

 75
     0
147
1.0
148
0.0
149
0.0
100
AcDbLayout
  1
Model
 70
     1
 71
     0
 10
0.0
 20
0.0
 11
12.0
 21
9.0
 12
0.0
 22
0.0
 32
0.0
 14
0.0
 24
0.0
 34
0.0
 15
0.0
 25
0.0
 35
0.0
146
0.0
 13
0.0
 23
0.0
 33
0.0
 16
1.0
 26
0.0
 36
0.0
 17
0.0
 27
1.0
 37
0.0
 76
     0
330
1F
  0
LAYOUT
  5
1E
102
{ACAD_XDICTIONARY
360
8CD
102
}
102
{ACAD_REACTORS
330
1A
102
}
330
1A
100
AcDbPlotSettings
  1

  2

  4

  6

 40
0.0
 41
0.0
 42
0.0
 43
0.0
 44
0.0
 45
0.0
 46
0.0
 47
0.0
 48
0.0
 49
0.0
140
0.0
141
0.0
142
1.0
143
1.0
 70
   688
 72
     0
 73
     0
 74
     5
  7

 75
    16
147
1.0
148
0.0
149
0.0
100
AcDbLayout
  1
レイアウト1
 70
     1
 71
     1
 10
0.0
 20
0.0
 11
420.0
 21
297.0
 12
0.0
 22
0.0
 32
0.0
 14
1.000000000000000E+20
 24
1.000000000000000E+20
 34
1.000000000000000E+20
 15
-1.000000000000000E+20
 25
-1.000000000000000E+20
 35
-1.000000000000000E+20
146
0.0
 13
0.0
 23
0.0
 33
0.0
 16
1.0
 26
0.0
 36
0.0
 17
0.0
 27
1.0
 37
0.0
 76
     0
330
1B
  0
LAYOUT
  5
26
102
{ACAD_XDICTIONARY
360
8D1
102
}
102
{ACAD_REACTORS
330
1A
102
}
330
1A
100
AcDbPlotSettings
  1

  2

  4

  6

 40
0.0
 41
0.0
 42
0.0
 43
0.0
 44
0.0
 45
0.0
 46
0.0
 47
0.0
 48
0.0
 49
0.0
140
0.0
141
0.0
142
1.0
143
1.0
 70
   688
 72
     0
 73
     0
 74
     5
  7

 75
    16
147
1.0
148
0.0
149
0.0
100
AcDbLayout
  1
レイアウト2
 70
     1
 71
     2
 10
0.0
 20
0.0
 11
12.0
 21
9.0
 12
0.0
 22
0.0
 32
0.0
 14
0.0
 24
0.0
 34
0.0
 15
0.0
 25
0.0
 35
0.0
146
0.0
 13
0.0
 23
0.0
 33
0.0
 16
1.0
 26
0.0
 36
0.0
 17
0.0
 27
1.0
 37
0.0
 76
     0
330
23
  0
MLINESTYLE
  5
18
102
{ACAD_REACTORS
330
17
102
}
330
17
100
AcDbMlineStyle
  2
STANDARD
 70
     0
  3

 62
   256
 51
90.0
 52
90.0
 71
     2
 49
0.5
 62
   256
  6
BYLAYER
 49
-0.5
 62
   256
  6
BYLAYER
  0
ACDBPLACEHOLDER
  5
F
102
{ACAD_REACTORS
330
E
102
}
330
E
  0
TABLESTYLE
  5
11B
102
{ACAD_REACTORS
330
11A
102
}
330
11A
100
AcDbTableStyle
  3
Standard
 70
     0
 71
     0
 40
1.5
 41
1.5
280
     0
281
     0
  7
STANDARD
140
4.5
170
     2
 62
     0
 63
     7
283
     0
274
    -2
284
     1
 64
     0
275
    -2
285
     1
 65
     0
276
    -2
286
     1
 66
     0
277
    -2
287
     1
 67
     0
278
    -2
288
     1
 68
     0
279
    -2
289
     1
 69
     0
  7
STANDARD
140
6.0
170
     5
 62
     0
 63
     7
283
     0
274
    -2
284
     1
 64
     0
275
    -2
285
     1
 65
     0
276
    -2
286
     1
 66
     0
277
    -2
287
     1
 67
     0
278
    -2
288
     1
 68
     0
279
    -2
289
     1
 69
     0
  7
STANDARD
140
4.5
170
     5
 62
     0
 63
     7
283
     0
274
    -2
284
     1
 64
     0
275
    -2
285
     1
 65
     0
276
    -2
286
     1
 66
     0
277
    -2
287
     1
 67
     0
278
    -2
288
     1
 68
     0
279
    -2
289
     1
 69
     0
  0
DICTIONARYVAR
  5
138
102
{ACAD_REACTORS
330
94
102
}
330
94
100
DictionaryVariables
280
     0
  1
STANDARD
  0
DICTIONARYVAR
  5
96
102
{ACAD_REACTORS
330
94
102
}
330
94
100
DictionaryVariables
280
     0
  1
2
  0
DICTIONARYVAR
  5
95
102
{ACAD_REACTORS
330
94
102
}
330
94
100
DictionaryVariables
280
     0
  1
0
  0
DICTIONARYVAR
  5
827
102
{ACAD_REACTORS
330
94
102
}
330
94
100
DictionaryVariables
280
     0
  1

  0
DICTIONARY
  5
1B5
102
{ACAD_REACTORS
330
5B
102
}
330
5B
100
AcDbDictionary
281
     1
  0
DICTIONARY
  5
61
102
{ACAD_REACTORS
330
5B
102
}
330
5B
100
AcDbDictionary
281
     1
  0
XRECORD
  5
123
102
{ACAD_REACTORS
330
5B
102
}
330
5B
100
AcDbXrecord
280
     1
 90
-1023410169
  0
DICTIONARY
  5
8CF
330
22
100
AcDbDictionary
280
     1
281
     1
  3
ACAD_XREC_ROUNDTRIP
360
8D0
  0
DICTIONARY
  5
8CD
330
1E
100
AcDbDictionary
280
     1
281
     1
  3
ACAD_XREC_ROUNDTRIP
360
8CE
  0
DICTIONARY
  5
8D1
330
26
100
AcDbDictionary
280
     1
281
     1
  3
ACAD_XREC_ROUNDTRIP
360
8D2
  0
XRECORD
  5
8D0
102
{ACAD_REACTORS
330
8CF
102
}
330
8CF
100
AcDbXrecord
280
     1
102
SHADEPLOT
 70
     0
102
SHADEPLOTRESLEVEL
 70
     2
102
SHADEPLOTCUSTOMDPI
 70
   300
  0
XRECORD
  5
8CE
102
{ACAD_REACTORS
330
8CD
102
}
330
8CD
100
AcDbXrecord
280
     1
102
SHADEPLOT
 70
     0
102
SHADEPLOTRESLEVEL
 70
     2
102
SHADEPLOTCUSTOMDPI
 70
   300
  0
XRECORD
  5
8D2
102
{ACAD_REACTORS
330
8D1
102
}
330
8D1
100
AcDbXrecord
280
     1
102
SHADEPLOT
 70
     0
102
SHADEPLOTRESLEVEL
 70
     2
102
SHADEPLOTCUSTOMDPI
 70
   300
  0
ENDSEC
  0
EOF
