  0
SECTION
  2
HEADER
  9
$ACADVER
  1
AC1015
  9
$ACADMAINTVER
 70
    20
  9
$DWGCODEPAGE
  3
ANSI_932
  9
$INSBASE
 10
0.0
 20
0.0
 30
0.0
  9
$EXTMIN
 10
-0.5177670499395939
 20
0.0000001323202801
 30
0.0
  9
$EXTMAX
 10
204.5177668559932
 20
230.5177670852866
 30
0.0
  9
$LIMMIN
 10
0.0
 20
0.0
  9
$LIMMAX
 10
420.0
 20
297.0
  9
$ORTHOMODE
 70
     0
  9
$REGENMODE
 70
     1
  9
$FILLMODE
 70
     1
  9
$QTEXTMODE
 70
     0
  9
$MIRRTEXT
 70
     1
  9
$LTSCALE
 40
1.0
  9
$ATTMODE
 70
     1
  9
$TEXTSIZE
 40
1.0
  9
$TRACEWID
 40
1.0
  9
$TEXTSTYLE
  7
ACISOTS
  9
$CLAYER
  8
AM_0
  9
$CELTYPE
  6
ByLayer
  9
$CECOLOR
 62
   256
  9
$CELTSCALE
 40
1.0
  9
$DISPSILH
 70
     0
  9
$DIMSCALE
 40
1.0
  9
$DIMASZ
 40
2.5
  9
$DIMEXO
 40
1.0
  9
$DIMDLI
 40
10.0
  9
$DIMRND
 40
0.0
  9
$DIMDLE
 40
0.0
  9
$DIMEXE
 40
1.0
  9
$DIMTP
 40
0.1
  9
$DIMTM
 40
0.1
  9
$DIMTXT
 40
3.5
  9
$DIMCEN
 40
0.0
  9
$DIMTSZ
 40
0.0
  9
$DIMTOL
 70
     0
  9
$DIMLIM
 70
     0
  9
$DIMTIH
 70
     0
  9
$DIMTOH
 70
     0
  9
$DIMSE1
 70
     0
  9
$DIMSE2
 70
     0
  9
$DIMTAD
 70
     1
  9
$DIMZIN
 70
     8
  9
$DIMBLK
  1

  9
$DIMASO
 70
     1
  9
$DIMSHO
 70
     1
  9
$DIMPOST
  1

  9
$DIMAPOST
  1
"
  9
$DIMALT
 70
     0
  9
$DIMALTD
 70
     2
  9
$DIMALTF
 40
0.0393701
  9
$DIMLFAC
 40
1.0
  9
$DIMTOFL
 70
     1
  9
$DIMTVP
 40
0.0
  9
$DIMTIX
 70
     0
  9
$DIMSOXD
 70
     0
  9
$DIMSAH
 70
     0
  9
$DIMBLK1
  1

  9
$DIMBLK2
  1

  9
$DIMSTYLE
  2
AM_ISO
  9
$DIMCLRD
 70
   256
  9
$DIMCLRE
 70
   256
  9
$DIMCLRT
 70
     2
  9
$DIMTFAC
 40
0.71
  9
$DIMGAP
 40
1.5
  9
$DIMJUST
 70
     0
  9
$DIMSD1
 70
     0
  9
$DIMSD2
 70
     0
  9
$DIMTOLJ
 70
     0
  9
$DIMTZIN
 70
     8
  9
$DIMALTZ
 70
     0
  9
$DIMALTTZ
 70
     0
  9
$DIMUPT
 70
     0
  9
$DIMDEC
 70
     2
  9
$DIMTDEC
 70
     3
  9
$DIMALTU
 70
     2
  9
$DIMALTTD
 70
     4
  9
$DIMTXSTY
  7
STANDARD
  9
$DIMAUNIT
 70
     0
  9
$DIMADEC
 70
     0
  9
$DIMALTRND
 40
0.0
  9
$DIMAZIN
 70
     2
  9
$DIMDSEP
 70
    46
  9
$DIMATFIT
 70
     3
  9
$DIMFRAC
 70
     0
  9
$DIMLDRBLK
  1

  9
$DIMLUNIT
 70
     2
  9
$DIMLWD
 70
    -1
  9
$DIMLWE
 70
    -1
  9
$DIMTMOVE
 70
     0
  9
$LUNITS
 70
     2
  9
$LUPREC
 70
     2
  9
$SKETCHINC
 40
1.0
  9
$FILLETRAD
 40
2.5
  9
$AUNITS
 70
     0
  9
$AUPREC
 70
     0
  9
$MENU
  1
.
  9
$ELEVATION
 40
0.0
  9
$PELEVATION
 40
0.0
  9
$THICKNESS
 40
0.0
  9
$LIMCHECK
 70
     0
  9
$CHAMFERA
 40
2.5
  9
$CHAMFERB
 40
2.5
  9
$CHAMFERC
 40
20.0
  9
$CHAMFERD
 40
0.0
  9
$SKPOLY
 70
     0
  9
$TDCREATE
 40
2456406.566514028
  9
$TDUCREATE
 40
2456406.191514028
  9
$TDUPDATE
 40
2456406.645672164
  9
$TDUUPDATE
 40
2456406.270672164
  9
$TDINDWG
 40
0.0015203356
  9
$TDUSRTIMER
 40
0.0014539583
  9
$USRTIMER
 70
     1
  9
$ANGBASE
 50
0.0
  9
$ANGDIR
 70
     0
  9
$PDMODE
 70
     0
  9
$PDSIZE
 40
0.0
  9
$PLINEWID
 40
0.0
  9
$SPLFRAME
 70
     0
  9
$SPLINETYPE
 70
     6
  9
$SPLINESEGS
 70
     8
  9
$HANDSEED
  5
691
  9
$SURFTAB1
 70
     6
  9
$SURFTAB2
 70
     6
  9
$SURFTYPE
 70
     6
  9
$SURFU
 70
     6
  9
$SURFV
 70
     6
  9
$UCSBASE
  2

  9
$UCSNAME
  2

  9
$UCSORG
 10
0.0
 20
0.0
 30
0.0
  9
$UCSXDIR
 10
1.0
 20
0.0
 30
0.0
  9
$UCSYDIR
 10
0.0
 20
1.0
 30
0.0
  9
$UCSORTHOREF
  2

  9
$UCSORTHOVIEW
 70
     0
  9
$UCSORGTOP
 10
0.0
 20
0.0
 30
0.0
  9
$UCSORGBOTTOM
 10
0.0
 20
0.0
 30
0.0
  9
$UCSORGLEFT
 10
0.0
 20
0.0
 30
0.0
  9
$UCSORGRIGHT
 10
0.0
 20
0.0
 30
0.0
  9
$UCSORGFRONT
 10
0.0
 20
0.0
 30
0.0
  9
$UCSORGBACK
 10
0.0
 20
0.0
 30
0.0
  9
$PUCSBASE
  2

  9
$PUCSNAME
  2

  9
$PUCSORG
 10
0.0
 20
0.0
 30
0.0
  9
$PUCSXDIR
 10
1.0
 20
0.0
 30
0.0
  9
$PUCSYDIR
 10
0.0
 20
1.0
 30
0.0
  9
$PUCSORTHOREF
  2

  9
$PUCSORTHOVIEW
 70
     0
  9
$PUCSORGTOP
 10
0.0
 20
0.0
 30
0.0
  9
$PUCSORGBOTTOM
 10
0.0
 20
0.0
 30
0.0
  9
$PUCSORGLEFT
 10
0.0
 20
0.0
 30
0.0
  9
$PUCSORGRIGHT
 10
0.0
 20
0.0
 30
0.0
  9
$PUCSORGFRONT
 10
0.0
 20
0.0
 30
0.0
  9
$PUCSORGBACK
 10
0.0
 20
0.0
 30
0.0
  9
$USERI1
 70
     0
  9
$USERI2
 70
     0
  9
$USERI3
 70
     0
  9
$USERI4
 70
     0
  9
$USERI5
 70
     0
  9
$USERR1
 40
0.0
  9
$USERR2
 40
0.0
  9
$USERR3
 40
0.0
  9
$USERR4
 40
0.0
  9
$USERR5
 40
0.0
  9
$WORLDVIEW
 70
     1
  9
$SHADEDGE
 70
     3
  9
$SHADEDIF
 70
    70
  9
$TILEMODE
 70
     1
  9
$MAXACTVP
 70
    64
  9
$PINSBASE
 10
0.0
 20
0.0
 30
0.0
  9
$PLIMCHECK
 70
     0
  9
$PEXTMIN
 10
1.000000000000000E+20
 20
1.000000000000000E+20
 30
1.000000000000000E+20
  9
$PEXTMAX
 10
-1.000000000000000E+20
 20
-1.000000000000000E+20
 30
-1.000000000000000E+20
  9
$PLIMMIN
 10
0.0
 20
0.0
  9
$PLIMMAX
 10
420.0
 20
297.0
  9
$UNITMODE
 70
     0
  9
$VISRETAIN
 70
     1
  9
$PLINEGEN
 70
     0
  9
$PSLTSCALE
 70
     1
  9
$TREEDEPTH
 70
  3020
  9
$CMLSTYLE
  2
Standard
  9
$CMLJUST
 70
     0
  9
$CMLSCALE
 40
20.0
  9
$PROXYGRAPHICS
 70
     1
  9
$MEASUREMENT
 70
     1
  9
$CELWEIGHT
370
    -1
  9
$ENDCAPS
280
     0
  9
$JOINSTYLE
280
     0
  9
$LWDISPLAY
290
     0
  9
$INSUNITS
 70
     4
  9
$HYPERLINKBASE
  1

  9
$STYLESHEET
  1

  9
$XEDIT
290
     1
  9
$CEPSNTYPE
380
     0
  9
$PSTYLEMODE
290
     1
  9
$FINGERPRINTGUID
  2
{A96BFB4C-1F20-4552-988A-6B6B9FA8A280}
  9
$VERSIONGUID
  2
{B498D598-3E5E-4439-9ACD-F13BBED9E6D0}
  9
$EXTNAMES
290
     1
  9
$PSVPSCALE
 40
0.0
  9
$OLESTARTUP
290
     0
  0
ENDSEC
  0
SECTION
  2
CLASSES
  0
CLASS
  1
ACDBDICTIONARYWDFLT
  2
AcDbDictionaryWithDefault
  3
ObjectDBX Classes
 90
        0
280
     0
281
     0
  0
CLASS
  1
ACDBPLACEHOLDER
  2
AcDbPlaceHolder
  3
ObjectDBX Classes
 90
        0
280
     0
281
     0
  0
CLASS
  1
LAYOUT
  2
AcDbLayout
  3
ObjectDBX Classes
 90
        0
280
     0
281
     0
  0
CLASS
  1
ACME_DOCUMENT
  2
AcMeDbDoc
  3
AcMeServices
 90
        0
280
     0
281
     0
  0
CLASS
  1
AMGSETTINGSOBJ
  2
AmgSettingsObj
  3
"AcadM|Product Description: AutoCAD Mechanical 2000|Company: Autodesk"
 90
        0
280
     0
281
     0
  0
CLASS
  1
ACMESCOPE
  2
AcMeScope
  3
AcMeServices
 90
        0
280
     0
281
     0
  0
CLASS
  1
ACMECOMMANDHISTORY
  2
AcMeCommandHistory
  3
AcMeServices
 90
        0
280
     0
281
     0
  0
CLASS
  1
ACIMSYSVARMAN
  2
AcImSysVarManager
  3
AcMeServices
 90
        0
280
     0
281
     0
  0
CLASS
  1
ACIMREALSYSVAR
  2
AcImRealSysVar
  3
AcMeServices
 90
        0
280
     0
281
     0
  0
CLASS
  1
ACIMINTSYSVAR
  2
AcImIntSysVar
  3
AcMeServices
 90
        0
280
     0
281
     0
  0
CLASS
  1
ACMEDRAWINGMAN
  2
AcMeDrawingMan
  3
AcMeServices
 90
        0
280
     0
281
     0
  0
CLASS
  1
ACMEVIEW
  2
AcMeView
  3
AcMeServices
 90
        0
280
     0
281
     0
  0
CLASS
  1
ACDBENTITYCACHE
  2
AcMeEntityCache
  3
AcMeServices
 90
        0
280
     0
281
     0
  0
CLASS
  1
GSMANAGER
  2
AcMeGSManager
  3
AcMeServices
 90
        0
280
     0
281
     0
  0
CLASS
  1
AMDTINTERNALREACTOR
  2
AmdtInternalReactor
  3
AcMeServices
 90
        0
280
     0
281
     0
  0
CLASS
  1
ACMESTATEMGR
  2
AcMeStateMgr
  3
AcMeServices
 90
        0
280
     0
281
     0
  0
CLASS
  1
ACGREFMASTER
  2
AcGrefMaster
  3
AcAttribServices
 90
        0
280
     0
281
     0
  0
CLASS
  1
ACME_DATABASE
  2
AcMeDbDatabase
  3
AcMeServices
 90
        0
280
     0
281
     0
  0
CLASS
  1
ACRFINSADJUSTERMGR
  2
AcRfInsAdjusterMgr
  3
AcMeServices
 90
        0
280
     0
281
     0
  0
CLASS
  1
ACGREFACADMASTER
  2
AcGrefacadMaster
  3
AcGrefServices
 90
        0
280
     0
281
     0
  0
CLASS
  1
AMIMASTER
  2
AmiMaster
  3
AmiServices
 90
        0
280
     0
281
     0
  0
CLASS
  1
ACMDATADICTIONARY
  2
AcmDataDictionary
  3
"AcmSymBB|Product Description: AutoCAD Mechanical 2004 DX|Company: Autodesk"
 90
        0
280
     0
281
     0
  0
CLASS
  1
ACMDATAENTRYBLOCK
  2
AcmDataEntryBlock
  3
"AcmSymBB|Product Description: AutoCAD Mechanical 2004 DX|Company: Autodesk"
 90
    32768
280
     0
281
     0
  0
CLASS
  1
ACIMSTRSYSVAR
  2
AcImStrSysVar
  3
AcMeServices
 90
        0
280
     0
281
     0
  0
CLASS
  1
ACMSTANDARDISO
  2
AcmStandardISO
  3
"Amdt_StdImp|Product Description: AutoCAD Mechanical 2004 DX|Company: Autodesk"
 90
    32768
280
     0
281
     0
  0
CLASS
  1
AMGOBJPROPCFG
  2
AmgObjPropCfg
  3
"AmgLay|Product Description: AutoCAD Mechanical 2000|Company: Autodesk"
 90
        1
280
     0
281
     0
  0
CLASS
  1
AMDTEDGESTANDARDISO
  2
AmdtEdgeStdISO
  3
"Amdt_StdImp|Product Description: AutoCAD Mechanical 2004 DX|Company: Autodesk"
 90
    32768
280
     0
281
     0
  0
CLASS
  1
ACMSURFSTANDARDISO
  2
AcmSurfTextStdISO
  3
"Amdt_StdImp|Product Description: AutoCAD Mechanical 2004 DX|Company: Autodesk"
 90
    32768
280
     0
281
     0
  0
CLASS
  1
ACMFCFSTANDARDISO
  2
AcmFCFStdISO
  3
"Amdt_StdImp|Product Description: AutoCAD Mechanical 2004 DX|Company: Autodesk"
 90
    32768
280
     0
281
     0
  0
CLASS
  1
ACMWELDSTANDARDISO
  2
AcmWeldingStdISO
  3
"Amdt_StdImp|Product Description: AutoCAD Mechanical 2004 DX|Company: Autodesk"
 90
    32768
280
     0
281
     0
  0
CLASS
  1
ACMIDSTANDARDISO
  2
AcmIdStdISO
  3
"Amdt_StdImp|Product Description: AutoCAD Mechanical 2004 DX|Company: Autodesk"
 90
    32768
280
     0
281
     0
  0
CLASS
  1
ACMDATUMSTANDARDISO
  2
AcmDatumStdISO
  3
"Amdt_StdImp|Product Description: AutoCAD Mechanical 2004 DX|Company: Autodesk"
 90
    32768
280
     0
281
     0
  0
CLASS
  1
ACMBOMSTANDARDISO
  2
AcmBOMStdISO
  3
"Amdt_StdImp|Product Description: AutoCAD Mechanical 2004 DX|Company: Autodesk"
 90
    32768
280
     0
281
     0
  0
CLASS
  1
ACMDETAILSTANDARDISO
  2
AmdtDetailSymStdISO
  3
"Amdt_StdImp|Product Description: AutoCAD Mechanical 2004 DX|Company: Autodesk"
 90
    32768
280
     0
281
     0
  0
CLASS
  1
ACMSECTIONSTANDARDISO
  2
AmdtSectionSymStdISO
  3
"Amdt_StdImp|Product Description: AutoCAD Mechanical 2004 DX|Company: Autodesk"
 90
    32768
280
     0
281
     0
  0
CLASS
  1
ACMCENTERLINESTANDARDISO
  2
AmdtCenterLineStdISO
  3
"Amdt_StdImp|Product Description: AutoCAD Mechanical 2004 DX|Company: Autodesk"
 90
    32768
280
     0
281
     0
  0
CLASS
  1
ACMNOTESTANDARDISO
  2
AmdtNoteStdISO
  3
"Amdt_StdImp|Product Description: AutoCAD Mechanical 2004 DX|Company: Autodesk"
 90
    32768
280
     0
281
     0
  0
CLASS
  1
ACAMGLAYSTD
  2
AcAmgLayStd
  3
"AcAmgLayStd|Product Description: AutoCAD Mechanical 2000|Company: Autodesk"
 90
        0
280
     0
281
     0
  0
CLASS
  1
ACAMGDIMSTD
  2
AcAmgDimStd
  3
"AcAmgDimStd|Product Description: AutoCAD Mechanical 2000|Company: Autodesk"
 90
        0
280
     0
281
     0
  0
CLASS
  1
ACAMGHOLECHARTSTDISO
  2
AcAmgHoleChartStdISO
  3
ACMSYMBB_MODULE_NAME
 90
    32768
280
     0
281
     0
  0
CLASS
  1
ACAMGTITLESTD
  2
AcAmgTitleStd
  3
"TITLEAPP"
 90
        0
280
     0
281
     0
  0
CLASS
  1
LAYER_INDEX
  2
AcDbLayerIndex
  3
ObjectDBX Classes
 90
    32768
280
     0
281
     0
  0
CLASS
  1
IDBUFFER
  2
AcDbIdBuffer
  3
ObjectDBX Classes
 90
    32768
280
     0
281
     0
  0
CLASS
  1
DICTIONARYVAR
  2
AcDbDictionaryVar
  3
ObjectDBX Classes
 90
        0
280
     0
281
     0
  0
CLASS
  1
AM_DRAWING_MGR
  2
AcDmDwgMgr
  3
AcMechDwgViewMgmt
 90
        0
280
     0
281
     0
  0
CLASS
  1
AM_DWG_DOCUMENT
  2
AcDmDwgDocument
  3
AcMechDwgViewMgmt
 90
        0
280
     0
281
     0
  0
CLASS
  1
AM_DWG_SHEET
  2
AcDmSheet
  3
AcMechDwgViewMgmt
 90
        0
280
     0
281
     0
  0
CLASS
  1
AM_VIEWDIMPARMAP
  2
AcDmViewDimParMap
  3
AcMechDwgViewMgmt
 90
        0
280
     0
281
     0
  0
CLASS
  1
AM_DWGMGR_NAME
  2
AcDmDwgMgrName
  3
AcMechDwgViewMgmt
 90
        0
280
     0
281
     0
  0
CLASS
  1
AMDTMENUSTATEMGR
  2
AmdtMenuStateMgr
  3
McadcomServices
 90
        0
280
     0
281
     0
  0
CLASS
  1
AMDTMCOMMENUSTATE
  2
AmdtMcomMenuState
  3
McadcomServices
 90
        0
280
     0
281
     0
  0
CLASS
  1
MAPIAMMOUDLE
  2
MApiAmModule
  3
MApiAmServices
 90
        0
280
     0
281
     0
  0
CLASS
  1
AMDTADMENUSTATE
  2
AmdtAdMenuState
  3
DesignerServices
 90
        0
280
     0
281
     0
  0
CLASS
  1
ADAPPL
  2
AcAdAppl
  3
DesignerServices
 90
        0
280
     0
281
     0
  0
CLASS
  1
DEPMGR
  2
AcAdDepMgr
  3
DesignerServices
 90
        0
280
     0
281
     0
  0
CLASS
  1
PARAMMGR
  2
AcAdParamMgr
  3
DesignerServices
 90
        0
280
     0
281
     0
  0
CLASS
  1
PARAMSCOPE
  2
AcAdParamScope
  3
DesignerServices
 90
        0
280
     0
281
     0
  0
CLASS
  1
NAMEDAPPL
  2
AcAdNamedAppl
  3
DesignerServices
 90
        0
280
     0
281
     0
  0
CLASS
  1
AMDTDMMENUSTATE
  2
AmdtDmMenuState
  3
AcMechDwgViewMgmt
 90
        0
280
     0
281
     0
  0
CLASS
  1
AMDTAMMENUSTATE
  2
AmdtAmMenuState
  3
DesignerAssemblies
 90
        0
280
     0
281
     0
  0
CLASS
  1
ACAMPROJECT
  2
AcAmProject
  3
DesignerAssemblies
 90
        0
280
     0
281
     0
  0
CLASS
  1
ACAMGRCOMPDEF
  2
AcAmGrCompDef
  3
DesignerAssemblies
 90
        0
280
     0
281
     0
  0
CLASS
  1
ACCMCONTEXT
  2
AcCmContext
  3
DesignerAssemblies
 90
        0
280
     0
281
     0
  0
CLASS
  1
ACAMCOMPDEF
  2
AcAmCompDef
  3
DesignerAssemblies
 90
        0
280
     0
281
     0
  0
CLASS
  1
ACAMCOMPDEFMGR
  2
AcAmCompDefMgr
  3
DesignerAssemblies
 90
        0
280
     0
281
     0
  0
CLASS
  1
AMCONTEXTMGR
  2
AcAmContextMgr
  3
DesignerAssemblies
 90
        0
280
     0
281
     0
  0
CLASS
  1
ACAMCONTEXTMODELER
  2
AcAmContextModeler
  3
DesignerAssemblies
 90
        0
280
     0
281
     0
  0
CLASS
  1
ACMTHREADLINESTANDARDISO
  2
AmdtThreadLineStdISO
  3
"Amdt_StdImp|Product Description: AutoCAD Mechanical 2004 DX|Company: Autodesk"
 90
    32768
280
     0
281
     0
  0
CLASS
  1
CATALOGSTATE
  2
AcAmCatalogState
  3
DesignerAssemblies
 90
        0
280
     0
281
     0
  0
CLASS
  1
ACAMGRCOMPDEFSET
  2
AcAmGrCompDefSet
  3
DesignerAssemblies
 90
        0
280
     0
281
     0
  0
CLASS
  1
AMDTBROWSERDBTAB
  2
AmdtBrowserDbTab
  3
McadcomServices
 90
        0
280
     0
281
     0
  0
CLASS
  1
CBROWSERAPPOBJECT
  2
CBrowserAppObject
  3
McadcomServices
 90
        0
280
     0
281
     0
  0
CLASS
  1
DM_PLACEHOLDER
  2
AcDmSelsetPlaceholder
  3
AcMechDwgViewMgmt
 90
        0
280
     0
281
     0
  0
CLASS
  1
TABLESTYLE
  2
AcDbTableStyle
  3
ObjectDBX Classes
 90
     2047
280
     0
281
     0
  0
CLASS
  1
VAACXREFPANELOBJECT
  2
VaAcXREFPanelObject
  3
VAAC_ADDIN
 90
    32768
280
     0
281
     0
  0
CLASS
  1
VAACIMAGEINVENTORY
  2
VaAcImageInventory
  3
VAAC_ADDIN
 90
    32768
280
     0
281
     0
  0
CLASS
  1
AMDTNOTETEMPLATEDB
  2
AmdtNoteTemplateDB
  3
AMDT_STDIMP_MODULE_NAME
 90
        0
280
     0
281
     0
  0
CLASS
  1
ACMBOM
  2
AcmBom
  3
"AcmSymBB|Product Description: AutoCAD Mechanical 2004 DX|Company: Autodesk"
 90
    32768
280
     0
281
     0
  0
CLASS
  1
AMDTFORMULAUPDATEDISPATCHER
  2
AmdtFormulaUpdateDispatcher
  3
AcMeServices
 90
    32768
280
     0
281
     0
  0
CLASS
  1
ACMPARTLIST
  2
AcmPartList
  3
"AcmSymBB|Product Description: AutoCAD Mechanical 2004 DX|Company: Autodesk"
 90
    33791
280
     0
281
     1
  0
CLASS
  1
ACAMGFILTERDAT
  2
AcAmgFilterDat
  3
"AcadM|Product Description: AutoCAD Mechanical 2000|Company: Autodesk"
 90
    32768
280
     0
281
     0
  0
CLASS
  1
SORTENTSTABLE
  2
AcDbSortentsTable
  3
ObjectDBX Classes
 90
        0
280
     0
281
     0
  0
CLASS
  1
ACMSTANDARDJIS
  2
AcmStandardJIS
  3
"Amdt_StdImp|Product Description: AutoCAD Mechanical 2004 DX|Company: Autodesk"
 90
        0
280
     0
281
     0
  0
CLASS
  1
ACMSURFSTANDARDJIS
  2
AcmSurfTextStdJIS
  3
"Amdt_StdImp|Product Description: AutoCAD Mechanical 2004 DX|Company: Autodesk"
 90
        0
280
     0
281
     0
  0
CLASS
  1
ACMFCFSTANDARDJIS
  2
AcmFCFStdJIS
  3
"Amdt_StdImp|Product Description: AutoCAD Mechanical 2004 DX|Company: Autodesk"
 90
        0
280
     0
281
     0
  0
CLASS
  1
ACMWELDSTANDARDJIS
  2
AcmWeldingStdJIS
  3
"Amdt_StdImp|Product Description: AutoCAD Mechanical 2004 DX|Company: Autodesk"
 90
        0
280
     0
281
     0
  0
CLASS
  1
ACMIDSTANDARDJIS
  2
AcmIdStdJIS
  3
"Amdt_StdImp|Product Description: AutoCAD Mechanical 2004 DX|Company: Autodesk"
 90
        0
280
     0
281
     0
  0
CLASS
  1
ACMDATUMSTANDARDJIS
  2
AcmDatumStdJIS
  3
"Amdt_StdImp|Product Description: AutoCAD Mechanical 2004 DX|Company: Autodesk"
 90
        0
280
     0
281
     0
  0
CLASS
  1
ACMBOMSTANDARDJIS
  2
AcmBOMStdJIS
  3
"Amdt_StdImp|Product Description: AutoCAD Mechanical 2004 DX|Company: Autodesk"
 90
        0
280
     0
281
     0
  0
CLASS
  1
ACMDETAILSTANDARDJIS
  2
AmdtDetailSymStdJIS
  3
"Amdt_StdImp|Product Description: AutoCAD Mechanical 2004 DX|Company: Autodesk"
 90
        0
280
     0
281
     0
  0
CLASS
  1
ACMSECTIONSTANDARDJIS
  2
AmdtSectionSymStdJIS
  3
"Amdt_StdImp|Product Description: AutoCAD Mechanical 2004 DX|Company: Autodesk"
 90
        0
280
     0
281
     0
  0
CLASS
  1
ACMCENTERLINESTANDARDJIS
  2
AmdtCenterLineStdJIS
  3
"Amdt_StdImp|Product Description: AutoCAD Mechanical 2004 DX|Company: Autodesk"
 90
        0
280
     0
281
     0
  0
CLASS
  1
ACMTHREADLINESTANDARDJIS
  2
AmdtThreadLineStdJIS
  3
"Amdt_StdImp|Product Description: AutoCAD Mechanical 2004 DX|Company: Autodesk"
 90
        0
280
     0
281
     0
  0
CLASS
  1
ACMNOTESTANDARDJIS
  2
AmdtNoteStdJIS
  3
"Amdt_StdImp|Product Description: AutoCAD Mechanical 2004 DX|Company: Autodesk"
 90
        0
280
     0
281
     0
  0
CLASS
  1
ACAMGHOLECHARTSTDJIS
  2
AcAmgHoleChartStdJIS
  3
ACMSYMBB_MODULE_NAME
 90
        0
280
     0
281
     0
  0
CLASS
  1
ACRFATTGENMGR
  2
AcRfAttGeneralMgr
  3
AcAttribServices
 90
    32768
280
     0
281
     0
  0
ENDSEC
  0
SECTION
  2
TABLES
  0
TABLE
  2
VPORT
  5
8
330
0
100
AcDbSymbolTable
 70
     3
  0
VPORT
  5
688
330
8
100
AcDbSymbolTableRecord
100
AcDbViewportTableRecord
  2
*Active
 70
     0
 10
0.0
 20
0.0
 11
1.0
 21
1.0
 12
101.9975289283294
 22
115.2588049740982
 13
0.0
 23
0.0
 14
2.5
 24
2.5
 15
10.0
 25
10.0
 16
0.0
 26
0.0
 36
1.0
 17
0.0
 27
0.0
 37
0.0
 40
463.9561736107997
 41
1.954070981210855
 42
50.0
 43
0.0
 44
0.0
 50
0.0
 51
0.0
 71
     0
 72
   100
 73
     1
 74
     3
 75
     0
 76
     0
 77
     0
 78
     0
281
     0
 65
     1
110
0.0
120
0.0
130
0.0
111
1.0
121
0.0
131
0.0
112
0.0
122
1.0
132
0.0
 79
     0
146
0.0
  0
ENDTAB
  0
TABLE
  2
LTYPE
  5
5
330
0
100
AcDbSymbolTable
 70
    16
  0
LTYPE
  5
14
330
5
100
AcDbSymbolTableRecord
100
AcDbLinetypeTableRecord
  2
ByBlock
 70
     0
  3

 72
    65
 73
     0
 40
0.0
  0
LTYPE
  5
15
330
5
100
AcDbSymbolTableRecord
100
AcDbLinetypeTableRecord
  2
ByLayer
 70
     0
  3

 72
    65
 73
     0
 40
0.0
  0
LTYPE
  5
16
330
5
100
AcDbSymbolTableRecord
100
AcDbLinetypeTableRecord
  2
Continuous
 70
     0
  3
Solid line
 72
    65
 73
     0
 40
0.0
  0
LTYPE
  5
64
330
5
100
AcDbSymbolTableRecord
100
AcDbLinetypeTableRecord
  2
AM_ISO02W050
 70
     0
  3
__ __ __ __ __ __ __ __ __ __ __ __ __ __ __
 72
    65
 73
     2
 40
7.5
 49
6.0
 74
     0
 49
-1.5
 74
     0
  0
LTYPE
  5
65
330
5
100
AcDbSymbolTableRecord
100
AcDbLinetypeTableRecord
  2
AM_ISO08W050
 70
     0
  3
____ . ____ . ____ . ____ . ____ . ____ . ____
 72
    65
 73
     4
 40
18.0
 49
12.0
 74
     0
 49
-1.5
 74
     0
 49
3.0
 74
     0
 49
-1.5
 74
     0
  0
LTYPE
  5
66
330
5
100
AcDbSymbolTableRecord
100
AcDbLinetypeTableRecord
  2
AM_ISO09W050
 70
     0
  3
_____ . . _____ . . _____ . . ____ .. ____
 72
    65
 73
     6
 40
22.5
 49
12.0
 74
     0
 49
-1.5
 74
     0
 49
3.0
 74
     0
 49
-1.5
 74
     0
 49
3.0
 74
     0
 49
-1.5
 74
     0
  0
LTYPE
  5
67
330
5
100
AcDbSymbolTableRecord
100
AcDbLinetypeTableRecord
  2
Amconstr
 70
     0
  3
_______________________
 72
    65
 73
     2
 40
9999.0
 49
9999.0
 74
     0
 49
0.0
 74
     0
  0
LTYPE
  5
68
330
5
100
AcDbSymbolTableRecord
100
AcDbLinetypeTableRecord
  2
AM_ISO08W050x2
 70
     0
  3
__ . __ . __ . __ . __ . __
 72
    65
 73
     4
 40
9.0
 49
6.0
 74
     0
 49
-0.75
 74
     0
 49
1.5
 74
     0
 49
-0.75
 74
     0
  0
LTYPE
  5
69
330
5
100
AcDbSymbolTableRecord
100
AcDbLinetypeTableRecord
  2
AM_ISO02W050x2
 70
     0
  3
 _ _ _ _ _ _ _ _ _ _ _ _
 72
    65
 73
     2
 40
3.75
 49
3.0
 74
     0
 49
-0.75
 74
     0
  0
LTYPE
  5
6C
330
5
100
AcDbSymbolTableRecord
100
AcDbLinetypeTableRecord
  2
Amzigzag
 70
     0
  3
/\/-/\/-/\/-/\/-/\/-/\/
 72
    65
 73
     2
 40
11.0001
 49
0.0001
 74
     4
 75
   135
340
6B
 46
0.04
 50
0.0
 44
0.0
 45
0.0
 49
-11.0
 74
     0
  0
LTYPE
  5
7A
330
5
100
AcDbSymbolTableRecord
100
AcDbLinetypeTableRecord
  2
ACISOWELD
 70
     0
  3
_ _ _ _ _
 72
    65
 73
     2
 40
2.0
 49
2.0
 74
     0
 49
-1.0
 74
     0
  0
LTYPE
  5
7B
330
5
100
AcDbSymbolTableRecord
100
AcDbLinetypeTableRecord
  2
ACISOTGB
 70
     0
  3
__ . . __ . .
 72
    65
 73
     6
 40
9.0
 49
4.0
 74
     0
 49
-1.0
 74
     0
 49
1.0
 74
     0
 49
-1.0
 74
     0
 49
1.0
 74
     0
 49
-1.0
 74
     0
  0
LTYPE
  5
7C
330
5
100
AcDbSymbolTableRecord
100
AcDbLinetypeTableRecord
  2
ACISOTGL
 70
     0
  3
_ _ _ _ _
 72
    65
 73
     2
 40
3.0
 49
2.0
 74
     0
 49
-1.0
 74
     0
  0
LTYPE
  5
7E
330
5
100
AcDbSymbolTableRecord
100
AcDbLinetypeTableRecord
  2
CENTER
 70
     0
  3
__ . __
 72
    65
 73
     4
 40
7.0
 49
4.0
 74
     0
 49
-1.0
 74
     0
 49
1.0
 74
     0
 49
-1.0
 74
     0
  0
LTYPE
  5
D8
330
5
100
AcDbSymbolTableRecord
100
AcDbLinetypeTableRecord
  2
HIDDEN
 70
     0
  3
Hidden __ __ __ __ __ __ __ __ __ __ __ __ __ _
 72
    65
 73
     2
 40
9.524999999999996
 49
6.349999999999998
 74
     0
 49
-3.174999999999998
 74
     0
  0
LTYPE
  5
D9
330
5
100
AcDbSymbolTableRecord
100
AcDbLinetypeTableRecord
  2
PHANTOM2
 70
     0
  3
Phantom (.5x) ___ _ _ ___ _ _ ___ _ _ ___ _ _
 72
    65
 73
     6
 40
31.75
 49
15.875
 74
     0
 49
-3.174999999999998
 74
     0
 49
3.174999999999998
 74
     0
 49
-3.174999999999998
 74
     0
 49
3.174999999999998
 74
     0
 49
-3.174999999999998
 74
     0
  0
LTYPE
  5
217
330
5
100
AcDbSymbolTableRecord
100
AcDbLinetypeTableRecord
  2
ACJISTGB
 70
     0
  3
__ . . __ . .
 72
    65
 73
     6
 40
9.0
 49
4.0
 74
     0
 49
-1.0
 74
     0
 49
1.0
 74
     0
 49
-1.0
 74
     0
 49
1.0
 74
     0
 49
-1.0
 74
     0
  0
LTYPE
  5
218
330
5
100
AcDbSymbolTableRecord
100
AcDbLinetypeTableRecord
  2
ACJISTGL
 70
     0
  3
_ _ _ _ _
 72
    65
 73
     2
 40
3.0
 49
2.0
 74
     0
 49
-1.0
 74
     0
  0
ENDTAB
  0
TABLE
  2
LAYER
  5
2
102
{ACAD_XDICTIONARY
360
226
102
}
330
0
100
AcDbSymbolTable
 70
     4
  0
LAYER
  5
10
330
2
100
AcDbSymbolTableRecord
100
AcDbLayerTableRecord
  2
0
 70
     0
 62
     7
  6
Continuous
370
    -3
390
F
  0
LAYER
  5
1B0
330
2
100
AcDbSymbolTableRecord
100
AcDbLayerTableRecord
  2
AM_5
 70
     0
 62
     3
  6
Continuous
370
    25
390
F
  0
LAYER
  5
1FD
330
2
100
AcDbSymbolTableRecord
100
AcDbLayerTableRecord
  2
AM_0
 70
     0
 62
     7
  6
Continuous
370
    50
390
F
  0
LAYER
  5
219
330
2
100
AcDbSymbolTableRecord
100
AcDbLayerTableRecord
  2
1
 70
     0
 62
     7
  6
Continuous
370
    -3
390
F
  0
ENDTAB
  0
TABLE
  2
STYLE
  5
3
330
0
100
AcDbSymbolTable
 70
     9
  0
STYLE
  5
11
330
3
100
AcDbSymbolTableRecord
100
AcDbTextStyleTableRecord
  2
STANDARD
 70
     0
 40
0.0
 41
1.0
 50
0.0
 71
     0
 42
2.5
  3
ISOCP.SHX
  4
extfont.shx
  0
STYLE
  5
6B
330
3
100
AcDbSymbolTableRecord
100
AcDbTextStyleTableRecord
  2

 70
     1
 40
0.0
 41
1.0
 50
0.0
 71
     0
 42
2.5
  3
ltypeshp.shx
  4

  0
STYLE
  5
6D
330
3
100
AcDbSymbolTableRecord
100
AcDbTextStyleTableRecord
  2
ACISOTS
 70
     0
 40
1.0
 41
1.0
 50
0.0
 71
     0
 42
1.0
  3
isocp.shx
  4
extfont.shx
  0
STYLE
  5
79
330
3
100
AcDbSymbolTableRecord
100
AcDbTextStyleTableRecord
  2
ACISOGDT
 70
     0
 40
0.0
 41
1.0
 50
0.0
 71
     0
 42
2.5
  3
amgdt.shx
  4
extfont.shx
  0
STYLE
  5
1F8
330
3
100
AcDbSymbolTableRecord
100
AcDbTextStyleTableRecord
  2
USER1
 70
     0
 40
0.0
 41
1.0
 50
0.0
 71
     0
 42
1.0
  3
TXT.SHX
  4

  0
STYLE
  5
1F9
330
3
100
AcDbSymbolTableRecord
100
AcDbTextStyleTableRecord
  2
USER2
 70
     0
 40
0.0
 41
1.0
 50
0.0
 71
     0
 42
1.0
  3
SIMPLEX.SHX
  4

  0
STYLE
  5
1FA
330
3
100
AcDbSymbolTableRecord
100
AcDbTextStyleTableRecord
  2
USER3
 70
     0
 40
0.0
 41
1.0
 50
0.0
 71
     0
 42
1.0
  3
ITALIC.SHX
  4

  0
STYLE
  5
1FB
330
3
100
AcDbSymbolTableRecord
100
AcDbTextStyleTableRecord
  2
ACJISTS
 70
     0
 40
1.0
 41
1.0
 50
0.0
 71
     0
 42
2.5
  3
isocp.shx
  4
extfont.shx
  0
STYLE
  5
1FC
330
3
100
AcDbSymbolTableRecord
100
AcDbTextStyleTableRecord
  2
ACJISGDT
 70
     0
 40
0.0
 41
1.0
 50
0.0
 71
     0
 42
2.5
  3
amgdt.shx
  4
extfont.shx
  0
ENDTAB
  0
TABLE
  2
VIEW
  5
6
330
0
100
AcDbSymbolTable
 70
     0
  0
ENDTAB
  0
TABLE
  2
UCS
  5
7
330
0
100
AcDbSymbolTable
 70
     0
  0
ENDTAB
  0
TABLE
  2
APPID
  5
9
330
0
100
AcDbSymbolTable
 70
    13
  0
APPID
  5
12
330
9
100
AcDbSymbolTableRecord
100
AcDbRegAppTableRecord
  2
ACAD
 70
     0
  0
APPID
  5
46
330
9
100
AcDbSymbolTableRecord
100
AcDbRegAppTableRecord
  2
MCAD_NO_VIS
 70
     0
  0
APPID
  5
47
330
9
100
AcDbSymbolTableRecord
100
AcDbRegAppTableRecord
  2
ACAD_TEMP_GRAPHIC
 70
     0
  0
APPID
  5
58
330
9
100
AcDbSymbolTableRecord
100
AcDbRegAppTableRecord
  2
ACATTRIBSERVICES
 70
     0
  0
APPID
  5
EE
330
9
100
AcDbSymbolTableRecord
100
AcDbRegAppTableRecord
  2
AD_DRAW
 70
     0
  0
APPID
  5
10C
330
9
100
AcDbSymbolTableRecord
100
AcDbRegAppTableRecord
  2
DESIGNERASSEMBLIES
 70
     0
  0
APPID
  5
111
330
9
100
AcDbSymbolTableRecord
100
AcDbRegAppTableRecord
  2
ACADM_DIM_EDIT
 70
     0
  0
APPID
  5
112
330
9
100
AcDbSymbolTableRecord
100
AcDbRegAppTableRecord
  2
AMDT_DM_ADJ
 70
     0
  0
APPID
  5
221
330
9
100
AcDbSymbolTableRecord
100
AcDbRegAppTableRecord
  2
GENIUS_GENREC_14
 70
     0
  0
APPID
  5
222
330
9
100
AcDbSymbolTableRecord
100
AcDbRegAppTableRecord
  2
GENIUS_GENODEF_13
 70
     0
  0
APPID
  5
223
330
9
100
AcDbSymbolTableRecord
100
AcDbRegAppTableRecord
  2
GENIUS_GENOBJ-N-REC_13
 70
     0
  0
APPID
  5
224
330
9
100
AcDbSymbolTableRecord
100
AcDbRegAppTableRecord
  2
GENIUS_GENOBJ-N-FIL_13
 70
     0
  0
APPID
  5
225
330
9
100
AcDbSymbolTableRecord
100
AcDbRegAppTableRecord
  2
GENIUS_GENOBJ-N-CEN_13
 70
     0
  0
ENDTAB
  0
TABLE
  2
DIMSTYLE
  5
A
330
0
100
AcDbSymbolTable
 70
    16
100
AcDbDimStyleTable
 71
     2
340
81
340
1FE
  0
DIMSTYLE
105
27
330
A
100
AcDbSymbolTableRecord
100
AcDbDimStyleTableRecord
  2
ISO-25
 70
     0
 41
2.5
 42
0.625
 43
3.75
 44
1.25
 73
     0
 74
     0
 77
     1
 78
     8
140
2.5
141
2.5
143
0.03937007874016
147
0.625
171
     3
172
     1
271
     2
272
     2
274
     3
278
    44
283
     0
284
     8
340
11
  0
DIMSTYLE
105
81
330
A
100
AcDbSymbolTableRecord
100
AcDbDimStyleTableRecord
  2
AM_ISO
 70
     0
  4
"
 41
2.5
 42
1.0
 43
10.0
 44
1.0
 47
0.1
 48
0.1
 73
     0
 74
     0
 77
     1
 78
     8
 79
     2
140
3.5
141
0.0
143
0.0393701
146
0.71
147
1.5
172
     1
176
   256
177
   256
178
     2
271
     2
272
     3
274
     4
283
     0
284
     8
340
11
371
    -1
372
    -1
  0
DIMSTYLE
105
82
330
A
100
AcDbSymbolTableRecord
100
AcDbDimStyleTableRecord
  2
AM_ISO$3
 70
     0
  4
"
 41
2.5
 42
1.0
 43
10.0
 44
1.0
 47
0.1
 48
0.1
 73
     0
 77
     1
 78
     8
 79
     2
140
3.5
141
0.0
143
0.0393701
146
0.71
147
1.5
176
   256
177
   256
178
     2
271
     2
272
     3
274
     4
283
     0
284
     8
288
     1
289
     0
340
11
371
    -1
372
    -1
  0
DIMSTYLE
105
83
330
A
100
AcDbSymbolTableRecord
100
AcDbDimStyleTableRecord
  2
AM_ISO$4
 70
     0
  4
"
 41
2.5
 42
1.0
 43
10.0
 44
1.0
 47
0.1
 48
0.1
 73
     0
 77
     1
 78
     8
 79
     2
140
3.5
141
0.0
143
0.0393701
146
0.71
147
1.5
176
   256
177
   256
178
     2
271
     2
272
     3
274
     4
283
     0
284
     8
288
     1
289
     0
340
11
371
    -1
372
    -1
  0
DIMSTYLE
105
84
330
A
100
AcDbSymbolTableRecord
100
AcDbDimStyleTableRecord
  2
AM_ISO$6
 70
     0
  4
"
 41
2.5
 42
1.0
 43
10.0
 44
1.0
 47
0.1
 48
0.1
 73
     0
 74
     0
 78
     8
 79
     2
140
3.5
141
0.0
143
0.0393701
146
0.71
147
1.5
172
     1
176
   256
177
   256
178
     2
271
     2
272
     3
274
     4
283
     0
284
     8
340
11
371
    -1
372
    -1
  0
DIMSTYLE
105
85
330
A
100
AcDbSymbolTableRecord
100
AcDbDimStyleTableRecord
  2
AM_ISO$7
 70
     0
  4
"
 41
2.5
 42
1.0
 43
10.0
 44
1.0
 47
0.1
 48
0.1
 73
     0
 74
     0
 77
     1
 78
     8
 79
     2
140
5.0
141
0.0
143
0.0393701
146
0.71
147
1.5
172
     1
176
   256
177
   256
178
     2
271
     2
272
     3
274
     4
283
     0
284
     8
340
11
371
    -1
372
    -1
  0
DIMSTYLE
105
86
330
A
100
AcDbSymbolTableRecord
100
AcDbDimStyleTableRecord
  2
AM_ISO$SF
 70
     0
  4
"
 41
2.5
 42
1.0
 43
10.0
 44
1.0
 47
0.1
 48
0.1
 73
     0
 74
     0
 75
     1
 76
     1
 77
     1
 78
     8
 79
     2
140
3.5
141
0.0
143
0.0393701
146
0.71
147
1.5
172
     1
176
   256
177
   256
178
     2
271
     2
272
     3
274
     4
283
     0
284
     8
340
11
371
    -1
372
    -1
  0
DIMSTYLE
105
8B
330
A
100
AcDbSymbolTableRecord
100
AcDbDimStyleTableRecord
  2
AM_ISO$SH
 70
     0
  4
"
 41
2.5
 42
1.0
 43
10.0
 44
1.0
 47
0.1
 48
0.1
 73
     0
 74
     0
 75
     1
 76
     1
 77
     1
 78
     8
 79
     2
140
3.5
141
0.0
143
0.0393701
144
2.0
146
0.71
147
1.5
172
     1
173
     1
176
   256
177
   256
178
     2
271
     2
272
     3
274
     4
283
     0
284
     8
340
11
343
87
371
    -1
372
    -1
  0
DIMSTYLE
105
1FE
330
A
100
AcDbSymbolTableRecord
100
AcDbDimStyleTableRecord
  2
AM_JIS
 70
     0
  4
"
 41
2.5
 42
1.0
 43
10.0
 44
1.0
 47
0.1
 48
0.1
 73
     0
 74
     0
 77
     3
 78
     8
 79
     2
140
3.5
141
0.0
143
0.0393701
146
0.71
147
1.5
172
     1
176
   256
177
   256
178
     2
271
     2
272
     3
274
     4
283
     0
284
     8
340
11
341
1FF
342
1FF
343
1FF
344
1FF
371
    -1
372
    -1
  0
DIMSTYLE
105
21A
330
A
100
AcDbSymbolTableRecord
100
AcDbDimStyleTableRecord
  2
AM_JIS$3
 70
     0
  4
"
 41
2.5
 42
1.0
 43
10.0
 44
1.0
 47
0.1
 48
0.1
 73
     0
 77
     3
 78
     8
 79
     2
140
3.5
141
0.0
143
0.0393701
146
0.71
147
1.5
176
   256
177
   256
178
     2
271
     2
272
     3
274
     4
283
     0
284
     8
288
     1
289
     0
340
11
341
1FF
342
1FF
343
1FF
344
1FF
371
    -1
372
    -1
  0
DIMSTYLE
105
21B
330
A
100
AcDbSymbolTableRecord
100
AcDbDimStyleTableRecord
  2
AM_JIS$4
 70
     0
  4
"
 41
2.5
 42
1.0
 43
10.0
 44
1.0
 47
0.1
 48
0.1
 73
     0
 77
     3
 78
     8
 79
     2
140
3.5
141
0.0
143
0.0393701
146
0.71
147
1.5
176
   256
177
   256
178
     2
271
     2
272
     3
274
     4
283
     0
284
     8
288
     1
289
     0
340
11
341
1FF
342
1FF
343
1FF
344
1FF
371
    -1
372
    -1
  0
DIMSTYLE
105
21C
330
A
100
AcDbSymbolTableRecord
100
AcDbDimStyleTableRecord
  2
AM_JIS$6
 70
     0
  4
"
 41
2.5
 42
1.0
 43
10.0
 44
1.0
 47
0.1
 48
0.1
 73
     0
 74
     0
 78
     8
 79
     2
140
3.5
141
0.0
143
0.0393701
146
0.71
147
1.5
172
     1
176
   256
177
   256
178
     2
271
     2
272
     3
274
     4
283
     0
284
     8
340
11
341
1FF
342
1FF
343
1FF
344
1FF
371
    -1
372
    -1
  0
DIMSTYLE
105
21D
330
A
100
AcDbSymbolTableRecord
100
AcDbDimStyleTableRecord
  2
AM_JIS$7
 70
     0
  4
"
 41
2.5
 42
1.0
 43
10.0
 44
1.0
 47
0.1
 48
0.1
 73
     0
 74
     0
 77
     3
 78
     8
 79
     2
140
3.5
141
0.0
143
0.0393701
146
0.71
147
1.5
172
     1
176
   256
177
   256
178
     2
271
     2
272
     3
274
     4
283
     0
284
     8
340
11
341
1FF
342
1FF
343
1FF
344
1FF
371
    -1
372
    -1
  0
DIMSTYLE
105
21E
330
A
100
AcDbSymbolTableRecord
100
AcDbDimStyleTableRecord
  2
AM_JIS$SF
 70
     0
  4
"
 41
2.5
 42
1.0
 43
10.0
 44
1.0
 47
0.1
 48
0.1
 73
     0
 74
     0
 75
     1
 76
     1
 77
     3
 78
     8
 79
     2
140
3.5
141
0.0
143
0.0393701
146
0.71
147
1.5
172
     1
176
   256
177
   256
178
     2
271
     2
272
     3
274
     4
283
     0
284
     8
340
11
341
1FF
342
1FF
343
1FF
344
1FF
371
    -1
372
    -1
  0
DIMSTYLE
105
21F
330
A
100
AcDbSymbolTableRecord
100
AcDbDimStyleTableRecord
  2
AM_JIS$SH
 70
     0
  4
"
 41
2.5
 42
1.0
 43
10.0
 44
1.0
 47
0.1
 48
0.1
 73
     0
 74
     0
 75
     1
 76
     1
 77
     3
 78
     8
 79
     2
140
3.5
141
0.0
143
0.0393701
144
2.0
146
0.71
147
1.5
172
     1
173
     1
176
   256
177
   256
178
     2
271
     2
272
     3
274
     4
283
     0
284
     8
340
11
341
1FF
342
1FF
343
87
344
1FF
371
    -1
372
    -1
  0
DIMSTYLE
105
220
330
A
100
AcDbSymbolTableRecord
100
AcDbDimStyleTableRecord
  2
AM_JIS$0
 70
     0
  4
"
 41
2.5
 42
1.0
 43
10.0
 44
1.0
 47
0.1
 48
0.1000000001
 71
     1
 73
     0
 74
     0
 77
     3
 78
     8
 79
     2
140
2.6
141
0.0
143
0.0393701
146
0.71
147
1.0
176
   256
177
   256
178
     2
271
     2
272
     2
289
     1
340
11
341
1FF
342
1FF
371
    -1
372
    -1
  0
ENDTAB
  0
TABLE
  2
BLOCK_RECORD
  5
1
330
0
100
AcDbSymbolTable
 70
     5
  0
BLOCK_RECORD
  5
1F
102
{ACAD_XDICTIONARY
360
8F
102
}
330
1
100
AcDbSymbolTableRecord
100
AcDbBlockTableRecord
  2
*Model_Space
340
22
  0
BLOCK_RECORD
  5
1B
330
1
100
AcDbSymbolTableRecord
100
AcDbBlockTableRecord
  2
*Paper_Space
340
1E
  0
BLOCK_RECORD
  5
23
330
1
100
AcDbSymbolTableRecord
100
AcDbBlockTableRecord
  2
*Paper_Space0
340
26
  0
BLOCK_RECORD
  5
87
330
1
100
AcDbSymbolTableRecord
100
AcDbBlockTableRecord
  2
GENAXEH
340
0
  0
BLOCK_RECORD
  5
1FF
330
1
100
AcDbSymbolTableRecord
100
AcDbBlockTableRecord
  2
_Open30
340
0
  0
BLOCK_RECORD
  5
207
330
1
100
AcDbSymbolTableRecord
100
AcDbBlockTableRecord
  2
A$C049E1172
340
0
  0
ENDTAB
  0
ENDSEC
  0
SECTION
  2
BLOCKS
  0
BLOCK
  5
20
330
1F
100
AcDbEntity
  8
0
100
AcDbBlockBegin
  2
*Model_Space
 70
     0
 10
0.0
 20
0.0
 30
0.0
  3
*Model_Space
  1

  0
ENDBLK
  5
21
330
1F
100
AcDbEntity
  8
0
100
AcDbBlockEnd
  0
BLOCK
  5
1C
330
1B
100
AcDbEntity
 67
     1
  8
0
100
AcDbBlockBegin
  2
*Paper_Space
 70
     0
 10
0.0
 20
0.0
 30
0.0
  3
*Paper_Space
  1

  0
ENDBLK
  5
1D
330
1B
100
AcDbEntity
 67
     1
  8
0
100
AcDbBlockEnd
  0
BLOCK
  5
24
330
23
100
AcDbEntity
  8
0
100
AcDbBlockBegin
  2
*Paper_Space0
 70
     0
 10
0.0
 20
0.0
 30
0.0
  3
*Paper_Space0
  1

  0
ENDBLK
  5
25
330
23
100
AcDbEntity
  8
0
100
AcDbBlockEnd
  0
BLOCK
  5
67C
330
87
100
AcDbEntity
  8
0
100
AcDbBlockBegin
  2
GENAXEH
 70
     0
 10
0.0
 20
0.0
 30
0.0
  3
GENAXEH
  1

  0
LINE
  5
67D
330
87
100
AcDbEntity
  8
0
100
AcDbLine
 10
-1.0
 20
0.0
 30
0.0
 11
1.0
 21
0.0
 31
0.0
  0
ENDBLK
  5
67E
330
87
100
AcDbEntity
  8
0
100
AcDbBlockEnd
  0
BLOCK
  5
670
330
1FF
100
AcDbEntity
  8
0
100
AcDbBlockBegin
  2
_Open30
 70
     0
 10
0.0
 20
0.0
 30
0.0
  3
_Open30
  1

  0
LINE
  5
671
330
1FF
100
AcDbEntity
  8
0
  6
ByBlock
 62
     0
370
    -2
100
AcDbLine
 10
-1.0
 20
0.26794919
 30
0.0
 11
0.0
 21
0.0
 31
0.0
  0
LINE
  5
672
330
1FF
100
AcDbEntity
  8
0
  6
ByBlock
 62
     0
370
    -2
100
AcDbLine
 10
0.0
 20
0.0
 30
0.0
 11
-1.0
 21
-0.26794919
 31
0.0
  0
LINE
  5
673
330
1FF
100
AcDbEntity
  8
0
  6
ByBlock
 62
     0
370
    -2
100
AcDbLine
 10
0.0
 20
0.0
 30
0.0
 11
-1.0
 21
0.0
 31
0.0
  0
ENDBLK
  5
674
330
1FF
100
AcDbEntity
  8
0
100
AcDbBlockEnd
  0
BLOCK
  5
208
330
207
100
AcDbEntity
  8
0
100
AcDbBlockBegin
  2
A$C049E1172
 70
     0
 10
0.0
 20
0.0
 30
0.0
  3
A$C049E1172
  1

  0
LINE
  5
209
330
207
100
AcDbEntity
  8
0
370
    15
100
AcDbLine
 10
3.150000457136683
 20
2.349999952556629
 30
0.0
 11
3.150000457136798
 21
0.5249999525566409
 31
0.0
  0
LINE
  5
20A
330
207
100
AcDbEntity
  8
0
370
    15
100
AcDbLine
 10
2.350000457136729
 20
2.349999952556629
 30
0.0
 11
2.350000457136843
 21
0.5249999525566409
 31
0.0
  0
CIRCLE
  5
20B
330
207
100
AcDbEntity
  8
1
  6
Continuous
 62
     7
100
AcDbCircle
 10
2.750000457136818
 20
2.749999952556663
 30
0.0
 40
2.75
  0
LINE
  5
20C
330
207
100
AcDbEntity
  8
0
370
    15
100
AcDbLine
 10
2.350000457136843
 20
0.5249999525566409
 30
0.0
 11
3.150000457136798
 21
0.5249999525566409
 31
0.0
  0
LINE
  5
20D
330
207
100
AcDbEntity
  8
0
370
    15
100
AcDbLine
 10
3.150000457136683
 20
2.349999952556629
 30
0.0
 11
4.975000457136957
 21
2.349999952556685
 31
0.0
  0
LINE
  5
20E
330
207
100
AcDbEntity
  8
0
370
    15
100
AcDbLine
 10
3.150000457136798
 20
3.149999952556696
 30
0.0
 11
4.975000457136957
 21
3.14999995255664
 31
0.0
  0
LINE
  5
20F
330
207
100
AcDbEntity
  8
0
370
    15
100
AcDbLine
 10
3.150000457136798
 20
4.974999952556686
 30
0.0
 11
3.150000457136683
 21
3.14999995255664
 31
0.0
  0
LINE
  5
210
330
207
100
AcDbEntity
  8
0
370
    15
100
AcDbLine
 10
2.350000457136957
 20
4.974999952556686
 30
0.0
 11
3.150000457136798
 21
4.974999952556629
 31
0.0
  0
LINE
  5
211
330
207
100
AcDbEntity
  8
0
370
    15
100
AcDbLine
 10
0.5250004571367981
 20
3.149999952556696
 30
0.0
 11
0.5250004571367981
 21
2.349999952556685
 31
0.0
  0
LINE
  5
212
330
207
100
AcDbEntity
  8
0
370
    15
100
AcDbLine
 10
4.97500045713707
 20
3.149999952556696
 30
0.0
 11
4.975000457136957
 21
2.349999952556685
 31
0.0
  0
LINE
  5
213
330
207
100
AcDbEntity
  8
0
370
    15
100
AcDbLine
 10
2.350000457136843
 20
4.974999952556686
 30
0.0
 11
2.350000457136729
 21
3.14999995255664
 31
0.0
  0
LINE
  5
214
330
207
100
AcDbEntity
  8
0
370
    15
100
AcDbLine
 10
0.5250004571367981
 20
2.349999952556629
 30
0.0
 11
2.350000457136729
 21
2.349999952556685
 31
0.0
  0
LINE
  5
215
330
207
100
AcDbEntity
  8
0
370
    15
100
AcDbLine
 10
0.5250004571367981
 20
3.149999952556696
 30
0.0
 11
2.350000457136729
 21
3.14999995255664
 31
0.0
  0
ENDBLK
  5
216
330
207
100
AcDbEntity
  8
0
100
AcDbBlockEnd
  0
ENDSEC
  0
SECTION
  2
ENTITIES
  0
LINE
  5
403
330
1F
100
AcDbEntity
  8
0
100
AcDbLine
 10
112.7499999030266
 20
230.0000001323202
 30
0.0
 11
99.24999990302664
 21
230.0000001323204
 31
0.0
  0
ARC
  5
404
330
1F
100
AcDbEntity
  8
0
100
AcDbCircle
 10
107.4499999030265
 20
119.7000001323202
 30
0.0
 40
0.8
100
AcDbArc
 50
270.0
 51
22.02431283704031
  0
ARC
  5
405
330
1F
100
AcDbEntity
  8
0
100
AcDbCircle
 10
107.4499999030267
 20
102.2000001323202
 30
0.0
 40
1.0
100
AcDbArc
 50
270.0
 51
0.0
1001
GENIUS_GENODEF_13
1002
{
1000
HIER
1070
     0
1002
}
1002
{
1000
MANEDIT
1070
     0
1002
}
1002
{
1000
NOSEL
1070
     0
1002
}
1002
{
1000
BEHIND
1070
     0
1002
}
1002
{
1000
REACTOR
1002
}
1001
GENIUS_GENOBJ-N-FIL_13
1002
{
1000
OWNER
1000
GEN
1002
}
  0
LINE
  5
406
330
1F
100
AcDbEntity
  8
0
100
AcDbLine
 10
108.4499999030267
 20
111.2000001323202
 30
0.0
 11
101.4499999030267
 21
111.2000001323202
 31
0.0
  0
LINE
  5
407
330
1F
100
AcDbEntity
  8
0
100
AcDbLine
 10
108.2499999030266
 20
113.2000001323202
 30
0.0
 11
101.6499999030267
 21
113.2000001323202
 31
0.0
  0
ARC
  5
408
330
1F
100
AcDbEntity
  8
0
100
AcDbCircle
 10
107.4499999030265
 20
116.2000001323202
 30
0.0
 40
0.8
100
AcDbArc
 50
270.0
 51
90.0
  0
LINE
  5
409
330
1F
100
AcDbEntity
  8
0
100
AcDbLine
 10
112.7499999030266
 20
120.0000001323202
 30
0.0
 11
99.24999990302664
 21
120.0000001323202
 31
0.0
  0
LINE
  5
40A
330
1F
100
AcDbEntity
  8
0
100
AcDbLine
 10
99.24999990302664
 20
230.0000001323202
 30
0.0
 11
99.24999990302664
 21
120.0000001323203
 31
0.0
  0
LINE
  5
40B
330
1F
100
AcDbEntity
  8
0
100
AcDbLine
 10
53.99999990302672
 20
122.5000001323202
 30
0.0
 11
53.99999990302672
 21
227.5000001323202
 31
0.0
1001
GENIUS_GENREC_14
1002
{
1000
PYDIR
1011
-0.0000000969732241
1021
230.0000001323202
1031
0.0
1002
}
1002
{
1000
PXDIR
1011
53.99999990302672
1021
120.0000001323203
1031
0.0
1002
}
1002
{
1000
PORI
1011
-0.0000000969732241
1021
120.0000001323203
1031
0.0
1002
}
1002
{
1000
PINS
1011
-0.0000000969732241
1021
120.0000001323203
1031
0.0
1002
}
1002
{
1000
HVAL
1000
110
1002
}
1002
{
1000
H
1070
     2
1002
}
1002
{
1000
WVAL
1000
54
1002
}
1002
{
1000
W
1070
     2
1002
}
1002
{
1000
C
1070
     1
1002
}
1001
GENIUS_GENODEF_13
1002
{
1000
HIER
1070
     0
1002
}
1002
{
1000
MANEDIT
1070
     0
1002
}
1002
{
1000
NOSEL
1070
     0
1002
}
1002
{
1000
BEHIND
1070
     0
1002
}
1002
{
1000
REACTOR
1002
}
1001
GENIUS_GENOBJ-N-REC_13
1002
{
1000
OWNER
1000
GEN
1002
}
  0
LINE
  5
40C
330
1F
100
AcDbEntity
  8
0
100
AcDbLine
 10
52.49999990302672
 20
122.6000001323201
 30
0.0
 11
52.49999990302672
 21
218.4000001323203
 31
0.0
1001
GENIUS_GENREC_14
1002
{
1000
PYDIR
1011
-0.0000000969732241
1021
230.0000001323202
1031
0.0
1002
}
1002
{
1000
PXDIR
1011
53.99999990302672
1021
120.0000001323203
1031
0.0
1002
}
1002
{
1000
PORI
1011
-0.0000000969732241
1021
120.0000001323203
1031
0.0
1002
}
1002
{
1000
PINS
1011
-0.0000000969732241
1021
120.0000001323203
1031
0.0
1002
}
1002
{
1000
HVAL
1000
110
1002
}
1002
{
1000
H
1070
     2
1002
}
1002
{
1000
WVAL
1000
54
1002
}
1002
{
1000
W
1070
     2
1002
}
1002
{
1000
C
1070
     1
1002
}
1001
GENIUS_GENODEF_13
1002
{
1000
HIER
1070
     0
1002
}
1002
{
1000
MANEDIT
1070
     0
1002
}
1002
{
1000
NOSEL
1070
     0
1002
}
1002
{
1000
BEHIND
1070
     0
1002
}
1002
{
1000
REACTOR
1002
}
1001
GENIUS_GENOBJ-N-REC_13
1002
{
1000
OWNER
1000
GEN
1002
}
  0
LINE
  5
40D
330
1F
100
AcDbEntity
  8
0
100
AcDbLine
 10
52.39999990302685
 20
122.8000001323203
 30
0.0
 11
52.39999990302685
 21
218.2000001323203
 31
0.0
1001
GENIUS_GENREC_14
1002
{
1000
PYDIR
1011
-0.0000000969732241
1021
230.0000001323202
1031
0.0
1002
}
1002
{
1000
PXDIR
1011
53.99999990302672
1021
120.0000001323203
1031
0.0
1002
}
1002
{
1000
PORI
1011
-0.0000000969732241
1021
120.0000001323203
1031
0.0
1002
}
1002
{
1000
PINS
1011
-0.0000000969732241
1021
120.0000001323203
1031
0.0
1002
}
1002
{
1000
HVAL
1000
110
1002
}
1002
{
1000
H
1070
     2
1002
}
1002
{
1000
WVAL
1000
54
1002
}
1002
{
1000
W
1070
     2
1002
}
1002
{
1000
C
1070
     1
1002
}
1001
GENIUS_GENODEF_13
1002
{
1000
HIER
1070
     0
1002
}
1002
{
1000
MANEDIT
1070
     0
1002
}
1002
{
1000
NOSEL
1070
     0
1002
}
1002
{
1000
BEHIND
1070
     0
1002
}
1002
{
1000
REACTOR
1002
}
1001
GENIUS_GENOBJ-N-REC_13
1002
{
1000
OWNER
1000
GEN
1002
}
  0
LINE
  5
40E
330
1F
100
AcDbEntity
  8
0
100
AcDbLine
 10
93.74999990302663
 20
228.5000001323203
 30
0.0
 11
93.74999990302663
 21
121.5000001323202
 31
0.0
  0
LINE
  5
40F
330
1F
100
AcDbEntity
  8
0
100
AcDbLine
 10
98.74999990302663
 20
230.0000001323204
 30
0.0
 11
98.74999990302663
 21
120.0000001323202
 31
0.0
  0
LINE
  5
410
330
1F
100
AcDbEntity
  8
0
100
AcDbLine
 10
-0.0000000969732241
 20
227.5000001323202
 30
0.0
 11
-0.0000000969732241
 21
122.5000001323202
 31
0.0
1001
GENIUS_GENREC_14
1002
{
1000
PYDIR
1011
-0.0000000969732241
1021
230.0000001323202
1031
0.0
1002
}
1002
{
1000
PXDIR
1011
53.99999990302672
1021
120.0000001323203
1031
0.0
1002
}
1002
{
1000
PORI
1011
-0.0000000969732241
1021
120.0000001323203
1031
0.0
1002
}
1002
{
1000
PINS
1011
-0.0000000969732241
1021
120.0000001323203
1031
0.0
1002
}
1002
{
1000
HVAL
1000
110
1002
}
1002
{
1000
H
1070
     2
1002
}
1002
{
1000
WVAL
1000
54
1002
}
1002
{
1000
W
1070
     2
1002
}
1002
{
1000
C
1070
     1
1002
}
1001
GENIUS_GENODEF_13
1002
{
1000
HIER
1070
     0
1002
}
1002
{
1000
MANEDIT
1070
     0
1002
}
1002
{
1000
NOSEL
1070
     0
1002
}
1002
{
1000
BEHIND
1070
     0
1002
}
1002
{
1000
REACTOR
1002
}
1001
GENIUS_GENOBJ-N-REC_13
1002
{
1000
OWNER
1000
GEN
1002
}
  0
LINE
  5
411
330
1F
100
AcDbEntity
  8
0
100
AcDbLine
 10
1.499999903026774
 20
218.4000001323203
 30
0.0
 11
1.499999903026774
 21
122.6000001323201
 31
0.0
1001
GENIUS_GENREC_14
1002
{
1000
PYDIR
1011
-0.0000000969732241
1021
230.0000001323202
1031
0.0
1002
}
1002
{
1000
PXDIR
1011
53.99999990302672
1021
120.0000001323203
1031
0.0
1002
}
1002
{
1000
PORI
1011
-0.0000000969732241
1021
120.0000001323203
1031
0.0
1002
}
1002
{
1000
PINS
1011
-0.0000000969732241
1021
120.0000001323203
1031
0.0
1002
}
1002
{
1000
HVAL
1000
110
1002
}
1002
{
1000
H
1070
     2
1002
}
1002
{
1000
WVAL
1000
54
1002
}
1002
{
1000
W
1070
     2
1002
}
1002
{
1000
C
1070
     1
1002
}
1001
GENIUS_GENODEF_13
1002
{
1000
HIER
1070
     0
1002
}
1002
{
1000
MANEDIT
1070
     0
1002
}
1002
{
1000
NOSEL
1070
     0
1002
}
1002
{
1000
BEHIND
1070
     0
1002
}
1002
{
1000
REACTOR
1002
}
1001
GENIUS_GENOBJ-N-REC_13
1002
{
1000
OWNER
1000
GEN
1002
}
  0
LINE
  5
412
330
1F
100
AcDbEntity
  8
0
100
AcDbLine
 10
1.599999903026676
 20
218.2000001323203
 30
0.0
 11
1.599999903026676
 21
122.8000001323203
 31
0.0
1001
GENIUS_GENREC_14
1002
{
1000
PYDIR
1011
-0.0000000969732241
1021
230.0000001323202
1031
0.0
1002
}
1002
{
1000
PXDIR
1011
53.99999990302672
1021
120.0000001323203
1031
0.0
1002
}
1002
{
1000
PORI
1011
-0.0000000969732241
1021
120.0000001323203
1031
0.0
1002
}
1002
{
1000
PINS
1011
-0.0000000969732241
1021
120.0000001323203
1031
0.0
1002
}
1002
{
1000
HVAL
1000
110
1002
}
1002
{
1000
H
1070
     2
1002
}
1002
{
1000
WVAL
1000
54
1002
}
1002
{
1000
W
1070
     2
1002
}
1002
{
1000
C
1070
     1
1002
}
1001
GENIUS_GENODEF_13
1002
{
1000
HIER
1070
     0
1002
}
1002
{
1000
MANEDIT
1070
     0
1002
}
1002
{
1000
NOSEL
1070
     0
1002
}
1002
{
1000
BEHIND
1070
     0
1002
}
1002
{
1000
REACTOR
1002
}
1001
GENIUS_GENOBJ-N-REC_13
1002
{
1000
OWNER
1000
GEN
1002
}
  0
LINE
  5
413
330
1F
100
AcDbEntity
  8
0
100
AcDbLine
 10
2.499999903026774
 20
120.0000001323203
 30
0.0
 11
51.49999990302672
 21
120.0000001323203
 31
0.0
  0
LINE
  5
414
330
1F
100
AcDbEntity
  8
0
100
AcDbLine
 10
2.599999903026676
 20
121.5000001323202
 30
0.0
 11
51.39999990302683
 21
121.5000001323202
 31
0.0
  0
LINE
  5
415
330
1F
100
AcDbEntity
  8
0
100
AcDbLine
 10
2.799999903026956
 20
121.6000001323203
 30
0.0
 11
51.19999990302685
 21
121.6000001323201
 31
0.0
  0
ARC
  5
416
330
1F
100
AcDbEntity
  8
0
100
AcDbCircle
 10
2.499999903026774
 20
122.5000001323202
 30
0.0
 40
2.5
100
AcDbArc
 50
180.0
 51
270.0
1001
GENIUS_GENODEF_13
1002
{
1000
HIER
1070
     0
1002
}
1002
{
1000
MANEDIT
1070
     0
1002
}
1002
{
1000
NOSEL
1070
     0
1002
}
1002
{
1000
BEHIND
1070
     0
1002
}
1002
{
1000
REACTOR
1002
}
1001
GENIUS_GENOBJ-N-FIL_13
1002
{
1000
OWNER
1000
GEN
1002
}
  0
ARC
  5
417
330
1F
100
AcDbEntity
  8
0
100
AcDbCircle
 10
2.599999903026676
 20
122.6000001323201
 30
0.0
 40
1.1
100
AcDbArc
 50
180.0
 51
270.0
1001
GENIUS_GENODEF_13
1002
{
1000
HIER
1070
     0
1002
}
1002
{
1000
MANEDIT
1070
     0
1002
}
1002
{
1000
NOSEL
1070
     0
1002
}
1002
{
1000
BEHIND
1070
     0
1002
}
1002
{
1000
REACTOR
1002
}
1001
GENIUS_GENOBJ-N-FIL_13
1002
{
1000
OWNER
1000
GEN
1002
}
  0
ARC
  5
418
330
1F
100
AcDbEntity
  8
0
100
AcDbCircle
 10
2.799999903026956
 20
122.8000001323203
 30
0.0
 40
1.199999999999999
100
AcDbArc
 50
180.0
 51
270.0
1001
GENIUS_GENODEF_13
1002
{
1000
HIER
1070
     0
1002
}
1002
{
1000
MANEDIT
1070
     0
1002
}
1002
{
1000
NOSEL
1070
     0
1002
}
1002
{
1000
BEHIND
1070
     0
1002
}
1002
{
1000
REACTOR
1002
}
1001
GENIUS_GENOBJ-N-FIL_13
1002
{
1000
OWNER
1000
GEN
1002
}
  0
ARC
  5
419
330
1F
100
AcDbEntity
  8
0
100
AcDbCircle
 10
41.69999990302684
 20
114.4123759686098
 30
0.0
 40
1.199999999999999
100
AcDbArc
 50
270.0
 51
0.0
1001
GENIUS_GENODEF_13
1002
{
1000
HIER
1070
     0
1002
}
1002
{
1000
MANEDIT
1070
     0
1002
}
1002
{
1000
NOSEL
1070
     0
1002
}
1002
{
1000
BEHIND
1070
     0
1002
}
1002
{
1000
REACTOR
1002
}
1001
GENIUS_GENOBJ-N-FIL_13
1002
{
1000
OWNER
1000
GEN
1002
}
  0
ARC
  5
41A
330
1F
100
AcDbEntity
  8
0
100
AcDbCircle
 10
32.09999990302669
 20
114.4123759686098
 30
0.0
 40
1.199999999999999
100
AcDbArc
 50
180.0
 51
270.0
1001
GENIUS_GENODEF_13
1002
{
1000
HIER
1070
     0
1002
}
1002
{
1000
MANEDIT
1070
     0
1002
}
1002
{
1000
NOSEL
1070
     0
1002
}
1002
{
1000
BEHIND
1070
     0
1002
}
1002
{
1000
REACTOR
1002
}
1001
GENIUS_GENOBJ-N-FIL_13
1002
{
1000
OWNER
1000
GEN
1002
}
  0
ARC
  5
41B
330
1F
100
AcDbEntity
  8
0
100
AcDbCircle
 10
33.80498746513882
 20
102.2000001323202
 30
0.0
 40
1.0
100
AcDbArc
 50
185.7105931375003
 51
270.0
  0
LINE
  5
41C
330
1F
100
AcDbEntity
  8
0
100
AcDbLine
 10
32.09999990302669
 20
113.2123759686098
 30
0.0
 11
41.69999990302684
 21
113.2123759686098
 31
0.0
  0
LINE
  5
41D
330
1F
100
AcDbEntity
  8
0
100
AcDbLine
 10
31.89999990302685
 20
111.2000001323202
 30
0.0
 11
32.80995027492902
 21
102.1004964132993
 31
0.0
  0
LINE
  5
41E
330
1F
100
AcDbEntity
  8
0
100
AcDbLine
 10
31.89999990302685
 20
113.2291600119899
 30
0.0
 11
31.89999990302685
 21
111.2000001323202
 31
0.0
  0
LINE
  5
41F
330
1F
100
AcDbEntity
  8
0
100
AcDbLine
 10
40.99004953112472
 20
102.1004964132993
 30
0.0
 11
41.89999990302687
 21
111.2000001323202
 31
0.0
  0
LINE
  5
420
330
1F
100
AcDbEntity
  8
0
100
AcDbLine
 10
39.89999990302687
 20
112.7000001323201
 30
0.0
 11
39.89999990302687
 21
102.7000001323202
 31
0.0
  0
LINE
  5
421
330
1F
100
AcDbEntity
  8
0
100
AcDbLine
 10
33.89999990302687
 20
102.7000001323202
 30
0.0
 11
33.89999990302687
 21
112.7000001323201
 31
0.0
  0
ARC
  5
422
330
1F
100
AcDbEntity
  8
0
100
AcDbCircle
 10
39.99501234091468
 20
102.2000001323202
 30
0.0
 40
1.0
100
AcDbArc
 50
270.0
 51
354.2894068624997
  0
LINE
  5
423
330
1F
100
AcDbEntity
  8
0
100
AcDbLine
 10
33.80498746513882
 20
101.2000001323202
 30
0.0
 11
39.99501234091468
 21
101.2000001323202
 31
0.0
  0
LINE
  5
424
330
1F
100
AcDbEntity
  8
0
100
AcDbLine
 10
39.89999990302687
 20
102.7000001323202
 30
0.0
 11
33.89999990302687
 21
102.7000001323202
 31
0.0
  0
LINE
  5
425
330
1F
100
AcDbEntity
  8
0
100
AcDbLine
 10
33.89999990302687
 20
112.7000001323201
 30
0.0
 11
39.89999990302687
 21
112.7000001323201
 31
0.0
  0
LINE
  5
426
330
1F
100
AcDbEntity
  8
0
100
AcDbLine
 10
41.89999990302687
 20
111.2000001323202
 30
0.0
 11
41.89999990302687
 21
113.2291600119899
 31
0.0
  0
LINE
  5
427
330
1F
100
AcDbEntity
  8
0
100
AcDbLine
 10
30.89999990302687
 20
114.4123759686098
 30
0.0
 11
30.89999990302687
 21
120.0000001323203
 31
0.0
  0
LINE
  5
428
330
1F
100
AcDbEntity
  8
0
100
AcDbLine
 10
42.89999990302685
 20
114.4123759686098
 30
0.0
 11
42.89999990302685
 21
120.0000001323203
 31
0.0
  0
ARC
  5
429
330
1F
100
AcDbEntity
  8
0
100
AcDbCircle
 10
51.49999990302672
 20
122.5000001323202
 30
0.0
 40
2.5
100
AcDbArc
 50
270.0
 51
0.0
1001
GENIUS_GENODEF_13
1002
{
1000
HIER
1070
     0
1002
}
1002
{
1000
MANEDIT
1070
     0
1002
}
1002
{
1000
NOSEL
1070
     0
1002
}
1002
{
1000
BEHIND
1070
     0
1002
}
1002
{
1000
REACTOR
1002
}
1001
GENIUS_GENOBJ-N-FIL_13
1002
{
1000
OWNER
1000
GEN
1002
}
  0
ARC
  5
42A
330
1F
100
AcDbEntity
  8
0
100
AcDbCircle
 10
51.39999990302683
 20
122.6000001323201
 30
0.0
 40
1.1
100
AcDbArc
 50
270.0
 51
0.0
1001
GENIUS_GENODEF_13
1002
{
1000
HIER
1070
     0
1002
}
1002
{
1000
MANEDIT
1070
     0
1002
}
1002
{
1000
NOSEL
1070
     0
1002
}
1002
{
1000
BEHIND
1070
     0
1002
}
1002
{
1000
REACTOR
1002
}
1001
GENIUS_GENOBJ-N-FIL_13
1002
{
1000
OWNER
1000
GEN
1002
}
  0
ARC
  5
42B
330
1F
100
AcDbEntity
  8
0
100
AcDbCircle
 10
51.19999990302685
 20
122.8000001323203
 30
0.0
 40
1.199999999999999
100
AcDbArc
 50
270.0
 51
0.0
1001
GENIUS_GENODEF_13
1002
{
1000
HIER
1070
     0
1002
}
1002
{
1000
MANEDIT
1070
     0
1002
}
1002
{
1000
NOSEL
1070
     0
1002
}
1002
{
1000
BEHIND
1070
     0
1002
}
1002
{
1000
REACTOR
1002
}
1001
GENIUS_GENOBJ-N-FIL_13
1002
{
1000
OWNER
1000
GEN
1002
}
  0
ARC
  5
42C
330
1F
100
AcDbEntity
  8
0
100
AcDbCircle
 10
101.6499999030267
 20
114.4000001323201
 30
0.0
 40
1.199999999999999
100
AcDbArc
 50
180.0
 51
270.0
1001
GENIUS_GENODEF_13
1002
{
1000
HIER
1070
     0
1002
}
1002
{
1000
MANEDIT
1070
     0
1002
}
1002
{
1000
NOSEL
1070
     0
1002
}
1002
{
1000
BEHIND
1070
     0
1002
}
1002
{
1000
REACTOR
1002
}
1001
GENIUS_GENOBJ-N-FIL_13
1002
{
1000
OWNER
1000
GEN
1002
}
  0
LINE
  5
42D
330
1F
100
AcDbEntity
  8
0
100
AcDbLine
 10
101.4499999030267
 20
113.2000001323202
 30
0.0
 11
101.4499999030267
 21
102.2000001323202
 31
0.0
  0
LINE
  5
42E
330
1F
100
AcDbEntity
  8
0
100
AcDbLine
 10
104.9499999030267
 20
113.2000001323202
 30
0.0
 11
104.9499999030267
 21
101.2000001323202
 31
0.0
  0
LINE
  5
42F
330
1F
100
AcDbEntity
  8
0
100
AcDbLine
 10
107.4499999030267
 20
101.2000001323202
 30
0.0
 11
102.4499999030267
 21
101.2000001323202
 31
0.0
  0
ARC
  5
430
330
1F
100
AcDbEntity
  8
0
100
AcDbCircle
 10
102.4499999030267
 20
102.2000001323202
 30
0.0
 40
1.0
100
AcDbArc
 50
180.0
 51
270.0
1001
GENIUS_GENODEF_13
1002
{
1000
HIER
1070
     0
1002
}
1002
{
1000
MANEDIT
1070
     0
1002
}
1002
{
1000
NOSEL
1070
     0
1002
}
1002
{
1000
BEHIND
1070
     0
1002
}
1002
{
1000
REACTOR
1002
}
1001
GENIUS_GENOBJ-N-FIL_13
1002
{
1000
OWNER
1000
GEN
1002
}
  0
LINE
  5
431
330
1F
100
AcDbEntity
  8
0
100
AcDbLine
 10
98.74999990302663
 20
120.0000001323203
 30
0.0
 11
95.24999990302664
 21
120.0000001323203
 31
0.0
  0
ARC
  5
432
330
1F
100
AcDbEntity
  8
0
100
AcDbCircle
 10
95.24999990302664
 20
121.5000001323202
 30
0.0
 40
1.5
100
AcDbArc
 50
180.0
 51
270.0
1001
GENIUS_GENODEF_13
1002
{
1000
HIER
1070
     0
1002
}
1002
{
1000
MANEDIT
1070
     0
1002
}
1002
{
1000
NOSEL
1070
     0
1002
}
1002
{
1000
BEHIND
1070
     0
1002
}
1002
{
1000
REACTOR
1002
}
1001
GENIUS_GENOBJ-N-FIL_13
1002
{
1000
OWNER
1000
GEN
1002
}
  0
LINE
  5
433
330
1F
100
AcDbEntity
  8
0
100
AcDbLine
 10
99.24999990302664
 20
121.0000001323201
 30
0.0
 11
98.74999990302663
 21
121.0000001323201
 31
0.0
  0
ARC
  5
434
330
1F
100
AcDbEntity
  8
0
100
AcDbCircle
 10
102.4499999030267
 20
119.7000001323202
 30
0.0
 40
0.8
100
AcDbArc
 50
157.9756871629567
 51
270.0
  0
LINE
  5
435
330
1F
100
AcDbEntity
  8
0
100
AcDbLine
 10
100.4499999030264
 20
120.0000001323202
 30
0.0
 11
100.4499999030267
 21
114.4000001323201
 31
0.0
  0
LINE
  5
436
330
1F
100
AcDbEntity
  8
0
100
AcDbLine
 10
107.4499999030265
 20
118.9000001323202
 30
0.0
 11
102.4499999030267
 21
118.9000001323202
 31
0.0
  0
LINE
  5
437
330
1F
100
AcDbEntity
  8
0
100
AcDbLine
 10
107.4499999030265
 20
117.0000001323202
 30
0.0
 11
102.4499999030267
 21
117.0000001323203
 31
0.0
  0
LINE
  5
438
330
1F
100
AcDbEntity
  8
0
100
AcDbLine
 10
107.4499999030265
 20
115.4000001323201
 30
0.0
 11
102.4499999030267
 21
115.4000001323201
 31
0.0
  0
ARC
  5
439
330
1F
100
AcDbEntity
  8
0
100
AcDbCircle
 10
102.4499999030267
 20
116.2000001323202
 30
0.0
 40
0.8
100
AcDbArc
 50
90.0
 51
270.0
  0
LINE
  5
43A
330
1F
100
AcDbEntity
  8
0
100
AcDbLine
 10
1.599999903026676
 20
189.9000001323203
 30
0.0
 11
52.39999990302685
 21
189.9000001323203
 31
0.0
  0
LINE
  5
43B
330
1F
100
AcDbEntity
  8
0
100
AcDbLine
 10
51.49999990302672
 20
230.0000001323202
 30
0.0
 11
2.499999903026774
 21
230.0000001323202
 31
0.0
1001
GENIUS_GENREC_14
1002
{
1000
PYDIR
1011
-0.0000000969732241
1021
230.0000001323202
1031
0.0
1002
}
1002
{
1000
PXDIR
1011
53.99999990302672
1021
120.0000001323203
1031
0.0
1002
}
1002
{
1000
PORI
1011
-0.0000000969732241
1021
120.0000001323203
1031
0.0
1002
}
1002
{
1000
PINS
1011
-0.0000000969732241
1021
120.0000001323203
1031
0.0
1002
}
1002
{
1000
HVAL
1000
110
1002
}
1002
{
1000
H
1070
     2
1002
}
1002
{
1000
WVAL
1000
54
1002
}
1002
{
1000
W
1070
     2
1002
}
1002
{
1000
C
1070
     1
1002
}
1001
GENIUS_GENODEF_13
1002
{
1000
HIER
1070
     0
1002
}
1002
{
1000
MANEDIT
1070
     0
1002
}
1002
{
1000
NOSEL
1070
     0
1002
}
1002
{
1000
BEHIND
1070
     0
1002
}
1002
{
1000
REACTOR
1002
}
1001
GENIUS_GENOBJ-N-REC_13
1002
{
1000
OWNER
1000
GEN
1002
}
  0
LINE
  5
43C
330
1F
100
AcDbEntity
  8
0
100
AcDbLine
 10
2.599999903026676
 20
219.5000001323204
 30
0.0
 11
51.39999990302683
 21
219.5000001323204
 31
0.0
  0
LINE
  5
43D
330
1F
100
AcDbEntity
  8
0
100
AcDbLine
 10
1.499999903026774
 20
220.9000001323203
 30
0.0
 11
52.49999990302672
 21
220.9000001323203
 31
0.0
  0
LINE
  5
43E
330
1F
100
AcDbEntity
  8
0
100
AcDbLine
 10
1.499999903026774
 20
221.6000001323203
 30
0.0
 11
52.49999990302672
 21
221.6000001323203
 31
0.0
  0
LINE
  5
43F
330
1F
100
AcDbEntity
  8
0
100
AcDbLine
 10
1.499999903026774
 20
222.3000001323203
 30
0.0
 11
52.49999990302672
 21
222.3000001323203
 31
0.0
  0
LINE
  5
440
330
1F
100
AcDbEntity
  8
0
100
AcDbLine
 10
1.499999903026774
 20
223.0000001323201
 30
0.0
 11
52.49999990302672
 21
223.0000001323201
 31
0.0
  0
LINE
  5
441
330
1F
100
AcDbEntity
  8
0
100
AcDbLine
 10
1.499999903026774
 20
223.7000001323202
 30
0.0
 11
52.49999990302672
 21
223.7000001323202
 31
0.0
  0
LINE
  5
442
330
1F
100
AcDbEntity
  8
0
100
AcDbLine
 10
1.499999903026774
 20
224.4000001323203
 30
0.0
 11
52.49999990302672
 21
224.4000001323203
 31
0.0
  0
LINE
  5
443
330
1F
100
AcDbEntity
  8
0
100
AcDbLine
 10
2.799999903026737
 20
219.4000001323203
 30
0.0
 11
51.19999990302685
 21
219.4000001323203
 31
0.0
  0
ARC
  5
444
330
1F
100
AcDbEntity
  8
0
100
AcDbCircle
 10
2.599999903026676
 20
218.4000001323203
 30
0.0
 40
1.1
100
AcDbArc
 50
90.0
 51
180.0
1001
GENIUS_GENODEF_13
1002
{
1000
HIER
1070
     0
1002
}
1002
{
1000
MANEDIT
1070
     0
1002
}
1002
{
1000
NOSEL
1070
     0
1002
}
1002
{
1000
BEHIND
1070
     0
1002
}
1002
{
1000
REACTOR
1002
}
1001
GENIUS_GENOBJ-N-FIL_13
1002
{
1000
OWNER
1000
GEN
1002
}
  0
ARC
  5
445
330
1F
100
AcDbEntity
  8
0
100
AcDbCircle
 10
2.799999903026737
 20
218.2000001323203
 30
0.0
 40
1.199999999999999
100
AcDbArc
 50
90.0
 51
180.0
1001
GENIUS_GENODEF_13
1002
{
1000
HIER
1070
     0
1002
}
1002
{
1000
MANEDIT
1070
     0
1002
}
1002
{
1000
NOSEL
1070
     0
1002
}
1002
{
1000
BEHIND
1070
     0
1002
}
1002
{
1000
REACTOR
1002
}
1001
GENIUS_GENOBJ-N-FIL_13
1002
{
1000
OWNER
1000
GEN
1002
}
  0
ARC
  5
446
330
1F
100
AcDbEntity
  8
0
100
AcDbCircle
 10
2.499999903026774
 20
227.5000001323202
 30
0.0
 40
2.5
100
AcDbArc
 50
90.0
 51
180.0
1001
GENIUS_GENODEF_13
1002
{
1000
HIER
1070
     0
1002
}
1002
{
1000
MANEDIT
1070
     0
1002
}
1002
{
1000
NOSEL
1070
     0
1002
}
1002
{
1000
BEHIND
1070
     0
1002
}
1002
{
1000
REACTOR
1002
}
1001
GENIUS_GENOBJ-N-FIL_13
1002
{
1000
OWNER
1000
GEN
1002
}
  0
LINE
  5
447
330
1F
100
AcDbEntity
  8
0
100
AcDbLine
 10
1.499999903026774
 20
224.4000001323203
 30
0.0
 11
1.499999903026774
 21
223.7000001323202
 31
0.0
  0
LINE
  5
448
330
1F
100
AcDbEntity
  8
0
100
AcDbLine
 10
1.499999903026774
 20
223.0000001323201
 30
0.0
 11
1.499999903026774
 21
222.3000001323203
 31
0.0
  0
LINE
  5
449
330
1F
100
AcDbEntity
  8
0
100
AcDbLine
 10
1.499999903026774
 20
221.6000001323203
 30
0.0
 11
1.499999903026774
 21
220.9000001323203
 31
0.0
  0
LINE
  5
44A
330
1F
100
AcDbEntity
  8
0
100
AcDbLine
 10
46.49999990302676
 20
212.9000001323203
 30
0.0
 11
46.49999990302676
 21
191.9000001323203
 31
0.0
1001
GENIUS_GENODEF_13
1002
{
1000
HIER
1070
     0
1002
}
1002
{
1000
MANEDIT
1070
     0
1002
}
1002
{
1000
NOSEL
1070
     0
1002
}
1002
{
1000
BEHIND
1070
     0
1002
}
1002
{
1000
REACTOR
1002
}
1001
GENIUS_GENOBJ-N-CEN_13
1002
{
1000
OWNER
1000
GEN
1002
}
  0
LINE
  5
44B
330
1F
100
AcDbEntity
  8
0
100
AcDbLine
 10
7.499999903026774
 20
212.9000001323203
 30
0.0
 11
7.499999903026774
 21
191.9000001323203
 31
0.0
1001
GENIUS_GENODEF_13
1002
{
1000
HIER
1070
     0
1002
}
1002
{
1000
MANEDIT
1070
     0
1002
}
1002
{
1000
NOSEL
1070
     0
1002
}
1002
{
1000
BEHIND
1070
     0
1002
}
1002
{
1000
REACTOR
1002
}
1001
GENIUS_GENOBJ-N-CEN_13
1002
{
1000
OWNER
1000
GEN
1002
}
  0
LINE
  5
44C
330
1F
100
AcDbEntity
  8
0
100
AcDbLine
 10
7.499999903026774
 20
191.9000001323203
 30
0.0
 11
46.49999990302676
 21
191.9000001323203
 31
0.0
  0
LINE
  5
44D
330
1F
100
AcDbEntity
  8
0
100
AcDbLine
 10
7.499999903026774
 20
212.9000001323203
 30
0.0
 11
46.49999990302676
 21
212.9000001323203
 31
0.0
  0
ARC
  5
44E
330
1F
100
AcDbEntity
  8
0
100
AcDbCircle
 10
51.19999990302685
 20
218.2000001323203
 30
0.0
 40
1.199999999999999
100
AcDbArc
 50
0.0
 51
90.0
1001
GENIUS_GENODEF_13
1002
{
1000
HIER
1070
     0
1002
}
1002
{
1000
MANEDIT
1070
     0
1002
}
1002
{
1000
NOSEL
1070
     0
1002
}
1002
{
1000
BEHIND
1070
     0
1002
}
1002
{
1000
REACTOR
1002
}
1001
GENIUS_GENOBJ-N-FIL_13
1002
{
1000
OWNER
1000
GEN
1002
}
  0
ARC
  5
44F
330
1F
100
AcDbEntity
  8
0
100
AcDbCircle
 10
51.39999990302683
 20
218.4000001323203
 30
0.0
 40
1.1
100
AcDbArc
 50
0.0
 51
90.0
1001
GENIUS_GENODEF_13
1002
{
1000
HIER
1070
     0
1002
}
1002
{
1000
MANEDIT
1070
     0
1002
}
1002
{
1000
NOSEL
1070
     0
1002
}
1002
{
1000
BEHIND
1070
     0
1002
}
1002
{
1000
REACTOR
1002
}
1001
GENIUS_GENOBJ-N-FIL_13
1002
{
1000
OWNER
1000
GEN
1002
}
  0
ARC
  5
450
330
1F
100
AcDbEntity
  8
0
100
AcDbCircle
 10
51.49999990302672
 20
227.5000001323202
 30
0.0
 40
2.5
100
AcDbArc
 50
0.0
 51
90.0
1001
GENIUS_GENODEF_13
1002
{
1000
HIER
1070
     0
1002
}
1002
{
1000
MANEDIT
1070
     0
1002
}
1002
{
1000
NOSEL
1070
     0
1002
}
1002
{
1000
BEHIND
1070
     0
1002
}
1002
{
1000
REACTOR
1002
}
1001
GENIUS_GENOBJ-N-FIL_13
1002
{
1000
OWNER
1000
GEN
1002
}
  0
LINE
  5
451
330
1F
100
AcDbEntity
  8
0
100
AcDbLine
 10
52.49999990302672
 20
224.4000001323203
 30
0.0
 11
52.49999990302672
 21
223.7000001323202
 31
0.0
  0
LINE
  5
452
330
1F
100
AcDbEntity
  8
0
100
AcDbLine
 10
52.49999990302672
 20
223.0000001323201
 30
0.0
 11
52.49999990302672
 21
222.3000001323203
 31
0.0
  0
LINE
  5
453
330
1F
100
AcDbEntity
  8
0
100
AcDbLine
 10
52.49999990302672
 20
221.6000001323203
 30
0.0
 11
52.49999990302672
 21
220.9000001323203
 31
0.0
  0
ARC
  5
454
330
1F
100
AcDbEntity
  8
0
100
AcDbCircle
 10
95.24999990302664
 20
228.5000001323203
 30
0.0
 40
1.5
100
AcDbArc
 50
90.0
 51
180.0
1001
GENIUS_GENODEF_13
1002
{
1000
HIER
1070
     0
1002
}
1002
{
1000
MANEDIT
1070
     0
1002
}
1002
{
1000
NOSEL
1070
     0
1002
}
1002
{
1000
BEHIND
1070
     0
1002
}
1002
{
1000
REACTOR
1002
}
1001
GENIUS_GENOBJ-N-FIL_13
1002
{
1000
OWNER
1000
GEN
1002
}
  0
LINE
  5
455
330
1F
100
AcDbEntity
  8
0
100
AcDbLine
 10
99.24999990302664
 20
228.3000001323203
 30
0.0
 11
98.74999990302663
 21
228.3000001323203
 31
0.0
  0
LINE
  5
456
330
1F
100
AcDbEntity
  8
0
100
AcDbLine
 10
99.24999990302664
 20
227.0000001323203
 30
0.0
 11
98.74999990302663
 21
227.0000001323203
 31
0.0
  0
LINE
  5
457
330
1F
100
AcDbEntity
  8
0
100
AcDbLine
 10
99.24999990302664
 20
224.0000001323203
 30
0.0
 11
98.74999990302663
 21
224.0000001323203
 31
0.0
  0
LINE
  5
458
330
1F
100
AcDbEntity
  8
0
100
AcDbLine
 10
98.74999990302663
 20
230.0000001323204
 30
0.0
 11
95.24999990302664
 21
230.0000001323204
 31
0.0
  0
LINE
  5
459
330
1F
100
AcDbEntity
  8
0
100
AcDbLine
 10
202.5499999030268
 20
191.5000001323202
 30
0.0
 11
202.5499999030268
 21
155.4000001323203
 31
0.0
1001
GENIUS_GENODEF_13
1002
{
1000
HIER
1070
     0
1002
}
1002
{
1000
MANEDIT
1070
     0
1002
}
1002
{
1000
NOSEL
1070
     0
1002
}
1002
{
1000
BEHIND
1070
     0
1002
}
1002
{
1000
REACTOR
1002
}
1001
GENIUS_GENOBJ-N-CEN_13
1002
{
1000
OWNER
1000
GEN
1002
}
  0
LINE
  5
45A
330
1F
100
AcDbEntity
  8
0
100
AcDbLine
 10
202.2999999030268
 20
191.2500001323201
 30
0.0
 11
202.2999999030268
 21
155.6500001323203
 31
0.0
1001
GENIUS_GENODEF_13
1002
{
1000
HIER
1070
     0
1002
}
1002
{
1000
MANEDIT
1070
     0
1002
}
1002
{
1000
NOSEL
1070
     0
1002
}
1002
{
1000
BEHIND
1070
     0
1002
}
1002
{
1000
REACTOR
1002
}
1001
GENIUS_GENOBJ-N-CEN_13
1002
{
1000
OWNER
1000
GEN
1002
}
  0
LINE
  5
45B
330
1F
100
AcDbEntity
  8
0
100
AcDbLine
 10
151.4499999030268
 20
191.5000001323202
 30
0.0
 11
151.4499999030268
 21
155.4000001323203
 31
0.0
1001
GENIUS_GENODEF_13
1002
{
1000
HIER
1070
     0
1002
}
1002
{
1000
MANEDIT
1070
     0
1002
}
1002
{
1000
NOSEL
1070
     0
1002
}
1002
{
1000
BEHIND
1070
     0
1002
}
1002
{
1000
REACTOR
1002
}
1001
GENIUS_GENOBJ-N-CEN_13
1002
{
1000
OWNER
1000
GEN
1002
}
  0
LINE
  5
45C
330
1F
100
AcDbEntity
  8
0
100
AcDbLine
 10
151.6999999030268
 20
191.2500001323201
 30
0.0
 11
151.6999999030268
 21
155.6500001323203
 31
0.0
1001
GENIUS_GENODEF_13
1002
{
1000
HIER
1070
     0
1002
}
1002
{
1000
MANEDIT
1070
     0
1002
}
1002
{
1000
NOSEL
1070
     0
1002
}
1002
{
1000
BEHIND
1070
     0
1002
}
1002
{
1000
REACTOR
1002
}
1001
GENIUS_GENOBJ-N-CEN_13
1002
{
1000
OWNER
1000
GEN
1002
}
  0
LINE
  5
45D
330
1F
100
AcDbEntity
  8
0
100
AcDbLine
 10
203.9999999030267
 20
122.5000001323202
 30
0.0
 11
203.9999999030268
 21
227.5000001323202
 31
0.0
1001
GENIUS_GENREC_14
1002
{
1000
PYDIR
1011
149.9999999030268
1021
230.0000001323202
1031
0.0
1002
}
1002
{
1000
PXDIR
1011
203.9999999030268
1021
120.0000001323203
1031
0.0
1002
}
1002
{
1000
PORI
1011
149.9999999030268
1021
120.0000001323203
1031
0.0
1002
}
1002
{
1000
PINS
1011
149.9999999030268
1021
120.0000001323203
1031
0.0
1002
}
1002
{
1000
HVAL
1000
110
1002
}
1002
{
1000
H
1070
     2
1002
}
1002
{
1000
WVAL
1000
54
1002
}
1002
{
1000
W
1070
     2
1002
}
1002
{
1000
C
1070
     1
1002
}
1001
GENIUS_GENODEF_13
1002
{
1000
HIER
1070
     0
1002
}
1002
{
1000
MANEDIT
1070
     0
1002
}
1002
{
1000
NOSEL
1070
     0
1002
}
1002
{
1000
BEHIND
1070
     0
1002
}
1002
{
1000
REACTOR
1002
}
1001
GENIUS_GENOBJ-N-REC_13
1002
{
1000
OWNER
1000
GEN
1002
}
  0
LINE
  5
45E
330
1F
100
AcDbEntity
  8
0
100
AcDbLine
 10
149.9999999030268
 20
227.5000001323202
 30
0.0
 11
149.9999999030268
 21
122.5000001323202
 31
0.0
1001
GENIUS_GENREC_14
1002
{
1000
PYDIR
1011
149.9999999030268
1021
230.0000001323202
1031
0.0
1002
}
1002
{
1000
PXDIR
1011
203.9999999030268
1021
120.0000001323203
1031
0.0
1002
}
1002
{
1000
PORI
1011
149.9999999030268
1021
120.0000001323203
1031
0.0
1002
}
1002
{
1000
PINS
1011
149.9999999030268
1021
120.0000001323203
1031
0.0
1002
}
1002
{
1000
HVAL
1000
110
1002
}
1002
{
1000
H
1070
     2
1002
}
1002
{
1000
WVAL
1000
54
1002
}
1002
{
1000
W
1070
     2
1002
}
1002
{
1000
C
1070
     1
1002
}
1001
GENIUS_GENODEF_13
1002
{
1000
HIER
1070
     0
1002
}
1002
{
1000
MANEDIT
1070
     0
1002
}
1002
{
1000
NOSEL
1070
     0
1002
}
1002
{
1000
BEHIND
1070
     0
1002
}
1002
{
1000
REACTOR
1002
}
1001
GENIUS_GENOBJ-N-REC_13
1002
{
1000
OWNER
1000
GEN
1002
}
  0
LINE
  5
45F
330
1F
100
AcDbEntity
  8
0
100
AcDbLine
 10
114.2499999030266
 20
228.5000001323202
 30
0.0
 11
114.2499999030266
 21
121.5000001323202
 31
0.0
  0
LINE
  5
460
330
1F
100
AcDbEntity
  8
0
100
AcDbLine
 10
172.3999999030267
 20
151.9500001323202
 30
0.0
 11
151.5999999030267
 21
151.9500001323202
 31
0.0
1001
GENIUS_GENREC_14
1002
{
1000
PYDIR
1011
149.9999999030268
1021
230.0000001323202
1031
0.0
1002
}
1002
{
1000
PXDIR
1011
203.9999999030268
1021
120.0000001323203
1031
0.0
1002
}
1002
{
1000
PORI
1011
149.9999999030268
1021
120.0000001323203
1031
0.0
1002
}
1002
{
1000
PINS
1011
149.9999999030268
1021
120.0000001323203
1031
0.0
1002
}
1002
{
1000
HVAL
1000
110
1002
}
1002
{
1000
H
1070
     2
1002
}
1002
{
1000
WVAL
1000
54
1002
}
1002
{
1000
W
1070
     2
1002
}
1002
{
1000
C
1070
     1
1002
}
1001
GENIUS_GENODEF_13
1002
{
1000
HIER
1070
     0
1002
}
1002
{
1000
MANEDIT
1070
     0
1002
}
1002
{
1000
NOSEL
1070
     0
1002
}
1002
{
1000
BEHIND
1070
     0
1002
}
1002
{
1000
REACTOR
1002
}
1001
GENIUS_GENOBJ-N-REC_13
1002
{
1000
OWNER
1000
GEN
1002
}
  0
LINE
  5
461
330
1F
100
AcDbEntity
  8
0
100
AcDbLine
 10
171.5999999030267
 20
151.1500001323202
 30
0.0
 11
152.3999999030267
 21
151.1500001323202
 31
0.0
1001
GENIUS_GENREC_14
1002
{
1000
PYDIR
1011
149.9999999030268
1021
230.0000001323202
1031
0.0
1002
}
1002
{
1000
PXDIR
1011
203.9999999030268
1021
120.0000001323203
1031
0.0
1002
}
1002
{
1000
PORI
1011
149.9999999030268
1021
120.0000001323203
1031
0.0
1002
}
1002
{
1000
PINS
1011
149.9999999030268
1021
120.0000001323203
1031
0.0
1002
}
1002
{
1000
HVAL
1000
110
1002
}
1002
{
1000
H
1070
     2
1002
}
1002
{
1000
WVAL
1000
54
1002
}
1002
{
1000
W
1070
     2
1002
}
1002
{
1000
C
1070
     1
1002
}
1001
GENIUS_GENODEF_13
1002
{
1000
HIER
1070
     0
1002
}
1002
{
1000
MANEDIT
1070
     0
1002
}
1002
{
1000
NOSEL
1070
     0
1002
}
1002
{
1000
BEHIND
1070
     0
1002
}
1002
{
1000
REACTOR
1002
}
1001
GENIUS_GENOBJ-N-REC_13
1002
{
1000
OWNER
1000
GEN
1002
}
  0
LINE
  5
462
330
1F
100
AcDbEntity
  8
0
100
AcDbLine
 10
171.5999999030267
 20
145.5500001323202
 30
0.0
 11
152.3999999030267
 21
145.5500001323202
 31
0.0
1001
GENIUS_GENREC_14
1002
{
1000
PYDIR
1011
149.9999999030268
1021
230.0000001323202
1031
0.0
1002
}
1002
{
1000
PXDIR
1011
203.9999999030268
1021
120.0000001323203
1031
0.0
1002
}
1002
{
1000
PORI
1011
149.9999999030268
1021
120.0000001323203
1031
0.0
1002
}
1002
{
1000
PINS
1011
149.9999999030268
1021
120.0000001323203
1031
0.0
1002
}
1002
{
1000
HVAL
1000
110
1002
}
1002
{
1000
H
1070
     2
1002
}
1002
{
1000
WVAL
1000
54
1002
}
1002
{
1000
W
1070
     2
1002
}
1002
{
1000
C
1070
     1
1002
}
1001
GENIUS_GENODEF_13
1002
{
1000
HIER
1070
     0
1002
}
1002
{
1000
MANEDIT
1070
     0
1002
}
1002
{
1000
NOSEL
1070
     0
1002
}
1002
{
1000
BEHIND
1070
     0
1002
}
1002
{
1000
REACTOR
1002
}
1001
GENIUS_GENOBJ-N-REC_13
1002
{
1000
OWNER
1000
GEN
1002
}
  0
LINE
  5
463
330
1F
100
AcDbEntity
  8
0
100
AcDbLine
 10
202.5499999030268
 20
155.4000001323203
 30
0.0
 11
151.4499999030268
 21
155.4000001323203
 31
0.0
1001
GENIUS_GENREC_14
1002
{
1000
PYDIR
1011
149.9999999030268
1021
230.0000001323202
1031
0.0
1002
}
1002
{
1000
PXDIR
1011
203.9999999030268
1021
120.0000001323203
1031
0.0
1002
}
1002
{
1000
PORI
1011
149.9999999030268
1021
120.0000001323203
1031
0.0
1002
}
1002
{
1000
PINS
1011
149.9999999030268
1021
120.0000001323203
1031
0.0
1002
}
1002
{
1000
HVAL
1000
110
1002
}
1002
{
1000
H
1070
     2
1002
}
1002
{
1000
WVAL
1000
54
1002
}
1002
{
1000
W
1070
     2
1002
}
1002
{
1000
C
1070
     1
1002
}
1001
GENIUS_GENODEF_13
1002
{
1000
HIER
1070
     0
1002
}
1002
{
1000
MANEDIT
1070
     0
1002
}
1002
{
1000
NOSEL
1070
     0
1002
}
1002
{
1000
BEHIND
1070
     0
1002
}
1002
{
1000
REACTOR
1002
}
1001
GENIUS_GENOBJ-N-REC_13
1002
{
1000
OWNER
1000
GEN
1002
}
  0
LINE
  5
464
330
1F
100
AcDbEntity
  8
0
100
AcDbLine
 10
172.5499999030267
 20
152.1000001323202
 30
0.0
 11
151.4499999030268
 21
152.1000001323202
 31
0.0
1001
GENIUS_GENREC_14
1002
{
1000
PYDIR
1011
149.9999999030268
1021
230.0000001323202
1031
0.0
1002
}
1002
{
1000
PXDIR
1011
203.9999999030268
1021
120.0000001323203
1031
0.0
1002
}
1002
{
1000
PORI
1011
149.9999999030268
1021
120.0000001323203
1031
0.0
1002
}
1002
{
1000
PINS
1011
149.9999999030268
1021
120.0000001323203
1031
0.0
1002
}
1002
{
1000
HVAL
1000
110
1002
}
1002
{
1000
H
1070
     2
1002
}
1002
{
1000
WVAL
1000
54
1002
}
1002
{
1000
W
1070
     2
1002
}
1002
{
1000
C
1070
     1
1002
}
1001
GENIUS_GENODEF_13
1002
{
1000
HIER
1070
     0
1002
}
1002
{
1000
MANEDIT
1070
     0
1002
}
1002
{
1000
NOSEL
1070
     0
1002
}
1002
{
1000
BEHIND
1070
     0
1002
}
1002
{
1000
REACTOR
1002
}
1001
GENIUS_GENOBJ-N-REC_13
1002
{
1000
OWNER
1000
GEN
1002
}
  0
LINE
  5
465
330
1F
100
AcDbEntity
  8
0
100
AcDbLine
 10
202.2999999030268
 20
155.6500001323203
 30
0.0
 11
151.6999999030268
 21
155.6500001323203
 31
0.0
1001
GENIUS_GENREC_14
1002
{
1000
PYDIR
1011
149.9999999030268
1021
230.0000001323202
1031
0.0
1002
}
1002
{
1000
PXDIR
1011
203.9999999030268
1021
120.0000001323203
1031
0.0
1002
}
1002
{
1000
PORI
1011
149.9999999030268
1021
120.0000001323203
1031
0.0
1002
}
1002
{
1000
PINS
1011
149.9999999030268
1021
120.0000001323203
1031
0.0
1002
}
1002
{
1000
HVAL
1000
110
1002
}
1002
{
1000
H
1070
     2
1002
}
1002
{
1000
WVAL
1000
54
1002
}
1002
{
1000
W
1070
     2
1002
}
1002
{
1000
C
1070
     1
1002
}
1001
GENIUS_GENODEF_13
1002
{
1000
HIER
1070
     0
1002
}
1002
{
1000
MANEDIT
1070
     0
1002
}
1002
{
1000
NOSEL
1070
     0
1002
}
1002
{
1000
BEHIND
1070
     0
1002
}
1002
{
1000
REACTOR
1002
}
1001
GENIUS_GENOBJ-N-REC_13
1002
{
1000
OWNER
1000
GEN
1002
}
  0
LINE
  5
466
330
1F
100
AcDbEntity
  8
0
100
AcDbLine
 10
163.5999999030267
 20
129.7000001323202
 30
0.0
 11
170.5999999030266
 21
129.7000001323202
 31
0.0
  0
LINE
  5
467
330
1F
100
AcDbEntity
  8
0
100
AcDbLine
 10
163.2999999030267
 20
129.3000001323203
 30
0.0
 11
170.8999999030267
 21
129.3000001323203
 31
0.0
  0
ARC
  5
468
330
1F
100
AcDbEntity
  8
0
100
AcDbCircle
 10
164.004987465139
 20
102.2000001323202
 30
0.0
 40
1.0
100
AcDbArc
 50
185.7105931375003
 51
270.0
  0
LINE
  5
469
330
1F
100
AcDbEntity
  8
0
100
AcDbLine
 10
163.2999999030267
 20
107.7000001323202
 30
0.0
 11
170.8999999030267
 21
107.7000001323202
 31
0.0
  0
LINE
  5
46A
330
1F
100
AcDbEntity
  8
0
100
AcDbLine
 10
163.2999999030267
 20
114.7000001323202
 30
0.0
 11
170.8999999030267
 21
114.7000001323202
 31
0.0
  0
LINE
  5
46B
330
1F
100
AcDbEntity
  8
0
100
AcDbLine
 10
163.2999999030267
 20
113.7000001323202
 30
0.0
 11
170.8999999030267
 21
113.7000001323202
 31
0.0
  0
LINE
  5
46C
330
1F
100
AcDbEntity
  8
0
100
AcDbLine
 10
163.2999999030267
 20
113.2000001323202
 30
0.0
 11
170.8999999030267
 21
113.2000001323202
 31
0.0
  0
LINE
  5
46D
330
1F
100
AcDbEntity
  8
0
100
AcDbLine
 10
163.2999999030267
 20
112.2000001323202
 30
0.0
 11
170.8999999030267
 21
112.2000001323202
 31
0.0
  0
LINE
  5
46E
330
1F
100
AcDbEntity
  8
0
100
AcDbLine
 10
163.2999999030267
 20
110.7000001323202
 30
0.0
 11
170.8999999030267
 21
110.7000001323202
 31
0.0
  0
LINE
  5
46F
330
1F
100
AcDbEntity
  8
0
100
AcDbLine
 10
163.2999999030267
 20
111.7000001323201
 30
0.0
 11
170.8999999030267
 21
111.7000001323201
 31
0.0
  0
LINE
  5
470
330
1F
100
AcDbEntity
  8
0
100
AcDbLine
 10
163.2999999030267
 20
110.2000001323202
 30
0.0
 11
170.8999999030267
 21
110.2000001323202
 31
0.0
  0
LINE
  5
471
330
1F
100
AcDbEntity
  8
0
100
AcDbLine
 10
163.2999999030267
 20
109.2000001323202
 30
0.0
 11
170.8999999030267
 21
109.2000001323202
 31
0.0
  0
LINE
  5
472
330
1F
100
AcDbEntity
  8
0
100
AcDbLine
 10
163.2999999030267
 20
108.7000001323202
 30
0.0
 11
170.8999999030267
 21
108.7000001323202
 31
0.0
  0
LINE
  5
473
330
1F
100
AcDbEntity
  8
0
100
AcDbLine
 10
172.3999999030267
 20
132.1500001323202
 30
0.0
 11
151.5999999030267
 21
132.1500001323202
 31
0.0
1001
GENIUS_GENREC_14
1002
{
1000
PYDIR
1011
149.9999999030268
1021
230.0000001323202
1031
0.0
1002
}
1002
{
1000
PXDIR
1011
203.9999999030268
1021
120.0000001323203
1031
0.0
1002
}
1002
{
1000
PORI
1011
149.9999999030268
1021
120.0000001323203
1031
0.0
1002
}
1002
{
1000
PINS
1011
149.9999999030268
1021
120.0000001323203
1031
0.0
1002
}
1002
{
1000
HVAL
1000
110
1002
}
1002
{
1000
H
1070
     2
1002
}
1002
{
1000
WVAL
1000
54
1002
}
1002
{
1000
W
1070
     2
1002
}
1002
{
1000
C
1070
     1
1002
}
1001
GENIUS_GENODEF_13
1002
{
1000
HIER
1070
     0
1002
}
1002
{
1000
MANEDIT
1070
     0
1002
}
1002
{
1000
NOSEL
1070
     0
1002
}
1002
{
1000
BEHIND
1070
     0
1002
}
1002
{
1000
REACTOR
1002
}
1001
GENIUS_GENOBJ-N-REC_13
1002
{
1000
OWNER
1000
GEN
1002
}
  0
LINE
  5
474
330
1F
100
AcDbEntity
  8
0
100
AcDbLine
 10
171.5999999030267
 20
132.9500001323203
 30
0.0
 11
152.3999999030267
 21
132.9500001323202
 31
0.0
1001
GENIUS_GENREC_14
1002
{
1000
PYDIR
1011
149.9999999030268
1021
230.0000001323202
1031
0.0
1002
}
1002
{
1000
PXDIR
1011
203.9999999030268
1021
120.0000001323203
1031
0.0
1002
}
1002
{
1000
PORI
1011
149.9999999030268
1021
120.0000001323203
1031
0.0
1002
}
1002
{
1000
PINS
1011
149.9999999030268
1021
120.0000001323203
1031
0.0
1002
}
1002
{
1000
HVAL
1000
110
1002
}
1002
{
1000
H
1070
     2
1002
}
1002
{
1000
WVAL
1000
54
1002
}
1002
{
1000
W
1070
     2
1002
}
1002
{
1000
C
1070
     1
1002
}
1001
GENIUS_GENODEF_13
1002
{
1000
HIER
1070
     0
1002
}
1002
{
1000
MANEDIT
1070
     0
1002
}
1002
{
1000
NOSEL
1070
     0
1002
}
1002
{
1000
BEHIND
1070
     0
1002
}
1002
{
1000
REACTOR
1002
}
1001
GENIUS_GENOBJ-N-REC_13
1002
{
1000
OWNER
1000
GEN
1002
}
  0
LINE
  5
475
330
1F
100
AcDbEntity
  8
0
100
AcDbLine
 10
171.5999999030267
 20
137.5500001323203
 30
0.0
 11
152.3999999030267
 21
137.5500001323203
 31
0.0
1001
GENIUS_GENREC_14
1002
{
1000
PYDIR
1011
149.9999999030268
1021
230.0000001323202
1031
0.0
1002
}
1002
{
1000
PXDIR
1011
203.9999999030268
1021
120.0000001323203
1031
0.0
1002
}
1002
{
1000
PORI
1011
149.9999999030268
1021
120.0000001323203
1031
0.0
1002
}
1002
{
1000
PINS
1011
149.9999999030268
1021
120.0000001323203
1031
0.0
1002
}
1002
{
1000
HVAL
1000
110
1002
}
1002
{
1000
H
1070
     2
1002
}
1002
{
1000
WVAL
1000
54
1002
}
1002
{
1000
W
1070
     2
1002
}
1002
{
1000
C
1070
     1
1002
}
1001
GENIUS_GENODEF_13
1002
{
1000
HIER
1070
     0
1002
}
1002
{
1000
MANEDIT
1070
     0
1002
}
1002
{
1000
NOSEL
1070
     0
1002
}
1002
{
1000
BEHIND
1070
     0
1002
}
1002
{
1000
REACTOR
1002
}
1001
GENIUS_GENOBJ-N-REC_13
1002
{
1000
OWNER
1000
GEN
1002
}
  0
LINE
  5
476
330
1F
100
AcDbEntity
  8
0
100
AcDbLine
 10
172.5499999030267
 20
132.0000001323201
 30
0.0
 11
151.4499999030268
 21
132.0000001323201
 31
0.0
1001
GENIUS_GENREC_14
1002
{
1000
PYDIR
1011
149.9999999030268
1021
230.0000001323202
1031
0.0
1002
}
1002
{
1000
PXDIR
1011
203.9999999030268
1021
120.0000001323203
1031
0.0
1002
}
1002
{
1000
PORI
1011
149.9999999030268
1021
120.0000001323203
1031
0.0
1002
}
1002
{
1000
PINS
1011
149.9999999030268
1021
120.0000001323203
1031
0.0
1002
}
1002
{
1000
HVAL
1000
110
1002
}
1002
{
1000
H
1070
     2
1002
}
1002
{
1000
WVAL
1000
54
1002
}
1002
{
1000
W
1070
     2
1002
}
1002
{
1000
C
1070
     1
1002
}
1001
GENIUS_GENODEF_13
1002
{
1000
HIER
1070
     0
1002
}
1002
{
1000
MANEDIT
1070
     0
1002
}
1002
{
1000
NOSEL
1070
     0
1002
}
1002
{
1000
BEHIND
1070
     0
1002
}
1002
{
1000
REACTOR
1002
}
1001
GENIUS_GENOBJ-N-REC_13
1002
{
1000
OWNER
1000
GEN
1002
}
  0
ARC
  5
477
330
1F
100
AcDbEntity
  8
0
100
AcDbCircle
 10
162.2999999030267
 20
114.4123759686098
 30
0.0
 40
1.199999999999999
100
AcDbArc
 50
180.0
 51
270.0
1001
GENIUS_GENODEF_13
1002
{
1000
HIER
1070
     0
1002
}
1002
{
1000
MANEDIT
1070
     0
1002
}
1002
{
1000
NOSEL
1070
     0
1002
}
1002
{
1000
BEHIND
1070
     0
1002
}
1002
{
1000
REACTOR
1002
}
1001
GENIUS_GENOBJ-N-FIL_13
1002
{
1000
OWNER
1000
GEN
1002
}
  0
LINE
  5
478
330
1F
100
AcDbEntity
  8
0
100
AcDbLine
 10
163.2999999030267
 20
129.3000001323203
 30
0.0
 11
163.2999999030267
 21
107.7000001323202
 31
0.0
  0
ARC
  5
479
330
1F
100
AcDbEntity
  8
0
100
AcDbCircle
 10
113.6499999030267
 20
114.2000001323202
 30
0.0
 40
0.5
100
AcDbArc
 50
270.0
 51
90.0
  0
ARC
  5
47A
330
1F
100
AcDbEntity
  8
0
100
AcDbCircle
 10
108.2499999030266
 20
114.4000001323201
 30
0.0
 40
1.199999999999999
100
AcDbArc
 50
270.0
 51
0.0
1001
GENIUS_GENODEF_13
1002
{
1000
HIER
1070
     0
1002
}
1002
{
1000
MANEDIT
1070
     0
1002
}
1002
{
1000
NOSEL
1070
     0
1002
}
1002
{
1000
BEHIND
1070
     0
1002
}
1002
{
1000
REACTOR
1002
}
1001
GENIUS_GENOBJ-N-FIL_13
1002
{
1000
OWNER
1000
GEN
1002
}
  0
LINE
  5
47B
330
1F
100
AcDbEntity
  8
0
100
AcDbLine
 10
111.6499999030267
 20
119.6288121739444
 30
0.0
 11
111.6499999030267
 21
107.7000001323202
 31
0.0
  0
LINE
  5
47C
330
1F
100
AcDbEntity
  8
0
100
AcDbLine
 10
108.4499999030267
 20
113.2000001323202
 30
0.0
 11
108.4499999030267
 21
102.2000001323202
 31
0.0
  0
LINE
  5
47D
330
1F
100
AcDbEntity
  8
0
100
AcDbLine
 10
110.916672706128
 20
109.6133494203842
 30
0.0
 11
108.4833270999251
 21
103.2866508442563
 31
0.0
  0
ARC
  5
47E
330
1F
100
AcDbEntity
  8
0
100
AcDbCircle
 10
108.9499999030267
 20
103.1071613046019
 30
0.0
 40
0.5
100
AcDbArc
 50
158.9624889745793
 51
180.0
1001
GENIUS_GENODEF_13
1002
{
1000
HIER
1070
     0
1002
}
1002
{
1000
MANEDIT
1070
     0
1002
}
1002
{
1000
NOSEL
1070
     0
1002
}
1002
{
1000
BEHIND
1070
     0
1002
}
1002
{
1000
REACTOR
1002
}
1001
GENIUS_GENOBJ-N-FIL_13
1002
{
1000
OWNER
1000
GEN
1002
}
  0
LINE
  5
47F
330
1F
100
AcDbEntity
  8
0
100
AcDbLine
 10
113.1499999030267
 20
109.2000001323202
 30
0.0
 11
113.1499999030267
 21
108.7000001323202
 31
0.0
  0
ARC
  5
480
330
1F
100
AcDbEntity
  8
0
100
AcDbCircle
 10
113.6499999030267
 20
108.2000001323202
 30
0.0
 40
0.5
100
AcDbArc
 50
270.0
 51
90.0
  0
LINE
  5
481
330
1F
100
AcDbEntity
  8
0
100
AcDbLine
 10
113.6499999030267
 20
107.7000001323202
 30
0.0
 11
111.6499999030267
 21
107.7000001323202
 31
0.0
  0
LINE
  5
482
330
1F
100
AcDbEntity
  8
0
100
AcDbLine
 10
113.6499999030267
 20
108.7000001323202
 30
0.0
 11
113.1499999030267
 21
108.7000001323202
 31
0.0
  0
ARC
  5
483
330
1F
100
AcDbEntity
  8
0
100
AcDbCircle
 10
110.4499999030267
 20
111.7000001323201
 30
0.0
 40
0.5
100
AcDbArc
 50
0.0
 51
90.0
1001
GENIUS_GENODEF_13
1002
{
1000
HIER
1070
     0
1002
}
1002
{
1000
MANEDIT
1070
     0
1002
}
1002
{
1000
NOSEL
1070
     0
1002
}
1002
{
1000
BEHIND
1070
     0
1002
}
1002
{
1000
REACTOR
1002
}
1001
GENIUS_GENOBJ-N-FIL_13
1002
{
1000
OWNER
1000
GEN
1002
}
  0
ARC
  5
484
330
1F
100
AcDbEntity
  8
0
100
AcDbCircle
 10
110.4499999030267
 20
109.7928389600385
 30
0.0
 40
0.5
100
AcDbArc
 50
338.9624889745793
 51
0.0
1001
GENIUS_GENODEF_13
1002
{
1000
HIER
1070
     0
1002
}
1002
{
1000
MANEDIT
1070
     0
1002
}
1002
{
1000
NOSEL
1070
     0
1002
}
1002
{
1000
BEHIND
1070
     0
1002
}
1002
{
1000
REACTOR
1002
}
1001
GENIUS_GENOBJ-N-FIL_13
1002
{
1000
OWNER
1000
GEN
1002
}
  0
LINE
  5
485
330
1F
100
AcDbEntity
  8
0
100
AcDbLine
 10
110.9499999030267
 20
111.7000001323201
 30
0.0
 11
110.9499999030267
 21
109.7928389600385
 31
0.0
  0
ARC
  5
486
330
1F
100
AcDbEntity
  8
0
100
AcDbCircle
 10
108.9499999030267
 20
112.7000001323201
 30
0.0
 40
0.5
100
AcDbArc
 50
180.0
 51
270.0
1001
GENIUS_GENODEF_13
1002
{
1000
HIER
1070
     0
1002
}
1002
{
1000
MANEDIT
1070
     0
1002
}
1002
{
1000
NOSEL
1070
     0
1002
}
1002
{
1000
BEHIND
1070
     0
1002
}
1002
{
1000
REACTOR
1002
}
1001
GENIUS_GENOBJ-N-FIL_13
1002
{
1000
OWNER
1000
GEN
1002
}
  0
LINE
  5
487
330
1F
100
AcDbEntity
  8
0
100
AcDbLine
 10
110.4499999030267
 20
112.2000001323202
 30
0.0
 11
108.9499999030267
 21
112.2000001323202
 31
0.0
  0
ARC
  5
488
330
1F
100
AcDbEntity
  8
0
100
AcDbCircle
 10
113.6499999030267
 20
112.7000001323201
 30
0.0
 40
0.5
100
AcDbArc
 50
270.0
 51
90.0
  0
ARC
  5
489
330
1F
100
AcDbEntity
  8
0
100
AcDbCircle
 10
113.6499999030267
 20
109.7000001323202
 30
0.0
 40
0.5
100
AcDbArc
 50
270.0
 51
90.0
  0
ARC
  5
48A
330
1F
100
AcDbEntity
  8
0
100
AcDbCircle
 10
113.6499999030267
 20
111.2000001323202
 30
0.0
 40
0.5
100
AcDbArc
 50
270.0
 51
90.0
  0
LINE
  5
48B
330
1F
100
AcDbEntity
  8
0
100
AcDbLine
 10
113.1499999030265
 20
113.7000001323202
 30
0.0
 11
113.1499999030265
 21
113.2000001323202
 31
0.0
  0
LINE
  5
48C
330
1F
100
AcDbEntity
  8
0
100
AcDbLine
 10
113.1499999030267
 20
112.2000001323202
 30
0.0
 11
113.1499999030267
 21
111.7000001323201
 31
0.0
  0
LINE
  5
48D
330
1F
100
AcDbEntity
  8
0
100
AcDbLine
 10
113.1499999030267
 20
110.7000001323202
 30
0.0
 11
113.1499999030267
 21
110.2000001323202
 31
0.0
  0
LINE
  5
48E
330
1F
100
AcDbEntity
  8
0
100
AcDbLine
 10
113.6499999030267
 20
113.7000001323202
 30
0.0
 11
113.1499999030267
 21
113.7000001323202
 31
0.0
  0
LINE
  5
48F
330
1F
100
AcDbEntity
  8
0
100
AcDbLine
 10
113.6499999030267
 20
113.2000001323202
 30
0.0
 11
113.1499999030267
 21
113.2000001323202
 31
0.0
  0
LINE
  5
490
330
1F
100
AcDbEntity
  8
0
100
AcDbLine
 10
113.6499999030267
 20
112.2000001323202
 30
0.0
 11
113.1499999030267
 21
112.2000001323202
 31
0.0
  0
LINE
  5
491
330
1F
100
AcDbEntity
  8
0
100
AcDbLine
 10
113.6499999030267
 20
111.7000001323201
 30
0.0
 11
113.1499999030267
 21
111.7000001323201
 31
0.0
  0
LINE
  5
492
330
1F
100
AcDbEntity
  8
0
100
AcDbLine
 10
113.6499999030267
 20
110.7000001323202
 30
0.0
 11
113.1499999030267
 21
110.7000001323202
 31
0.0
  0
LINE
  5
493
330
1F
100
AcDbEntity
  8
0
100
AcDbLine
 10
113.6499999030267
 20
110.2000001323202
 30
0.0
 11
113.1499999030267
 21
110.2000001323202
 31
0.0
  0
LINE
  5
494
330
1F
100
AcDbEntity
  8
0
100
AcDbLine
 10
113.6499999030267
 20
109.2000001323202
 30
0.0
 11
113.1499999030267
 21
109.2000001323202
 31
0.0
  0
LINE
  5
495
330
1F
100
AcDbEntity
  8
0
100
AcDbLine
 10
162.0999999030266
 20
111.2000001323202
 30
0.0
 11
163.0099502749289
 21
102.1004964132993
 31
0.0
  0
LINE
  5
496
330
1F
100
AcDbEntity
  8
0
100
AcDbLine
 10
162.2999999030267
 20
113.2123759686098
 30
0.0
 11
163.2999999030267
 21
113.2123759686098
 31
0.0
  0
LINE
  5
497
330
1F
100
AcDbEntity
  8
0
100
AcDbLine
 10
162.0999999030266
 20
113.2291600119899
 30
0.0
 11
162.0999999030266
 21
111.2000001323202
 31
0.0
  0
LINE
  5
498
330
1F
100
AcDbEntity
  8
0
100
AcDbLine
 10
113.1499999030267
 20
120.0543169028401
 30
0.0
 11
113.1499999030267
 21
114.7000001323202
 31
0.0
  0
LINE
  5
499
330
1F
100
AcDbEntity
  8
0
100
AcDbLine
 10
109.4499999030267
 20
120.0000001323202
 30
0.0
 11
109.4499999030267
 21
114.4000001323201
 31
0.0
  0
ARC
  5
49A
330
1F
100
AcDbEntity
  8
0
100
AcDbCircle
 10
104.9499999030267
 20
121.7000001323202
 30
0.0
 40
7.0
100
AcDbArc
 50
315.7595228987311
 51
342.7894469119892
  0
ARC
  5
49B
330
1F
100
AcDbEntity
  8
0
100
AcDbCircle
 10
111.3499999030265
 20
116.6885901591043
 30
0.0
 40
0.3
100
AcDbArc
 50
0.0
 51
151.2482814979189
1001
GENIUS_GENODEF_13
1002
{
1000
HIER
1070
     0
1002
}
1002
{
1000
MANEDIT
1070
     0
1002
}
1002
{
1000
NOSEL
1070
     0
1002
}
1002
{
1000
BEHIND
1070
     0
1002
}
1002
{
1000
REACTOR
1002
}
1001
GENIUS_GENOBJ-N-FIL_13
1002
{
1000
OWNER
1000
GEN
1002
}
  0
ARC
  5
49C
330
1F
100
AcDbEntity
  8
0
100
AcDbCircle
 10
104.9499999030267
 20
120.2000001323202
 30
0.0
 40
7.0
100
AcDbArc
 50
310.0052008848593
 51
331.2482814979189
  0
ARC
  5
49D
330
1F
100
AcDbEntity
  8
0
100
AcDbCircle
 10
109.7499999030266
 20
117.0256017753121
 30
0.0
 40
0.3
100
AcDbArc
 50
180.0000000000031
 51
315.7595228987288
1001
GENIUS_GENODEF_13
1002
{
1000
HIER
1070
     0
1002
}
1002
{
1000
MANEDIT
1070
     0
1002
}
1002
{
1000
NOSEL
1070
     0
1002
}
1002
{
1000
BEHIND
1070
     0
1002
}
1002
{
1000
REACTOR
1002
}
1001
GENIUS_GENOBJ-N-FIL_13
1002
{
1000
OWNER
1000
GEN
1002
}
  0
LINE
  5
49E
330
1F
100
AcDbEntity
  8
0
100
AcDbLine
 10
113.6499999030267
 20
114.7000001323202
 30
0.0
 11
113.1499999030267
 21
114.7000001323202
 31
0.0
  0
LINE
  5
49F
330
1F
100
AcDbEntity
  8
0
100
AcDbLine
 10
111.6499999030267
 20
120.0000001323202
 30
0.0
 11
111.6499999030267
 21
119.6288121739444
 31
0.0
  0
ARC
  5
4A0
330
1F
100
AcDbEntity
  8
0
100
AcDbCircle
 10
111.3499999030265
 20
119.7175773721605
 30
0.0
 40
0.3
100
AcDbArc
 50
342.7894469119892
 51
0.0
1001
GENIUS_GENODEF_13
1002
{
1000
HIER
1070
     0
1002
}
1002
{
1000
MANEDIT
1070
     0
1002
}
1002
{
1000
NOSEL
1070
     0
1002
}
1002
{
1000
BEHIND
1070
     0
1002
}
1002
{
1000
REACTOR
1002
}
1001
GENIUS_GENOBJ-N-FIL_13
1002
{
1000
OWNER
1000
GEN
1002
}
  0
ARC
  5
4A1
330
1F
100
AcDbEntity
  8
0
100
AcDbCircle
 10
112.7499999030266
 20
121.5000001323202
 30
0.0
 40
1.5
100
AcDbArc
 50
270.0
 51
0.0
1001
GENIUS_GENODEF_13
1002
{
1000
HIER
1070
     0
1002
}
1002
{
1000
MANEDIT
1070
     0
1002
}
1002
{
1000
NOSEL
1070
     0
1002
}
1002
{
1000
BEHIND
1070
     0
1002
}
1002
{
1000
REACTOR
1002
}
1001
GENIUS_GENOBJ-N-FIL_13
1002
{
1000
OWNER
1000
GEN
1002
}
  0
LINE
  5
4A2
330
1F
100
AcDbEntity
  8
0
100
AcDbLine
 10
151.4499999030268
 20
152.1000001323202
 30
0.0
 11
151.4499999030268
 21
132.0000001323201
 31
0.0
  0
LINE
  5
4A3
330
1F
100
AcDbEntity
  8
0
100
AcDbLine
 10
151.5999999030267
 20
151.9500001323202
 30
0.0
 11
151.5999999030267
 21
132.1500001323202
 31
0.0
  0
LINE
  5
4A4
330
1F
100
AcDbEntity
  8
0
100
AcDbLine
 10
152.3999999030267
 20
151.1500001323202
 30
0.0
 11
152.3999999030267
 21
132.9500001323202
 31
0.0
  0
LINE
  5
4A5
330
1F
100
AcDbEntity
  8
0
100
AcDbLine
 10
158.5999999030267
 20
151.1500001323202
 30
0.0
 11
158.5999999030267
 21
132.9500001323202
 31
0.0
  0
LINE
  5
4A6
330
1F
100
AcDbEntity
  8
0
100
AcDbLine
 10
163.0999999030267
 20
129.2000001323202
 30
0.0
 11
163.0999999030267
 21
120.0000001323203
 31
0.0
1001
GENIUS_GENODEF_13
1002
{
1000
HIER
1070
     0
1002
}
1002
{
1000
MANEDIT
1070
     0
1002
}
1002
{
1000
NOSEL
1070
     0
1002
}
1002
{
1000
BEHIND
1070
     0
1002
}
1002
{
1000
REACTOR
1002
}
1001
GENIUS_GENOBJ-N-CEN_13
1002
{
1000
OWNER
1000
GEN
1002
}
  0
LINE
  5
4A7
330
1F
100
AcDbEntity
  8
0
100
AcDbLine
 10
152.4999999030268
 20
120.0000001323203
 30
0.0
 11
163.2999999030267
 21
120.0000001323203
 31
0.0
  0
ARC
  5
4A8
330
1F
100
AcDbEntity
  8
0
100
AcDbCircle
 10
152.4999999030268
 20
122.5000001323202
 30
0.0
 40
2.5
100
AcDbArc
 50
180.0
 51
270.0
1001
GENIUS_GENODEF_13
1002
{
1000
HIER
1070
     0
1002
}
1002
{
1000
MANEDIT
1070
     0
1002
}
1002
{
1000
NOSEL
1070
     0
1002
}
1002
{
1000
BEHIND
1070
     0
1002
}
1002
{
1000
REACTOR
1002
}
1001
GENIUS_GENOBJ-N-FIL_13
1002
{
1000
OWNER
1000
GEN
1002
}
  0
LINE
  5
4A9
330
1F
100
AcDbEntity
  8
0
100
AcDbLine
 10
161.0999999030267
 20
114.4123759686098
 30
0.0
 11
161.0999999030267
 21
120.0000001323203
 31
0.0
  0
ARC
  5
4AA
330
1F
100
AcDbEntity
  8
0
100
AcDbCircle
 10
163.5999999030267
 20
129.2000001323202
 30
0.0
 40
0.5
100
AcDbArc
 50
90.0
 51
180.0
1001
GENIUS_GENODEF_13
1002
{
1000
HIER
1070
     0
1002
}
1002
{
1000
MANEDIT
1070
     0
1002
}
1002
{
1000
NOSEL
1070
     0
1002
}
1002
{
1000
BEHIND
1070
     0
1002
}
1002
{
1000
REACTOR
1002
}
1001
GENIUS_GENOBJ-N-FIL_13
1002
{
1000
OWNER
1000
GEN
1002
}
  0
LINE
  5
4AB
330
1F
100
AcDbEntity
  8
0
100
AcDbLine
 10
163.0999999030267
 20
125.5000001323202
 30
0.0
 11
163.2999999030267
 21
125.5000001323202
 31
0.0
  0
LINE
  5
4AC
330
1F
100
AcDbEntity
  8
0
100
AcDbLine
 10
170.8999999030267
 20
129.3000001323203
 30
0.0
 11
170.8999999030267
 21
107.7000001323202
 31
0.0
  0
ARC
  5
4AD
330
1F
100
AcDbEntity
  8
0
100
AcDbCircle
 10
171.8999999030265
 20
114.4123759686098
 30
0.0
 40
1.199999999999999
100
AcDbArc
 50
270.0
 51
0.0
1001
GENIUS_GENODEF_13
1002
{
1000
HIER
1070
     0
1002
}
1002
{
1000
MANEDIT
1070
     0
1002
}
1002
{
1000
NOSEL
1070
     0
1002
}
1002
{
1000
BEHIND
1070
     0
1002
}
1002
{
1000
REACTOR
1002
}
1001
GENIUS_GENOBJ-N-FIL_13
1002
{
1000
OWNER
1000
GEN
1002
}
  0
LINE
  5
4AE
330
1F
100
AcDbEntity
  8
0
100
AcDbLine
 10
171.1900495311248
 20
102.1004964132993
 30
0.0
 11
172.099999903027
 21
111.2000001323202
 31
0.0
  0
ARC
  5
4AF
330
1F
100
AcDbEntity
  8
0
100
AcDbCircle
 10
170.1950123409148
 20
102.2000001323202
 30
0.0
 40
1.0
100
AcDbArc
 50
270.0
 51
354.2894068624997
  0
LINE
  5
4B0
330
1F
100
AcDbEntity
  8
0
100
AcDbLine
 10
164.004987465139
 20
101.2000001323202
 30
0.0
 11
170.1950123409148
 21
101.2000001323202
 31
0.0
  0
LINE
  5
4B1
330
1F
100
AcDbEntity
  8
0
100
AcDbLine
 10
164.8499999030269
 20
91.20000013232022
 30
0.0
 11
169.3499999030269
 21
91.2000001323202
 31
0.0
  0
LINE
  5
4B2
330
1F
100
AcDbEntity
  8
0
100
AcDbLine
 10
170.8999999030267
 20
113.2123759686098
 30
0.0
 11
171.8999999030265
 21
113.2123759686098
 31
0.0
  0
LINE
  5
4B3
330
1F
100
AcDbEntity
  8
0
100
AcDbLine
 10
172.099999903027
 20
111.2000001323202
 30
0.0
 11
172.099999903027
 21
113.2291600119899
 31
0.0
  0
ARC
  5
4B4
330
1F
100
AcDbEntity
  8
0
100
AcDbCircle
 10
192.8999999030266
 20
143.4000001323203
 30
0.0
 40
0.5
100
AcDbArc
 50
0.0
 51
90.0
1001
GENIUS_GENODEF_13
1002
{
1000
HIER
1070
     0
1002
}
1002
{
1000
MANEDIT
1070
     0
1002
}
1002
{
1000
NOSEL
1070
     0
1002
}
1002
{
1000
BEHIND
1070
     0
1002
}
1002
{
1000
REACTOR
1002
}
1001
GENIUS_GENOBJ-N-FIL_13
1002
{
1000
OWNER
1000
GEN
1002
}
  0
ARC
  5
4B5
330
1F
100
AcDbEntity
  8
0
100
AcDbCircle
 10
192.8999999030266
 20
139.6000001323202
 30
0.0
 40
0.5
100
AcDbArc
 50
270.0
 51
0.0
1001
GENIUS_GENODEF_13
1002
{
1000
HIER
1070
     0
1002
}
1002
{
1000
MANEDIT
1070
     0
1002
}
1002
{
1000
NOSEL
1070
     0
1002
}
1002
{
1000
BEHIND
1070
     0
1002
}
1002
{
1000
REACTOR
1002
}
1001
GENIUS_GENOBJ-N-FIL_13
1002
{
1000
OWNER
1000
GEN
1002
}
  0
LINE
  5
4B6
330
1F
100
AcDbEntity
  8
0
100
AcDbLine
 10
179.9999999030265
 20
133.0000001323201
 30
0.0
 11
199.9999999030265
 21
133.0000001323201
 31
0.0
1001
GENIUS_GENREC_14
1002
{
1000
PYDIR
1011
149.9999999030268
1021
230.0000001323202
1031
0.0
1002
}
1002
{
1000
PXDIR
1011
203.9999999030268
1021
120.0000001323203
1031
0.0
1002
}
1002
{
1000
PORI
1011
149.9999999030268
1021
120.0000001323203
1031
0.0
1002
}
1002
{
1000
PINS
1011
149.9999999030268
1021
120.0000001323203
1031
0.0
1002
}
1002
{
1000
HVAL
1000
110
1002
}
1002
{
1000
H
1070
     2
1002
}
1002
{
1000
WVAL
1000
54
1002
}
1002
{
1000
W
1070
     2
1002
}
1002
{
1000
C
1070
     1
1002
}
1001
GENIUS_GENODEF_13
1002
{
1000
HIER
1070
     0
1002
}
1002
{
1000
MANEDIT
1070
     0
1002
}
1002
{
1000
NOSEL
1070
     0
1002
}
1002
{
1000
BEHIND
1070
     0
1002
}
1002
{
1000
REACTOR
1002
}
1001
GENIUS_GENOBJ-N-REC_13
1002
{
1000
OWNER
1000
GEN
1002
}
  0
LINE
  5
4B7
330
1F
100
AcDbEntity
  8
0
100
AcDbLine
 10
179.9999999030265
 20
137.0000001323202
 30
0.0
 11
199.9999999030265
 21
137.0000001323202
 31
0.0
1001
GENIUS_GENREC_14
1002
{
1000
PYDIR
1011
149.9999999030268
1021
230.0000001323202
1031
0.0
1002
}
1002
{
1000
PXDIR
1011
203.9999999030268
1021
120.0000001323203
1031
0.0
1002
}
1002
{
1000
PORI
1011
149.9999999030268
1021
120.0000001323203
1031
0.0
1002
}
1002
{
1000
PINS
1011
149.9999999030268
1021
120.0000001323203
1031
0.0
1002
}
1002
{
1000
HVAL
1000
110
1002
}
1002
{
1000
H
1070
     2
1002
}
1002
{
1000
WVAL
1000
54
1002
}
1002
{
1000
W
1070
     2
1002
}
1002
{
1000
C
1070
     1
1002
}
1001
GENIUS_GENODEF_13
1002
{
1000
HIER
1070
     0
1002
}
1002
{
1000
MANEDIT
1070
     0
1002
}
1002
{
1000
NOSEL
1070
     0
1002
}
1002
{
1000
BEHIND
1070
     0
1002
}
1002
{
1000
REACTOR
1002
}
1001
GENIUS_GENOBJ-N-REC_13
1002
{
1000
OWNER
1000
GEN
1002
}
  0
LINE
  5
4B8
330
1F
100
AcDbEntity
  8
0
100
AcDbLine
 10
170.8999999030267
 20
120.0000001323203
 30
0.0
 11
201.4999999030266
 21
120.0000001323203
 31
0.0
  0
LINE
  5
4B9
330
1F
100
AcDbEntity
  8
0
100
AcDbLine
 10
179.9999999030265
 20
133.0000001323201
 30
0.0
 11
179.9999999030265
 21
137.0000001323202
 31
0.0
1001
GENIUS_GENREC_14
1002
{
1000
PYDIR
1011
149.9999999030268
1021
230.0000001323202
1031
0.0
1002
}
1002
{
1000
PXDIR
1011
203.9999999030268
1021
120.0000001323203
1031
0.0
1002
}
1002
{
1000
PORI
1011
149.9999999030268
1021
120.0000001323203
1031
0.0
1002
}
1002
{
1000
PINS
1011
149.9999999030268
1021
120.0000001323203
1031
0.0
1002
}
1002
{
1000
HVAL
1000
110
1002
}
1002
{
1000
H
1070
     2
1002
}
1002
{
1000
WVAL
1000
54
1002
}
1002
{
1000
W
1070
     2
1002
}
1002
{
1000
C
1070
     1
1002
}
1001
GENIUS_GENODEF_13
1002
{
1000
HIER
1070
     0
1002
}
1002
{
1000
MANEDIT
1070
     0
1002
}
1002
{
1000
NOSEL
1070
     0
1002
}
1002
{
1000
BEHIND
1070
     0
1002
}
1002
{
1000
REACTOR
1002
}
1001
GENIUS_GENOBJ-N-REC_13
1002
{
1000
OWNER
1000
GEN
1002
}
  0
LINE
  5
4BA
330
1F
100
AcDbEntity
  8
0
100
AcDbLine
 10
172.5499999030267
 20
152.1000001323202
 30
0.0
 11
172.5499999030267
 21
132.0000001323201
 31
0.0
  0
LINE
  5
4BB
330
1F
100
AcDbEntity
  8
0
100
AcDbLine
 10
172.3999999030267
 20
151.9500001323202
 30
0.0
 11
172.3999999030267
 21
132.1500001323202
 31
0.0
  0
LINE
  5
4BC
330
1F
100
AcDbEntity
  8
0
100
AcDbLine
 10
171.5999999030267
 20
151.1500001323202
 30
0.0
 11
171.5999999030267
 21
132.9500001323202
 31
0.0
  0
LINE
  5
4BD
330
1F
100
AcDbEntity
  8
0
100
AcDbLine
 10
171.0999999030267
 20
129.2000001323202
 30
0.0
 11
171.0999999030267
 21
120.0000001323203
 31
0.0
1001
GENIUS_GENODEF_13
1002
{
1000
HIER
1070
     0
1002
}
1002
{
1000
MANEDIT
1070
     0
1002
}
1002
{
1000
NOSEL
1070
     0
1002
}
1002
{
1000
BEHIND
1070
     0
1002
}
1002
{
1000
REACTOR
1002
}
1001
GENIUS_GENOBJ-N-CEN_13
1002
{
1000
OWNER
1000
GEN
1002
}
  0
LINE
  5
4BE
330
1F
100
AcDbEntity
  8
0
100
AcDbLine
 10
173.0999999030269
 20
114.4123759686098
 30
0.0
 11
173.0999999030269
 21
120.0000001323203
 31
0.0
  0
ARC
  5
4BF
330
1F
100
AcDbEntity
  8
0
100
AcDbCircle
 10
170.5999999030266
 20
129.2000001323202
 30
0.0
 40
0.5
100
AcDbArc
 50
0.0
 51
90.0
1001
GENIUS_GENODEF_13
1002
{
1000
HIER
1070
     0
1002
}
1002
{
1000
MANEDIT
1070
     0
1002
}
1002
{
1000
NOSEL
1070
     0
1002
}
1002
{
1000
BEHIND
1070
     0
1002
}
1002
{
1000
REACTOR
1002
}
1001
GENIUS_GENOBJ-N-FIL_13
1002
{
1000
OWNER
1000
GEN
1002
}
  0
LINE
  5
4C0
330
1F
100
AcDbEntity
  8
0
100
AcDbLine
 10
170.8999999030267
 20
125.5000001323202
 30
0.0
 11
171.0999999030267
 21
125.5000001323202
 31
0.0
  0
LINE
  5
4C1
330
1F
100
AcDbEntity
  8
0
100
AcDbLine
 10
188.5999999030267
 20
139.6000001323202
 30
0.0
 11
188.5999999030267
 21
143.4000001323201
 31
0.0
1001
GENIUS_GENREC_14
1002
{
1000
PYDIR
1011
149.9999999030268
1021
230.0000001323202
1031
0.0
1002
}
1002
{
1000
PXDIR
1011
203.9999999030268
1021
120.0000001323203
1031
0.0
1002
}
1002
{
1000
PORI
1011
149.9999999030268
1021
120.0000001323203
1031
0.0
1002
}
1002
{
1000
PINS
1011
149.9999999030268
1021
120.0000001323203
1031
0.0
1002
}
1002
{
1000
HVAL
1000
110
1002
}
1002
{
1000
H
1070
     2
1002
}
1002
{
1000
WVAL
1000
54
1002
}
1002
{
1000
W
1070
     2
1002
}
1002
{
1000
C
1070
     1
1002
}
1001
GENIUS_GENODEF_13
1002
{
1000
HIER
1070
     0
1002
}
1002
{
1000
MANEDIT
1070
     0
1002
}
1002
{
1000
NOSEL
1070
     0
1002
}
1002
{
1000
BEHIND
1070
     0
1002
}
1002
{
1000
REACTOR
1002
}
1001
GENIUS_GENOBJ-N-REC_13
1002
{
1000
OWNER
1000
GEN
1002
}
  0
LINE
  5
4C2
330
1F
100
AcDbEntity
  8
0
100
AcDbLine
 10
189.0999999030267
 20
139.1000001323202
 30
0.0
 11
192.8999999030266
 21
139.1000001323202
 31
0.0
1001
GENIUS_GENREC_14
1002
{
1000
PYDIR
1011
149.9999999030268
1021
230.0000001323202
1031
0.0
1002
}
1002
{
1000
PXDIR
1011
203.9999999030268
1021
120.0000001323203
1031
0.0
1002
}
1002
{
1000
PORI
1011
149.9999999030268
1021
120.0000001323203
1031
0.0
1002
}
1002
{
1000
PINS
1011
149.9999999030268
1021
120.0000001323203
1031
0.0
1002
}
1002
{
1000
HVAL
1000
110
1002
}
1002
{
1000
H
1070
     2
1002
}
1002
{
1000
WVAL
1000
54
1002
}
1002
{
1000
W
1070
     2
1002
}
1002
{
1000
C
1070
     1
1002
}
1001
GENIUS_GENODEF_13
1002
{
1000
HIER
1070
     0
1002
}
1002
{
1000
MANEDIT
1070
     0
1002
}
1002
{
1000
NOSEL
1070
     0
1002
}
1002
{
1000
BEHIND
1070
     0
1002
}
1002
{
1000
REACTOR
1002
}
1001
GENIUS_GENOBJ-N-REC_13
1002
{
1000
OWNER
1000
GEN
1002
}
  0
ARC
  5
4C3
330
1F
100
AcDbEntity
  8
0
100
AcDbCircle
 10
189.0999999030267
 20
139.6000001323202
 30
0.0
 40
0.5
100
AcDbArc
 50
180.0
 51
270.0
1001
GENIUS_GENODEF_13
1002
{
1000
HIER
1070
     0
1002
}
1002
{
1000
MANEDIT
1070
     0
1002
}
1002
{
1000
NOSEL
1070
     0
1002
}
1002
{
1000
BEHIND
1070
     0
1002
}
1002
{
1000
REACTOR
1002
}
1001
GENIUS_GENOBJ-N-FIL_13
1002
{
1000
OWNER
1000
GEN
1002
}
  0
LINE
  5
4C4
330
1F
100
AcDbEntity
  8
0
100
AcDbLine
 10
189.0999999030267
 20
143.9000001323202
 30
0.0
 11
192.8999999030266
 21
143.9000001323203
 31
0.0
1001
GENIUS_GENREC_14
1002
{
1000
PYDIR
1011
149.9999999030268
1021
230.0000001323202
1031
0.0
1002
}
1002
{
1000
PXDIR
1011
203.9999999030268
1021
120.0000001323203
1031
0.0
1002
}
1002
{
1000
PORI
1011
149.9999999030268
1021
120.0000001323203
1031
0.0
1002
}
1002
{
1000
PINS
1011
149.9999999030268
1021
120.0000001323203
1031
0.0
1002
}
1002
{
1000
HVAL
1000
110
1002
}
1002
{
1000
H
1070
     2
1002
}
1002
{
1000
WVAL
1000
54
1002
}
1002
{
1000
W
1070
     2
1002
}
1002
{
1000
C
1070
     1
1002
}
1001
GENIUS_GENODEF_13
1002
{
1000
HIER
1070
     0
1002
}
1002
{
1000
MANEDIT
1070
     0
1002
}
1002
{
1000
NOSEL
1070
     0
1002
}
1002
{
1000
BEHIND
1070
     0
1002
}
1002
{
1000
REACTOR
1002
}
1001
GENIUS_GENOBJ-N-REC_13
1002
{
1000
OWNER
1000
GEN
1002
}
  0
ARC
  5
4C5
330
1F
100
AcDbEntity
  8
0
100
AcDbCircle
 10
189.0999999030267
 20
143.4000001323201
 30
0.0
 40
0.5
100
AcDbArc
 50
90.0
 51
180.0
1001
GENIUS_GENODEF_13
1002
{
1000
HIER
1070
     0
1002
}
1002
{
1000
MANEDIT
1070
     0
1002
}
1002
{
1000
NOSEL
1070
     0
1002
}
1002
{
1000
BEHIND
1070
     0
1002
}
1002
{
1000
REACTOR
1002
}
1001
GENIUS_GENOBJ-N-FIL_13
1002
{
1000
OWNER
1000
GEN
1002
}
  0
LINE
  5
4C6
330
1F
100
AcDbEntity
  8
0
100
AcDbLine
 10
199.9999999030265
 20
133.0000001323201
 30
0.0
 11
199.9999999030265
 21
137.0000001323202
 31
0.0
1001
GENIUS_GENREC_14
1002
{
1000
PYDIR
1011
149.9999999030268
1021
230.0000001323202
1031
0.0
1002
}
1002
{
1000
PXDIR
1011
203.9999999030268
1021
120.0000001323203
1031
0.0
1002
}
1002
{
1000
PORI
1011
149.9999999030268
1021
120.0000001323203
1031
0.0
1002
}
1002
{
1000
PINS
1011
149.9999999030268
1021
120.0000001323203
1031
0.0
1002
}
1002
{
1000
HVAL
1000
110
1002
}
1002
{
1000
H
1070
     2
1002
}
1002
{
1000
WVAL
1000
54
1002
}
1002
{
1000
W
1070
     2
1002
}
1002
{
1000
C
1070
     1
1002
}
1001
GENIUS_GENODEF_13
1002
{
1000
HIER
1070
     0
1002
}
1002
{
1000
MANEDIT
1070
     0
1002
}
1002
{
1000
NOSEL
1070
     0
1002
}
1002
{
1000
BEHIND
1070
     0
1002
}
1002
{
1000
REACTOR
1002
}
1001
GENIUS_GENOBJ-N-REC_13
1002
{
1000
OWNER
1000
GEN
1002
}
  0
ARC
  5
4C7
330
1F
100
AcDbEntity
  8
0
100
AcDbCircle
 10
201.4999999030266
 20
122.5000001323202
 30
0.0
 40
2.5
100
AcDbArc
 50
270.0
 51
0.0
1001
GENIUS_GENODEF_13
1002
{
1000
HIER
1070
     0
1002
}
1002
{
1000
MANEDIT
1070
     0
1002
}
1002
{
1000
NOSEL
1070
     0
1002
}
1002
{
1000
BEHIND
1070
     0
1002
}
1002
{
1000
REACTOR
1002
}
1001
GENIUS_GENOBJ-N-FIL_13
1002
{
1000
OWNER
1000
GEN
1002
}
  0
LINE
  5
4C8
330
1F
100
AcDbEntity
  8
0
100
AcDbLine
 10
193.3999999030267
 20
139.6000001323202
 30
0.0
 11
193.3999999030267
 21
143.4000001323203
 31
0.0
1001
GENIUS_GENREC_14
1002
{
1000
PYDIR
1011
149.9999999030268
1021
230.0000001323202
1031
0.0
1002
}
1002
{
1000
PXDIR
1011
203.9999999030268
1021
120.0000001323203
1031
0.0
1002
}
1002
{
1000
PORI
1011
149.9999999030268
1021
120.0000001323203
1031
0.0
1002
}
1002
{
1000
PINS
1011
149.9999999030268
1021
120.0000001323203
1031
0.0
1002
}
1002
{
1000
HVAL
1000
110
1002
}
1002
{
1000
H
1070
     2
1002
}
1002
{
1000
WVAL
1000
54
1002
}
1002
{
1000
W
1070
     2
1002
}
1002
{
1000
C
1070
     1
1002
}
1001
GENIUS_GENODEF_13
1002
{
1000
HIER
1070
     0
1002
}
1002
{
1000
MANEDIT
1070
     0
1002
}
1002
{
1000
NOSEL
1070
     0
1002
}
1002
{
1000
BEHIND
1070
     0
1002
}
1002
{
1000
REACTOR
1002
}
1001
GENIUS_GENOBJ-N-REC_13
1002
{
1000
OWNER
1000
GEN
1002
}
  0
ARC
  5
4C9
330
1F
100
AcDbEntity
  8
0
100
AcDbCircle
 10
158.9999999030266
 20
197.0000001323201
 30
0.0
 40
5.75
100
AcDbArc
 50
270.0
 51
359.9999999999935
1001
GENIUS_GENOBJ-N-FIL_13
1002
{
1000
OWNER
1000
GEN
1002
}
1001
GENIUS_GENODEF_13
1002
{
1000
HIER
1070
     0
1002
}
1002
{
1000
MANEDIT
1070
     0
1002
}
1002
{
1000
NOSEL
1070
     0
1002
}
1002
{
1000
BEHIND
1070
     0
1002
}
1002
{
1000
OTHER
1070
     0
1002
}
1002
{
1000
REACTOR
1002
}
  0
ARC
  5
4CA
330
1F
100
AcDbEntity
  8
0
100
AcDbCircle
 10
163.4999999030268
 20
188.2500001323201
 30
0.0
 40
0.25
100
AcDbArc
 50
353.9576715809494
 51
186.0423284190506
  0
LINE
  5
4CB
330
1F
100
AcDbEntity
  8
0
100
AcDbLine
 10
163.7486110033911
 20
188.2236843428466
 30
0.0
 11
163.6491665632453
 21
187.2842106586361
 31
0.0
  0
CIRCLE
  5
4CC
330
1F
100
AcDbEntity
  8
0
100
AcDbCircle
 10
163.4999999030268
 20
186.8000001323203
 30
0.0
 40
0.2
  0
LINE
  5
4CD
330
1F
100
AcDbEntity
  8
0
100
AcDbLine
 10
162.2499999030268
 20
186.5000001323202
 30
0.0
 11
164.7499999030268
 21
186.5000001323202
 31
0.0
  0
LINE
  5
4CE
330
1F
100
AcDbEntity
  8
0
100
AcDbLine
 10
163.4999999030268
 20
189.0000001323201
 30
0.0
 11
164.7499999030268
 21
186.5000001323202
 31
0.0
  0
ARC
  5
4CF
330
1F
100
AcDbEntity
  8
0
100
AcDbCircle
 10
158.9999999030268
 20
197.0000001323201
 30
0.0
 40
5.5
100
AcDbArc
 50
270.0
 51
0.0
  0
LINE
  5
4D0
330
1F
100
AcDbEntity
  8
0
100
AcDbLine
 10
201.4999999030268
 20
230.0000001323202
 30
0.0
 11
152.4999999030268
 21
230.0000001323202
 31
0.0
1001
GENIUS_GENREC_14
1002
{
1000
PYDIR
1011
149.9999999030268
1021
230.0000001323202
1031
0.0
1002
}
1002
{
1000
PXDIR
1011
203.9999999030268
1021
120.0000001323203
1031
0.0
1002
}
1002
{
1000
PORI
1011
149.9999999030268
1021
120.0000001323203
1031
0.0
1002
}
1002
{
1000
PINS
1011
149.9999999030268
1021
120.0000001323203
1031
0.0
1002
}
1002
{
1000
HVAL
1000
110
1002
}
1002
{
1000
H
1070
     2
1002
}
1002
{
1000
WVAL
1000
54
1002
}
1002
{
1000
W
1070
     2
1002
}
1002
{
1000
C
1070
     1
1002
}
1001
GENIUS_GENODEF_13
1002
{
1000
HIER
1070
     0
1002
}
1002
{
1000
MANEDIT
1070
     0
1002
}
1002
{
1000
NOSEL
1070
     0
1002
}
1002
{
1000
BEHIND
1070
     0
1002
}
1002
{
1000
REACTOR
1002
}
1001
GENIUS_GENOBJ-N-REC_13
1002
{
1000
OWNER
1000
GEN
1002
}
  0
LINE
  5
4D1
330
1F
100
AcDbEntity
  8
0
100
AcDbLine
 10
203.9999999030268
 20
227.0000001323202
 30
0.0
 11
149.9999999030268
 21
227.0000001323202
 31
0.0
1001
GENIUS_GENREC_14
1002
{
1000
PYDIR
1011
149.9999999030268
1021
230.0000001323202
1031
0.0
1002
}
1002
{
1000
PXDIR
1011
203.9999999030268
1021
120.0000001323203
1031
0.0
1002
}
1002
{
1000
PORI
1011
149.9999999030268
1021
120.0000001323203
1031
0.0
1002
}
1002
{
1000
PINS
1011
149.9999999030268
1021
120.0000001323203
1031
0.0
1002
}
1002
{
1000
HVAL
1000
110
1002
}
1002
{
1000
H
1070
     2
1002
}
1002
{
1000
WVAL
1000
54
1002
}
1002
{
1000
W
1070
     2
1002
}
1002
{
1000
C
1070
     1
1002
}
1001
GENIUS_GENODEF_13
1002
{
1000
HIER
1070
     0
1002
}
1002
{
1000
MANEDIT
1070
     0
1002
}
1002
{
1000
NOSEL
1070
     0
1002
}
1002
{
1000
BEHIND
1070
     0
1002
}
1002
{
1000
REACTOR
1002
}
1001
GENIUS_GENOBJ-N-REC_13
1002
{
1000
OWNER
1000
GEN
1002
}
  0
LINE
  5
4D2
330
1F
100
AcDbEntity
  8
0
100
AcDbLine
 10
190.4999999030268
 20
199.0000001323202
 30
0.0
 11
163.4999999030268
 21
199.0000001323202
 31
0.0
1001
GENIUS_GENREC_14
1002
{
1000
PYDIR
1011
149.9999999030268
1021
230.0000001323202
1031
0.0
1002
}
1002
{
1000
PXDIR
1011
203.9999999030268
1021
120.0000001323203
1031
0.0
1002
}
1002
{
1000
PORI
1011
149.9999999030268
1021
120.0000001323203
1031
0.0
1002
}
1002
{
1000
PINS
1011
149.9999999030268
1021
120.0000001323203
1031
0.0
1002
}
1002
{
1000
HVAL
1000
110
1002
}
1002
{
1000
H
1070
     2
1002
}
1002
{
1000
WVAL
1000
54
1002
}
1002
{
1000
W
1070
     2
1002
}
1002
{
1000
C
1070
     1
1002
}
1001
GENIUS_GENODEF_13
1002
{
1000
HIER
1070
     0
1002
}
1002
{
1000
MANEDIT
1070
     0
1002
}
1002
{
1000
NOSEL
1070
     0
1002
}
1002
{
1000
BEHIND
1070
     0
1002
}
1002
{
1000
REACTOR
1002
}
1001
GENIUS_GENOBJ-N-REC_13
1002
{
1000
OWNER
1000
GEN
1002
}
  0
LINE
  5
4D3
330
1F
100
AcDbEntity
  8
0
100
AcDbLine
 10
163.4999999030268
 20
197.0000001323201
 30
0.0
 11
163.4999999030268
 21
199.0000001323202
 31
0.0
  0
LINE
  5
4D4
330
1F
100
AcDbEntity
  8
0
100
AcDbLine
 10
154.4999999030268
 20
197.0000001323201
 30
0.0
 11
154.4999999030268
 21
199.0000001323202
 31
0.0
  0
CIRCLE
  5
4D6
330
1F
100
AcDbEntity
  8
0
100
AcDbCircle
 10
158.9999999030268
 20
197.0000001323201
 30
0.0
 40
2.75
  0
LINE
  5
4D7
330
1F
100
AcDbEntity
  8
0
100
AcDbLine
 10
163.2513888026625
 20
188.2236843428466
 30
0.0
 11
163.3508332428081
 21
187.2842106586361
 31
0.0
  0
LINE
  5
4D8
330
1F
100
AcDbEntity
  8
0
100
AcDbLine
 10
163.4999999030268
 20
189.0000001323201
 30
0.0
 11
162.2499999030268
 21
186.5000001323202
 31
0.0
  0
ARC
  5
4D9
330
1F
100
AcDbEntity
  8
0
100
AcDbCircle
 10
163.4999999030268
 20
187.3000001323202
 30
0.0
 40
0.15
100
AcDbArc
 50
186.042328419054
 51
353.9576715809459
  0
LINE
  5
4DA
330
1F
100
AcDbEntity
  8
0
100
AcDbLine
 10
158.9999999030268
 20
191.5000001323202
 30
0.0
 11
151.4499999030268
 21
191.5000001323202
 31
0.0
  0
LINE
  5
4DB
330
1F
100
AcDbEntity
  8
0
100
AcDbLine
 10
158.9999999030266
 20
191.2500001323201
 30
0.0
 11
151.6999999030268
 21
191.2500001323201
 31
0.0
  0
ARC
  5
4DC
330
1F
100
AcDbEntity
  8
0
100
AcDbCircle
 10
158.9999999030268
 20
197.0000001323201
 30
0.0
 40
4.5
100
AcDbArc
 50
180.0
 51
0.0
  0
LINE
  5
4DD
330
1F
100
AcDbEntity
  8
0
100
AcDbLine
 10
110.7499999030266
 20
227.0000001323202
 30
0.0
 11
110.7499999030266
 21
199.0000001323202
 31
0.0
  0
LINE
  5
4DE
330
1F
100
AcDbEntity
  8
0
100
AcDbLine
 10
114.2499999030266
 20
199.0000001323202
 30
0.0
 11
110.7499999030266
 21
199.0000001323202
 31
0.0
  0
ARC
  5
4DF
330
1F
100
AcDbEntity
  8
0
100
AcDbCircle
 10
112.7499999030266
 20
228.5000001323202
 30
0.0
 40
1.5
100
AcDbArc
 50
0.0
 51
90.0
1001
GENIUS_GENODEF_13
1002
{
1000
HIER
1070
     0
1002
}
1002
{
1000
MANEDIT
1070
     0
1002
}
1002
{
1000
NOSEL
1070
     0
1002
}
1002
{
1000
BEHIND
1070
     0
1002
}
1002
{
1000
REACTOR
1002
}
1001
GENIUS_GENOBJ-N-FIL_13
1002
{
1000
OWNER
1000
GEN
1002
}
  0
LINE
  5
4E0
330
1F
100
AcDbEntity
  8
0
100
AcDbLine
 10
114.2499999030266
 20
227.0000001323202
 30
0.0
 11
110.7499999030266
 21
227.0000001323202
 31
0.0
  0
LINE
  5
4E1
330
1F
100
AcDbEntity
  8
0
100
AcDbLine
 10
154.4999999030268
 20
199.0000001323202
 30
0.0
 11
149.9999999030268
 21
199.0000001323202
 31
0.0
1001
GENIUS_GENREC_14
1002
{
1000
PYDIR
1011
149.9999999030268
1021
230.0000001323202
1031
0.0
1002
}
1002
{
1000
PXDIR
1011
203.9999999030268
1021
120.0000001323203
1031
0.0
1002
}
1002
{
1000
PORI
1011
149.9999999030268
1021
120.0000001323203
1031
0.0
1002
}
1002
{
1000
PINS
1011
149.9999999030268
1021
120.0000001323203
1031
0.0
1002
}
1002
{
1000
HVAL
1000
110
1002
}
1002
{
1000
H
1070
     2
1002
}
1002
{
1000
WVAL
1000
54
1002
}
1002
{
1000
W
1070
     2
1002
}
1002
{
1000
C
1070
     1
1002
}
1001
GENIUS_GENODEF_13
1002
{
1000
HIER
1070
     0
1002
}
1002
{
1000
MANEDIT
1070
     0
1002
}
1002
{
1000
NOSEL
1070
     0
1002
}
1002
{
1000
BEHIND
1070
     0
1002
}
1002
{
1000
REACTOR
1002
}
1001
GENIUS_GENOBJ-N-REC_13
1002
{
1000
OWNER
1000
GEN
1002
}
  0
ARC
  5
4E2
330
1F
100
AcDbEntity
  8
0
100
AcDbCircle
 10
152.4999999030268
 20
227.5000001323202
 30
0.0
 40
2.5
100
AcDbArc
 50
90.0
 51
180.0
1001
GENIUS_GENODEF_13
1002
{
1000
HIER
1070
     0
1002
}
1002
{
1000
MANEDIT
1070
     0
1002
}
1002
{
1000
NOSEL
1070
     0
1002
}
1002
{
1000
BEHIND
1070
     0
1002
}
1002
{
1000
REACTOR
1002
}
1001
GENIUS_GENOBJ-N-FIL_13
1002
{
1000
OWNER
1000
GEN
1002
}
  0
LINE
  5
4E3
330
1F
100
AcDbEntity
  8
0
100
AcDbLine
 10
199.4999999030268
 20
197.0000001323201
 30
0.0
 11
199.4999999030268
 21
199.0000001323202
 31
0.0
  0
CIRCLE
  5
4E5
330
1F
100
AcDbEntity
  8
0
100
AcDbCircle
 10
194.9999999030268
 20
197.0000001323201
 30
0.0
 40
2.75
  0
LINE
  5
4E6
330
1F
100
AcDbEntity
  8
0
100
AcDbLine
 10
190.4999999030268
 20
197.0000001323201
 30
0.0
 11
190.4999999030268
 21
199.0000001323203
 31
0.0
  0
ARC
  5
4E7
330
1F
100
AcDbEntity
  8
0
100
AcDbCircle
 10
195.0499999030267
 20
197.0000001323203
 30
0.0
 40
5.75
100
AcDbArc
 50
180.0
 51
270.0
1001
GENIUS_GENOBJ-N-FIL_13
1002
{
1000
OWNER
1000
GEN
1002
}
1001
GENIUS_GENODEF_13
1002
{
1000
HIER
1070
     0
1002
}
1002
{
1000
MANEDIT
1070
     0
1002
}
1002
{
1000
NOSEL
1070
     0
1002
}
1002
{
1000
BEHIND
1070
     0
1002
}
1002
{
1000
OTHER
1070
     0
1002
}
1002
{
1000
REACTOR
1002
}
  0
ARC
  5
4E8
330
1F
100
AcDbEntity
  8
0
100
AcDbCircle
 10
194.9999999030268
 20
197.0000001323201
 30
0.0
 40
5.5
100
AcDbArc
 50
180.0
 51
270.0
  0
ARC
  5
4E9
330
1F
100
AcDbEntity
  8
0
100
AcDbCircle
 10
194.9999999030268
 20
197.0000001323201
 30
0.0
 40
4.5
100
AcDbArc
 50
180.0
 51
0.0
  0
LINE
  5
4EA
330
1F
100
AcDbEntity
  8
0
100
AcDbLine
 10
189.4999999030268
 20
197.5000001323201
 30
0.0
 11
164.4999999030268
 21
197.5000001323201
 31
0.0
1001
GENIUS_GENREC_14
1002
{
1000
PYDIR
1011
149.9999999030268
1021
230.5000001323202
1031
0.0
1002
}
1002
{
1000
PXDIR
1011
203.9999999030268
1021
120.5000001323202
1031
0.0
1002
}
1002
{
1000
PORI
1011
149.9999999030268
1021
120.5000001323202
1031
0.0
1002
}
1002
{
1000
PINS
1011
149.9999999030268
1021
120.5000001323202
1031
0.0
1002
}
1002
{
1000
HVAL
1000
110
1002
}
1002
{
1000
H
1070
     2
1002
}
1002
{
1000
WVAL
1000
54
1002
}
1002
{
1000
W
1070
     2
1002
}
1002
{
1000
C
1070
     1
1002
}
1001
GENIUS_GENODEF_13
1002
{
1000
HIER
1070
     0
1002
}
1002
{
1000
MANEDIT
1070
     0
1002
}
1002
{
1000
NOSEL
1070
     0
1002
}
1002
{
1000
BEHIND
1070
     0
1002
}
1002
{
1000
REACTOR
1002
}
1001
GENIUS_GENOBJ-N-REC_13
1002
{
1000
OWNER
1000
GEN
1002
}
  0
LINE
  5
4EB
330
1F
100
AcDbEntity
  8
0
100
AcDbLine
 10
189.2999999030267
 20
197.2500001323201
 30
0.0
 11
164.7499999030268
 21
197.2500001323201
 31
0.0
1001
GENIUS_GENREC_14
1002
{
1000
PYDIR
1011
149.9999999030268
1021
230.5000001323202
1031
0.0
1002
}
1002
{
1000
PXDIR
1011
203.9999999030268
1021
120.5000001323202
1031
0.0
1002
}
1002
{
1000
PORI
1011
149.9999999030268
1021
120.5000001323202
1031
0.0
1002
}
1002
{
1000
PINS
1011
149.9999999030268
1021
120.5000001323202
1031
0.0
1002
}
1002
{
1000
HVAL
1000
110
1002
}
1002
{
1000
H
1070
     2
1002
}
1002
{
1000
WVAL
1000
54
1002
}
1002
{
1000
W
1070
     2
1002
}
1002
{
1000
C
1070
     1
1002
}
1001
GENIUS_GENODEF_13
1002
{
1000
HIER
1070
     0
1002
}
1002
{
1000
MANEDIT
1070
     0
1002
}
1002
{
1000
NOSEL
1070
     0
1002
}
1002
{
1000
BEHIND
1070
     0
1002
}
1002
{
1000
REACTOR
1002
}
1001
GENIUS_GENOBJ-N-REC_13
1002
{
1000
OWNER
1000
GEN
1002
}
  0
CIRCLE
  5
4EC
330
1F
100
AcDbEntity
  8
0
100
AcDbCircle
 10
168.9999999030268
 20
193.0000001323201
 30
0.0
 40
1.25
  0
LINE
  5
4ED
330
1F
100
AcDbEntity
  8
0
100
AcDbLine
 10
164.4999999030268
 20
197.0000001323201
 30
0.0
 11
164.4999999030268
 21
197.5000001323201
 31
0.0
  0
LINE
  5
4EE
330
1F
100
AcDbEntity
  8
0
100
AcDbLine
 10
164.7499999030266
 20
197.0000001323196
 30
0.0
 11
164.7499999030268
 21
197.2500001323201
 31
0.0
  0
CIRCLE
  5
4EF
330
1F
100
AcDbEntity
  8
0
100
AcDbCircle
 10
184.9999999030268
 20
193.0000001323201
 30
0.0
 40
1.25
  0
LINE
  5
4F0
330
1F
100
AcDbEntity
  8
0
100
AcDbLine
 10
189.4999999030268
 20
197.0000001323201
 30
0.0
 11
189.4999999030268
 21
197.5000001323201
 31
0.0
  0
LINE
  5
4F1
330
1F
100
AcDbEntity
  8
0
100
AcDbLine
 10
189.2999999030267
 20
197.0000001323203
 30
0.0
 11
189.2999999030267
 21
197.2500001323201
 31
0.0
  0
LINE
  5
4F2
330
1F
100
AcDbEntity
  8
0
100
AcDbLine
 10
194.9999999030268
 20
191.5000001323202
 30
0.0
 11
202.5499999030268
 21
191.5000001323202
 31
0.0
  0
LINE
  5
4F3
330
1F
100
AcDbEntity
  8
0
100
AcDbLine
 10
195.0499999030267
 20
191.2500001323201
 30
0.0
 11
202.2999999030268
 21
191.2500001323201
 31
0.0
  0
LINE
  5
4F4
330
1F
100
AcDbEntity
  8
0
100
AcDbLine
 10
178.9999999030268
 20
228.5000001323202
 30
0.0
 11
174.9999999030268
 21
228.5000001323203
 31
0.0
1001
GENIUS_GENREC_14
1002
{
1000
PYDIR
1011
149.9999999030268
1021
230.0000001323202
1031
0.0
1002
}
1002
{
1000
PXDIR
1011
203.9999999030268
1021
120.0000001323203
1031
0.0
1002
}
1002
{
1000
PORI
1011
149.9999999030268
1021
120.0000001323203
1031
0.0
1002
}
1002
{
1000
PINS
1011
149.9999999030268
1021
120.0000001323203
1031
0.0
1002
}
1002
{
1000
HVAL
1000
110
1002
}
1002
{
1000
H
1070
     2
1002
}
1002
{
1000
WVAL
1000
54
1002
}
1002
{
1000
W
1070
     2
1002
}
1002
{
1000
C
1070
     1
1002
}
1001
GENIUS_GENODEF_13
1002
{
1000
HIER
1070
     0
1002
}
1002
{
1000
MANEDIT
1070
     0
1002
}
1002
{
1000
NOSEL
1070
     0
1002
}
1002
{
1000
BEHIND
1070
     0
1002
}
1002
{
1000
REACTOR
1002
}
1001
GENIUS_GENOBJ-N-REC_13
1002
{
1000
OWNER
1000
GEN
1002
}
  0
LINE
  5
4F5
330
1F
100
AcDbEntity
  8
0
100
AcDbLine
 10
174.9999999030268
 20
228.5000001323202
 30
0.0
 11
174.9999999030268
 21
227.0000001323202
 31
0.0
1001
GENIUS_GENODEF_13
1002
{
1000
HIER
1070
     0
1002
}
1002
{
1000
MANEDIT
1070
     0
1002
}
1002
{
1000
NOSEL
1070
     0
1002
}
1002
{
1000
BEHIND
1070
     0
1002
}
1002
{
1000
REACTOR
1002
}
1001
GENIUS_GENOBJ-N-CEN_13
1002
{
1000
OWNER
1000
GEN
1002
}
  0
LINE
  5
4F6
330
1F
100
AcDbEntity
  8
0
100
AcDbLine
 10
178.9999999030268
 20
228.5000001323202
 30
0.0
 11
178.9999999030268
 21
227.0000001323202
 31
0.0
1001
GENIUS_GENODEF_13
1002
{
1000
HIER
1070
     0
1002
}
1002
{
1000
MANEDIT
1070
     0
1002
}
1002
{
1000
NOSEL
1070
     0
1002
}
1002
{
1000
BEHIND
1070
     0
1002
}
1002
{
1000
REACTOR
1002
}
1001
GENIUS_GENOBJ-N-CEN_13
1002
{
1000
OWNER
1000
GEN
1002
}
  0
LINE
  5
4F7
330
1F
100
AcDbEntity
  8
0
100
AcDbLine
 10
203.9999999030267
 20
199.0000001323202
 30
0.0
 11
199.4999999030268
 21
199.0000001323202
 31
0.0
1001
GENIUS_GENREC_14
1002
{
1000
PYDIR
1011
149.9999999030268
1021
230.0000001323202
1031
0.0
1002
}
1002
{
1000
PXDIR
1011
203.9999999030268
1021
120.0000001323203
1031
0.0
1002
}
1002
{
1000
PORI
1011
149.9999999030268
1021
120.0000001323203
1031
0.0
1002
}
1002
{
1000
PINS
1011
149.9999999030268
1021
120.0000001323203
1031
0.0
1002
}
1002
{
1000
HVAL
1000
110
1002
}
1002
{
1000
H
1070
     2
1002
}
1002
{
1000
WVAL
1000
54
1002
}
1002
{
1000
W
1070
     2
1002
}
1002
{
1000
C
1070
     1
1002
}
1001
GENIUS_GENODEF_13
1002
{
1000
HIER
1070
     0
1002
}
1002
{
1000
MANEDIT
1070
     0
1002
}
1002
{
1000
NOSEL
1070
     0
1002
}
1002
{
1000
BEHIND
1070
     0
1002
}
1002
{
1000
REACTOR
1002
}
1001
GENIUS_GENOBJ-N-REC_13
1002
{
1000
OWNER
1000
GEN
1002
}
  0
ARC
  5
4F8
330
1F
100
AcDbEntity
  8
0
100
AcDbCircle
 10
201.4999999030268
 20
227.5000001323202
 30
0.0
 40
2.5
100
AcDbArc
 50
0.0
 51
90.0
1001
GENIUS_GENODEF_13
1002
{
1000
HIER
1070
     0
1002
}
1002
{
1000
MANEDIT
1070
     0
1002
}
1002
{
1000
NOSEL
1070
     0
1002
}
1002
{
1000
BEHIND
1070
     0
1002
}
1002
{
1000
REACTOR
1002
}
1001
GENIUS_GENOBJ-N-FIL_13
1002
{
1000
OWNER
1000
GEN
1002
}
  0
ELLIPSE
  5
4F9
330
1F
100
AcDbEntity
  8
0
100
AcDbEllipse
 10
32.35013925276921
 20
124.9392779340746
 30
0.0
 11
-1.241379310344757
 21
0.0
 31
0.0
210
0.0
220
0.0
230
1.0
 40
0.5833333335538831
 41
0.0
 42
6.283185307179584
  0
ELLIPSE
  5
4FA
330
1F
100
AcDbEntity
  8
0
100
AcDbEllipse
 10
32.35015916509328
 20
124.9392779340746
 30
0.0
 11
-0.6896750847377909
 21
0.0
 31
0.0
210
0.0
220
0.0
230
1.0
 40
0.7499783459728237
 41
0.0
 42
6.283185307179584
  0
ELLIPSE
  5
4FB
330
1F
100
AcDbEntity
  8
0
100
AcDbEllipse
 10
22.85011934044574
 20
124.9392779340746
 30
0.0
 11
-1.258640601979132
 21
0.0
 31
0.0
210
0.0
220
0.0
230
1.0
 40
0.5753333635477672
 41
3.859128061423156
 42
9.190159774811283
  0
ELLIPSE
  5
4FC
330
1F
100
AcDbEntity
  8
0
100
AcDbEllipse
 10
22.93619471487109
 20
124.9392779340746
 30
0.0
 11
0.7929918384734909
 21
0.0
 31
0.0
210
0.0
220
0.0
230
1.0
 40
0.652265703397408
 41
0.3314984999877911
 42
5.951686807191792
  0
LINE
  5
4FD
330
1F
100
AcDbEntity
  8
0
100
AcDbLine
 10
24.07427718380418
 20
125.6634158651091
 30
0.0
 11
23.79841511483868
 21
125.6634158651091
 31
0.0
  0
LINE
  5
4FE
330
1F
100
AcDbEntity
  8
0
100
AcDbLine
 10
24.07427718380418
 20
124.7709363952032
 30
0.0
 11
23.68601267022461
 21
124.7709363952032
 31
0.0
  0
LINE
  5
4FF
330
1F
100
AcDbEntity
  8
0
100
AcDbLine
 10
24.07427718380418
 20
125.1076194729461
 30
0.0
 11
23.68601267022461
 21
125.1076194729461
 31
0.0
  0
LINE
  5
500
330
1F
100
AcDbEntity
  8
0
100
AcDbLine
 10
23.79841511483868
 20
125.6634158651091
 30
0.0
 11
23.79841511483868
 21
125.4154201861789
 31
0.0
  0
LINE
  5
501
330
1F
100
AcDbEntity
  8
0
100
AcDbLine
 10
26.90186339070058
 20
125.6634158651091
 30
0.0
 11
25.79841511483858
 21
125.6634158651091
 31
0.0
  0
LINE
  5
502
330
1F
100
AcDbEntity
  8
0
100
AcDbLine
 10
26.90186339070058
 20
124.2151400030403
 30
0.0
 11
25.79841511483858
 21
124.2151400030403
 31
0.0
  0
LINE
  5
503
330
1F
100
AcDbEntity
  8
0
100
AcDbLine
 10
26.07427718380409
 20
125.4565193133849
 30
0.0
 11
25.79841511483858
 21
125.4565193133849
 31
0.0
  0
LINE
  5
504
330
1F
100
AcDbEntity
  8
0
100
AcDbLine
 10
25.79841511483858
 20
125.6634158651091
 30
0.0
 11
25.79841511483858
 21
125.4565193133849
 31
0.0
  0
LINE
  5
505
330
1F
100
AcDbEntity
  8
0
100
AcDbLine
 10
25.419104770011
 20
125.6634158651091
 30
0.0
 11
25.419104770011
 21
125.4565193133849
 31
0.0
  0
LINE
  5
506
330
1F
100
AcDbEntity
  8
0
100
AcDbLine
 10
25.419104770011
 20
125.4565193133849
 30
0.0
 11
25.14324270104551
 21
125.4565193133849
 31
0.0
  0
LINE
  5
507
330
1F
100
AcDbEntity
  8
0
100
AcDbLine
 10
25.79841511483858
 20
124.4220365547644
 30
0.0
 11
25.79841511483858
 21
124.2151400030403
 31
0.0
  0
LINE
  5
508
330
1F
100
AcDbEntity
  8
0
100
AcDbLine
 10
26.07427718380409
 20
124.4220365547644
 30
0.0
 11
25.79841511483858
 21
124.4220365547644
 31
0.0
  0
LINE
  5
509
330
1F
100
AcDbEntity
  8
0
100
AcDbLine
 10
26.07427718380409
 20
124.8185882789022
 30
0.0
 11
26.07427718380409
 21
124.4220365547644
 31
0.0
  0
LINE
  5
50A
330
1F
100
AcDbEntity
  8
0
100
AcDbLine
 10
25.419104770011
 20
124.4220365547644
 30
0.0
 11
25.419104770011
 21
124.2151400030403
 31
0.0
  0
LINE
  5
50B
330
1F
100
AcDbEntity
  8
0
100
AcDbLine
 10
25.419104770011
 20
124.4220365547644
 30
0.0
 11
25.14324270104551
 21
124.4220365547644
 31
0.0
  0
LINE
  5
50C
330
1F
100
AcDbEntity
  8
0
100
AcDbLine
 10
25.14324270104551
 20
124.8185882789022
 30
0.0
 11
25.14324270104551
 21
124.4220365547644
 31
0.0
  0
LINE
  5
50D
330
1F
100
AcDbEntity
  8
0
100
AcDbLine
 10
25.14324270104551
 20
125.0599675892471
 30
0.0
 11
26.07427718380409
 21
125.0599675892471
 31
0.0
  0
LINE
  5
50E
330
1F
100
AcDbEntity
  8
0
100
AcDbLine
 10
25.14324270104551
 20
124.8185882789022
 30
0.0
 11
26.07427718380409
 21
124.8185882789022
 31
0.0
  0
LINE
  5
50F
330
1F
100
AcDbEntity
  8
0
100
AcDbLine
 10
26.07427718380409
 20
125.4565193133849
 30
0.0
 11
26.07427718380409
 21
125.0599675892471
 31
0.0
  0
LINE
  5
510
330
1F
100
AcDbEntity
  8
0
100
AcDbLine
 10
25.14324270104551
 20
125.4565193133849
 30
0.0
 11
25.14324270104551
 21
125.0599675892471
 31
0.0
  0
LINE
  5
511
330
1F
100
AcDbEntity
  8
0
100
AcDbLine
 10
24.5915185631145
 20
125.4565193133849
 30
0.0
 11
24.31565649414901
 21
125.4565193133849
 31
0.0
  0
LINE
  5
512
330
1F
100
AcDbEntity
  8
0
100
AcDbLine
 10
24.31565649414901
 20
125.6634158651091
 30
0.0
 11
24.31565649414901
 21
125.4565193133849
 31
0.0
  0
LINE
  5
513
330
1F
100
AcDbEntity
  8
0
100
AcDbLine
 10
24.31565649414901
 20
124.4220365547644
 30
0.0
 11
24.31565649414901
 21
124.2151400030403
 31
0.0
  0
LINE
  5
514
330
1F
100
AcDbEntity
  8
0
100
AcDbLine
 10
24.5915185631145
 20
124.4220365547644
 30
0.0
 11
24.31565649414901
 21
124.4220365547644
 31
0.0
  0
LINE
  5
515
330
1F
100
AcDbEntity
  8
0
100
AcDbLine
 10
24.5915185631145
 20
125.4565193133849
 30
0.0
 11
24.5915185631145
 21
124.4220365547644
 31
0.0
  0
LINE
  5
516
330
1F
100
AcDbEntity
  8
0
100
AcDbLine
 10
24.07427718380418
 20
125.6634158651091
 30
0.0
 11
24.07427718380418
 21
125.1076194729461
 31
0.0
  0
LINE
  5
517
330
1F
100
AcDbEntity
  8
0
100
AcDbLine
 10
25.419104770011
 20
124.2151400030403
 30
0.0
 11
24.31565649414901
 21
124.2151400030403
 31
0.0
  0
LINE
  5
518
330
1F
100
AcDbEntity
  8
0
100
AcDbLine
 10
25.419104770011
 20
125.6634158651091
 30
0.0
 11
24.31565649414901
 21
125.6634158651091
 31
0.0
  0
LINE
  5
519
330
1F
100
AcDbEntity
  8
0
100
AcDbLine
 10
28.28117373552811
 20
125.4565193133849
 30
0.0
 11
28.00531166656258
 21
125.4565193133849
 31
0.0
  0
LINE
  5
51A
330
1F
100
AcDbEntity
  8
0
100
AcDbLine
 10
28.28117373552811
 20
125.6634158651091
 30
0.0
 11
28.28117373552811
 21
125.4565193133849
 31
0.0
  0
LINE
  5
51B
330
1F
100
AcDbEntity
  8
0
100
AcDbLine
 10
27.17772545966608
 20
125.6634158651091
 30
0.0
 11
27.17772545966608
 21
125.4565193133849
 31
0.0
  0
LINE
  5
51C
330
1F
100
AcDbEntity
  8
0
100
AcDbLine
 10
26.90186339070058
 20
125.6634158651091
 30
0.0
 11
26.90186339070058
 21
125.4565193133849
 31
0.0
  0
LINE
  5
51D
330
1F
100
AcDbEntity
  8
0
100
AcDbLine
 10
27.45358752863159
 20
125.4565193133849
 30
0.0
 11
27.17772545966608
 21
125.4565193133849
 31
0.0
  0
LINE
  5
51E
330
1F
100
AcDbEntity
  8
0
100
AcDbLine
 10
28.28117373552811
 20
125.6634158651091
 30
0.0
 11
27.17772545966608
 21
125.6634158651091
 31
0.0
  0
LINE
  5
51F
330
1F
100
AcDbEntity
  8
0
100
AcDbLine
 10
26.90186339070058
 20
125.4565193133849
 30
0.0
 11
26.62600132173509
 21
125.4565193133849
 31
0.0
  0
LINE
  5
520
330
1F
100
AcDbEntity
  8
0
100
AcDbLine
 10
28.28117373552811
 20
124.4220365547644
 30
0.0
 11
28.28117373552811
 21
124.2151400030403
 31
0.0
  0
LINE
  5
521
330
1F
100
AcDbEntity
  8
0
100
AcDbLine
 10
28.28117373552811
 20
124.4220365547644
 30
0.0
 11
28.00531166656259
 21
124.4220365547644
 31
0.0
  0
LINE
  5
522
330
1F
100
AcDbEntity
  8
0
100
AcDbLine
 10
27.17772545966608
 20
124.4220365547644
 30
0.0
 11
27.17772545966608
 21
124.2151400030403
 31
0.0
  0
LINE
  5
523
330
1F
100
AcDbEntity
  8
0
100
AcDbLine
 10
26.90186339070058
 20
124.4220365547644
 30
0.0
 11
26.90186339070058
 21
124.2151400030403
 31
0.0
  0
LINE
  5
524
330
1F
100
AcDbEntity
  8
0
100
AcDbLine
 10
27.45358752863159
 20
124.4220365547644
 30
0.0
 11
27.17772545966608
 21
124.4220365547644
 31
0.0
  0
LINE
  5
525
330
1F
100
AcDbEntity
  8
0
100
AcDbLine
 10
28.28117373552811
 20
124.2151400030403
 30
0.0
 11
27.17772545966608
 21
124.2151400030403
 31
0.0
  0
LINE
  5
526
330
1F
100
AcDbEntity
  8
0
100
AcDbLine
 10
26.90186339070058
 20
124.4220365547644
 30
0.0
 11
26.62600132173509
 21
124.4220365547644
 31
0.0
  0
LINE
  5
527
330
1F
100
AcDbEntity
  8
0
100
AcDbLine
 10
28.00531166656258
 20
125.4565193133849
 30
0.0
 11
28.00531166656259
 21
124.4220365547644
 31
0.0
  0
LINE
  5
528
330
1F
100
AcDbEntity
  8
0
100
AcDbLine
 10
27.45358752863159
 20
125.4565193133849
 30
0.0
 11
27.45358752863159
 21
124.4220365547644
 31
0.0
  0
LINE
  5
529
330
1F
100
AcDbEntity
  8
0
100
AcDbLine
 10
26.62600132173509
 20
125.4565193133849
 30
0.0
 11
26.62600132173509
 21
124.4220365547644
 31
0.0
  0
LINE
  5
52A
330
1F
100
AcDbEntity
  8
0
100
AcDbLine
 10
31.03979442518311
 20
125.6634158651091
 30
0.0
 11
30.17772545966591
 21
125.6634158651091
 31
0.0
  0
LINE
  5
52B
330
1F
100
AcDbEntity
  8
0
100
AcDbLine
 10
30.76393235621762
 20
124.2151400030403
 30
0.0
 11
30.18465684334788
 21
124.2151400030403
 31
0.0
  0
LINE
  5
52C
330
1F
100
AcDbEntity
  8
0
100
AcDbLine
 10
30.17772545966591
 20
125.6634158651091
 30
0.0
 11
30.17772545966591
 21
125.4565193133849
 31
0.0
  0
LINE
  5
52D
330
1F
100
AcDbEntity
  8
0
100
AcDbLine
 10
30.4535875286314
 20
125.4565193133849
 30
0.0
 11
30.17772545966591
 21
125.4565193133849
 31
0.0
  0
LINE
  5
52E
330
1F
100
AcDbEntity
  8
0
100
AcDbLine
 10
28.83289787345909
 20
125.4565193133849
 30
0.0
 11
28.55703580449358
 21
125.4565193133849
 31
0.0
  0
LINE
  5
52F
330
1F
100
AcDbEntity
  8
0
100
AcDbLine
 10
28.55703580449358
 20
125.6634158651091
 30
0.0
 11
28.55703580449358
 21
125.4565193133849
 31
0.0
  0
LINE
  5
530
330
1F
100
AcDbEntity
  8
0
100
AcDbLine
 10
29.41910477001079
 20
125.6634158651091
 30
0.0
 11
28.55703580449358
 21
125.6634158651091
 31
0.0
  0
LINE
  5
531
330
1F
100
AcDbEntity
  8
0
100
AcDbLine
 10
29.41910477001079
 20
124.4220365547644
 30
0.0
 11
29.41910477001079
 21
124.2151400030403
 31
0.0
  0
LINE
  5
532
330
1F
100
AcDbEntity
  8
0
100
AcDbLine
 10
29.14324270104528
 20
124.4220365547644
 30
0.0
 11
29.41910477001079
 21
124.4220365547644
 31
0.0
  0
LINE
  5
533
330
1F
100
AcDbEntity
  8
0
100
AcDbLine
 10
28.55703580449358
 20
124.4220365547644
 30
0.0
 11
28.55703580449358
 21
124.2151400030403
 31
0.0
  0
LINE
  5
534
330
1F
100
AcDbEntity
  8
0
100
AcDbLine
 10
28.83289787345911
 20
124.4220365547644
 30
0.0
 11
28.55703580449358
 21
124.4220365547644
 31
0.0
  0
LINE
  5
535
330
1F
100
AcDbEntity
  8
0
100
AcDbLine
 10
29.41910477001079
 20
124.2151400030403
 30
0.0
 11
28.55703580449358
 21
124.2151400030403
 31
0.0
  0
LINE
  5
536
330
1F
100
AcDbEntity
  8
0
100
AcDbLine
 10
28.83289787345911
 20
125.4565193133849
 30
0.0
 11
28.83289787345911
 21
124.4220365547644
 31
0.0
  0
LINE
  5
537
330
1F
100
AcDbEntity
  8
0
100
AcDbLine
 10
29.14324270104528
 20
125.2565541453428
 30
0.0
 11
29.14324270104528
 21
124.4220365547644
 31
0.0
  0
LINE
  5
538
330
1F
100
AcDbEntity
  8
0
100
AcDbLine
 10
29.41910477001079
 20
125.6634158651091
 30
0.0
 11
30.45358752863143
 21
124.6289331064885
 31
0.0
  0
LINE
  5
539
330
1F
100
AcDbEntity
  8
0
100
AcDbLine
 10
29.14324270104528
 20
125.2565541453428
 30
0.0
 11
30.18465684334788
 21
124.2151400030403
 31
0.0
  0
LINE
  5
53A
330
1F
100
AcDbEntity
  8
0
100
AcDbLine
 10
30.4535875286314
 20
125.4565193133849
 30
0.0
 11
30.45358752863143
 21
124.6289331064885
 31
0.0
  0
LINE
  5
53B
330
1F
100
AcDbEntity
  8
0
100
AcDbLine
 10
31.03979442518311
 20
125.6634158651091
 30
0.0
 11
31.03979442518311
 21
125.4565193133849
 31
0.0
  0
LINE
  5
53C
330
1F
100
AcDbEntity
  8
0
100
AcDbLine
 10
31.03979442518312
 20
125.4565193133849
 30
0.0
 11
30.76393235621762
 21
125.4565193133849
 31
0.0
  0
LINE
  5
53D
330
1F
100
AcDbEntity
  8
0
100
AcDbLine
 10
30.76393235621761
 20
125.4565193133849
 30
0.0
 11
30.76393235621762
 21
124.2151400030403
 31
0.0
  0
ARC
  5
53E
330
1F
100
AcDbEntity
  8
0
370
    25
100
AcDbCircle
 10
201.5999999030267
 20
158.5000001323201
 30
0.0
 40
2.0
100
AcDbArc
 50
90.0
 51
270.0
  0
ARC
  5
53F
330
1F
100
AcDbEntity
  8
0
370
    25
100
AcDbCircle
 10
198.1999999030266
 20
158.5000001323201
 30
0.0
 40
2.0
100
AcDbArc
 50
90.0
 51
270.0
  0
ARC
  5
540
330
1F
100
AcDbEntity
  8
0
370
    25
100
AcDbCircle
 10
198.1999999030266
 20
158.5000001323201
 30
0.0
 40
1.399999999999999
100
AcDbArc
 50
90.0
 51
270.0
  0
LINE
  5
541
330
1F
100
AcDbEntity
  8
0
370
    25
100
AcDbLine
 10
198.1999999030266
 20
160.5000001323201
 30
0.0
 11
198.1999999030266
 21
159.9000001323201
 31
0.0
  0
LINE
  5
542
330
1F
100
AcDbEntity
  8
0
370
    25
100
AcDbLine
 10
198.1999999030266
 20
157.1000001323201
 30
0.0
 11
198.1999999030266
 21
156.5000001323201
 31
0.0
  0
ARC
  5
543
330
1F
100
AcDbEntity
  8
0
370
    25
100
AcDbCircle
 10
201.5999999030267
 20
158.5000001323201
 30
0.0
 40
1.399999999999999
100
AcDbArc
 50
90.0
 51
167.6263749999993
  0
ARC
  5
544
330
1F
100
AcDbEntity
  8
0
370
    25
100
AcDbCircle
 10
201.5999999030267
 20
158.5000001323201
 30
0.0
 40
1.399999999999999
100
AcDbArc
 50
192.3736250000007
 51
270.0
  0
LINE
  5
545
330
1F
100
AcDbEntity
  8
0
370
    25
100
AcDbLine
 10
201.1999994030265
 20
158.8000001323201
 30
0.0
 11
200.2325204030267
 21
158.8000001323201
 31
0.0
  0
LINE
  5
546
330
1F
100
AcDbEntity
  8
0
370
    25
100
AcDbLine
 10
201.1999994030265
 20
158.2000001323202
 30
0.0
 11
200.2325204030267
 21
158.2000001323202
 31
0.0
  0
LINE
  5
547
330
1F
100
AcDbEntity
  8
0
370
    25
100
AcDbLine
 10
201.1999994030265
 20
158.8000001323201
 30
0.0
 11
201.1999994030265
 21
158.2000001323202
 31
0.0
  0
LINE
  5
548
330
1F
100
AcDbEntity
  8
0
370
    25
100
AcDbLine
 10
201.5999999030267
 20
160.5000001323201
 30
0.0
 11
201.5999999030267
 21
159.9000001323201
 31
0.0
  0
LINE
  5
549
330
1F
100
AcDbEntity
  8
0
370
    25
100
AcDbLine
 10
201.5999999030267
 20
157.1000001323201
 30
0.0
 11
201.5999999030267
 21
156.5000001323201
 31
0.0
  0
LINE
  5
54A
330
1F
100
AcDbEntity
  8
0
100
AcDbLine
 10
3.249999903026718
 20
185.4000001323204
 30
0.0
 11
15.74999990302672
 21
185.4000001323203
 31
0.0
  0
LINE
  5
54B
330
1F
100
AcDbEntity
  8
0
100
AcDbLine
 10
3.249999903026718
 20
176.4000001323203
 30
0.0
 11
15.74999990302672
 21
176.4000001323203
 31
0.0
  0
LINE
  5
54C
330
1F
100
AcDbEntity
  8
0
100
AcDbLine
 10
2.749999903026719
 20
184.9000001323204
 30
0.0
 11
2.749999903026719
 21
176.9000001323203
 31
0.0
1001
GENIUS_GENODEF_13
1002
{
1000
HIER
1070
     0
1002
}
1002
{
1000
MANEDIT
1070
     0
1002
}
1002
{
1000
NOSEL
1070
     0
1002
}
1002
{
1000
BEHIND
1070
     0
1002
}
1002
{
1000
REACTOR
1002
}
1001
GENIUS_GENOBJ-N-CEN_13
1002
{
1000
OWNER
1000
GEN
1002
}
  0
ARC
  5
54D
330
1F
100
AcDbEntity
  8
0
100
AcDbCircle
 10
3.249999903026718
 20
176.9000001323203
 30
0.0
 40
0.5
100
AcDbArc
 50
180.0
 51
270.0
1001
GENIUS_GENODEF_13
1002
{
1000
HIER
1070
     0
1002
}
1002
{
1000
MANEDIT
1070
     0
1002
}
1002
{
1000
NOSEL
1070
     0
1002
}
1002
{
1000
BEHIND
1070
     0
1002
}
1002
{
1000
REACTOR
1002
}
1001
GENIUS_GENOBJ-N-FIL_13
1002
{
1000
OWNER
1000
GEN
1002
}
  0
ARC
  5
54E
330
1F
100
AcDbEntity
  8
0
100
AcDbCircle
 10
3.249999903026718
 20
184.9000001323204
 30
0.0
 40
0.5
100
AcDbArc
 50
89.99999999999673
 51
180.0
1001
GENIUS_GENODEF_13
1002
{
1000
HIER
1070
     0
1002
}
1002
{
1000
MANEDIT
1070
     0
1002
}
1002
{
1000
NOSEL
1070
     0
1002
}
1002
{
1000
BEHIND
1070
     0
1002
}
1002
{
1000
REACTOR
1002
}
1001
GENIUS_GENOBJ-N-FIL_13
1002
{
1000
OWNER
1000
GEN
1002
}
  0
LINE
  5
54F
330
1F
100
AcDbEntity
  8
0
100
AcDbLine
 10
16.24999990302672
 20
184.9000001323203
 30
0.0
 11
16.24999990302672
 21
176.9000001323203
 31
0.0
1001
GENIUS_GENODEF_13
1002
{
1000
HIER
1070
     0
1002
}
1002
{
1000
MANEDIT
1070
     0
1002
}
1002
{
1000
NOSEL
1070
     0
1002
}
1002
{
1000
BEHIND
1070
     0
1002
}
1002
{
1000
REACTOR
1002
}
1001
GENIUS_GENOBJ-N-CEN_13
1002
{
1000
OWNER
1000
GEN
1002
}
  0
ARC
  5
550
330
1F
100
AcDbEntity
  8
0
100
AcDbCircle
 10
15.74999990302672
 20
176.9000001323203
 30
0.0
 40
0.5
100
AcDbArc
 50
270.0
 51
0.0
1001
GENIUS_GENODEF_13
1002
{
1000
HIER
1070
     0
1002
}
1002
{
1000
MANEDIT
1070
     0
1002
}
1002
{
1000
NOSEL
1070
     0
1002
}
1002
{
1000
BEHIND
1070
     0
1002
}
1002
{
1000
REACTOR
1002
}
1001
GENIUS_GENOBJ-N-FIL_13
1002
{
1000
OWNER
1000
GEN
1002
}
  0
ARC
  5
551
330
1F
100
AcDbEntity
  8
0
100
AcDbCircle
 10
15.74999990302672
 20
184.9000001323203
 30
0.0
 40
0.5
100
AcDbArc
 50
0.0
 51
89.99999999999673
1001
GENIUS_GENODEF_13
1002
{
1000
HIER
1070
     0
1002
}
1002
{
1000
MANEDIT
1070
     0
1002
}
1002
{
1000
NOSEL
1070
     0
1002
}
1002
{
1000
BEHIND
1070
     0
1002
}
1002
{
1000
REACTOR
1002
}
1001
GENIUS_GENOBJ-N-FIL_13
1002
{
1000
OWNER
1000
GEN
1002
}
  0
ARC
  5
554
330
1F
100
AcDbEntity
  8
0
100
AcDbCircle
 10
33.24999990302672
 20
184.9000001323203
 30
0.0
 40
0.5
100
AcDbArc
 50
0.0
 51
89.99999999999673
1001
GENIUS_GENODEF_13
1002
{
1000
HIER
1070
     0
1002
}
1002
{
1000
MANEDIT
1070
     0
1002
}
1002
{
1000
NOSEL
1070
     0
1002
}
1002
{
1000
BEHIND
1070
     0
1002
}
1002
{
1000
REACTOR
1002
}
1001
GENIUS_GENOBJ-N-FIL_13
1002
{
1000
OWNER
1000
GEN
1002
}
  0
ARC
  5
555
330
1F
100
AcDbEntity
  8
0
100
AcDbCircle
 10
33.24999990302672
 20
176.9000001323203
 30
0.0
 40
0.5
100
AcDbArc
 50
270.0
 51
0.0
1001
GENIUS_GENODEF_13
1002
{
1000
HIER
1070
     0
1002
}
1002
{
1000
MANEDIT
1070
     0
1002
}
1002
{
1000
NOSEL
1070
     0
1002
}
1002
{
1000
BEHIND
1070
     0
1002
}
1002
{
1000
REACTOR
1002
}
1001
GENIUS_GENOBJ-N-FIL_13
1002
{
1000
OWNER
1000
GEN
1002
}
  0
LINE
  5
556
330
1F
100
AcDbEntity
  8
0
100
AcDbLine
 10
33.74999990302672
 20
184.9000001323203
 30
0.0
 11
33.74999990302672
 21
176.9000001323203
 31
0.0
1001
GENIUS_GENODEF_13
1002
{
1000
HIER
1070
     0
1002
}
1002
{
1000
MANEDIT
1070
     0
1002
}
1002
{
1000
NOSEL
1070
     0
1002
}
1002
{
1000
BEHIND
1070
     0
1002
}
1002
{
1000
REACTOR
1002
}
1001
GENIUS_GENOBJ-N-CEN_13
1002
{
1000
OWNER
1000
GEN
1002
}
  0
ARC
  5
557
330
1F
100
AcDbEntity
  8
0
100
AcDbCircle
 10
20.74999990302672
 20
184.9000001323204
 30
0.0
 40
0.5
100
AcDbArc
 50
89.99999999999673
 51
180.0
1001
GENIUS_GENODEF_13
1002
{
1000
HIER
1070
     0
1002
}
1002
{
1000
MANEDIT
1070
     0
1002
}
1002
{
1000
NOSEL
1070
     0
1002
}
1002
{
1000
BEHIND
1070
     0
1002
}
1002
{
1000
REACTOR
1002
}
1001
GENIUS_GENOBJ-N-FIL_13
1002
{
1000
OWNER
1000
GEN
1002
}
  0
ARC
  5
558
330
1F
100
AcDbEntity
  8
0
100
AcDbCircle
 10
20.74999990302672
 20
176.9000001323203
 30
0.0
 40
0.5
100
AcDbArc
 50
180.0
 51
270.0
1001
GENIUS_GENODEF_13
1002
{
1000
HIER
1070
     0
1002
}
1002
{
1000
MANEDIT
1070
     0
1002
}
1002
{
1000
NOSEL
1070
     0
1002
}
1002
{
1000
BEHIND
1070
     0
1002
}
1002
{
1000
REACTOR
1002
}
1001
GENIUS_GENOBJ-N-FIL_13
1002
{
1000
OWNER
1000
GEN
1002
}
  0
LINE
  5
559
330
1F
100
AcDbEntity
  8
0
100
AcDbLine
 10
20.24999990302672
 20
184.9000001323204
 30
0.0
 11
20.24999990302672
 21
176.9000001323203
 31
0.0
1001
GENIUS_GENODEF_13
1002
{
1000
HIER
1070
     0
1002
}
1002
{
1000
MANEDIT
1070
     0
1002
}
1002
{
1000
NOSEL
1070
     0
1002
}
1002
{
1000
BEHIND
1070
     0
1002
}
1002
{
1000
REACTOR
1002
}
1001
GENIUS_GENOBJ-N-CEN_13
1002
{
1000
OWNER
1000
GEN
1002
}
  0
LINE
  5
55A
330
1F
100
AcDbEntity
  8
0
100
AcDbLine
 10
20.74999990302672
 20
176.4000001323203
 30
0.0
 11
33.24999990302672
 21
176.4000001323203
 31
0.0
  0
LINE
  5
55B
330
1F
100
AcDbEntity
  8
0
100
AcDbLine
 10
20.74999990302672
 20
185.4000001323204
 30
0.0
 11
33.24999990302672
 21
185.4000001323203
 31
0.0
  0
LINE
  5
55C
330
1F
100
AcDbEntity
  8
0
100
AcDbLine
 10
38.24999990302672
 20
185.4000001323204
 30
0.0
 11
50.74999990302671
 21
185.4000001323203
 31
0.0
  0
LINE
  5
55D
330
1F
100
AcDbEntity
  8
0
100
AcDbLine
 10
38.24999990302672
 20
176.4000001323203
 30
0.0
 11
50.74999990302671
 21
176.4000001323203
 31
0.0
  0
LINE
  5
55E
330
1F
100
AcDbEntity
  8
0
100
AcDbLine
 10
37.74999990302672
 20
184.9000001323204
 30
0.0
 11
37.74999990302672
 21
176.9000001323203
 31
0.0
1001
GENIUS_GENODEF_13
1002
{
1000
HIER
1070
     0
1002
}
1002
{
1000
MANEDIT
1070
     0
1002
}
1002
{
1000
NOSEL
1070
     0
1002
}
1002
{
1000
BEHIND
1070
     0
1002
}
1002
{
1000
REACTOR
1002
}
1001
GENIUS_GENOBJ-N-CEN_13
1002
{
1000
OWNER
1000
GEN
1002
}
  0
ARC
  5
55F
330
1F
100
AcDbEntity
  8
0
100
AcDbCircle
 10
38.24999990302672
 20
176.9000001323203
 30
0.0
 40
0.5
100
AcDbArc
 50
180.0
 51
270.0
1001
GENIUS_GENODEF_13
1002
{
1000
HIER
1070
     0
1002
}
1002
{
1000
MANEDIT
1070
     0
1002
}
1002
{
1000
NOSEL
1070
     0
1002
}
1002
{
1000
BEHIND
1070
     0
1002
}
1002
{
1000
REACTOR
1002
}
1001
GENIUS_GENOBJ-N-FIL_13
1002
{
1000
OWNER
1000
GEN
1002
}
  0
ARC
  5
560
330
1F
100
AcDbEntity
  8
0
100
AcDbCircle
 10
38.24999990302672
 20
184.9000001323204
 30
0.0
 40
0.5
100
AcDbArc
 50
89.99999999999673
 51
180.0
1001
GENIUS_GENODEF_13
1002
{
1000
HIER
1070
     0
1002
}
1002
{
1000
MANEDIT
1070
     0
1002
}
1002
{
1000
NOSEL
1070
     0
1002
}
1002
{
1000
BEHIND
1070
     0
1002
}
1002
{
1000
REACTOR
1002
}
1001
GENIUS_GENOBJ-N-FIL_13
1002
{
1000
OWNER
1000
GEN
1002
}
  0
LINE
  5
561
330
1F
100
AcDbEntity
  8
0
100
AcDbLine
 10
51.24999990302671
 20
184.9000001323203
 30
0.0
 11
51.24999990302671
 21
176.9000001323203
 31
0.0
1001
GENIUS_GENODEF_13
1002
{
1000
HIER
1070
     0
1002
}
1002
{
1000
MANEDIT
1070
     0
1002
}
1002
{
1000
NOSEL
1070
     0
1002
}
1002
{
1000
BEHIND
1070
     0
1002
}
1002
{
1000
REACTOR
1002
}
1001
GENIUS_GENOBJ-N-CEN_13
1002
{
1000
OWNER
1000
GEN
1002
}
  0
ARC
  5
562
330
1F
100
AcDbEntity
  8
0
100
AcDbCircle
 10
50.74999990302671
 20
176.9000001323203
 30
0.0
 40
0.5
100
AcDbArc
 50
270.0
 51
0.0
1001
GENIUS_GENODEF_13
1002
{
1000
HIER
1070
     0
1002
}
1002
{
1000
MANEDIT
1070
     0
1002
}
1002
{
1000
NOSEL
1070
     0
1002
}
1002
{
1000
BEHIND
1070
     0
1002
}
1002
{
1000
REACTOR
1002
}
1001
GENIUS_GENOBJ-N-FIL_13
1002
{
1000
OWNER
1000
GEN
1002
}
  0
ARC
  5
563
330
1F
100
AcDbEntity
  8
0
100
AcDbCircle
 10
50.74999990302671
 20
184.9000001323203
 30
0.0
 40
0.5
100
AcDbArc
 50
0.0
 51
89.99999999999673
1001
GENIUS_GENODEF_13
1002
{
1000
HIER
1070
     0
1002
}
1002
{
1000
MANEDIT
1070
     0
1002
}
1002
{
1000
NOSEL
1070
     0
1002
}
1002
{
1000
BEHIND
1070
     0
1002
}
1002
{
1000
REACTOR
1002
}
1001
GENIUS_GENOBJ-N-FIL_13
1002
{
1000
OWNER
1000
GEN
1002
}
  0
LINE
  5
564
330
1F
100
AcDbEntity
  8
0
100
AcDbLine
 10
41.69999990302659
 20
161.0000001323203
 30
0.0
 11
47.29999990302661
 21
161.0000001323203
 31
0.0
  0
ARC
  5
565
330
1F
100
AcDbEntity
  8
0
100
AcDbCircle
 10
44.49999990302671
 20
167.8000001323203
 30
0.0
 40
0.2
100
AcDbArc
 50
22.98871680208154
 51
157.0112831979184
  0
ARC
  5
566
330
1F
100
AcDbEntity
  8
0
100
AcDbCircle
 10
47.29999990302661
 20
161.2000001323203
 30
0.0
 40
0.2
100
AcDbArc
 50
270.0
 51
22.98871680208154
  0
ARC
  5
567
330
1F
100
AcDbEntity
  8
0
100
AcDbCircle
 10
41.69999990302659
 20
161.2000001323203
 30
0.0
 40
0.2
100
AcDbArc
 50
157.0112831979184
 51
270.0
  0
LINE
  5
568
330
1F
100
AcDbEntity
  8
0
100
AcDbLine
 10
44.68411625940172
 20
167.8781101016914
 30
0.0
 11
47.48411625940172
 21
161.2781101016915
 31
0.0
  0
LINE
  5
569
330
1F
100
AcDbEntity
  8
0
100
AcDbLine
 10
44.3158835466516
 20
167.8781101016914
 30
0.0
 11
41.51588354665165
 21
161.2781101016915
 31
0.0
  0
LINE
  5
56A
330
1F
100
AcDbEntity
  8
0
100
AcDbLine
 10
44.3158835466516
 20
141.4218901629491
 30
0.0
 11
41.51588354665165
 21
148.0218901629491
 31
0.0
  0
LINE
  5
56B
330
1F
100
AcDbEntity
  8
0
100
AcDbLine
 10
44.68411625940172
 20
141.4218901629491
 30
0.0
 11
47.48411625940172
 21
148.021890162949
 31
0.0
  0
ARC
  5
56C
330
1F
100
AcDbEntity
  8
0
100
AcDbCircle
 10
41.69999990302659
 20
148.1000001323204
 30
0.0
 40
0.2
100
AcDbArc
 50
90.0
 51
202.9887168020815
  0
ARC
  5
56D
330
1F
100
AcDbEntity
  8
0
100
AcDbCircle
 10
47.29999990302661
 20
148.1000001323203
 30
0.0
 40
0.2
100
AcDbArc
 50
337.0112831979184
 51
90.0
  0
ARC
  5
56E
330
1F
100
AcDbEntity
  8
0
100
AcDbCircle
 10
44.49999990302671
 20
141.5000001323203
 30
0.0
 40
0.2
100
AcDbArc
 50
202.9887168020815
 51
337.0112831979184
  0
LINE
  5
56F
330
1F
100
AcDbEntity
  8
0
100
AcDbLine
 10
41.69999990302659
 20
148.3000001323203
 30
0.0
 11
47.29999990302661
 21
148.3000001323203
 31
0.0
  0
LINE
  5
570
330
1F
100
AcDbEntity
  8
0
100
AcDbLine
 10
22.99999990302672
 20
183.6500001323203
 30
0.0
 11
30.99999990302683
 21
183.6500001323203
 31
0.0
  0
ARC
  5
571
330
1F
100
AcDbEntity
  8
0
100
AcDbCircle
 10
30.99999990302683
 20
183.4000001323203
 30
0.0
 40
0.25
100
AcDbArc
 50
359.9999999999968
 51
90.0
1001
GENIUS_GENODEF_13
1002
{
1000
HIER
1070
     0
1002
}
1002
{
1000
MANEDIT
1070
     0
1002
}
1002
{
1000
NOSEL
1070
     0
1002
}
1002
{
1000
BEHIND
1070
     0
1002
}
1002
{
1000
OTHER
1070
     0
1002
}
1002
{
1000
REACTOR
1002
}
1001
GENIUS_GENOBJ-N-FIL_13
1002
{
1000
OWNER
1000
GEN
1002
}
  0
LINE
  5
572
330
1F
100
AcDbEntity
  8
0
100
AcDbLine
 10
31.24999990302683
 20
183.4000001323203
 30
0.0
 11
31.24999990302649
 21
178.4000001323203
 31
0.0
1001
GENIUS_GENODEF_13
1002
{
1000
HIER
1070
     0
1002
}
1002
{
1000
MANEDIT
1070
     0
1002
}
1002
{
1000
NOSEL
1070
     0
1002
}
1002
{
1000
BEHIND
1070
     0
1002
}
1002
{
1000
REACTOR
1002
}
1001
GENIUS_GENOBJ-N-CEN_13
1002
{
1000
OWNER
1000
GEN
1002
}
  0
ARC
  5
573
330
1F
100
AcDbEntity
  8
0
100
AcDbCircle
 10
30.99999990302649
 20
178.4000001323203
 30
0.0
 40
0.25
100
AcDbArc
 50
270.0
 51
0.0
1001
GENIUS_GENOBJ-N-CEN_13
1002
{
1000
OWNER
1000
GEN
1002
}
1001
GENIUS_GENOBJ-N-FIL_13
1002
{
1000
OWNER
1000
GEN
1002
}
1001
GENIUS_GENODEF_13
1002
{
1000
HIER
1070
     0
1002
}
1002
{
1000
MANEDIT
1070
     0
1002
}
1002
{
1000
NOSEL
1070
     0
1002
}
1002
{
1000
BEHIND
1070
     0
1002
}
1002
{
1000
OTHER
1070
     0
1002
}
1002
{
1000
REACTOR
1002
}
  0
LINE
  5
574
330
1F
100
AcDbEntity
  8
0
100
AcDbLine
 10
22.99999990302672
 20
178.1500001323203
 30
0.0
 11
30.99999990302649
 21
178.1500001323203
 31
0.0
  0
ARC
  5
575
330
1F
100
AcDbEntity
  8
0
100
AcDbCircle
 10
22.99999990302672
 20
178.4000001323203
 30
0.0
 40
0.25
100
AcDbArc
 50
180.0
 51
270.0
1001
GENIUS_GENODEF_13
1002
{
1000
HIER
1070
     0
1002
}
1002
{
1000
MANEDIT
1070
     0
1002
}
1002
{
1000
NOSEL
1070
     0
1002
}
1002
{
1000
BEHIND
1070
     0
1002
}
1002
{
1000
OTHER
1070
     0
1002
}
1002
{
1000
REACTOR
1002
}
1001
GENIUS_GENOBJ-N-FIL_13
1002
{
1000
OWNER
1000
GEN
1002
}
  0
LINE
  5
576
330
1F
100
AcDbEntity
  8
0
100
AcDbLine
 10
22.74999990302672
 20
183.4000001323203
 30
0.0
 11
22.74999990302672
 21
178.4000001323203
 31
0.0
1001
GENIUS_GENODEF_13
1002
{
1000
HIER
1070
     0
1002
}
1002
{
1000
MANEDIT
1070
     0
1002
}
1002
{
1000
NOSEL
1070
     0
1002
}
1002
{
1000
BEHIND
1070
     0
1002
}
1002
{
1000
REACTOR
1002
}
1001
GENIUS_GENOBJ-N-CEN_13
1002
{
1000
OWNER
1000
GEN
1002
}
  0
ARC
  5
577
330
1F
100
AcDbEntity
  8
0
100
AcDbCircle
 10
22.99999990302672
 20
183.4000001323203
 30
0.0
 40
0.25
100
AcDbArc
 50
90.0
 51
180.0
1001
GENIUS_GENOBJ-N-CEN_13
1002
{
1000
OWNER
1000
GEN
1002
}
1001
GENIUS_GENOBJ-N-FIL_13
1002
{
1000
OWNER
1000
GEN
1002
}
1001
GENIUS_GENODEF_13
1002
{
1000
HIER
1070
     0
1002
}
1002
{
1000
MANEDIT
1070
     0
1002
}
1002
{
1000
NOSEL
1070
     0
1002
}
1002
{
1000
BEHIND
1070
     0
1002
}
1002
{
1000
OTHER
1070
     0
1002
}
1002
{
1000
REACTOR
1002
}
  0
LINE
  5
578
330
1F
100
AcDbEntity
  8
0
100
AcDbLine
 10
22.99999990302672
 20
183.6500001323203
 30
0.0
 11
30.99999990302683
 21
183.6500001323203
 31
0.0
  0
LINE
  5
579
330
1F
100
AcDbEntity
  8
0
100
AcDbLine
 10
40.49999990302672
 20
183.6500001323203
 30
0.0
 11
48.49999990302682
 21
183.6500001323203
 31
0.0
  0
ARC
  5
57A
330
1F
100
AcDbEntity
  8
0
100
AcDbCircle
 10
40.49999990302672
 20
183.4000001323203
 30
0.0
 40
0.25
100
AcDbArc
 50
90.0
 51
180.0
1001
GENIUS_GENOBJ-N-CEN_13
1002
{
1000
OWNER
1000
GEN
1002
}
1001
GENIUS_GENOBJ-N-FIL_13
1002
{
1000
OWNER
1000
GEN
1002
}
1001
GENIUS_GENODEF_13
1002
{
1000
HIER
1070
     0
1002
}
1002
{
1000
MANEDIT
1070
     0
1002
}
1002
{
1000
NOSEL
1070
     0
1002
}
1002
{
1000
BEHIND
1070
     0
1002
}
1002
{
1000
OTHER
1070
     0
1002
}
1002
{
1000
REACTOR
1002
}
  0
LINE
  5
57B
330
1F
100
AcDbEntity
  8
0
100
AcDbLine
 10
40.24999990302672
 20
183.4000001323203
 30
0.0
 11
40.24999990302672
 21
178.4000001323203
 31
0.0
1001
GENIUS_GENODEF_13
1002
{
1000
HIER
1070
     0
1002
}
1002
{
1000
MANEDIT
1070
     0
1002
}
1002
{
1000
NOSEL
1070
     0
1002
}
1002
{
1000
BEHIND
1070
     0
1002
}
1002
{
1000
REACTOR
1002
}
1001
GENIUS_GENOBJ-N-CEN_13
1002
{
1000
OWNER
1000
GEN
1002
}
  0
ARC
  5
57C
330
1F
100
AcDbEntity
  8
0
100
AcDbCircle
 10
40.49999990302672
 20
178.4000001323203
 30
0.0
 40
0.25
100
AcDbArc
 50
180.0
 51
270.0
1001
GENIUS_GENODEF_13
1002
{
1000
HIER
1070
     0
1002
}
1002
{
1000
MANEDIT
1070
     0
1002
}
1002
{
1000
NOSEL
1070
     0
1002
}
1002
{
1000
BEHIND
1070
     0
1002
}
1002
{
1000
OTHER
1070
     0
1002
}
1002
{
1000
REACTOR
1002
}
1001
GENIUS_GENOBJ-N-FIL_13
1002
{
1000
OWNER
1000
GEN
1002
}
  0
LINE
  5
57D
330
1F
100
AcDbEntity
  8
0
100
AcDbLine
 10
40.49999990302672
 20
178.1500001323203
 30
0.0
 11
48.49999990302642
 21
178.1500001323203
 31
0.0
  0
ARC
  5
57E
330
1F
100
AcDbEntity
  8
0
100
AcDbCircle
 10
48.49999990302642
 20
178.4000001323203
 30
0.0
 40
0.25
100
AcDbArc
 50
270.0
 51
0.0
1001
GENIUS_GENOBJ-N-CEN_13
1002
{
1000
OWNER
1000
GEN
1002
}
1001
GENIUS_GENOBJ-N-FIL_13
1002
{
1000
OWNER
1000
GEN
1002
}
1001
GENIUS_GENODEF_13
1002
{
1000
HIER
1070
     0
1002
}
1002
{
1000
MANEDIT
1070
     0
1002
}
1002
{
1000
NOSEL
1070
     0
1002
}
1002
{
1000
BEHIND
1070
     0
1002
}
1002
{
1000
OTHER
1070
     0
1002
}
1002
{
1000
REACTOR
1002
}
  0
LINE
  5
57F
330
1F
100
AcDbEntity
  8
0
100
AcDbLine
 10
48.74999990302683
 20
183.4000001323203
 30
0.0
 11
48.74999990302654
 21
178.4000001323203
 31
0.0
1001
GENIUS_GENODEF_13
1002
{
1000
HIER
1070
     0
1002
}
1002
{
1000
MANEDIT
1070
     0
1002
}
1002
{
1000
NOSEL
1070
     0
1002
}
1002
{
1000
BEHIND
1070
     0
1002
}
1002
{
1000
REACTOR
1002
}
1001
GENIUS_GENOBJ-N-CEN_13
1002
{
1000
OWNER
1000
GEN
1002
}
  0
ARC
  5
580
330
1F
100
AcDbEntity
  8
0
100
AcDbCircle
 10
48.49999990302682
 20
183.4000001323203
 30
0.0
 40
0.25
100
AcDbArc
 50
359.9999999999968
 51
90.0
1001
GENIUS_GENODEF_13
1002
{
1000
HIER
1070
     0
1002
}
1002
{
1000
MANEDIT
1070
     0
1002
}
1002
{
1000
NOSEL
1070
     0
1002
}
1002
{
1000
BEHIND
1070
     0
1002
}
1002
{
1000
OTHER
1070
     0
1002
}
1002
{
1000
REACTOR
1002
}
1001
GENIUS_GENOBJ-N-FIL_13
1002
{
1000
OWNER
1000
GEN
1002
}
  0
LINE
  5
581
330
1F
100
AcDbEntity
  8
0
100
AcDbLine
 10
40.49999990302672
 20
183.6500001323203
 30
0.0
 11
48.49999990302682
 21
183.6500001323203
 31
0.0
  0
LINE
  5
582
330
1F
100
AcDbEntity
  8
0
100
AcDbLine
 10
5.499999903026719
 20
183.5500001323203
 30
0.0
 11
13.49999990302683
 21
183.5500001323203
 31
0.0
  0
ARC
  5
583
330
1F
100
AcDbEntity
  8
0
100
AcDbCircle
 10
5.499999903026719
 20
183.4000001323203
 30
0.0
 40
0.15
100
AcDbArc
 50
90.0
 51
180.0
1001
GENIUS_GENOBJ-N-CEN_13
1002
{
1000
OWNER
1000
GEN
1002
}
1001
GENIUS_GENOBJ-N-FIL_13
1002
{
1000
OWNER
1000
GEN
1002
}
1001
GENIUS_GENODEF_13
1002
{
1000
HIER
1070
     0
1002
}
1002
{
1000
MANEDIT
1070
     0
1002
}
1002
{
1000
NOSEL
1070
     0
1002
}
1002
{
1000
BEHIND
1070
     0
1002
}
1002
{
1000
OTHER
1070
     0
1002
}
1002
{
1000
REACTOR
1002
}
  0
LINE
  5
584
330
1F
100
AcDbEntity
  8
0
100
AcDbLine
 10
5.34999990302674
 20
183.4000001323203
 30
0.0
 11
5.34999990302674
 21
178.4000001323203
 31
0.0
1001
GENIUS_GENODEF_13
1002
{
1000
HIER
1070
     0
1002
}
1002
{
1000
MANEDIT
1070
     0
1002
}
1002
{
1000
NOSEL
1070
     0
1002
}
1002
{
1000
BEHIND
1070
     0
1002
}
1002
{
1000
REACTOR
1002
}
1001
GENIUS_GENOBJ-N-CEN_13
1002
{
1000
OWNER
1000
GEN
1002
}
  0
ARC
  5
585
330
1F
100
AcDbEntity
  8
0
100
AcDbCircle
 10
5.499999903026719
 20
178.4000001323203
 30
0.0
 40
0.15
100
AcDbArc
 50
180.0
 51
270.0
1001
GENIUS_GENOBJ-N-FIL_13
1002
{
1000
OWNER
1000
GEN
1002
}
1001
GENIUS_GENODEF_13
1002
{
1000
HIER
1070
     0
1002
}
1002
{
1000
MANEDIT
1070
     0
1002
}
1002
{
1000
NOSEL
1070
     0
1002
}
1002
{
1000
BEHIND
1070
     0
1002
}
1002
{
1000
OTHER
1070
     0
1002
}
1002
{
1000
REACTOR
1002
}
  0
ARC
  5
586
330
1F
100
AcDbEntity
  8
0
100
AcDbCircle
 10
13.49999990302683
 20
183.4000001323203
 30
0.0
 40
0.15
100
AcDbArc
 50
359.9999999999984
 51
90.0
1001
GENIUS_GENOBJ-N-FIL_13
1002
{
1000
OWNER
1000
GEN
1002
}
1001
GENIUS_GENODEF_13
1002
{
1000
HIER
1070
     0
1002
}
1002
{
1000
MANEDIT
1070
     0
1002
}
1002
{
1000
NOSEL
1070
     0
1002
}
1002
{
1000
BEHIND
1070
     0
1002
}
1002
{
1000
OTHER
1070
     0
1002
}
1002
{
1000
REACTOR
1002
}
  0
LINE
  5
587
330
1F
100
AcDbEntity
  8
0
100
AcDbLine
 10
13.64999990302681
 20
183.4000001323203
 30
0.0
 11
13.64999990302652
 21
178.4000001323203
 31
0.0
1001
GENIUS_GENODEF_13
1002
{
1000
HIER
1070
     0
1002
}
1002
{
1000
MANEDIT
1070
     0
1002
}
1002
{
1000
NOSEL
1070
     0
1002
}
1002
{
1000
BEHIND
1070
     0
1002
}
1002
{
1000
REACTOR
1002
}
1001
GENIUS_GENOBJ-N-CEN_13
1002
{
1000
OWNER
1000
GEN
1002
}
  0
ARC
  5
588
330
1F
100
AcDbEntity
  8
0
100
AcDbCircle
 10
13.4999999030266
 20
178.4000001323203
 30
0.0
 40
0.15
100
AcDbArc
 50
270.0
 51
0.0
1001
GENIUS_GENOBJ-N-CEN_13
1002
{
1000
OWNER
1000
GEN
1002
}
1001
GENIUS_GENODEF_13
1002
{
1000
HIER
1070
     0
1002
}
1002
{
1000
MANEDIT
1070
     0
1002
}
1002
{
1000
NOSEL
1070
     0
1002
}
1002
{
1000
BEHIND
1070
     0
1002
}
1002
{
1000
OTHER
1070
     0
1002
}
1002
{
1000
REACTOR
1002
}
1001
GENIUS_GENOBJ-N-FIL_13
1002
{
1000
OWNER
1000
GEN
1002
}
  0
LINE
  5
589
330
1F
100
AcDbEntity
  8
0
100
AcDbLine
 10
5.499999903026719
 20
178.2500001323203
 30
0.0
 11
13.4999999030266
 21
178.2500001323201
 31
0.0
  0
ARC
  5
58A
330
1F
100
AcDbEntity
  8
0
100
AcDbCircle
 10
44.49999990302671
 20
169.9000001323203
 30
0.0
 40
0.5
100
AcDbArc
 50
22.83365417791862
 51
157.1663458220814
  0
ARC
  5
58B
330
1F
100
AcDbEntity
  8
0
100
AcDbCircle
 10
40.49999990302672
 20
160.4000001323203
 30
0.0
 40
0.5
100
AcDbArc
 50
157.1663458220814
 51
270.0
  0
ARC
  5
58C
330
1F
100
AcDbEntity
  8
0
100
AcDbCircle
 10
48.49999990302671
 20
160.4000001323203
 30
0.0
 40
0.5
100
AcDbArc
 50
270.0
 51
22.83365417791862
  0
LINE
  5
58D
330
1F
100
AcDbEntity
  8
0
100
AcDbLine
 10
44.9608175905957
 20
170.0940286323494
 30
0.0
 11
48.96081759059575
 21
160.5940286323493
 31
0.0
  0
LINE
  5
58E
330
1F
100
AcDbEntity
  8
0
100
AcDbLine
 10
44.03918221545763
 20
170.0940286323494
 30
0.0
 11
40.03918221545768
 21
160.5940286323493
 31
0.0
  0
LINE
  5
58F
330
1F
100
AcDbEntity
  8
0
100
AcDbLine
 10
40.49999990302672
 20
159.9000001323203
 30
0.0
 11
48.49999990302671
 21
159.9000001323203
 31
0.0
  0
ARC
  5
590
330
1F
100
AcDbEntity
  8
0
100
AcDbCircle
 10
44.4999999030266
 20
139.4000001323203
 30
0.0
 40
0.5
100
AcDbArc
 50
202.8336541779186
 51
337.1663458220814
  0
LINE
  5
591
330
1F
100
AcDbEntity
  8
0
100
AcDbLine
 10
44.96081759059563
 20
139.2059716322912
 30
0.0
 11
48.96081759059575
 21
148.7059716322912
 31
0.0
  0
LINE
  5
592
330
1F
100
AcDbEntity
  8
0
100
AcDbLine
 10
44.0391822154575
 20
139.2059716322912
 30
0.0
 11
40.03918221545768
 21
148.7059716322912
 31
0.0
  0
ARC
  5
593
330
1F
100
AcDbEntity
  8
0
100
AcDbCircle
 10
40.49999990302672
 20
148.9000001323203
 30
0.0
 40
0.5
100
AcDbArc
 50
90.0
 51
202.8336541779186
  0
LINE
  5
594
330
1F
100
AcDbEntity
  8
0
100
AcDbLine
 10
40.49999990302672
 20
149.4000001323203
 30
0.0
 11
48.49999990302671
 21
149.4000001323203
 31
0.0
  0
ARC
  5
595
330
1F
100
AcDbEntity
  8
0
100
AcDbCircle
 10
48.49999990302671
 20
148.9000001323203
 30
0.0
 40
0.5
100
AcDbArc
 50
337.1663458220814
 51
90.0
  0
LINE
  5
597
330
1F
100
AcDbEntity
  8
0
100
AcDbLine
 10
39.89999990302676
 20
3.000000132320278
 30
0.0
 11
39.89999990302676
 21
32.00000013232028
 31
0.0
  0
LINE
  5
598
330
1F
100
AcDbEntity
  8
0
100
AcDbLine
 10
33.89999990302681
 20
3.000000132320278
 30
0.0
 11
33.89999990302681
 21
32.00000013232028
 31
0.0
  0
ARC
  5
599
330
1F
100
AcDbEntity
  8
0
100
AcDbCircle
 10
36.89999990302676
 20
3.000000132320278
 30
0.0
 40
2.999999999999998
100
AcDbArc
 50
180.0
 51
0.0
  0
LINE
  5
59A
330
1F
100
AcDbEntity
  8
0
100
AcDbLine
 10
33.89999990302681
 20
32.00000013232028
 30
0.0
 11
39.89999990302676
 21
32.00000013232028
 31
0.0
  0
LINE
  5
59B
330
1F
100
AcDbEntity
  8
0
100
AcDbLine
 10
168.5999999030269
 20
71.95710663171405
 30
0.0
 11
165.5999999030269
 21
68.9571066317135
 31
0.0
  0
LINE
  5
59C
330
1F
100
AcDbEntity
  8
0
100
AcDbLine
 10
107.9499999030267
 20
3.00000013232028
 30
0.0
 11
107.9499999030267
 21
32.00000013232028
 31
0.0
  0
LINE
  5
59D
330
1F
100
AcDbEntity
  8
0
100
AcDbLine
 10
101.9499999030268
 20
3.00000013232028
 30
0.0
 11
101.9499999030268
 21
32.00000013232028
 31
0.0
  0
ARC
  5
59E
330
1F
100
AcDbEntity
  8
0
100
AcDbCircle
 10
104.9499999030267
 20
3.00000013232028
 30
0.0
 40
2.999999999999998
100
AcDbArc
 50
180.0
 51
0.0
  0
LINE
  5
59F
330
1F
100
AcDbEntity
  8
0
100
AcDbLine
 10
101.9499999030268
 20
32.00000013232028
 30
0.0
 11
107.9499999030267
 21
32.00000013232028
 31
0.0
  0
LINE
  5
5A0
330
1F
100
AcDbEntity
  8
0
100
AcDbLine
 10
168.5999999030269
 20
70.54289306934084
 30
0.0
 11
165.5999999030269
 21
67.54289306934025
 31
0.0
  0
LINE
  5
5A1
330
1F
100
AcDbEntity
  8
0
100
AcDbLine
 10
170.0999999030269
 20
3.00000013232028
 30
0.0
 11
170.0999999030269
 21
32.00000013232028
 31
0.0
  0
LINE
  5
5A2
330
1F
100
AcDbEntity
  8
0
100
AcDbLine
 10
164.0999999030269
 20
3.00000013232028
 30
0.0
 11
164.0999999030269
 21
32.00000013232028
 31
0.0
  0
ARC
  5
5A3
330
1F
100
AcDbEntity
  8
0
100
AcDbCircle
 10
167.0999999030269
 20
3.00000013232028
 30
0.0
 40
2.999999999999998
100
AcDbArc
 50
180.0
 51
0.0
  0
LINE
  5
5A4
330
1F
100
AcDbEntity
  8
0
100
AcDbLine
 10
164.0999999030269
 20
32.00000013232028
 30
0.0
 11
170.0999999030269
 21
32.00000013232028
 31
0.0
  0
LINE
  5
5A5
330
1F
100
AcDbEntity
  8
0
100
AcDbLine
 10
167.0999999030269
 20
91.20000013232022
 30
0.0
 11
167.0999999030269
 21
70.45710663171376
 31
0.0
  0
LINE
  5
5A6
330
1F
100
AcDbEntity
  8
0
100
AcDbLine
 10
164.8499999030269
 20
101.2000001323202
 30
0.0
 11
164.8499999030269
 21
91.20000013232022
 31
0.0
  0
LINE
  5
5A7
330
1F
100
AcDbEntity
  8
0
100
AcDbLine
 10
169.3499999030269
 20
101.2000001323202
 30
0.0
 11
169.3499999030269
 21
91.2000001323202
 31
0.0
  0
LINE
  5
5A8
330
1F
100
AcDbEntity
  8
0
100
AcDbLine
 10
167.0999999030269
 20
69.04289306934055
 30
0.0
 11
167.0999999030269
 21
32.00000013232028
 31
0.0
  0
LINE
  5
5A9
330
1F
100
AcDbEntity
  8
0
100
AcDbLine
 10
168.5999999030269
 20
91.2000001323202
 30
0.0
 11
168.5999999030269
 21
71.95710663171405
 31
0.0
  0
LINE
  5
5AA
330
1F
100
AcDbEntity
  8
0
100
AcDbLine
 10
168.5999999030269
 20
70.54289306934084
 30
0.0
 11
168.5999999030269
 21
32.00000013232028
 31
0.0
  0
LINE
  5
5AB
330
1F
100
AcDbEntity
  8
0
100
AcDbLine
 10
165.5999999030269
 20
91.20000013232022
 30
0.0
 11
165.5999999030269
 21
68.9571066317135
 31
0.0
  0
LINE
  5
5AC
330
1F
100
AcDbEntity
  8
0
100
AcDbLine
 10
165.5999999030269
 20
67.54289306934025
 30
0.0
 11
165.5999999030269
 21
32.00000013232028
 31
0.0
  0
LINE
  5
5AD
330
1F
100
AcDbEntity
  8
0
100
AcDbLine
 10
34.64999990302678
 20
91.20000013232022
 30
0.0
 11
39.14999990302675
 21
91.2000001323202
 31
0.0
  0
LINE
  5
5AE
330
1F
100
AcDbEntity
  8
0
100
AcDbLine
 10
38.39999990302676
 20
71.95710663171405
 30
0.0
 11
35.39999990302675
 21
68.9571066317135
 31
0.0
  0
LINE
  5
5AF
330
1F
100
AcDbEntity
  8
0
100
AcDbLine
 10
38.39999990302676
 20
70.54289306934084
 30
0.0
 11
35.39999990302675
 21
67.54289306934025
 31
0.0
  0
LINE
  5
5B0
330
1F
100
AcDbEntity
  8
0
100
AcDbLine
 10
36.89999990302676
 20
91.20000013232022
 30
0.0
 11
36.89999990302676
 21
70.45710663171376
 31
0.0
  0
LINE
  5
5B1
330
1F
100
AcDbEntity
  8
0
100
AcDbLine
 10
34.64999990302676
 20
101.2000001323202
 30
0.0
 11
34.64999990302678
 21
91.20000013232022
 31
0.0
  0
LINE
  5
5B2
330
1F
100
AcDbEntity
  8
0
100
AcDbLine
 10
39.14999990302675
 20
101.2000001323202
 30
0.0
 11
39.14999990302675
 21
91.2000001323202
 31
0.0
  0
LINE
  5
5B3
330
1F
100
AcDbEntity
  8
0
100
AcDbLine
 10
36.89999990302676
 20
69.04289306934055
 30
0.0
 11
36.89999990302678
 21
32.00000013232028
 31
0.0
  0
LINE
  5
5B4
330
1F
100
AcDbEntity
  8
0
100
AcDbLine
 10
38.39999990302676
 20
91.2000001323202
 30
0.0
 11
38.39999990302676
 21
71.95710663171405
 31
0.0
  0
LINE
  5
5B5
330
1F
100
AcDbEntity
  8
0
100
AcDbLine
 10
38.39999990302676
 20
70.54289306934084
 30
0.0
 11
38.39999990302678
 21
32.00000013232028
 31
0.0
  0
LINE
  5
5B6
330
1F
100
AcDbEntity
  8
0
100
AcDbLine
 10
35.39999990302675
 20
91.20000013232022
 30
0.0
 11
35.39999990302675
 21
68.9571066317135
 31
0.0
  0
LINE
  5
5B7
330
1F
100
AcDbEntity
  8
0
100
AcDbLine
 10
35.39999990302675
 20
67.54289306934025
 30
0.0
 11
35.39999990302678
 21
32.00000013232028
 31
0.0
  0
LINE
  5
5B8
330
1F
100
AcDbEntity
  8
0
100
AcDbLine
 10
104.1999999030267
 20
91.20000013232022
 30
0.0
 11
104.1999999030267
 21
69.7071066317136
 31
0.0
  0
LINE
  5
5B9
330
1F
100
AcDbEntity
  8
0
100
AcDbLine
 10
104.1999999030267
 20
68.29289306934038
 30
0.0
 11
104.1999999030267
 21
32.00000013232028
 31
0.0
  0
LINE
  5
5BA
330
1F
100
AcDbEntity
  8
0
100
AcDbLine
 10
105.6999999030267
 20
91.2000001323202
 30
0.0
 11
105.6999999030267
 21
71.20710663171387
 31
0.0
  0
LINE
  5
5BB
330
1F
100
AcDbEntity
  8
0
100
AcDbLine
 10
105.6999999030267
 20
69.79289306934067
 30
0.0
 11
105.6999999030267
 21
32.00000013232028
 31
0.0
  0
LINE
  5
5BC
330
1F
100
AcDbEntity
  8
0
100
AcDbLine
 10
102.6999999030267
 20
91.20000013232022
 30
0.0
 11
107.1999999030267
 21
91.2000001323202
 31
0.0
  0
LINE
  5
5BD
330
1F
100
AcDbEntity
  8
0
100
AcDbLine
 10
102.6999999030267
 20
101.2000001323202
 30
0.0
 11
102.6999999030267
 21
91.20000013232022
 31
0.0
  0
LINE
  5
5BE
330
1F
100
AcDbEntity
  8
0
100
AcDbLine
 10
107.1999999030267
 20
101.2000001323202
 30
0.0
 11
107.1999999030267
 21
91.2000001323202
 31
0.0
  0
LINE
  5
5BF
330
1F
100
AcDbEntity
  8
0
100
AcDbLine
 10
105.6999999030267
 20
71.20710663171387
 30
0.0
 11
104.1999999030267
 21
69.7071066317136
 31
0.0
  0
LINE
  5
5C0
330
1F
100
AcDbEntity
  8
0
100
AcDbLine
 10
105.6999999030267
 20
69.79289306934067
 30
0.0
 11
104.1999999030267
 21
68.29289306934038
 31
0.0
  0
LINE
  5
5C1
330
1F
100
AcDbEntity
  8
0
100
AcDbLine
 10
36.59999990302674
 20
152.1448166721162
 30
0.0
 11
39.59999990302674
 21
152.1448166721162
 31
0.0
1001
GENIUS_GENREC_14
1002
{
1000
PYDIR
1011
36.59999990302674
1021
158.6551835925244
1031
0.0
1002
}
1002
{
1000
PXDIR
1011
39.59999990302674
1021
157.1551835925244
1031
0.0
1002
}
1002
{
1000
PORI
1011
36.59999990302674
1021
157.1551835925244
1031
0.0
1002
}
1002
{
1000
PINS
1011
36.59999990302674
1021
157.1551835925244
1031
0.0
1002
}
1002
{
1000
HVAL
1000
0.5
1002
}
1002
{
1000
H
1070
     2
1002
}
1002
{
1000
WVAL
1000
1
1002
}
1002
{
1000
W
1070
     2
1002
}
1002
{
1000
C
1070
     1
1002
}
1001
GENIUS_GENODEF_13
1002
{
1000
HIER
1070
     0
1002
}
1002
{
1000
MANEDIT
1070
     0
1002
}
1002
{
1000
NOSEL
1070
     0
1002
}
1002
{
1000
BEHIND
1070
     0
1002
}
1002
{
1000
REACTOR
1002
}
1001
GENIUS_GENOBJ-N-REC_13
1002
{
1000
OWNER
1000
GEN
1002
}
  0
LINE
  5
5C2
330
1F
100
AcDbEntity
  8
0
100
AcDbLine
 10
39.59999990302674
 20
152.1448166721162
 30
0.0
 11
39.59999990302674
 21
150.6448166721161
 31
0.0
1001
GENIUS_GENREC_14
1002
{
1000
PYDIR
1011
36.59999990302674
1021
158.6551835925244
1031
0.0
1002
}
1002
{
1000
PXDIR
1011
39.59999990302674
1021
157.1551835925244
1031
0.0
1002
}
1002
{
1000
PORI
1011
36.59999990302674
1021
157.1551835925244
1031
0.0
1002
}
1002
{
1000
PINS
1011
36.59999990302674
1021
157.1551835925244
1031
0.0
1002
}
1002
{
1000
HVAL
1000
0.5
1002
}
1002
{
1000
H
1070
     2
1002
}
1002
{
1000
WVAL
1000
1
1002
}
1002
{
1000
W
1070
     2
1002
}
1002
{
1000
C
1070
     1
1002
}
1001
GENIUS_GENODEF_13
1002
{
1000
HIER
1070
     0
1002
}
1002
{
1000
MANEDIT
1070
     0
1002
}
1002
{
1000
NOSEL
1070
     0
1002
}
1002
{
1000
BEHIND
1070
     0
1002
}
1002
{
1000
REACTOR
1002
}
1001
GENIUS_GENOBJ-N-REC_13
1002
{
1000
OWNER
1000
GEN
1002
}
  0
LINE
  5
5C3
330
1F
100
AcDbEntity
  8
0
100
AcDbLine
 10
39.59999990302674
 20
150.6448166721161
 30
0.0
 11
36.59999990302674
 21
150.6448166721161
 31
0.0
1001
GENIUS_GENREC_14
1002
{
1000
PYDIR
1011
36.59999990302674
1021
158.6551835925244
1031
0.0
1002
}
1002
{
1000
PXDIR
1011
39.59999990302674
1021
157.1551835925244
1031
0.0
1002
}
1002
{
1000
PORI
1011
36.59999990302674
1021
157.1551835925244
1031
0.0
1002
}
1002
{
1000
PINS
1011
36.59999990302674
1021
157.1551835925244
1031
0.0
1002
}
1002
{
1000
HVAL
1000
0.5
1002
}
1002
{
1000
H
1070
     2
1002
}
1002
{
1000
WVAL
1000
1
1002
}
1002
{
1000
W
1070
     2
1002
}
1002
{
1000
C
1070
     1
1002
}
1001
GENIUS_GENODEF_13
1002
{
1000
HIER
1070
     0
1002
}
1002
{
1000
MANEDIT
1070
     0
1002
}
1002
{
1000
NOSEL
1070
     0
1002
}
1002
{
1000
BEHIND
1070
     0
1002
}
1002
{
1000
REACTOR
1002
}
1001
GENIUS_GENOBJ-N-REC_13
1002
{
1000
OWNER
1000
GEN
1002
}
  0
LINE
  5
5C4
330
1F
100
AcDbEntity
  8
0
100
AcDbLine
 10
36.59999990302674
 20
150.6448166721161
 30
0.0
 11
36.59999990302674
 21
152.1448166721162
 31
0.0
1001
GENIUS_GENREC_14
1002
{
1000
PYDIR
1011
36.59999990302674
1021
158.6551835925244
1031
0.0
1002
}
1002
{
1000
PXDIR
1011
39.59999990302674
1021
157.1551835925244
1031
0.0
1002
}
1002
{
1000
PORI
1011
36.59999990302674
1021
157.1551835925244
1031
0.0
1002
}
1002
{
1000
PINS
1011
36.59999990302674
1021
157.1551835925244
1031
0.0
1002
}
1002
{
1000
HVAL
1000
0.5
1002
}
1002
{
1000
H
1070
     2
1002
}
1002
{
1000
WVAL
1000
1
1002
}
1002
{
1000
W
1070
     2
1002
}
1002
{
1000
C
1070
     1
1002
}
1001
GENIUS_GENODEF_13
1002
{
1000
HIER
1070
     0
1002
}
1002
{
1000
MANEDIT
1070
     0
1002
}
1002
{
1000
NOSEL
1070
     0
1002
}
1002
{
1000
BEHIND
1070
     0
1002
}
1002
{
1000
REACTOR
1002
}
1001
GENIUS_GENOBJ-N-REC_13
1002
{
1000
OWNER
1000
GEN
1002
}
  0
LINE
  5
5C6
330
1F
100
AcDbEntity
  8
0
100
AcDbLine
 10
36.59999990302674
 20
157.1551835925244
 30
0.0
 11
39.59999990302674
 21
157.1551835925244
 31
0.0
1001
GENIUS_GENREC_14
1002
{
1000
PYDIR
1011
36.59999990302674
1021
158.6551835925244
1031
0.0
1002
}
1002
{
1000
PXDIR
1011
39.59999990302674
1021
157.1551835925244
1031
0.0
1002
}
1002
{
1000
PORI
1011
36.59999990302674
1021
157.1551835925244
1031
0.0
1002
}
1002
{
1000
PINS
1011
36.59999990302674
1021
157.1551835925244
1031
0.0
1002
}
1002
{
1000
HVAL
1000
0.5
1002
}
1002
{
1000
H
1070
     2
1002
}
1002
{
1000
WVAL
1000
1
1002
}
1002
{
1000
W
1070
     2
1002
}
1002
{
1000
C
1070
     1
1002
}
1001
GENIUS_GENODEF_13
1002
{
1000
HIER
1070
     0
1002
}
1002
{
1000
MANEDIT
1070
     0
1002
}
1002
{
1000
NOSEL
1070
     0
1002
}
1002
{
1000
BEHIND
1070
     0
1002
}
1002
{
1000
REACTOR
1002
}
1001
GENIUS_GENOBJ-N-REC_13
1002
{
1000
OWNER
1000
GEN
1002
}
  0
LINE
  5
5C7
330
1F
100
AcDbEntity
  8
0
100
AcDbLine
 10
39.59999990302674
 20
157.1551835925244
 30
0.0
 11
39.59999990302674
 21
158.6551835925244
 31
0.0
1001
GENIUS_GENREC_14
1002
{
1000
PYDIR
1011
36.59999990302674
1021
158.6551835925244
1031
0.0
1002
}
1002
{
1000
PXDIR
1011
39.59999990302674
1021
157.1551835925244
1031
0.0
1002
}
1002
{
1000
PORI
1011
36.59999990302674
1021
157.1551835925244
1031
0.0
1002
}
1002
{
1000
PINS
1011
36.59999990302674
1021
157.1551835925244
1031
0.0
1002
}
1002
{
1000
HVAL
1000
0.5
1002
}
1002
{
1000
H
1070
     2
1002
}
1002
{
1000
WVAL
1000
1
1002
}
1002
{
1000
W
1070
     2
1002
}
1002
{
1000
C
1070
     1
1002
}
1001
GENIUS_GENODEF_13
1002
{
1000
HIER
1070
     0
1002
}
1002
{
1000
MANEDIT
1070
     0
1002
}
1002
{
1000
NOSEL
1070
     0
1002
}
1002
{
1000
BEHIND
1070
     0
1002
}
1002
{
1000
REACTOR
1002
}
1001
GENIUS_GENOBJ-N-REC_13
1002
{
1000
OWNER
1000
GEN
1002
}
  0
LINE
  5
5C8
330
1F
100
AcDbEntity
  8
0
100
AcDbLine
 10
39.59999990302674
 20
158.6551835925244
 30
0.0
 11
36.59999990302674
 21
158.6551835925244
 31
0.0
1001
GENIUS_GENREC_14
1002
{
1000
PYDIR
1011
36.59999990302674
1021
158.6551835925244
1031
0.0
1002
}
1002
{
1000
PXDIR
1011
39.59999990302674
1021
157.1551835925244
1031
0.0
1002
}
1002
{
1000
PORI
1011
36.59999990302674
1021
157.1551835925244
1031
0.0
1002
}
1002
{
1000
PINS
1011
36.59999990302674
1021
157.1551835925244
1031
0.0
1002
}
1002
{
1000
HVAL
1000
0.5
1002
}
1002
{
1000
H
1070
     2
1002
}
1002
{
1000
WVAL
1000
1
1002
}
1002
{
1000
W
1070
     2
1002
}
1002
{
1000
C
1070
     1
1002
}
1001
GENIUS_GENODEF_13
1002
{
1000
HIER
1070
     0
1002
}
1002
{
1000
MANEDIT
1070
     0
1002
}
1002
{
1000
NOSEL
1070
     0
1002
}
1002
{
1000
BEHIND
1070
     0
1002
}
1002
{
1000
REACTOR
1002
}
1001
GENIUS_GENOBJ-N-REC_13
1002
{
1000
OWNER
1000
GEN
1002
}
  0
LINE
  5
5C9
330
1F
100
AcDbEntity
  8
0
100
AcDbLine
 10
36.59999990302674
 20
158.6551835925244
 30
0.0
 11
36.59999990302674
 21
157.1551835925244
 31
0.0
1001
GENIUS_GENREC_14
1002
{
1000
PYDIR
1011
36.59999990302674
1021
158.6551835925244
1031
0.0
1002
}
1002
{
1000
PXDIR
1011
39.59999990302674
1021
157.1551835925244
1031
0.0
1002
}
1002
{
1000
PORI
1011
36.59999990302674
1021
157.1551835925244
1031
0.0
1002
}
1002
{
1000
PINS
1011
36.59999990302674
1021
157.1551835925244
1031
0.0
1002
}
1002
{
1000
HVAL
1000
0.5
1002
}
1002
{
1000
H
1070
     2
1002
}
1002
{
1000
WVAL
1000
1
1002
}
1002
{
1000
W
1070
     2
1002
}
1002
{
1000
C
1070
     1
1002
}
1001
GENIUS_GENODEF_13
1002
{
1000
HIER
1070
     0
1002
}
1002
{
1000
MANEDIT
1070
     0
1002
}
1002
{
1000
NOSEL
1070
     0
1002
}
1002
{
1000
BEHIND
1070
     0
1002
}
1002
{
1000
REACTOR
1002
}
1001
GENIUS_GENOBJ-N-REC_13
1002
{
1000
OWNER
1000
GEN
1002
}
  0
LINE
  5
5CA
330
1F
100
AcDbEntity
  8
0
370
    15
100
AcDbLine
 10
195.3781817212086
 20
196.6218183141384
 30
0.0
 11
195.3781817212087
 21
194.8963637686838
 31
0.0
  0
LINE
  5
5CB
330
1F
100
AcDbEntity
  8
0
370
    15
100
AcDbLine
 10
194.621818084845
 20
196.6218183141384
 30
0.0
 11
194.6218180848451
 21
194.8963637686838
 31
0.0
  0
CIRCLE
  5
5CC
330
1F
100
AcDbEntity
  8
1
  6
Continuous
 62
     7
100
AcDbCircle
 10
194.9999999030269
 20
197.0000001323203
 30
0.0
 40
2.600000000000058
  0
LINE
  5
5CD
330
1F
100
AcDbEntity
  8
0
370
    15
100
AcDbLine
 10
194.6218180848451
 20
194.8963637686838
 30
0.0
 11
195.3781817212087
 21
194.8963637686838
 31
0.0
  0
LINE
  5
5CE
330
1F
100
AcDbEntity
  8
0
370
    15
100
AcDbLine
 10
195.3781817212086
 20
196.6218183141384
 30
0.0
 11
197.1036362666635
 21
196.6218183141385
 31
0.0
  0
LINE
  5
5CF
330
1F
100
AcDbEntity
  8
0
370
    15
100
AcDbLine
 10
195.3781817212087
 20
197.3781819505021
 30
0.0
 11
197.1036362666635
 21
197.3781819505021
 31
0.0
  0
LINE
  5
5D0
330
1F
100
AcDbEntity
  8
0
370
    15
100
AcDbLine
 10
195.3781817212087
 20
199.1036364959567
 30
0.0
 11
195.3781817212086
 21
197.3781819505021
 31
0.0
  0
LINE
  5
5D1
330
1F
100
AcDbEntity
  8
0
370
    15
100
AcDbLine
 10
194.6218180848452
 20
199.1036364959567
 30
0.0
 11
195.3781817212087
 21
199.1036364959567
 31
0.0
  0
LINE
  5
5D2
330
1F
100
AcDbEntity
  8
0
370
    15
100
AcDbLine
 10
192.8963635393905
 20
197.3781819505021
 30
0.0
 11
192.8963635393905
 21
196.6218183141385
 31
0.0
  0
LINE
  5
5D3
330
1F
100
AcDbEntity
  8
0
370
    15
100
AcDbLine
 10
197.1036362666636
 20
197.3781819505021
 30
0.0
 11
197.1036362666635
 21
196.6218183141385
 31
0.0
  0
LINE
  5
5D4
330
1F
100
AcDbEntity
  8
0
370
    15
100
AcDbLine
 10
194.6218180848451
 20
199.1036364959567
 30
0.0
 11
194.621818084845
 21
197.3781819505021
 31
0.0
  0
LINE
  5
5D5
330
1F
100
AcDbEntity
  8
0
370
    15
100
AcDbLine
 10
192.8963635393905
 20
196.6218183141384
 30
0.0
 11
194.621818084845
 21
196.6218183141385
 31
0.0
  0
LINE
  5
5D6
330
1F
100
AcDbEntity
  8
0
370
    15
100
AcDbLine
 10
192.8963635393905
 20
197.3781819505021
 30
0.0
 11
194.621818084845
 21
197.3781819505021
 31
0.0
  0
LINE
  5
5D7
330
1F
100
AcDbEntity
  8
0
370
    15
100
AcDbLine
 10
159.3781817212086
 20
196.6218183141384
 30
0.0
 11
159.3781817212087
 21
194.8963637686838
 31
0.0
  0
LINE
  5
5D8
330
1F
100
AcDbEntity
  8
0
370
    15
100
AcDbLine
 10
158.621818084845
 20
196.6218183141384
 30
0.0
 11
158.6218180848451
 21
194.8963637686838
 31
0.0
  0
CIRCLE
  5
5D9
330
1F
100
AcDbEntity
  8
1
  6
Continuous
 62
     7
100
AcDbCircle
 10
158.9999999030269
 20
197.0000001323203
 30
0.0
 40
2.600000000000058
  0
LINE
  5
5DA
330
1F
100
AcDbEntity
  8
0
370
    15
100
AcDbLine
 10
158.6218180848451
 20
194.8963637686838
 30
0.0
 11
159.3781817212087
 21
194.8963637686838
 31
0.0
  0
LINE
  5
5DB
330
1F
100
AcDbEntity
  8
0
370
    15
100
AcDbLine
 10
159.3781817212086
 20
196.6218183141384
 30
0.0
 11
161.1036362666634
 21
196.6218183141385
 31
0.0
  0
LINE
  5
5DC
330
1F
100
AcDbEntity
  8
0
370
    15
100
AcDbLine
 10
159.3781817212087
 20
197.3781819505021
 30
0.0
 11
161.1036362666634
 21
197.3781819505021
 31
0.0
  0
LINE
  5
5DD
330
1F
100
AcDbEntity
  8
0
370
    15
100
AcDbLine
 10
159.3781817212087
 20
199.1036364959567
 30
0.0
 11
159.3781817212086
 21
197.3781819505021
 31
0.0
  0
LINE
  5
5DE
330
1F
100
AcDbEntity
  8
0
370
    15
100
AcDbLine
 10
158.6218180848452
 20
199.1036364959567
 30
0.0
 11
159.3781817212087
 21
199.1036364959567
 31
0.0
  0
LINE
  5
5DF
330
1F
100
AcDbEntity
  8
0
370
    15
100
AcDbLine
 10
156.8963635393904
 20
197.3781819505021
 30
0.0
 11
156.8963635393904
 21
196.6218183141385
 31
0.0
  0
LINE
  5
5E0
330
1F
100
AcDbEntity
  8
0
370
    15
100
AcDbLine
 10
161.1036362666635
 20
197.3781819505021
 30
0.0
 11
161.1036362666634
 21
196.6218183141385
 31
0.0
  0
LINE
  5
5E1
330
1F
100
AcDbEntity
  8
0
370
    15
100
AcDbLine
 10
158.6218180848451
 20
199.1036364959567
 30
0.0
 11
158.621818084845
 21
197.3781819505021
 31
0.0
  0
LINE
  5
5E2
330
1F
100
AcDbEntity
  8
0
370
    15
100
AcDbLine
 10
156.8963635393904
 20
196.6218183141384
 30
0.0
 11
158.621818084845
 21
196.6218183141385
 31
0.0
  0
LINE
  5
5E3
330
1F
100
AcDbEntity
  8
0
370
    15
100
AcDbLine
 10
156.8963635393904
 20
197.3781819505021
 30
0.0
 11
158.621818084845
 21
197.3781819505021
 31
0.0
  0
ENDSEC
  0
SECTION
  2
OBJECTS
  0
DICTIONARY
  5
C
330
0
100
AcDbDictionary
281
     1
  3
ACAD_COLOR
350
BE
  3
ACAD_GROUP
350
D
  3
ACAD_LAYOUT
350
1A
  3
ACAD_MATERIAL
350
BD
  3
ACAD_MLINESTYLE
350
17
  3
ACAD_PLOTSETTINGS
350
19
  3
ACAD_PLOTSTYLENAME
350
E
  3
ACAD_TABLESTYLE
350
11A
  3
ACDBHEADERROUNDTRIPXREC
350
68A
  3
AcDbVariableDictionary
350
94
  3
AcmDictionary
350
5B
  3
AMG
350
41
  3
AMGSNAPSETTINGS
350
1B8
  3
DWGPROPS
350
689
  0
DICTIONARY
  5
226
330
2
100
AcDbDictionary
280
     1
281
     1
  3
ACAD_LAYERSTATES
360
227
  0
DICTIONARY
  5
8F
330
1F
100
AcDbDictionary
280
     1
281
     1
  3
ACAD_SORTENTS
360
5C5
  0
DICTIONARY
  5
BE
102
{ACAD_REACTORS
330
C
102
}
330
C
100
AcDbDictionary
281
     1
  0
DICTIONARY
  5
D
102
{ACAD_REACTORS
330
C
102
}
330
C
100
AcDbDictionary
281
     1
  0
DICTIONARY
  5
1A
102
{ACAD_REACTORS
330
C
102
}
330
C
100
AcDbDictionary
281
     1
  3
Model
350
22
  3
レイアウト1
350
1E
  3
レイアウト2
350
26
  0
DICTIONARY
  5
BD
102
{ACAD_REACTORS
330
C
102
}
330
C
100
AcDbDictionary
281
     1
  0
DICTIONARY
  5
17
102
{ACAD_REACTORS
330
C
102
}
330
C
100
AcDbDictionary
281
     1
  3
Standard
350
18
  0
DICTIONARY
  5
19
102
{ACAD_REACTORS
330
C
102
}
330
C
100
AcDbDictionary
281
     1
  0
ACDBDICTIONARYWDFLT
  5
E
102
{ACAD_REACTORS
330
C
102
}
330
C
100
AcDbDictionary
281
     1
  3
Normal
350
F
100
AcDbDictionaryWithDefault
340
F
  0
DICTIONARY
  5
11A
102
{ACAD_REACTORS
330
C
102
}
330
C
100
AcDbDictionary
281
     1
  3
Standard
350
11B
  0
DICTIONARY
  5
68A
102
{ACAD_REACTORS
330
C
102
}
330
C
100
AcDbDictionary
281
     1
  0
DICTIONARY
  5
94
102
{ACAD_REACTORS
330
C
102
}
330
C
100
AcDbDictionary
281
     1
  3
CTABLESTYLE
350
138
  3
DIMASSOC
350
96
  3
INDEXCTL
350
95
  3
PROJECTNAME
350
5E5
  0
DICTIONARY
  5
5B
102
{ACAD_REACTORS
330
C
102
}
330
C
100
AcDbDictionary
281
     1
  3
AcmBOM
350
1B5
  3
AcmStdDictionary
350
61
  3
AMDTSECTSYM_ARROWCOLOR
350
123
  0
DICTIONARY
  5
41
102
{ACAD_REACTORS
330
C
102
}
330
C
100
AcDbDictionary
281
     1
  0
DICTIONARY
  5
1B8
102
{ACAD_REACTORS
330
C
102
}
330
C
100
AcDbDictionary
281
     1
  0
XRECORD
  5
689
102
{ACAD_REACTORS
330
C
102
}
330
C
100
AcDbXrecord
280
     1
  1
DWGPROPS COOKIE
  2

  3

  4

  6

  7

  8

  9

300
AmdtFileType=84
301
=
302
=
303
=
304
=
305
=
306
=
307
=
308
=
309
=
 40
0.0015203356481481
 41
2456406.566514028
 42
2456406.645672164
  1

 90
        1
  0
DICTIONARY
  5
227
102
{ACAD_REACTORS
330
226
102
}
330
226
100
AcDbDictionary
281
     1
  0
SORTENTSTABLE
  5
5C5
102
{ACAD_REACTORS
330
8F
102
}
330
8F
100
AcDbSortentsTable
330
1F
331
5C8
  5
570
331
513
  5
52D
331
589
  5
5AB
331
5D0
  5
4F8
331
51B
  5
535
331
55A
  5
57C
331
591
  5
5B3
331
599
  5
5BB
331
5D8
  5
4D7
331
523
  5
53D
331
562
  5
584
331
460
  5
460
331
56A
  5
58C
331
5A1
  5
5C3
331
52B
  5
545
331
421
  5
421
331
4DE
  5
4EC
331
468
  5
468
331
49F
  5
49F
331
5E2
  5
4E1
331
429
  5
429
331
4E6
  5
500
331
431
  5
431
331
470
  5
470
331
4A7
  5
4A7
331
4AF
  5
4AF
331
4EE
  5
508
331
404
  5
404
331
439
  5
439
331
478
  5
478
331
4B7
  5
4B7
331
4F6
  5
510
331
572
  5
594
331
5A9
  5
5CC
331
533
  5
54D
331
53B
  5
557
331
57A
  5
59C
331
5B1
  5
5D4
331
5B9
  5
5DC
331
543
  5
55F
331
582
  5
5A4
331
480
  5
480
331
5C1
  5
572
331
40C
  5
40C
331
54B
  5
567
331
441
  5
441
331
488
  5
488
331
4BF
  5
4BF
331
414
  5
414
331
449
  5
449
331
4FE
  5
518
331
506
  5
520
331
41C
  5
41C
331
451
  5
451
331
490
  5
490
331
4C7
  5
4C7
331
4CF
  5
4CF
331
459
  5
459
331
50E
  5
528
331
4D7
  5
4E5
331
58A
  5
5AC
331
514
  5
52E
331
5C9
  5
571
331
55B
  5
57D
331
592
  5
5B4
331
51C
  5
536
331
5D1
  5
4F9
331
5D9
  5
4D8
331
524
  5
53E
331
563
  5
585
331
59A
  5
5BC
331
422
  5
422
331
461
  5
461
331
52C
  5
546
331
56B
  5
58D
331
5A2
  5
5C4
331
498
  5
498
331
4A0
  5
4A0
331
4DF
  5
4ED
331
5E3
  5
4E2
331
42A
  5
42A
331
469
  5
469
331
471
  5
471
331
4A8
  5
4A8
331
432
  5
432
331
4E7
  5
501
331
4EF
  5
509
331
479
  5
479
331
4B0
  5
4B0
331
405
  5
405
331
43A
  5
43A
331
4F7
  5
511
331
5AA
  5
5CD
331
534
  5
54E
331
573
  5
595
331
57B
  5
59D
331
5B2
  5
5D5
331
53C
  5
558
331
583
  5
5A5
331
5BA
  5
5DD
331
544
  5
560
331
40D
  5
40D
331
442
  5
442
331
481
  5
481
331
54C
  5
568
331
5C2
  5
573
331
4B8
  5
4B8
331
4C0
  5
4C0
331
4FF
  5
519
331
415
  5
415
331
44A
  5
44A
331
489
  5
489
331
491
  5
491
331
4C8
  5
4C8
331
41D
  5
41D
331
452
  5
452
331
507
  5
521
331
4D0
  5
4D0
331
45A
  5
45A
331
50F
  5
529
331
5CA
  5
4F2
331
515
  5
52F
331
554
  5
576
331
58B
  5
5AD
331
593
  5
5B5
331
5D2
  5
4FA
331
51D
  5
537
331
55C
  5
57E
331
59B
  5
5BD
331
5DA
  5
4D9
331
525
  5
53F
331
564
  5
586
331
462
  5
462
331
499
  5
499
331
56C
  5
58E
331
5A3
  5
5C6
331
52D
  5
547
331
423
  5
423
331
4D8
  5
4E6
331
4E0
  5
4EE
331
42B
  5
42B
331
46A
  5
46A
331
4A1
  5
4A1
331
4E8
  5
502
331
433
  5
433
331
472
  5
472
331
4A9
  5
4A9
331
4B1
  5
4B1
331
4F0
  5
50A
331
406
  5
406
331
43B
  5
43B
331
47A
  5
47A
331
535
  5
54F
331
574
  5
596
331
5AB
  5
5CE
331
53D
  5
559
331
57C
  5
59E
331
5B3
  5
5D6
331
5BB
  5
5DE
331
545
  5
561
331
584
  5
5A6
331
482
  5
482
331
4B9
  5
4B9
331
5C3
  5
574
331
40E
  5
40E
331
54D
  5
569
331
443
  5
443
331
4F8
  5
512
331
500
  5
51A
331
48A
  5
48A
331
4C1
  5
4C1
331
416
  5
416
331
44B
  5
44B
331
508
  5
522
331
41E
  5
41E
331
453
  5
453
331
492
  5
492
331
4C9
  5
4C9
331
4D1
  5
4D1
331
45B
  5
45B
331
58C
  5
5AE
331
5CB
  5
4F3
331
516
  5
530
331
555
  5
577
331
55D
  5
57F
331
594
  5
5B6
331
51E
  5
538
331
5D3
  5
4FB
331
5DB
  5
4DA
331
526
  5
540
331
565
  5
587
331
59C
  5
5BE
331
49A
  5
49A
331
4D9
  5
4E7
331
5A4
  5
5C7
331
424
  5
424
331
52E
  5
548
331
56D
  5
58F
331
463
  5
463
331
4A2
  5
4A2
331
4E1
  5
4EF
331
42C
  5
42C
331
46B
  5
46B
331
473
  5
473
331
4AA
  5
4AA
331
434
  5
434
331
4E9
  5
503
331
4F1
  5
50B
331
43C
  5
43C
331
47B
  5
47B
331
4B2
  5
4B2
331
407
  5
407
331
5AC
  5
5CF
331
536
  5
550
331
575
  5
597
331
57D
  5
59F
331
5B4
  5
5D7
331
53E
  5
55A
331
546
  5
562
331
585
  5
5A7
331
5BC
  5
5DF
331
4F9
  5
513
331
40F
  5
40F
331
444
  5
444
331
483
  5
483
331
54E
  5
56A
331
5C4
  5
575
331
4BA
  5
4BA
331
4C2
  5
4C2
331
501
  5
51B
331
417
  5
417
331
44C
  5
44C
331
48B
  5
48B
331
493
  5
493
331
4CA
  5
4CA
331
41F
  5
41F
331
454
  5
454
331
509
  5
523
331
4D2
  5
4D2
331
45C
  5
45C
331
5CC
  5
4F4
331
517
  5
531
331
556
  5
578
331
58D
  5
5AF
331
595
  5
5B7
331
5D4
  5
4FC
331
51F
  5
539
331
55E
  5
580
331
59D
  5
5BF
331
5DC
  5
4DB
331
527
  5
541
331
566
  5
588
331
464
  5
464
331
49B
  5
49B
331
56E
  5
590
331
5A5
  5
5C8
331
52F
  5
549
331
425
  5
425
331
4DA
  5
4E8
331
4E2
  5
4F0
331
42D
  5
42D
331
46C
  5
46C
331
4A3
  5
4A3
331
4AB
  5
4AB
331
4EA
  5
504
331
435
  5
435
331
474
  5
474
331
4B3
  5
4B3
331
4F2
  5
50C
331
43D
  5
43D
331
47C
  5
47C
331
537
  5
551
331
576
  5
598
331
5AD
  5
5D0
331
5B5
  5
5D8
331
53F
  5
55B
331
57E
  5
5A0
331
5BD
  5
5E0
331
408
  5
408
331
547
  5
563
331
586
  5
5A8
331
484
  5
484
331
4BB
  5
4BB
331
410
  5
410
331
54F
  5
56B
331
445
  5
445
331
4FA
  5
514
331
502
  5
51C
331
44D
  5
44D
331
48C
  5
48C
331
4C3
  5
4C3
331
418
  5
418
331
50A
  5
524
331
455
  5
455
331
494
  5
494
331
4CB
  5
4CB
331
4D3
  5
4D3
331
45D
  5
45D
331
510
  5
52A
331
557
  5
579
331
58E
  5
5B0
331
518
  5
532
331
5CD
  5
4F5
331
55F
  5
581
331
520
  5
53A
331
5D5
  5
4FD
331
5DD
  5
4DC
331
528
  5
542
331
567
  5
589
331
59E
  5
5C0
331
49C
  5
49C
331
4DB
  5
4E9
331
5A6
  5
5C9
331
426
  5
426
331
56F
  5
591
331
465
  5
465
331
4A4
  5
4A4
331
4E3
  5
4F1
331
42E
  5
42E
331
46D
  5
46D
331
475
  5
475
331
4AC
  5
4AC
331
436
  5
436
331
4EB
  5
505
331
4F3
  5
50D
331
43E
  5
43E
331
47D
  5
47D
331
4B4
  5
4B4
331
530
  5
54A
331
5AE
  5
5D1
331
538
  5
554
331
577
  5
599
331
57F
  5
5A1
331
5B6
  5
5D9
331
540
  5
55C
331
409
  5
409
331
548
  5
564
331
587
  5
5A9
331
5BE
  5
5E1
331
4BC
  5
4BC
331
4FB
  5
515
331
5C6
  5
56E
331
411
  5
411
331
446
  5
446
331
485
  5
485
331
4C4
  5
4C4
331
503
  5
51D
331
419
  5
419
331
44E
  5
44E
331
48D
  5
48D
331
495
  5
495
331
4CC
  5
4CC
331
456
  5
456
331
50B
  5
525
331
45E
  5
45E
331
4D4
  5
4D4
331
550
  5
56C
331
511
  5
52B
331
5CE
  5
4F6
331
519
  5
533
331
558
  5
57A
331
58F
  5
5B1
331
597
  5
5B9
331
5D6
  5
4FE
331
521
  5
53B
331
560
  5
582
331
568
  5
58A
331
59F
  5
5C1
331
529
  5
543
331
5DE
  5
4DD
331
466
  5
466
331
49D
  5
49D
331
5E0
  5
4DF
331
5A7
  5
5CA
331
427
  5
427
331
4DC
  5
4EA
331
42F
  5
42F
331
46E
  5
46E
331
4A5
  5
4A5
331
4AD
  5
4AD
331
4EC
  5
506
331
437
  5
437
331
476
  5
476
331
4B5
  5
4B5
331
4F4
  5
50E
331
43F
  5
43F
331
47E
  5
47E
331
570
  5
592
331
531
  5
54B
331
539
  5
555
331
578
  5
59A
331
5AF
  5
5D2
331
5B7
  5
5DA
331
541
  5
55D
331
580
  5
5A2
331
5BF
  5
5E2
331
40A
  5
40A
331
549
  5
565
331
486
  5
486
331
4BD
  5
4BD
331
5C7
  5
56F
331
412
  5
412
331
447
  5
447
331
4FC
  5
516
331
504
  5
51E
331
41A
  5
41A
331
44F
  5
44F
331
48E
  5
48E
331
4C5
  5
4C5
331
4CD
  5
4CD
331
50C
  5
526
331
457
  5
457
331
496
  5
496
331
45F
  5
45F
331
588
  5
5AA
331
512
  5
52C
331
551
  5
56D
331
559
  5
57B
331
590
  5
5B2
331
51A
  5
534
331
5CF
  5
4F7
331
5D7
  5
4D6
331
561
  5
583
331
598
  5
5BA
331
522
  5
53C
331
420
  5
420
331
5DF
  5
4DE
331
52A
  5
544
331
569
  5
58B
331
5A0
  5
5C2
331
49E
  5
49E
331
4DD
  5
4EB
331
5E1
  5
4E0
331
428
  5
428
331
467
  5
467
331
46F
  5
46F
331
4A6
  5
4A6
331
430
  5
430
331
4E5
  5
4FF
331
477
  5
477
331
4AE
  5
4AE
331
403
  5
403
331
438
  5
438
331
4ED
  5
507
331
4F5
  5
50F
331
47F
  5
47F
331
4B6
  5
4B6
331
5A8
  5
5CB
331
532
  5
54C
331
571
  5
593
331
579
  5
59B
331
5B0
  5
5D3
331
53A
  5
556
331
581
  5
5A3
331
5B8
  5
5DB
331
542
  5
55E
331
40B
  5
40B
331
440
  5
440
331
54A
  5
566
331
5C0
  5
5E3
331
4BE
  5
4BE
331
4FD
  5
517
331
413
  5
413
331
448
  5
448
331
487
  5
487
331
4C6
  5
4C6
331
505
  5
51F
331
41B
  5
41B
331
450
  5
450
331
48F
  5
48F
331
497
  5
497
331
4CE
  5
4CE
331
458
  5
458
331
50D
  5
527
331
4D6
  5
4E3
  0
LAYOUT
  5
22
102
{ACAD_XDICTIONARY
360
68D
102
}
102
{ACAD_REACTORS
330
1A
102
}
330
1A
100
AcDbPlotSettings
  1

  2

  4

  6

 40
0.0
 41
0.0
 42
0.0
 43
0.0
 44
0.0
 45
0.0
 46
0.0
 47
0.0
 48
0.0
 49
0.0
140
0.0
141
0.0
142
1.0
143
1.0
 70
  1712
 72
     0
 73
     0
 74
     0
  7

 75
     0
147
1.0
148
0.0
149
0.0
100
AcDbLayout
  1
Model
 70
     1
 71
     0
 10
0.0
 20
0.0
 11
12.0
 21
9.0
 12
0.0
 22
0.0
 32
0.0
 14
0.0
 24
0.0
 34
0.0
 15
0.0
 25
0.0
 35
0.0
146
0.0
 13
0.0
 23
0.0
 33
0.0
 16
1.0
 26
0.0
 36
0.0
 17
0.0
 27
1.0
 37
0.0
 76
     0
330
1F
  0
LAYOUT
  5
1E
102
{ACAD_XDICTIONARY
360
68B
102
}
102
{ACAD_REACTORS
330
1A
102
}
330
1A
100
AcDbPlotSettings
  1

  2

  4

  6

 40
0.0
 41
0.0
 42
0.0
 43
0.0
 44
0.0
 45
0.0
 46
0.0
 47
0.0
 48
0.0
 49
0.0
140
0.0
141
0.0
142
1.0
143
1.0
 70
   688
 72
     0
 73
     0
 74
     5
  7

 75
    16
147
1.0
148
0.0
149
0.0
100
AcDbLayout
  1
レイアウト1
 70
     1
 71
     1
 10
0.0
 20
0.0
 11
420.0
 21
297.0
 12
0.0
 22
0.0
 32
0.0
 14
1.000000000000000E+20
 24
1.000000000000000E+20
 34
1.000000000000000E+20
 15
-1.000000000000000E+20
 25
-1.000000000000000E+20
 35
-1.000000000000000E+20
146
0.0
 13
0.0
 23
0.0
 33
0.0
 16
1.0
 26
0.0
 36
0.0
 17
0.0
 27
1.0
 37
0.0
 76
     0
330
1B
  0
LAYOUT
  5
26
102
{ACAD_XDICTIONARY
360
68F
102
}
102
{ACAD_REACTORS
330
1A
102
}
330
1A
100
AcDbPlotSettings
  1

  2

  4

  6

 40
0.0
 41
0.0
 42
0.0
 43
0.0
 44
0.0
 45
0.0
 46
0.0
 47
0.0
 48
0.0
 49
0.0
140
0.0
141
0.0
142
1.0
143
1.0
 70
   688
 72
     0
 73
     0
 74
     5
  7

 75
    16
147
1.0
148
0.0
149
0.0
100
AcDbLayout
  1
レイアウト2
 70
     1
 71
     2
 10
0.0
 20
0.0
 11
12.0
 21
9.0
 12
0.0
 22
0.0
 32
0.0
 14
0.0
 24
0.0
 34
0.0
 15
0.0
 25
0.0
 35
0.0
146
0.0
 13
0.0
 23
0.0
 33
0.0
 16
1.0
 26
0.0
 36
0.0
 17
0.0
 27
1.0
 37
0.0
 76
     0
330
23
  0
MLINESTYLE
  5
18
102
{ACAD_REACTORS
330
17
102
}
330
17
100
AcDbMlineStyle
  2
STANDARD
 70
     0
  3

 62
   256
 51
90.0
 52
90.0
 71
     2
 49
0.5
 62
   256
  6
BYLAYER
 49
-0.5
 62
   256
  6
BYLAYER
  0
ACDBPLACEHOLDER
  5
F
102
{ACAD_REACTORS
330
E
102
}
330
E
  0
TABLESTYLE
  5
11B
102
{ACAD_REACTORS
330
11A
102
}
330
11A
100
AcDbTableStyle
  3
Standard
 70
     0
 71
     0
 40
1.5
 41
1.5
280
     0
281
     0
  7
STANDARD
140
4.5
170
     2
 62
     0
 63
     7
283
     0
274
    -2
284
     1
 64
     0
275
    -2
285
     1
 65
     0
276
    -2
286
     1
 66
     0
277
    -2
287
     1
 67
     0
278
    -2
288
     1
 68
     0
279
    -2
289
     1
 69
     0
  7
STANDARD
140
6.0
170
     5
 62
     0
 63
     7
283
     0
274
    -2
284
     1
 64
     0
275
    -2
285
     1
 65
     0
276
    -2
286
     1
 66
     0
277
    -2
287
     1
 67
     0
278
    -2
288
     1
 68
     0
279
    -2
289
     1
 69
     0
  7
STANDARD
140
4.5
170
     5
 62
     0
 63
     7
283
     0
274
    -2
284
     1
 64
     0
275
    -2
285
     1
 65
     0
276
    -2
286
     1
 66
     0
277
    -2
287
     1
 67
     0
278
    -2
288
     1
 68
     0
279
    -2
289
     1
 69
     0
  0
DICTIONARYVAR
  5
138
102
{ACAD_REACTORS
330
94
102
}
330
94
100
DictionaryVariables
280
     0
  1
STANDARD
  0
DICTIONARYVAR
  5
96
102
{ACAD_REACTORS
330
94
102
}
330
94
100
DictionaryVariables
280
     0
  1
2
  0
DICTIONARYVAR
  5
95
102
{ACAD_REACTORS
330
94
102
}
330
94
100
DictionaryVariables
280
     0
  1
0
  0
DICTIONARYVAR
  5
5E5
102
{ACAD_REACTORS
330
94
102
}
330
94
100
DictionaryVariables
280
     0
  1

  0
DICTIONARY
  5
1B5
102
{ACAD_REACTORS
330
5B
102
}
330
5B
100
AcDbDictionary
281
     1
  0
DICTIONARY
  5
61
102
{ACAD_REACTORS
330
5B
102
}
330
5B
100
AcDbDictionary
281
     1
  0
XRECORD
  5
123
102
{ACAD_REACTORS
330
5B
102
}
330
5B
100
AcDbXrecord
280
     1
 90
-1023410169
  0
DICTIONARY
  5
68D
330
22
100
AcDbDictionary
280
     1
281
     1
  3
ACAD_XREC_ROUNDTRIP
360
68E
  0
DICTIONARY
  5
68B
330
1E
100
AcDbDictionary
280
     1
281
     1
  3
ACAD_XREC_ROUNDTRIP
360
68C
  0
DICTIONARY
  5
68F
330
26
100
AcDbDictionary
280
     1
281
     1
  3
ACAD_XREC_ROUNDTRIP
360
690
  0
XRECORD
  5
68E
102
{ACAD_REACTORS
330
68D
102
}
330
68D
100
AcDbXrecord
280
     1
102
SHADEPLOT
 70
     0
102
SHADEPLOTRESLEVEL
 70
     2
102
SHADEPLOTCUSTOMDPI
 70
   300
  0
XRECORD
  5
68C
102
{ACAD_REACTORS
330
68B
102
}
330
68B
100
AcDbXrecord
280
     1
102
SHADEPLOT
 70
     0
102
SHADEPLOTRESLEVEL
 70
     2
102
SHADEPLOTCUSTOMDPI
 70
   300
  0
XRECORD
  5
690
102
{ACAD_REACTORS
330
68F
102
}
330
68F
100
AcDbXrecord
280
     1
102
SHADEPLOT
 70
     0
102
SHADEPLOTRESLEVEL
 70
     2
102
SHADEPLOTCUSTOMDPI
 70
   300
  0
ENDSEC
  0
EOF
