  0
SECTION
  2
HEADER
  9
$ACADVER
  1
AC1015
  9
$ACADMAINTVER
 70
    20
  9
$DWGCODEPAGE
  3
ANSI_932
  9
$INSBASE
 10
0.0
 20
0.0
 30
0.0
  9
$EXTMIN
 10
-0.5383441590956864
 20
-0.0181263349739993
 30
-0.0000000349181948
  9
$EXTMAX
 10
204.5397097055144
 20
230.5246445272203
 30
0.0000000814935747
  9
$LIMMIN
 10
0.0
 20
0.0
  9
$LIMMAX
 10
420.0
 20
297.0
  9
$ORTHOMODE
 70
     1
  9
$REGENMODE
 70
     1
  9
$FILLMODE
 70
     1
  9
$QTEXTMODE
 70
     0
  9
$MIRRTEXT
 70
     1
  9
$LTSCALE
 40
1.0
  9
$ATTMODE
 70
     1
  9
$TEXTSIZE
 40
1.0
  9
$TRACEWID
 40
1.0
  9
$TEXTSTYLE
  7
ACISOTS
  9
$CLAYER
  8
AM_0
  9
$CELTYPE
  6
ByLayer
  9
$CECOLOR
 62
   256
  9
$CELTSCALE
 40
1.0
  9
$DISPSILH
 70
     0
  9
$DIMSCALE
 40
1.0
  9
$DIMASZ
 40
2.5
  9
$DIMEXO
 40
1.0
  9
$DIMDLI
 40
10.0
  9
$DIMRND
 40
0.0
  9
$DIMDLE
 40
0.0
  9
$DIMEXE
 40
1.0
  9
$DIMTP
 40
0.1
  9
$DIMTM
 40
0.1
  9
$DIMTXT
 40
3.5
  9
$DIMCEN
 40
0.0
  9
$DIMTSZ
 40
0.0
  9
$DIMTOL
 70
     0
  9
$DIMLIM
 70
     0
  9
$DIMTIH
 70
     0
  9
$DIMTOH
 70
     0
  9
$DIMSE1
 70
     0
  9
$DIMSE2
 70
     0
  9
$DIMTAD
 70
     1
  9
$DIMZIN
 70
     8
  9
$DIMBLK
  1

  9
$DIMASO
 70
     1
  9
$DIMSHO
 70
     1
  9
$DIMPOST
  1

  9
$DIMAPOST
  1
"
  9
$DIMALT
 70
     0
  9
$DIMALTD
 70
     2
  9
$DIMALTF
 40
0.0393701
  9
$DIMLFAC
 40
1.0
  9
$DIMTOFL
 70
     1
  9
$DIMTVP
 40
0.0
  9
$DIMTIX
 70
     0
  9
$DIMSOXD
 70
     0
  9
$DIMSAH
 70
     0
  9
$DIMBLK1
  1

  9
$DIMBLK2
  1

  9
$DIMSTYLE
  2
AM_ISO
  9
$DIMCLRD
 70
   256
  9
$DIMCLRE
 70
   256
  9
$DIMCLRT
 70
     2
  9
$DIMTFAC
 40
0.71
  9
$DIMGAP
 40
1.5
  9
$DIMJUST
 70
     0
  9
$DIMSD1
 70
     0
  9
$DIMSD2
 70
     0
  9
$DIMTOLJ
 70
     0
  9
$DIMTZIN
 70
     8
  9
$DIMALTZ
 70
     0
  9
$DIMALTTZ
 70
     0
  9
$DIMUPT
 70
     0
  9
$DIMDEC
 70
     2
  9
$DIMTDEC
 70
     3
  9
$DIMALTU
 70
     2
  9
$DIMALTTD
 70
     4
  9
$DIMTXSTY
  7
STANDARD
  9
$DIMAUNIT
 70
     0
  9
$DIMADEC
 70
     0
  9
$DIMALTRND
 40
0.0
  9
$DIMAZIN
 70
     2
  9
$DIMDSEP
 70
    46
  9
$DIMATFIT
 70
     3
  9
$DIMFRAC
 70
     0
  9
$DIMLDRBLK
  1

  9
$DIMLUNIT
 70
     2
  9
$DIMLWD
 70
    -1
  9
$DIMLWE
 70
    -1
  9
$DIMTMOVE
 70
     0
  9
$LUNITS
 70
     2
  9
$LUPREC
 70
     2
  9
$SKETCHINC
 40
1.0
  9
$FILLETRAD
 40
2.5
  9
$AUNITS
 70
     0
  9
$AUPREC
 70
     0
  9
$MENU
  1
.
  9
$ELEVATION
 40
0.0
  9
$PELEVATION
 40
0.0
  9
$THICKNESS
 40
0.0
  9
$LIMCHECK
 70
     0
  9
$CHAMFERA
 40
2.5
  9
$CHAMFERB
 40
2.5
  9
$CHAMFERC
 40
20.0
  9
$CHAMFERD
 40
0.0
  9
$SKPOLY
 70
     0
  9
$TDCREATE
 40
2456406.566514028
  9
$TDUCREATE
 40
2456406.191514028
  9
$TDUPDATE
 40
2456406.649020984
  9
$TDUUPDATE
 40
2456406.274020984
  9
$TDINDWG
 40
0.0033023380
  9
$TDUSRTIMER
 40
0.0032357870
  9
$USRTIMER
 70
     1
  9
$ANGBASE
 50
0.0
  9
$ANGDIR
 70
     0
  9
$PDMODE
 70
     0
  9
$PDSIZE
 40
0.0
  9
$PLINEWID
 40
0.0
  9
$SPLFRAME
 70
     0
  9
$SPLINETYPE
 70
     6
  9
$SPLINESEGS
 70
     8
  9
$HANDSEED
  5
6EC
  9
$SURFTAB1
 70
     6
  9
$SURFTAB2
 70
     6
  9
$SURFTYPE
 70
     6
  9
$SURFU
 70
     6
  9
$SURFV
 70
     6
  9
$UCSBASE
  2

  9
$UCSNAME
  2

  9
$UCSORG
 10
0.0
 20
0.0
 30
0.0
  9
$UCSXDIR
 10
1.0
 20
0.0
 30
0.0
  9
$UCSYDIR
 10
0.0
 20
1.0
 30
0.0
  9
$UCSORTHOREF
  2

  9
$UCSORTHOVIEW
 70
     0
  9
$UCSORGTOP
 10
0.0
 20
0.0
 30
0.0
  9
$UCSORGBOTTOM
 10
0.0
 20
0.0
 30
0.0
  9
$UCSORGLEFT
 10
0.0
 20
0.0
 30
0.0
  9
$UCSORGRIGHT
 10
0.0
 20
0.0
 30
0.0
  9
$UCSORGFRONT
 10
0.0
 20
0.0
 30
0.0
  9
$UCSORGBACK
 10
0.0
 20
0.0
 30
0.0
  9
$PUCSBASE
  2

  9
$PUCSNAME
  2

  9
$PUCSORG
 10
0.0
 20
0.0
 30
0.0
  9
$PUCSXDIR
 10
1.0
 20
0.0
 30
0.0
  9
$PUCSYDIR
 10
0.0
 20
1.0
 30
0.0
  9
$PUCSORTHOREF
  2

  9
$PUCSORTHOVIEW
 70
     0
  9
$PUCSORGTOP
 10
0.0
 20
0.0
 30
0.0
  9
$PUCSORGBOTTOM
 10
0.0
 20
0.0
 30
0.0
  9
$PUCSORGLEFT
 10
0.0
 20
0.0
 30
0.0
  9
$PUCSORGRIGHT
 10
0.0
 20
0.0
 30
0.0
  9
$PUCSORGFRONT
 10
0.0
 20
0.0
 30
0.0
  9
$PUCSORGBACK
 10
0.0
 20
0.0
 30
0.0
  9
$USERI1
 70
     0
  9
$USERI2
 70
     0
  9
$USERI3
 70
     0
  9
$USERI4
 70
     0
  9
$USERI5
 70
     0
  9
$USERR1
 40
0.0
  9
$USERR2
 40
0.0
  9
$USERR3
 40
0.0
  9
$USERR4
 40
0.0
  9
$USERR5
 40
0.0
  9
$WORLDVIEW
 70
     1
  9
$SHADEDGE
 70
     3
  9
$SHADEDIF
 70
    70
  9
$TILEMODE
 70
     1
  9
$MAXACTVP
 70
    64
  9
$PINSBASE
 10
0.0
 20
0.0
 30
0.0
  9
$PLIMCHECK
 70
     0
  9
$PEXTMIN
 10
1.000000000000000E+20
 20
1.000000000000000E+20
 30
1.000000000000000E+20
  9
$PEXTMAX
 10
-1.000000000000000E+20
 20
-1.000000000000000E+20
 30
-1.000000000000000E+20
  9
$PLIMMIN
 10
0.0
 20
0.0
  9
$PLIMMAX
 10
420.0
 20
297.0
  9
$UNITMODE
 70
     0
  9
$VISRETAIN
 70
     1
  9
$PLINEGEN
 70
     0
  9
$PSLTSCALE
 70
     1
  9
$TREEDEPTH
 70
  3020
  9
$CMLSTYLE
  2
Standard
  9
$CMLJUST
 70
     0
  9
$CMLSCALE
 40
20.0
  9
$PROXYGRAPHICS
 70
     1
  9
$MEASUREMENT
 70
     1
  9
$CELWEIGHT
370
    -1
  9
$ENDCAPS
280
     0
  9
$JOINSTYLE
280
     0
  9
$LWDISPLAY
290
     0
  9
$INSUNITS
 70
     4
  9
$HYPERLINKBASE
  1

  9
$STYLESHEET
  1

  9
$XEDIT
290
     1
  9
$CEPSNTYPE
380
     0
  9
$PSTYLEMODE
290
     1
  9
$FINGERPRINTGUID
  2
{A96BFB4C-1F20-4552-988A-6B6B9FA8A280}
  9
$VERSIONGUID
  2
{2AB45F28-C9E5-465A-9B4E-1D9E52C46A4F}
  9
$EXTNAMES
290
     1
  9
$PSVPSCALE
 40
0.0
  9
$OLESTARTUP
290
     0
  0
ENDSEC
  0
SECTION
  2
CLASSES
  0
CLASS
  1
ACDBDICTIONARYWDFLT
  2
AcDbDictionaryWithDefault
  3
ObjectDBX Classes
 90
        0
280
     0
281
     0
  0
CLASS
  1
ACDBPLACEHOLDER
  2
AcDbPlaceHolder
  3
ObjectDBX Classes
 90
        0
280
     0
281
     0
  0
CLASS
  1
LAYOUT
  2
AcDbLayout
  3
ObjectDBX Classes
 90
        0
280
     0
281
     0
  0
CLASS
  1
ACME_DOCUMENT
  2
AcMeDbDoc
  3
AcMeServices
 90
        0
280
     0
281
     0
  0
CLASS
  1
AMGSETTINGSOBJ
  2
AmgSettingsObj
  3
"AcadM|Product Description: AutoCAD Mechanical 2000|Company: Autodesk"
 90
        0
280
     0
281
     0
  0
CLASS
  1
ACMESCOPE
  2
AcMeScope
  3
AcMeServices
 90
        0
280
     0
281
     0
  0
CLASS
  1
ACMECOMMANDHISTORY
  2
AcMeCommandHistory
  3
AcMeServices
 90
        0
280
     0
281
     0
  0
CLASS
  1
ACIMSYSVARMAN
  2
AcImSysVarManager
  3
AcMeServices
 90
        0
280
     0
281
     0
  0
CLASS
  1
ACIMREALSYSVAR
  2
AcImRealSysVar
  3
AcMeServices
 90
        0
280
     0
281
     0
  0
CLASS
  1
ACIMINTSYSVAR
  2
AcImIntSysVar
  3
AcMeServices
 90
        0
280
     0
281
     0
  0
CLASS
  1
ACMEDRAWINGMAN
  2
AcMeDrawingMan
  3
AcMeServices
 90
        0
280
     0
281
     0
  0
CLASS
  1
ACMEVIEW
  2
AcMeView
  3
AcMeServices
 90
        0
280
     0
281
     0
  0
CLASS
  1
ACDBENTITYCACHE
  2
AcMeEntityCache
  3
AcMeServices
 90
        0
280
     0
281
     0
  0
CLASS
  1
GSMANAGER
  2
AcMeGSManager
  3
AcMeServices
 90
        0
280
     0
281
     0
  0
CLASS
  1
AMDTINTERNALREACTOR
  2
AmdtInternalReactor
  3
AcMeServices
 90
        0
280
     0
281
     0
  0
CLASS
  1
ACMESTATEMGR
  2
AcMeStateMgr
  3
AcMeServices
 90
        0
280
     0
281
     0
  0
CLASS
  1
ACGREFMASTER
  2
AcGrefMaster
  3
AcAttribServices
 90
        0
280
     0
281
     0
  0
CLASS
  1
ACME_DATABASE
  2
AcMeDbDatabase
  3
AcMeServices
 90
        0
280
     0
281
     0
  0
CLASS
  1
ACRFINSADJUSTERMGR
  2
AcRfInsAdjusterMgr
  3
AcMeServices
 90
        0
280
     0
281
     0
  0
CLASS
  1
ACGREFACADMASTER
  2
AcGrefacadMaster
  3
AcGrefServices
 90
        0
280
     0
281
     0
  0
CLASS
  1
AMIMASTER
  2
AmiMaster
  3
AmiServices
 90
        0
280
     0
281
     0
  0
CLASS
  1
ACMDATADICTIONARY
  2
AcmDataDictionary
  3
"AcmSymBB|Product Description: AutoCAD Mechanical 2004 DX|Company: Autodesk"
 90
        0
280
     0
281
     0
  0
CLASS
  1
ACMDATAENTRYBLOCK
  2
AcmDataEntryBlock
  3
"AcmSymBB|Product Description: AutoCAD Mechanical 2004 DX|Company: Autodesk"
 90
    32768
280
     0
281
     0
  0
CLASS
  1
ACIMSTRSYSVAR
  2
AcImStrSysVar
  3
AcMeServices
 90
        0
280
     0
281
     0
  0
CLASS
  1
ACMSTANDARDISO
  2
AcmStandardISO
  3
"Amdt_StdImp|Product Description: AutoCAD Mechanical 2004 DX|Company: Autodesk"
 90
    32768
280
     0
281
     0
  0
CLASS
  1
AMGOBJPROPCFG
  2
AmgObjPropCfg
  3
"AmgLay|Product Description: AutoCAD Mechanical 2000|Company: Autodesk"
 90
        1
280
     0
281
     0
  0
CLASS
  1
AMDTEDGESTANDARDISO
  2
AmdtEdgeStdISO
  3
"Amdt_StdImp|Product Description: AutoCAD Mechanical 2004 DX|Company: Autodesk"
 90
    32768
280
     0
281
     0
  0
CLASS
  1
ACMSURFSTANDARDISO
  2
AcmSurfTextStdISO
  3
"Amdt_StdImp|Product Description: AutoCAD Mechanical 2004 DX|Company: Autodesk"
 90
    32768
280
     0
281
     0
  0
CLASS
  1
ACMFCFSTANDARDISO
  2
AcmFCFStdISO
  3
"Amdt_StdImp|Product Description: AutoCAD Mechanical 2004 DX|Company: Autodesk"
 90
    32768
280
     0
281
     0
  0
CLASS
  1
ACMWELDSTANDARDISO
  2
AcmWeldingStdISO
  3
"Amdt_StdImp|Product Description: AutoCAD Mechanical 2004 DX|Company: Autodesk"
 90
    32768
280
     0
281
     0
  0
CLASS
  1
ACMIDSTANDARDISO
  2
AcmIdStdISO
  3
"Amdt_StdImp|Product Description: AutoCAD Mechanical 2004 DX|Company: Autodesk"
 90
    32768
280
     0
281
     0
  0
CLASS
  1
ACMDATUMSTANDARDISO
  2
AcmDatumStdISO
  3
"Amdt_StdImp|Product Description: AutoCAD Mechanical 2004 DX|Company: Autodesk"
 90
    32768
280
     0
281
     0
  0
CLASS
  1
ACMBOMSTANDARDISO
  2
AcmBOMStdISO
  3
"Amdt_StdImp|Product Description: AutoCAD Mechanical 2004 DX|Company: Autodesk"
 90
    32768
280
     0
281
     0
  0
CLASS
  1
ACMDETAILSTANDARDISO
  2
AmdtDetailSymStdISO
  3
"Amdt_StdImp|Product Description: AutoCAD Mechanical 2004 DX|Company: Autodesk"
 90
    32768
280
     0
281
     0
  0
CLASS
  1
ACMSECTIONSTANDARDISO
  2
AmdtSectionSymStdISO
  3
"Amdt_StdImp|Product Description: AutoCAD Mechanical 2004 DX|Company: Autodesk"
 90
    32768
280
     0
281
     0
  0
CLASS
  1
ACMCENTERLINESTANDARDISO
  2
AmdtCenterLineStdISO
  3
"Amdt_StdImp|Product Description: AutoCAD Mechanical 2004 DX|Company: Autodesk"
 90
    32768
280
     0
281
     0
  0
CLASS
  1
ACMNOTESTANDARDISO
  2
AmdtNoteStdISO
  3
"Amdt_StdImp|Product Description: AutoCAD Mechanical 2004 DX|Company: Autodesk"
 90
    32768
280
     0
281
     0
  0
CLASS
  1
ACAMGLAYSTD
  2
AcAmgLayStd
  3
"AcAmgLayStd|Product Description: AutoCAD Mechanical 2000|Company: Autodesk"
 90
        0
280
     0
281
     0
  0
CLASS
  1
ACAMGDIMSTD
  2
AcAmgDimStd
  3
"AcAmgDimStd|Product Description: AutoCAD Mechanical 2000|Company: Autodesk"
 90
        0
280
     0
281
     0
  0
CLASS
  1
ACAMGHOLECHARTSTDISO
  2
AcAmgHoleChartStdISO
  3
ACMSYMBB_MODULE_NAME
 90
    32768
280
     0
281
     0
  0
CLASS
  1
ACAMGTITLESTD
  2
AcAmgTitleStd
  3
"TITLEAPP"
 90
        0
280
     0
281
     0
  0
CLASS
  1
LAYER_INDEX
  2
AcDbLayerIndex
  3
ObjectDBX Classes
 90
    32768
280
     0
281
     0
  0
CLASS
  1
IDBUFFER
  2
AcDbIdBuffer
  3
ObjectDBX Classes
 90
    32768
280
     0
281
     0
  0
CLASS
  1
DICTIONARYVAR
  2
AcDbDictionaryVar
  3
ObjectDBX Classes
 90
        0
280
     0
281
     0
  0
CLASS
  1
AM_DRAWING_MGR
  2
AcDmDwgMgr
  3
AcMechDwgViewMgmt
 90
        0
280
     0
281
     0
  0
CLASS
  1
AM_DWG_DOCUMENT
  2
AcDmDwgDocument
  3
AcMechDwgViewMgmt
 90
        0
280
     0
281
     0
  0
CLASS
  1
AM_DWG_SHEET
  2
AcDmSheet
  3
AcMechDwgViewMgmt
 90
        0
280
     0
281
     0
  0
CLASS
  1
AM_VIEWDIMPARMAP
  2
AcDmViewDimParMap
  3
AcMechDwgViewMgmt
 90
        0
280
     0
281
     0
  0
CLASS
  1
AM_DWGMGR_NAME
  2
AcDmDwgMgrName
  3
AcMechDwgViewMgmt
 90
        0
280
     0
281
     0
  0
CLASS
  1
AMDTMENUSTATEMGR
  2
AmdtMenuStateMgr
  3
McadcomServices
 90
        0
280
     0
281
     0
  0
CLASS
  1
AMDTMCOMMENUSTATE
  2
AmdtMcomMenuState
  3
McadcomServices
 90
        0
280
     0
281
     0
  0
CLASS
  1
MAPIAMMOUDLE
  2
MApiAmModule
  3
MApiAmServices
 90
        0
280
     0
281
     0
  0
CLASS
  1
AMDTADMENUSTATE
  2
AmdtAdMenuState
  3
DesignerServices
 90
        0
280
     0
281
     0
  0
CLASS
  1
ADAPPL
  2
AcAdAppl
  3
DesignerServices
 90
        0
280
     0
281
     0
  0
CLASS
  1
DEPMGR
  2
AcAdDepMgr
  3
DesignerServices
 90
        0
280
     0
281
     0
  0
CLASS
  1
PARAMMGR
  2
AcAdParamMgr
  3
DesignerServices
 90
        0
280
     0
281
     0
  0
CLASS
  1
PARAMSCOPE
  2
AcAdParamScope
  3
DesignerServices
 90
        0
280
     0
281
     0
  0
CLASS
  1
NAMEDAPPL
  2
AcAdNamedAppl
  3
DesignerServices
 90
        0
280
     0
281
     0
  0
CLASS
  1
AMDTDMMENUSTATE
  2
AmdtDmMenuState
  3
AcMechDwgViewMgmt
 90
        0
280
     0
281
     0
  0
CLASS
  1
AMDTAMMENUSTATE
  2
AmdtAmMenuState
  3
DesignerAssemblies
 90
        0
280
     0
281
     0
  0
CLASS
  1
ACAMPROJECT
  2
AcAmProject
  3
DesignerAssemblies
 90
        0
280
     0
281
     0
  0
CLASS
  1
ACAMGRCOMPDEF
  2
AcAmGrCompDef
  3
DesignerAssemblies
 90
        0
280
     0
281
     0
  0
CLASS
  1
ACCMCONTEXT
  2
AcCmContext
  3
DesignerAssemblies
 90
        0
280
     0
281
     0
  0
CLASS
  1
ACAMCOMPDEF
  2
AcAmCompDef
  3
DesignerAssemblies
 90
        0
280
     0
281
     0
  0
CLASS
  1
ACAMCOMPDEFMGR
  2
AcAmCompDefMgr
  3
DesignerAssemblies
 90
        0
280
     0
281
     0
  0
CLASS
  1
AMCONTEXTMGR
  2
AcAmContextMgr
  3
DesignerAssemblies
 90
        0
280
     0
281
     0
  0
CLASS
  1
ACAMCONTEXTMODELER
  2
AcAmContextModeler
  3
DesignerAssemblies
 90
        0
280
     0
281
     0
  0
CLASS
  1
ACMTHREADLINESTANDARDISO
  2
AmdtThreadLineStdISO
  3
"Amdt_StdImp|Product Description: AutoCAD Mechanical 2004 DX|Company: Autodesk"
 90
    32768
280
     0
281
     0
  0
CLASS
  1
CATALOGSTATE
  2
AcAmCatalogState
  3
DesignerAssemblies
 90
        0
280
     0
281
     0
  0
CLASS
  1
ACAMGRCOMPDEFSET
  2
AcAmGrCompDefSet
  3
DesignerAssemblies
 90
        0
280
     0
281
     0
  0
CLASS
  1
AMDTBROWSERDBTAB
  2
AmdtBrowserDbTab
  3
McadcomServices
 90
        0
280
     0
281
     0
  0
CLASS
  1
CBROWSERAPPOBJECT
  2
CBrowserAppObject
  3
McadcomServices
 90
        0
280
     0
281
     0
  0
CLASS
  1
DM_PLACEHOLDER
  2
AcDmSelsetPlaceholder
  3
AcMechDwgViewMgmt
 90
        0
280
     0
281
     0
  0
CLASS
  1
TABLESTYLE
  2
AcDbTableStyle
  3
ObjectDBX Classes
 90
     2047
280
     0
281
     0
  0
CLASS
  1
VAACXREFPANELOBJECT
  2
VaAcXREFPanelObject
  3
VAAC_ADDIN
 90
    32768
280
     0
281
     0
  0
CLASS
  1
VAACIMAGEINVENTORY
  2
VaAcImageInventory
  3
VAAC_ADDIN
 90
    32768
280
     0
281
     0
  0
CLASS
  1
AMDTNOTETEMPLATEDB
  2
AmdtNoteTemplateDB
  3
AMDT_STDIMP_MODULE_NAME
 90
        0
280
     0
281
     0
  0
CLASS
  1
ACMBOM
  2
AcmBom
  3
"AcmSymBB|Product Description: AutoCAD Mechanical 2004 DX|Company: Autodesk"
 90
    32768
280
     0
281
     0
  0
CLASS
  1
AMDTFORMULAUPDATEDISPATCHER
  2
AmdtFormulaUpdateDispatcher
  3
AcMeServices
 90
    32768
280
     0
281
     0
  0
CLASS
  1
ACMPARTLIST
  2
AcmPartList
  3
"AcmSymBB|Product Description: AutoCAD Mechanical 2004 DX|Company: Autodesk"
 90
    33791
280
     0
281
     1
  0
CLASS
  1
ACAMGFILTERDAT
  2
AcAmgFilterDat
  3
"AcadM|Product Description: AutoCAD Mechanical 2000|Company: Autodesk"
 90
    32768
280
     0
281
     0
  0
CLASS
  1
SORTENTSTABLE
  2
AcDbSortentsTable
  3
ObjectDBX Classes
 90
        0
280
     0
281
     0
  0
CLASS
  1
ACMSTANDARDJIS
  2
AcmStandardJIS
  3
"Amdt_StdImp|Product Description: AutoCAD Mechanical 2004 DX|Company: Autodesk"
 90
        0
280
     0
281
     0
  0
CLASS
  1
ACMSURFSTANDARDJIS
  2
AcmSurfTextStdJIS
  3
"Amdt_StdImp|Product Description: AutoCAD Mechanical 2004 DX|Company: Autodesk"
 90
        0
280
     0
281
     0
  0
CLASS
  1
ACMFCFSTANDARDJIS
  2
AcmFCFStdJIS
  3
"Amdt_StdImp|Product Description: AutoCAD Mechanical 2004 DX|Company: Autodesk"
 90
        0
280
     0
281
     0
  0
CLASS
  1
ACMWELDSTANDARDJIS
  2
AcmWeldingStdJIS
  3
"Amdt_StdImp|Product Description: AutoCAD Mechanical 2004 DX|Company: Autodesk"
 90
        0
280
     0
281
     0
  0
CLASS
  1
ACMIDSTANDARDJIS
  2
AcmIdStdJIS
  3
"Amdt_StdImp|Product Description: AutoCAD Mechanical 2004 DX|Company: Autodesk"
 90
        0
280
     0
281
     0
  0
CLASS
  1
ACMDATUMSTANDARDJIS
  2
AcmDatumStdJIS
  3
"Amdt_StdImp|Product Description: AutoCAD Mechanical 2004 DX|Company: Autodesk"
 90
        0
280
     0
281
     0
  0
CLASS
  1
ACMBOMSTANDARDJIS
  2
AcmBOMStdJIS
  3
"Amdt_StdImp|Product Description: AutoCAD Mechanical 2004 DX|Company: Autodesk"
 90
        0
280
     0
281
     0
  0
CLASS
  1
ACMDETAILSTANDARDJIS
  2
AmdtDetailSymStdJIS
  3
"Amdt_StdImp|Product Description: AutoCAD Mechanical 2004 DX|Company: Autodesk"
 90
        0
280
     0
281
     0
  0
CLASS
  1
ACMSECTIONSTANDARDJIS
  2
AmdtSectionSymStdJIS
  3
"Amdt_StdImp|Product Description: AutoCAD Mechanical 2004 DX|Company: Autodesk"
 90
        0
280
     0
281
     0
  0
CLASS
  1
ACMCENTERLINESTANDARDJIS
  2
AmdtCenterLineStdJIS
  3
"Amdt_StdImp|Product Description: AutoCAD Mechanical 2004 DX|Company: Autodesk"
 90
        0
280
     0
281
     0
  0
CLASS
  1
ACMTHREADLINESTANDARDJIS
  2
AmdtThreadLineStdJIS
  3
"Amdt_StdImp|Product Description: AutoCAD Mechanical 2004 DX|Company: Autodesk"
 90
        0
280
     0
281
     0
  0
CLASS
  1
ACMNOTESTANDARDJIS
  2
AmdtNoteStdJIS
  3
"Amdt_StdImp|Product Description: AutoCAD Mechanical 2004 DX|Company: Autodesk"
 90
        0
280
     0
281
     0
  0
CLASS
  1
ACAMGHOLECHARTSTDJIS
  2
AcAmgHoleChartStdJIS
  3
ACMSYMBB_MODULE_NAME
 90
        0
280
     0
281
     0
  0
CLASS
  1
ACRFATTGENMGR
  2
AcRfAttGeneralMgr
  3
AcAttribServices
 90
    32768
280
     0
281
     0
  0
ENDSEC
  0
SECTION
  2
TABLES
  0
TABLE
  2
VPORT
  5
8
330
0
100
AcDbSymbolTable
 70
     3
  0
VPORT
  5
6E3
330
8
100
AcDbSymbolTableRecord
100
AcDbViewportTableRecord
  2
*Active
 70
     0
 10
0.0
 20
0.0
 11
1.0
 21
1.0
 12
102.0006827732093
 22
115.2532590961231
 13
0.0
 23
0.0
 14
2.5
 24
2.5
 15
10.0
 25
10.0
 16
0.0
 26
0.0
 36
1.0
 17
0.0
 27
0.0
 37
0.0
 40
463.9703313493587
 41
1.954070981210855
 42
50.0
 43
0.0
 44
0.0
 50
0.0
 51
0.0
 71
     0
 72
   100
 73
     1
 74
     3
 75
     0
 76
     0
 77
     0
 78
     0
281
     0
 65
     1
110
0.0
120
0.0
130
0.0
111
1.0
121
0.0
131
0.0
112
0.0
122
1.0
132
0.0
 79
     0
146
0.0
  0
ENDTAB
  0
TABLE
  2
LTYPE
  5
5
330
0
100
AcDbSymbolTable
 70
    16
  0
LTYPE
  5
14
330
5
100
AcDbSymbolTableRecord
100
AcDbLinetypeTableRecord
  2
ByBlock
 70
     0
  3

 72
    65
 73
     0
 40
0.0
  0
LTYPE
  5
15
330
5
100
AcDbSymbolTableRecord
100
AcDbLinetypeTableRecord
  2
ByLayer
 70
     0
  3

 72
    65
 73
     0
 40
0.0
  0
LTYPE
  5
16
330
5
100
AcDbSymbolTableRecord
100
AcDbLinetypeTableRecord
  2
Continuous
 70
     0
  3
Solid line
 72
    65
 73
     0
 40
0.0
  0
LTYPE
  5
64
330
5
100
AcDbSymbolTableRecord
100
AcDbLinetypeTableRecord
  2
AM_ISO02W050
 70
     0
  3
__ __ __ __ __ __ __ __ __ __ __ __ __ __ __
 72
    65
 73
     2
 40
7.5
 49
6.0
 74
     0
 49
-1.5
 74
     0
  0
LTYPE
  5
65
330
5
100
AcDbSymbolTableRecord
100
AcDbLinetypeTableRecord
  2
AM_ISO08W050
 70
     0
  3
____ . ____ . ____ . ____ . ____ . ____ . ____
 72
    65
 73
     4
 40
18.0
 49
12.0
 74
     0
 49
-1.5
 74
     0
 49
3.0
 74
     0
 49
-1.5
 74
     0
  0
LTYPE
  5
66
330
5
100
AcDbSymbolTableRecord
100
AcDbLinetypeTableRecord
  2
AM_ISO09W050
 70
     0
  3
_____ . . _____ . . _____ . . ____ .. ____
 72
    65
 73
     6
 40
22.5
 49
12.0
 74
     0
 49
-1.5
 74
     0
 49
3.0
 74
     0
 49
-1.5
 74
     0
 49
3.0
 74
     0
 49
-1.5
 74
     0
  0
LTYPE
  5
67
330
5
100
AcDbSymbolTableRecord
100
AcDbLinetypeTableRecord
  2
Amconstr
 70
     0
  3
_______________________
 72
    65
 73
     2
 40
9999.0
 49
9999.0
 74
     0
 49
0.0
 74
     0
  0
LTYPE
  5
68
330
5
100
AcDbSymbolTableRecord
100
AcDbLinetypeTableRecord
  2
AM_ISO08W050x2
 70
     0
  3
__ . __ . __ . __ . __ . __
 72
    65
 73
     4
 40
9.0
 49
6.0
 74
     0
 49
-0.75
 74
     0
 49
1.5
 74
     0
 49
-0.75
 74
     0
  0
LTYPE
  5
69
330
5
100
AcDbSymbolTableRecord
100
AcDbLinetypeTableRecord
  2
AM_ISO02W050x2
 70
     0
  3
 _ _ _ _ _ _ _ _ _ _ _ _
 72
    65
 73
     2
 40
3.75
 49
3.0
 74
     0
 49
-0.75
 74
     0
  0
LTYPE
  5
6C
330
5
100
AcDbSymbolTableRecord
100
AcDbLinetypeTableRecord
  2
Amzigzag
 70
     0
  3
/\/-/\/-/\/-/\/-/\/-/\/
 72
    65
 73
     2
 40
11.0001
 49
0.0001
 74
     4
 75
   135
340
6B
 46
0.04
 50
0.0
 44
0.0
 45
0.0
 49
-11.0
 74
     0
  0
LTYPE
  5
7A
330
5
100
AcDbSymbolTableRecord
100
AcDbLinetypeTableRecord
  2
ACISOWELD
 70
     0
  3
_ _ _ _ _
 72
    65
 73
     2
 40
2.0
 49
2.0
 74
     0
 49
-1.0
 74
     0
  0
LTYPE
  5
7B
330
5
100
AcDbSymbolTableRecord
100
AcDbLinetypeTableRecord
  2
ACISOTGB
 70
     0
  3
__ . . __ . .
 72
    65
 73
     6
 40
9.0
 49
4.0
 74
     0
 49
-1.0
 74
     0
 49
1.0
 74
     0
 49
-1.0
 74
     0
 49
1.0
 74
     0
 49
-1.0
 74
     0
  0
LTYPE
  5
7C
330
5
100
AcDbSymbolTableRecord
100
AcDbLinetypeTableRecord
  2
ACISOTGL
 70
     0
  3
_ _ _ _ _
 72
    65
 73
     2
 40
3.0
 49
2.0
 74
     0
 49
-1.0
 74
     0
  0
LTYPE
  5
7E
330
5
100
AcDbSymbolTableRecord
100
AcDbLinetypeTableRecord
  2
CENTER
 70
     0
  3
__ . __
 72
    65
 73
     4
 40
7.0
 49
4.0
 74
     0
 49
-1.0
 74
     0
 49
1.0
 74
     0
 49
-1.0
 74
     0
  0
LTYPE
  5
D8
330
5
100
AcDbSymbolTableRecord
100
AcDbLinetypeTableRecord
  2
HIDDEN
 70
     0
  3
Hidden __ __ __ __ __ __ __ __ __ __ __ __ __ _
 72
    65
 73
     2
 40
9.524999999999996
 49
6.349999999999998
 74
     0
 49
-3.174999999999998
 74
     0
  0
LTYPE
  5
D9
330
5
100
AcDbSymbolTableRecord
100
AcDbLinetypeTableRecord
  2
PHANTOM2
 70
     0
  3
Phantom (.5x) ___ _ _ ___ _ _ ___ _ _ ___ _ _
 72
    65
 73
     6
 40
31.75
 49
15.875
 74
     0
 49
-3.174999999999998
 74
     0
 49
3.174999999999998
 74
     0
 49
-3.174999999999998
 74
     0
 49
3.174999999999998
 74
     0
 49
-3.174999999999998
 74
     0
  0
LTYPE
  5
217
330
5
100
AcDbSymbolTableRecord
100
AcDbLinetypeTableRecord
  2
ACJISTGB
 70
     0
  3
__ . . __ . .
 72
    65
 73
     6
 40
9.0
 49
4.0
 74
     0
 49
-1.0
 74
     0
 49
1.0
 74
     0
 49
-1.0
 74
     0
 49
1.0
 74
     0
 49
-1.0
 74
     0
  0
LTYPE
  5
218
330
5
100
AcDbSymbolTableRecord
100
AcDbLinetypeTableRecord
  2
ACJISTGL
 70
     0
  3
_ _ _ _ _
 72
    65
 73
     2
 40
3.0
 49
2.0
 74
     0
 49
-1.0
 74
     0
  0
ENDTAB
  0
TABLE
  2
LAYER
  5
2
102
{ACAD_XDICTIONARY
360
226
102
}
330
0
100
AcDbSymbolTable
 70
     4
  0
LAYER
  5
10
330
2
100
AcDbSymbolTableRecord
100
AcDbLayerTableRecord
  2
0
 70
     0
 62
     7
  6
Continuous
370
    -3
390
F
  0
LAYER
  5
1B0
330
2
100
AcDbSymbolTableRecord
100
AcDbLayerTableRecord
  2
AM_5
 70
     0
 62
     3
  6
Continuous
370
    25
390
F
  0
LAYER
  5
1FD
330
2
100
AcDbSymbolTableRecord
100
AcDbLayerTableRecord
  2
AM_0
 70
     0
 62
     7
  6
Continuous
370
    50
390
F
  0
LAYER
  5
219
330
2
100
AcDbSymbolTableRecord
100
AcDbLayerTableRecord
  2
1
 70
     0
 62
     7
  6
Continuous
370
    -3
390
F
  0
ENDTAB
  0
TABLE
  2
STYLE
  5
3
330
0
100
AcDbSymbolTable
 70
     9
  0
STYLE
  5
11
330
3
100
AcDbSymbolTableRecord
100
AcDbTextStyleTableRecord
  2
STANDARD
 70
     0
 40
0.0
 41
1.0
 50
0.0
 71
     0
 42
2.5
  3
ISOCP.SHX
  4
extfont.shx
  0
STYLE
  5
6B
330
3
100
AcDbSymbolTableRecord
100
AcDbTextStyleTableRecord
  2

 70
     1
 40
0.0
 41
1.0
 50
0.0
 71
     0
 42
2.5
  3
ltypeshp.shx
  4

  0
STYLE
  5
6D
330
3
100
AcDbSymbolTableRecord
100
AcDbTextStyleTableRecord
  2
ACISOTS
 70
     0
 40
1.0
 41
1.0
 50
0.0
 71
     0
 42
1.0
  3
isocp.shx
  4
extfont.shx
  0
STYLE
  5
79
330
3
100
AcDbSymbolTableRecord
100
AcDbTextStyleTableRecord
  2
ACISOGDT
 70
     0
 40
0.0
 41
1.0
 50
0.0
 71
     0
 42
2.5
  3
amgdt.shx
  4
extfont.shx
  0
STYLE
  5
1F8
330
3
100
AcDbSymbolTableRecord
100
AcDbTextStyleTableRecord
  2
USER1
 70
     0
 40
0.0
 41
1.0
 50
0.0
 71
     0
 42
1.0
  3
TXT.SHX
  4

  0
STYLE
  5
1F9
330
3
100
AcDbSymbolTableRecord
100
AcDbTextStyleTableRecord
  2
USER2
 70
     0
 40
0.0
 41
1.0
 50
0.0
 71
     0
 42
1.0
  3
SIMPLEX.SHX
  4

  0
STYLE
  5
1FA
330
3
100
AcDbSymbolTableRecord
100
AcDbTextStyleTableRecord
  2
USER3
 70
     0
 40
0.0
 41
1.0
 50
0.0
 71
     0
 42
1.0
  3
ITALIC.SHX
  4

  0
STYLE
  5
1FB
330
3
100
AcDbSymbolTableRecord
100
AcDbTextStyleTableRecord
  2
ACJISTS
 70
     0
 40
1.0
 41
1.0
 50
0.0
 71
     0
 42
2.5
  3
isocp.shx
  4
extfont.shx
  0
STYLE
  5
1FC
330
3
100
AcDbSymbolTableRecord
100
AcDbTextStyleTableRecord
  2
ACJISGDT
 70
     0
 40
0.0
 41
1.0
 50
0.0
 71
     0
 42
2.5
  3
amgdt.shx
  4
extfont.shx
  0
ENDTAB
  0
TABLE
  2
VIEW
  5
6
330
0
100
AcDbSymbolTable
 70
     0
  0
ENDTAB
  0
TABLE
  2
UCS
  5
7
330
0
100
AcDbSymbolTable
 70
     0
  0
ENDTAB
  0
TABLE
  2
APPID
  5
9
330
0
100
AcDbSymbolTable
 70
    13
  0
APPID
  5
12
330
9
100
AcDbSymbolTableRecord
100
AcDbRegAppTableRecord
  2
ACAD
 70
     0
  0
APPID
  5
46
330
9
100
AcDbSymbolTableRecord
100
AcDbRegAppTableRecord
  2
MCAD_NO_VIS
 70
     0
  0
APPID
  5
47
330
9
100
AcDbSymbolTableRecord
100
AcDbRegAppTableRecord
  2
ACAD_TEMP_GRAPHIC
 70
     0
  0
APPID
  5
58
330
9
100
AcDbSymbolTableRecord
100
AcDbRegAppTableRecord
  2
ACATTRIBSERVICES
 70
     0
  0
APPID
  5
EE
330
9
100
AcDbSymbolTableRecord
100
AcDbRegAppTableRecord
  2
AD_DRAW
 70
     0
  0
APPID
  5
10C
330
9
100
AcDbSymbolTableRecord
100
AcDbRegAppTableRecord
  2
DESIGNERASSEMBLIES
 70
     0
  0
APPID
  5
111
330
9
100
AcDbSymbolTableRecord
100
AcDbRegAppTableRecord
  2
ACADM_DIM_EDIT
 70
     0
  0
APPID
  5
112
330
9
100
AcDbSymbolTableRecord
100
AcDbRegAppTableRecord
  2
AMDT_DM_ADJ
 70
     0
  0
APPID
  5
221
330
9
100
AcDbSymbolTableRecord
100
AcDbRegAppTableRecord
  2
GENIUS_GENREC_14
 70
     0
  0
APPID
  5
222
330
9
100
AcDbSymbolTableRecord
100
AcDbRegAppTableRecord
  2
GENIUS_GENODEF_13
 70
     0
  0
APPID
  5
223
330
9
100
AcDbSymbolTableRecord
100
AcDbRegAppTableRecord
  2
GENIUS_GENOBJ-N-REC_13
 70
     0
  0
APPID
  5
224
330
9
100
AcDbSymbolTableRecord
100
AcDbRegAppTableRecord
  2
GENIUS_GENOBJ-N-FIL_13
 70
     0
  0
APPID
  5
225
330
9
100
AcDbSymbolTableRecord
100
AcDbRegAppTableRecord
  2
GENIUS_GENOBJ-N-CEN_13
 70
     0
  0
ENDTAB
  0
TABLE
  2
DIMSTYLE
  5
A
330
0
100
AcDbSymbolTable
 70
    16
100
AcDbDimStyleTable
 71
     2
340
81
340
1FE
  0
DIMSTYLE
105
27
330
A
100
AcDbSymbolTableRecord
100
AcDbDimStyleTableRecord
  2
ISO-25
 70
     0
 41
2.5
 42
0.625
 43
3.75
 44
1.25
 73
     0
 74
     0
 77
     1
 78
     8
140
2.5
141
2.5
143
0.03937007874016
147
0.625
171
     3
172
     1
271
     2
272
     2
274
     3
278
    44
283
     0
284
     8
340
11
  0
DIMSTYLE
105
81
330
A
100
AcDbSymbolTableRecord
100
AcDbDimStyleTableRecord
  2
AM_ISO
 70
     0
  4
"
 41
2.5
 42
1.0
 43
10.0
 44
1.0
 47
0.1
 48
0.1
 73
     0
 74
     0
 77
     1
 78
     8
 79
     2
140
3.5
141
0.0
143
0.0393701
146
0.71
147
1.5
172
     1
176
   256
177
   256
178
     2
271
     2
272
     3
274
     4
283
     0
284
     8
340
11
371
    -1
372
    -1
  0
DIMSTYLE
105
82
330
A
100
AcDbSymbolTableRecord
100
AcDbDimStyleTableRecord
  2
AM_ISO$3
 70
     0
  4
"
 41
2.5
 42
1.0
 43
10.0
 44
1.0
 47
0.1
 48
0.1
 73
     0
 77
     1
 78
     8
 79
     2
140
3.5
141
0.0
143
0.0393701
146
0.71
147
1.5
176
   256
177
   256
178
     2
271
     2
272
     3
274
     4
283
     0
284
     8
288
     1
289
     0
340
11
371
    -1
372
    -1
  0
DIMSTYLE
105
83
330
A
100
AcDbSymbolTableRecord
100
AcDbDimStyleTableRecord
  2
AM_ISO$4
 70
     0
  4
"
 41
2.5
 42
1.0
 43
10.0
 44
1.0
 47
0.1
 48
0.1
 73
     0
 77
     1
 78
     8
 79
     2
140
3.5
141
0.0
143
0.0393701
146
0.71
147
1.5
176
   256
177
   256
178
     2
271
     2
272
     3
274
     4
283
     0
284
     8
288
     1
289
     0
340
11
371
    -1
372
    -1
  0
DIMSTYLE
105
84
330
A
100
AcDbSymbolTableRecord
100
AcDbDimStyleTableRecord
  2
AM_ISO$6
 70
     0
  4
"
 41
2.5
 42
1.0
 43
10.0
 44
1.0
 47
0.1
 48
0.1
 73
     0
 74
     0
 78
     8
 79
     2
140
3.5
141
0.0
143
0.0393701
146
0.71
147
1.5
172
     1
176
   256
177
   256
178
     2
271
     2
272
     3
274
     4
283
     0
284
     8
340
11
371
    -1
372
    -1
  0
DIMSTYLE
105
85
330
A
100
AcDbSymbolTableRecord
100
AcDbDimStyleTableRecord
  2
AM_ISO$7
 70
     0
  4
"
 41
2.5
 42
1.0
 43
10.0
 44
1.0
 47
0.1
 48
0.1
 73
     0
 74
     0
 77
     1
 78
     8
 79
     2
140
5.0
141
0.0
143
0.0393701
146
0.71
147
1.5
172
     1
176
   256
177
   256
178
     2
271
     2
272
     3
274
     4
283
     0
284
     8
340
11
371
    -1
372
    -1
  0
DIMSTYLE
105
86
330
A
100
AcDbSymbolTableRecord
100
AcDbDimStyleTableRecord
  2
AM_ISO$SF
 70
     0
  4
"
 41
2.5
 42
1.0
 43
10.0
 44
1.0
 47
0.1
 48
0.1
 73
     0
 74
     0
 75
     1
 76
     1
 77
     1
 78
     8
 79
     2
140
3.5
141
0.0
143
0.0393701
146
0.71
147
1.5
172
     1
176
   256
177
   256
178
     2
271
     2
272
     3
274
     4
283
     0
284
     8
340
11
371
    -1
372
    -1
  0
DIMSTYLE
105
8B
330
A
100
AcDbSymbolTableRecord
100
AcDbDimStyleTableRecord
  2
AM_ISO$SH
 70
     0
  4
"
 41
2.5
 42
1.0
 43
10.0
 44
1.0
 47
0.1
 48
0.1
 73
     0
 74
     0
 75
     1
 76
     1
 77
     1
 78
     8
 79
     2
140
3.5
141
0.0
143
0.0393701
144
2.0
146
0.71
147
1.5
172
     1
173
     1
176
   256
177
   256
178
     2
271
     2
272
     3
274
     4
283
     0
284
     8
340
11
343
87
371
    -1
372
    -1
  0
DIMSTYLE
105
1FE
330
A
100
AcDbSymbolTableRecord
100
AcDbDimStyleTableRecord
  2
AM_JIS
 70
     0
  4
"
 41
2.5
 42
1.0
 43
10.0
 44
1.0
 47
0.1
 48
0.1
 73
     0
 74
     0
 77
     3
 78
     8
 79
     2
140
3.5
141
0.0
143
0.0393701
146
0.71
147
1.5
172
     1
176
   256
177
   256
178
     2
271
     2
272
     3
274
     4
283
     0
284
     8
340
11
341
1FF
342
1FF
343
1FF
344
1FF
371
    -1
372
    -1
  0
DIMSTYLE
105
21A
330
A
100
AcDbSymbolTableRecord
100
AcDbDimStyleTableRecord
  2
AM_JIS$3
 70
     0
  4
"
 41
2.5
 42
1.0
 43
10.0
 44
1.0
 47
0.1
 48
0.1
 73
     0
 77
     3
 78
     8
 79
     2
140
3.5
141
0.0
143
0.0393701
146
0.71
147
1.5
176
   256
177
   256
178
     2
271
     2
272
     3
274
     4
283
     0
284
     8
288
     1
289
     0
340
11
341
1FF
342
1FF
343
1FF
344
1FF
371
    -1
372
    -1
  0
DIMSTYLE
105
21B
330
A
100
AcDbSymbolTableRecord
100
AcDbDimStyleTableRecord
  2
AM_JIS$4
 70
     0
  4
"
 41
2.5
 42
1.0
 43
10.0
 44
1.0
 47
0.1
 48
0.1
 73
     0
 77
     3
 78
     8
 79
     2
140
3.5
141
0.0
143
0.0393701
146
0.71
147
1.5
176
   256
177
   256
178
     2
271
     2
272
     3
274
     4
283
     0
284
     8
288
     1
289
     0
340
11
341
1FF
342
1FF
343
1FF
344
1FF
371
    -1
372
    -1
  0
DIMSTYLE
105
21C
330
A
100
AcDbSymbolTableRecord
100
AcDbDimStyleTableRecord
  2
AM_JIS$6
 70
     0
  4
"
 41
2.5
 42
1.0
 43
10.0
 44
1.0
 47
0.1
 48
0.1
 73
     0
 74
     0
 78
     8
 79
     2
140
3.5
141
0.0
143
0.0393701
146
0.71
147
1.5
172
     1
176
   256
177
   256
178
     2
271
     2
272
     3
274
     4
283
     0
284
     8
340
11
341
1FF
342
1FF
343
1FF
344
1FF
371
    -1
372
    -1
  0
DIMSTYLE
105
21D
330
A
100
AcDbSymbolTableRecord
100
AcDbDimStyleTableRecord
  2
AM_JIS$7
 70
     0
  4
"
 41
2.5
 42
1.0
 43
10.0
 44
1.0
 47
0.1
 48
0.1
 73
     0
 74
     0
 77
     3
 78
     8
 79
     2
140
3.5
141
0.0
143
0.0393701
146
0.71
147
1.5
172
     1
176
   256
177
   256
178
     2
271
     2
272
     3
274
     4
283
     0
284
     8
340
11
341
1FF
342
1FF
343
1FF
344
1FF
371
    -1
372
    -1
  0
DIMSTYLE
105
21E
330
A
100
AcDbSymbolTableRecord
100
AcDbDimStyleTableRecord
  2
AM_JIS$SF
 70
     0
  4
"
 41
2.5
 42
1.0
 43
10.0
 44
1.0
 47
0.1
 48
0.1
 73
     0
 74
     0
 75
     1
 76
     1
 77
     3
 78
     8
 79
     2
140
3.5
141
0.0
143
0.0393701
146
0.71
147
1.5
172
     1
176
   256
177
   256
178
     2
271
     2
272
     3
274
     4
283
     0
284
     8
340
11
341
1FF
342
1FF
343
1FF
344
1FF
371
    -1
372
    -1
  0
DIMSTYLE
105
21F
330
A
100
AcDbSymbolTableRecord
100
AcDbDimStyleTableRecord
  2
AM_JIS$SH
 70
     0
  4
"
 41
2.5
 42
1.0
 43
10.0
 44
1.0
 47
0.1
 48
0.1
 73
     0
 74
     0
 75
     1
 76
     1
 77
     3
 78
     8
 79
     2
140
3.5
141
0.0
143
0.0393701
144
2.0
146
0.71
147
1.5
172
     1
173
     1
176
   256
177
   256
178
     2
271
     2
272
     3
274
     4
283
     0
284
     8
340
11
341
1FF
342
1FF
343
87
344
1FF
371
    -1
372
    -1
  0
DIMSTYLE
105
220
330
A
100
AcDbSymbolTableRecord
100
AcDbDimStyleTableRecord
  2
AM_JIS$0
 70
     0
  4
"
 41
2.5
 42
1.0
 43
10.0
 44
1.0
 47
0.1
 48
0.1000000001
 71
     1
 73
     0
 74
     0
 77
     3
 78
     8
 79
     2
140
2.6
141
0.0
143
0.0393701
146
0.71
147
1.0
176
   256
177
   256
178
     2
271
     2
272
     2
289
     1
340
11
341
1FF
342
1FF
371
    -1
372
    -1
  0
ENDTAB
  0
TABLE
  2
BLOCK_RECORD
  5
1
330
0
100
AcDbSymbolTable
 70
     5
  0
BLOCK_RECORD
  5
1F
102
{ACAD_XDICTIONARY
360
8F
102
}
330
1
100
AcDbSymbolTableRecord
100
AcDbBlockTableRecord
  2
*Model_Space
340
22
  0
BLOCK_RECORD
  5
1B
330
1
100
AcDbSymbolTableRecord
100
AcDbBlockTableRecord
  2
*Paper_Space
340
1E
  0
BLOCK_RECORD
  5
23
330
1
100
AcDbSymbolTableRecord
100
AcDbBlockTableRecord
  2
*Paper_Space0
340
26
  0
BLOCK_RECORD
  5
87
330
1
100
AcDbSymbolTableRecord
100
AcDbBlockTableRecord
  2
GENAXEH
340
0
  0
BLOCK_RECORD
  5
1FF
330
1
100
AcDbSymbolTableRecord
100
AcDbBlockTableRecord
  2
_Open30
340
0
  0
BLOCK_RECORD
  5
207
330
1
100
AcDbSymbolTableRecord
100
AcDbBlockTableRecord
  2
A$C049E1172
340
0
  0
ENDTAB
  0
ENDSEC
  0
SECTION
  2
BLOCKS
  0
BLOCK
  5
20
330
1F
100
AcDbEntity
  8
0
100
AcDbBlockBegin
  2
*Model_Space
 70
     0
 10
0.0
 20
0.0
 30
0.0
  3
*Model_Space
  1

  0
ENDBLK
  5
21
330
1F
100
AcDbEntity
  8
0
100
AcDbBlockEnd
  0
BLOCK
  5
1C
330
1B
100
AcDbEntity
 67
     1
  8
0
100
AcDbBlockBegin
  2
*Paper_Space
 70
     0
 10
0.0
 20
0.0
 30
0.0
  3
*Paper_Space
  1

  0
ENDBLK
  5
1D
330
1B
100
AcDbEntity
 67
     1
  8
0
100
AcDbBlockEnd
  0
BLOCK
  5
24
330
23
100
AcDbEntity
  8
0
100
AcDbBlockBegin
  2
*Paper_Space0
 70
     0
 10
0.0
 20
0.0
 30
0.0
  3
*Paper_Space0
  1

  0
ENDBLK
  5
25
330
23
100
AcDbEntity
  8
0
100
AcDbBlockEnd
  0
BLOCK
  5
6D7
330
87
100
AcDbEntity
  8
0
100
AcDbBlockBegin
  2
GENAXEH
 70
     0
 10
0.0
 20
0.0
 30
0.0
  3
GENAXEH
  1

  0
LINE
  5
6D8
330
87
100
AcDbEntity
  8
0
100
AcDbLine
 10
-1.0
 20
0.0
 30
0.0
 11
1.0
 21
0.0
 31
0.0
  0
ENDBLK
  5
6D9
330
87
100
AcDbEntity
  8
0
100
AcDbBlockEnd
  0
BLOCK
  5
6CB
330
1FF
100
AcDbEntity
  8
0
100
AcDbBlockBegin
  2
_Open30
 70
     0
 10
0.0
 20
0.0
 30
0.0
  3
_Open30
  1

  0
LINE
  5
6CC
330
1FF
100
AcDbEntity
  8
0
  6
ByBlock
 62
     0
370
    -2
100
AcDbLine
 10
-1.0
 20
0.26794919
 30
0.0
 11
0.0
 21
0.0
 31
0.0
  0
LINE
  5
6CD
330
1FF
100
AcDbEntity
  8
0
  6
ByBlock
 62
     0
370
    -2
100
AcDbLine
 10
0.0
 20
0.0
 30
0.0
 11
-1.0
 21
-0.26794919
 31
0.0
  0
LINE
  5
6CE
330
1FF
100
AcDbEntity
  8
0
  6
ByBlock
 62
     0
370
    -2
100
AcDbLine
 10
0.0
 20
0.0
 30
0.0
 11
-1.0
 21
0.0
 31
0.0
  0
ENDBLK
  5
6CF
330
1FF
100
AcDbEntity
  8
0
100
AcDbBlockEnd
  0
BLOCK
  5
208
330
207
100
AcDbEntity
  8
0
100
AcDbBlockBegin
  2
A$C049E1172
 70
     0
 10
0.0
 20
0.0
 30
0.0
  3
A$C049E1172
  1

  0
LINE
  5
209
330
207
100
AcDbEntity
  8
0
370
    15
100
AcDbLine
 10
3.150000457136683
 20
2.349999952556629
 30
0.0
 11
3.150000457136798
 21
0.5249999525566409
 31
0.0
  0
LINE
  5
20A
330
207
100
AcDbEntity
  8
0
370
    15
100
AcDbLine
 10
2.350000457136729
 20
2.349999952556629
 30
0.0
 11
2.350000457136843
 21
0.5249999525566409
 31
0.0
  0
CIRCLE
  5
20B
330
207
100
AcDbEntity
  8
1
  6
Continuous
 62
     7
100
AcDbCircle
 10
2.750000457136818
 20
2.749999952556663
 30
0.0
 40
2.75
  0
LINE
  5
20C
330
207
100
AcDbEntity
  8
0
370
    15
100
AcDbLine
 10
2.350000457136843
 20
0.5249999525566409
 30
0.0
 11
3.150000457136798
 21
0.5249999525566409
 31
0.0
  0
LINE
  5
20D
330
207
100
AcDbEntity
  8
0
370
    15
100
AcDbLine
 10
3.150000457136683
 20
2.349999952556629
 30
0.0
 11
4.975000457136957
 21
2.349999952556685
 31
0.0
  0
LINE
  5
20E
330
207
100
AcDbEntity
  8
0
370
    15
100
AcDbLine
 10
3.150000457136798
 20
3.149999952556696
 30
0.0
 11
4.975000457136957
 21
3.14999995255664
 31
0.0
  0
LINE
  5
20F
330
207
100
AcDbEntity
  8
0
370
    15
100
AcDbLine
 10
3.150000457136798
 20
4.974999952556686
 30
0.0
 11
3.150000457136683
 21
3.14999995255664
 31
0.0
  0
LINE
  5
210
330
207
100
AcDbEntity
  8
0
370
    15
100
AcDbLine
 10
2.350000457136957
 20
4.974999952556686
 30
0.0
 11
3.150000457136798
 21
4.974999952556629
 31
0.0
  0
LINE
  5
211
330
207
100
AcDbEntity
  8
0
370
    15
100
AcDbLine
 10
0.5250004571367981
 20
3.149999952556696
 30
0.0
 11
0.5250004571367981
 21
2.349999952556685
 31
0.0
  0
LINE
  5
212
330
207
100
AcDbEntity
  8
0
370
    15
100
AcDbLine
 10
4.97500045713707
 20
3.149999952556696
 30
0.0
 11
4.975000457136957
 21
2.349999952556685
 31
0.0
  0
LINE
  5
213
330
207
100
AcDbEntity
  8
0
370
    15
100
AcDbLine
 10
2.350000457136843
 20
4.974999952556686
 30
0.0
 11
2.350000457136729
 21
3.14999995255664
 31
0.0
  0
LINE
  5
214
330
207
100
AcDbEntity
  8
0
370
    15
100
AcDbLine
 10
0.5250004571367981
 20
2.349999952556629
 30
0.0
 11
2.350000457136729
 21
2.349999952556685
 31
0.0
  0
LINE
  5
215
330
207
100
AcDbEntity
  8
0
370
    15
100
AcDbLine
 10
0.5250004571367981
 20
3.149999952556696
 30
0.0
 11
2.350000457136729
 21
3.14999995255664
 31
0.0
  0
ENDBLK
  5
216
330
207
100
AcDbEntity
  8
0
100
AcDbBlockEnd
  0
ENDSEC
  0
SECTION
  2
ENTITIES
  0
LINE
  5
403
330
1F
100
AcDbEntity
  8
0
100
AcDbLine
 10
112.7499999030266
 20
230.0000001323202
 30
0.0
 11
99.24999990302664
 21
230.0000001323204
 31
0.0
  0
ARC
  5
404
330
1F
100
AcDbEntity
  8
0
100
AcDbCircle
 10
107.4499999030265
 20
119.7000001323202
 30
0.0
 40
0.8
100
AcDbArc
 50
270.0
 51
22.02431283704031
  0
ARC
  5
405
330
1F
100
AcDbEntity
  8
0
100
AcDbCircle
 10
107.4499999030267
 20
102.2000001323202
 30
0.0
 40
1.0
100
AcDbArc
 50
270.0
 51
0.0
1001
GENIUS_GENODEF_13
1002
{
1000
HIER
1070
     0
1002
}
1002
{
1000
MANEDIT
1070
     0
1002
}
1002
{
1000
NOSEL
1070
     0
1002
}
1002
{
1000
BEHIND
1070
     0
1002
}
1002
{
1000
REACTOR
1002
}
1001
GENIUS_GENOBJ-N-FIL_13
1002
{
1000
OWNER
1000
GEN
1002
}
  0
LINE
  5
406
330
1F
100
AcDbEntity
  8
0
100
AcDbLine
 10
108.4499999030267
 20
111.2000001323202
 30
0.0
 11
101.4499999030267
 21
111.2000001323202
 31
0.0
  0
LINE
  5
407
330
1F
100
AcDbEntity
  8
0
100
AcDbLine
 10
108.2499999030266
 20
113.2000001323202
 30
0.0
 11
101.6499999030267
 21
113.2000001323202
 31
0.0
  0
ARC
  5
408
330
1F
100
AcDbEntity
  8
0
100
AcDbCircle
 10
107.4499999030265
 20
116.2000001323202
 30
0.0
 40
0.8
100
AcDbArc
 50
270.0
 51
90.0
  0
LINE
  5
409
330
1F
100
AcDbEntity
  8
0
100
AcDbLine
 10
112.7499999030266
 20
120.0000001323202
 30
0.0
 11
99.24999990302664
 21
120.0000001323202
 31
0.0
  0
LINE
  5
40A
330
1F
100
AcDbEntity
  8
0
100
AcDbLine
 10
99.24999990302664
 20
230.0000001323202
 30
0.0
 11
99.24999990302664
 21
120.0000001323203
 31
0.0
  0
LINE
  5
40B
330
1F
100
AcDbEntity
  8
0
100
AcDbLine
 10
53.99999990302672
 20
122.5000001323202
 30
0.0
 11
53.99999990302672
 21
227.5000001323202
 31
0.0
1001
GENIUS_GENREC_14
1002
{
1000
PYDIR
1011
-0.0000000969732241
1021
230.0000001323202
1031
0.0
1002
}
1002
{
1000
PXDIR
1011
53.99999990302672
1021
120.0000001323203
1031
0.0
1002
}
1002
{
1000
PORI
1011
-0.0000000969732241
1021
120.0000001323203
1031
0.0
1002
}
1002
{
1000
PINS
1011
-0.0000000969732241
1021
120.0000001323203
1031
0.0
1002
}
1002
{
1000
HVAL
1000
110
1002
}
1002
{
1000
H
1070
     2
1002
}
1002
{
1000
WVAL
1000
54
1002
}
1002
{
1000
W
1070
     2
1002
}
1002
{
1000
C
1070
     1
1002
}
1001
GENIUS_GENODEF_13
1002
{
1000
HIER
1070
     0
1002
}
1002
{
1000
MANEDIT
1070
     0
1002
}
1002
{
1000
NOSEL
1070
     0
1002
}
1002
{
1000
BEHIND
1070
     0
1002
}
1002
{
1000
REACTOR
1002
}
1001
GENIUS_GENOBJ-N-REC_13
1002
{
1000
OWNER
1000
GEN
1002
}
  0
LINE
  5
40C
330
1F
100
AcDbEntity
  8
0
100
AcDbLine
 10
52.49999990302672
 20
122.6000001323201
 30
0.0
 11
52.49999990302672
 21
218.4000001323203
 31
0.0
1001
GENIUS_GENREC_14
1002
{
1000
PYDIR
1011
-0.0000000969732241
1021
230.0000001323202
1031
0.0
1002
}
1002
{
1000
PXDIR
1011
53.99999990302672
1021
120.0000001323203
1031
0.0
1002
}
1002
{
1000
PORI
1011
-0.0000000969732241
1021
120.0000001323203
1031
0.0
1002
}
1002
{
1000
PINS
1011
-0.0000000969732241
1021
120.0000001323203
1031
0.0
1002
}
1002
{
1000
HVAL
1000
110
1002
}
1002
{
1000
H
1070
     2
1002
}
1002
{
1000
WVAL
1000
54
1002
}
1002
{
1000
W
1070
     2
1002
}
1002
{
1000
C
1070
     1
1002
}
1001
GENIUS_GENODEF_13
1002
{
1000
HIER
1070
     0
1002
}
1002
{
1000
MANEDIT
1070
     0
1002
}
1002
{
1000
NOSEL
1070
     0
1002
}
1002
{
1000
BEHIND
1070
     0
1002
}
1002
{
1000
REACTOR
1002
}
1001
GENIUS_GENOBJ-N-REC_13
1002
{
1000
OWNER
1000
GEN
1002
}
  0
LINE
  5
40D
330
1F
100
AcDbEntity
  8
0
100
AcDbLine
 10
52.39999990302685
 20
122.8000001323203
 30
0.0
 11
52.39999990302685
 21
218.2000001323203
 31
0.0
1001
GENIUS_GENREC_14
1002
{
1000
PYDIR
1011
-0.0000000969732241
1021
230.0000001323202
1031
0.0
1002
}
1002
{
1000
PXDIR
1011
53.99999990302672
1021
120.0000001323203
1031
0.0
1002
}
1002
{
1000
PORI
1011
-0.0000000969732241
1021
120.0000001323203
1031
0.0
1002
}
1002
{
1000
PINS
1011
-0.0000000969732241
1021
120.0000001323203
1031
0.0
1002
}
1002
{
1000
HVAL
1000
110
1002
}
1002
{
1000
H
1070
     2
1002
}
1002
{
1000
WVAL
1000
54
1002
}
1002
{
1000
W
1070
     2
1002
}
1002
{
1000
C
1070
     1
1002
}
1001
GENIUS_GENODEF_13
1002
{
1000
HIER
1070
     0
1002
}
1002
{
1000
MANEDIT
1070
     0
1002
}
1002
{
1000
NOSEL
1070
     0
1002
}
1002
{
1000
BEHIND
1070
     0
1002
}
1002
{
1000
REACTOR
1002
}
1001
GENIUS_GENOBJ-N-REC_13
1002
{
1000
OWNER
1000
GEN
1002
}
  0
LINE
  5
40E
330
1F
100
AcDbEntity
  8
0
100
AcDbLine
 10
93.74999990302663
 20
228.5000001323203
 30
0.0
 11
93.74999990302663
 21
121.5000001323202
 31
0.0
  0
LINE
  5
40F
330
1F
100
AcDbEntity
  8
0
100
AcDbLine
 10
98.74999990302663
 20
230.0000001323204
 30
0.0
 11
98.74999990302663
 21
120.0000001323202
 31
0.0
  0
LINE
  5
410
330
1F
100
AcDbEntity
  8
0
100
AcDbLine
 10
-0.0000000969732241
 20
227.5000001323202
 30
0.0
 11
-0.0000000969732241
 21
122.5000001323202
 31
0.0
1001
GENIUS_GENREC_14
1002
{
1000
PYDIR
1011
-0.0000000969732241
1021
230.0000001323202
1031
0.0
1002
}
1002
{
1000
PXDIR
1011
53.99999990302672
1021
120.0000001323203
1031
0.0
1002
}
1002
{
1000
PORI
1011
-0.0000000969732241
1021
120.0000001323203
1031
0.0
1002
}
1002
{
1000
PINS
1011
-0.0000000969732241
1021
120.0000001323203
1031
0.0
1002
}
1002
{
1000
HVAL
1000
110
1002
}
1002
{
1000
H
1070
     2
1002
}
1002
{
1000
WVAL
1000
54
1002
}
1002
{
1000
W
1070
     2
1002
}
1002
{
1000
C
1070
     1
1002
}
1001
GENIUS_GENODEF_13
1002
{
1000
HIER
1070
     0
1002
}
1002
{
1000
MANEDIT
1070
     0
1002
}
1002
{
1000
NOSEL
1070
     0
1002
}
1002
{
1000
BEHIND
1070
     0
1002
}
1002
{
1000
REACTOR
1002
}
1001
GENIUS_GENOBJ-N-REC_13
1002
{
1000
OWNER
1000
GEN
1002
}
  0
LINE
  5
411
330
1F
100
AcDbEntity
  8
0
100
AcDbLine
 10
1.499999903026774
 20
218.4000001323203
 30
0.0
 11
1.499999903026774
 21
122.6000001323201
 31
0.0
1001
GENIUS_GENREC_14
1002
{
1000
PYDIR
1011
-0.0000000969732241
1021
230.0000001323202
1031
0.0
1002
}
1002
{
1000
PXDIR
1011
53.99999990302672
1021
120.0000001323203
1031
0.0
1002
}
1002
{
1000
PORI
1011
-0.0000000969732241
1021
120.0000001323203
1031
0.0
1002
}
1002
{
1000
PINS
1011
-0.0000000969732241
1021
120.0000001323203
1031
0.0
1002
}
1002
{
1000
HVAL
1000
110
1002
}
1002
{
1000
H
1070
     2
1002
}
1002
{
1000
WVAL
1000
54
1002
}
1002
{
1000
W
1070
     2
1002
}
1002
{
1000
C
1070
     1
1002
}
1001
GENIUS_GENODEF_13
1002
{
1000
HIER
1070
     0
1002
}
1002
{
1000
MANEDIT
1070
     0
1002
}
1002
{
1000
NOSEL
1070
     0
1002
}
1002
{
1000
BEHIND
1070
     0
1002
}
1002
{
1000
REACTOR
1002
}
1001
GENIUS_GENOBJ-N-REC_13
1002
{
1000
OWNER
1000
GEN
1002
}
  0
LINE
  5
412
330
1F
100
AcDbEntity
  8
0
100
AcDbLine
 10
1.599999903026676
 20
218.2000001323203
 30
0.0
 11
1.599999903026676
 21
122.8000001323203
 31
0.0
1001
GENIUS_GENREC_14
1002
{
1000
PYDIR
1011
-0.0000000969732241
1021
230.0000001323202
1031
0.0
1002
}
1002
{
1000
PXDIR
1011
53.99999990302672
1021
120.0000001323203
1031
0.0
1002
}
1002
{
1000
PORI
1011
-0.0000000969732241
1021
120.0000001323203
1031
0.0
1002
}
1002
{
1000
PINS
1011
-0.0000000969732241
1021
120.0000001323203
1031
0.0
1002
}
1002
{
1000
HVAL
1000
110
1002
}
1002
{
1000
H
1070
     2
1002
}
1002
{
1000
WVAL
1000
54
1002
}
1002
{
1000
W
1070
     2
1002
}
1002
{
1000
C
1070
     1
1002
}
1001
GENIUS_GENODEF_13
1002
{
1000
HIER
1070
     0
1002
}
1002
{
1000
MANEDIT
1070
     0
1002
}
1002
{
1000
NOSEL
1070
     0
1002
}
1002
{
1000
BEHIND
1070
     0
1002
}
1002
{
1000
REACTOR
1002
}
1001
GENIUS_GENOBJ-N-REC_13
1002
{
1000
OWNER
1000
GEN
1002
}
  0
LINE
  5
413
330
1F
100
AcDbEntity
  8
0
100
AcDbLine
 10
2.499999903026774
 20
120.0000001323203
 30
0.0
 11
51.49999990302672
 21
120.0000001323203
 31
0.0
  0
LINE
  5
414
330
1F
100
AcDbEntity
  8
0
100
AcDbLine
 10
2.599999903026676
 20
121.5000001323202
 30
0.0
 11
51.39999990302683
 21
121.5000001323202
 31
0.0
  0
LINE
  5
415
330
1F
100
AcDbEntity
  8
0
100
AcDbLine
 10
2.799999903026956
 20
121.6000001323203
 30
0.0
 11
51.19999990302685
 21
121.6000001323201
 31
0.0
  0
ARC
  5
416
330
1F
100
AcDbEntity
  8
0
100
AcDbCircle
 10
2.499999903026774
 20
122.5000001323202
 30
0.0
 40
2.5
100
AcDbArc
 50
180.0
 51
270.0
1001
GENIUS_GENODEF_13
1002
{
1000
HIER
1070
     0
1002
}
1002
{
1000
MANEDIT
1070
     0
1002
}
1002
{
1000
NOSEL
1070
     0
1002
}
1002
{
1000
BEHIND
1070
     0
1002
}
1002
{
1000
REACTOR
1002
}
1001
GENIUS_GENOBJ-N-FIL_13
1002
{
1000
OWNER
1000
GEN
1002
}
  0
ARC
  5
417
330
1F
100
AcDbEntity
  8
0
100
AcDbCircle
 10
2.599999903026676
 20
122.6000001323201
 30
0.0
 40
1.1
100
AcDbArc
 50
180.0
 51
270.0
1001
GENIUS_GENODEF_13
1002
{
1000
HIER
1070
     0
1002
}
1002
{
1000
MANEDIT
1070
     0
1002
}
1002
{
1000
NOSEL
1070
     0
1002
}
1002
{
1000
BEHIND
1070
     0
1002
}
1002
{
1000
REACTOR
1002
}
1001
GENIUS_GENOBJ-N-FIL_13
1002
{
1000
OWNER
1000
GEN
1002
}
  0
ARC
  5
418
330
1F
100
AcDbEntity
  8
0
100
AcDbCircle
 10
2.799999903026956
 20
122.8000001323203
 30
0.0
 40
1.199999999999999
100
AcDbArc
 50
180.0
 51
270.0
1001
GENIUS_GENODEF_13
1002
{
1000
HIER
1070
     0
1002
}
1002
{
1000
MANEDIT
1070
     0
1002
}
1002
{
1000
NOSEL
1070
     0
1002
}
1002
{
1000
BEHIND
1070
     0
1002
}
1002
{
1000
REACTOR
1002
}
1001
GENIUS_GENOBJ-N-FIL_13
1002
{
1000
OWNER
1000
GEN
1002
}
  0
ARC
  5
419
330
1F
100
AcDbEntity
  8
0
100
AcDbCircle
 10
41.69999990302684
 20
114.4123759686098
 30
0.0
 40
1.199999999999999
100
AcDbArc
 50
270.0
 51
0.0
1001
GENIUS_GENODEF_13
1002
{
1000
HIER
1070
     0
1002
}
1002
{
1000
MANEDIT
1070
     0
1002
}
1002
{
1000
NOSEL
1070
     0
1002
}
1002
{
1000
BEHIND
1070
     0
1002
}
1002
{
1000
REACTOR
1002
}
1001
GENIUS_GENOBJ-N-FIL_13
1002
{
1000
OWNER
1000
GEN
1002
}
  0
ARC
  5
41A
330
1F
100
AcDbEntity
  8
0
100
AcDbCircle
 10
32.09999990302669
 20
114.4123759686098
 30
0.0
 40
1.199999999999999
100
AcDbArc
 50
180.0
 51
270.0
1001
GENIUS_GENODEF_13
1002
{
1000
HIER
1070
     0
1002
}
1002
{
1000
MANEDIT
1070
     0
1002
}
1002
{
1000
NOSEL
1070
     0
1002
}
1002
{
1000
BEHIND
1070
     0
1002
}
1002
{
1000
REACTOR
1002
}
1001
GENIUS_GENOBJ-N-FIL_13
1002
{
1000
OWNER
1000
GEN
1002
}
  0
ARC
  5
41B
330
1F
100
AcDbEntity
  8
0
100
AcDbCircle
 10
33.80498746513882
 20
102.2000001323202
 30
0.0
 40
1.0
100
AcDbArc
 50
185.7105931375003
 51
270.0
  0
LINE
  5
41C
330
1F
100
AcDbEntity
  8
0
100
AcDbLine
 10
32.09999990302669
 20
113.2123759686098
 30
0.0
 11
41.69999990302684
 21
113.2123759686098
 31
0.0
  0
LINE
  5
41D
330
1F
100
AcDbEntity
  8
0
100
AcDbLine
 10
31.89999990302685
 20
111.2000001323202
 30
0.0
 11
32.80995027492902
 21
102.1004964132993
 31
0.0
  0
LINE
  5
41E
330
1F
100
AcDbEntity
  8
0
100
AcDbLine
 10
31.89999990302685
 20
113.2291600119899
 30
0.0
 11
31.89999990302685
 21
111.2000001323202
 31
0.0
  0
LINE
  5
41F
330
1F
100
AcDbEntity
  8
0
100
AcDbLine
 10
40.99004953112472
 20
102.1004964132993
 30
0.0
 11
41.89999990302687
 21
111.2000001323202
 31
0.0
  0
LINE
  5
420
330
1F
100
AcDbEntity
  8
0
100
AcDbLine
 10
39.89999990302687
 20
112.7000001323201
 30
0.0
 11
39.89999990302687
 21
102.7000001323202
 31
0.0
  0
LINE
  5
421
330
1F
100
AcDbEntity
  8
0
100
AcDbLine
 10
33.89999990302687
 20
102.7000001323202
 30
0.0
 11
33.89999990302687
 21
112.7000001323201
 31
0.0
  0
ARC
  5
422
330
1F
100
AcDbEntity
  8
0
100
AcDbCircle
 10
39.99501234091468
 20
102.2000001323202
 30
0.0
 40
1.0
100
AcDbArc
 50
270.0
 51
354.2894068624997
  0
LINE
  5
423
330
1F
100
AcDbEntity
  8
0
100
AcDbLine
 10
33.80498746513882
 20
101.2000001323202
 30
0.0
 11
39.99501234091468
 21
101.2000001323202
 31
0.0
  0
LINE
  5
424
330
1F
100
AcDbEntity
  8
0
100
AcDbLine
 10
39.89999990302687
 20
102.7000001323202
 30
0.0
 11
33.89999990302687
 21
102.7000001323202
 31
0.0
  0
LINE
  5
425
330
1F
100
AcDbEntity
  8
0
100
AcDbLine
 10
33.89999990302687
 20
112.7000001323201
 30
0.0
 11
39.89999990302687
 21
112.7000001323201
 31
0.0
  0
LINE
  5
426
330
1F
100
AcDbEntity
  8
0
100
AcDbLine
 10
41.89999990302687
 20
111.2000001323202
 30
0.0
 11
41.89999990302687
 21
113.2291600119899
 31
0.0
  0
LINE
  5
427
330
1F
100
AcDbEntity
  8
0
100
AcDbLine
 10
30.89999990302687
 20
114.4123759686098
 30
0.0
 11
30.89999990302687
 21
120.0000001323203
 31
0.0
  0
LINE
  5
428
330
1F
100
AcDbEntity
  8
0
100
AcDbLine
 10
42.89999990302685
 20
114.4123759686098
 30
0.0
 11
42.89999990302685
 21
120.0000001323203
 31
0.0
  0
ARC
  5
429
330
1F
100
AcDbEntity
  8
0
100
AcDbCircle
 10
51.49999990302672
 20
122.5000001323202
 30
0.0
 40
2.5
100
AcDbArc
 50
270.0
 51
0.0
1001
GENIUS_GENODEF_13
1002
{
1000
HIER
1070
     0
1002
}
1002
{
1000
MANEDIT
1070
     0
1002
}
1002
{
1000
NOSEL
1070
     0
1002
}
1002
{
1000
BEHIND
1070
     0
1002
}
1002
{
1000
REACTOR
1002
}
1001
GENIUS_GENOBJ-N-FIL_13
1002
{
1000
OWNER
1000
GEN
1002
}
  0
ARC
  5
42A
330
1F
100
AcDbEntity
  8
0
100
AcDbCircle
 10
51.39999990302683
 20
122.6000001323201
 30
0.0
 40
1.1
100
AcDbArc
 50
270.0
 51
0.0
1001
GENIUS_GENODEF_13
1002
{
1000
HIER
1070
     0
1002
}
1002
{
1000
MANEDIT
1070
     0
1002
}
1002
{
1000
NOSEL
1070
     0
1002
}
1002
{
1000
BEHIND
1070
     0
1002
}
1002
{
1000
REACTOR
1002
}
1001
GENIUS_GENOBJ-N-FIL_13
1002
{
1000
OWNER
1000
GEN
1002
}
  0
ARC
  5
42B
330
1F
100
AcDbEntity
  8
0
100
AcDbCircle
 10
51.19999990302685
 20
122.8000001323203
 30
0.0
 40
1.199999999999999
100
AcDbArc
 50
270.0
 51
0.0
1001
GENIUS_GENODEF_13
1002
{
1000
HIER
1070
     0
1002
}
1002
{
1000
MANEDIT
1070
     0
1002
}
1002
{
1000
NOSEL
1070
     0
1002
}
1002
{
1000
BEHIND
1070
     0
1002
}
1002
{
1000
REACTOR
1002
}
1001
GENIUS_GENOBJ-N-FIL_13
1002
{
1000
OWNER
1000
GEN
1002
}
  0
ARC
  5
42C
330
1F
100
AcDbEntity
  8
0
100
AcDbCircle
 10
101.6499999030267
 20
114.4000001323201
 30
0.0
 40
1.199999999999999
100
AcDbArc
 50
180.0
 51
270.0
1001
GENIUS_GENODEF_13
1002
{
1000
HIER
1070
     0
1002
}
1002
{
1000
MANEDIT
1070
     0
1002
}
1002
{
1000
NOSEL
1070
     0
1002
}
1002
{
1000
BEHIND
1070
     0
1002
}
1002
{
1000
REACTOR
1002
}
1001
GENIUS_GENOBJ-N-FIL_13
1002
{
1000
OWNER
1000
GEN
1002
}
  0
LINE
  5
42D
330
1F
100
AcDbEntity
  8
0
100
AcDbLine
 10
101.4499999030267
 20
113.2000001323202
 30
0.0
 11
101.4499999030267
 21
102.2000001323202
 31
0.0
  0
LINE
  5
42E
330
1F
100
AcDbEntity
  8
0
100
AcDbLine
 10
104.9499999030267
 20
113.2000001323202
 30
0.0
 11
104.9499999030267
 21
101.2000001323202
 31
0.0
  0
LINE
  5
42F
330
1F
100
AcDbEntity
  8
0
100
AcDbLine
 10
107.4499999030267
 20
101.2000001323202
 30
0.0
 11
102.4499999030267
 21
101.2000001323202
 31
0.0
  0
ARC
  5
430
330
1F
100
AcDbEntity
  8
0
100
AcDbCircle
 10
102.4499999030267
 20
102.2000001323202
 30
0.0
 40
1.0
100
AcDbArc
 50
180.0
 51
270.0
1001
GENIUS_GENODEF_13
1002
{
1000
HIER
1070
     0
1002
}
1002
{
1000
MANEDIT
1070
     0
1002
}
1002
{
1000
NOSEL
1070
     0
1002
}
1002
{
1000
BEHIND
1070
     0
1002
}
1002
{
1000
REACTOR
1002
}
1001
GENIUS_GENOBJ-N-FIL_13
1002
{
1000
OWNER
1000
GEN
1002
}
  0
LINE
  5
431
330
1F
100
AcDbEntity
  8
0
100
AcDbLine
 10
98.74999990302663
 20
120.0000001323203
 30
0.0
 11
95.24999990302664
 21
120.0000001323203
 31
0.0
  0
ARC
  5
432
330
1F
100
AcDbEntity
  8
0
100
AcDbCircle
 10
95.24999990302664
 20
121.5000001323202
 30
0.0
 40
1.5
100
AcDbArc
 50
180.0
 51
270.0
1001
GENIUS_GENODEF_13
1002
{
1000
HIER
1070
     0
1002
}
1002
{
1000
MANEDIT
1070
     0
1002
}
1002
{
1000
NOSEL
1070
     0
1002
}
1002
{
1000
BEHIND
1070
     0
1002
}
1002
{
1000
REACTOR
1002
}
1001
GENIUS_GENOBJ-N-FIL_13
1002
{
1000
OWNER
1000
GEN
1002
}
  0
LINE
  5
433
330
1F
100
AcDbEntity
  8
0
100
AcDbLine
 10
99.24999990302664
 20
121.0000001323201
 30
0.0
 11
98.74999990302663
 21
121.0000001323201
 31
0.0
  0
ARC
  5
434
330
1F
100
AcDbEntity
  8
0
100
AcDbCircle
 10
102.4499999030267
 20
119.7000001323202
 30
0.0
 40
0.8
100
AcDbArc
 50
157.9756871629567
 51
270.0
  0
LINE
  5
435
330
1F
100
AcDbEntity
  8
0
100
AcDbLine
 10
100.4499999030264
 20
120.0000001323202
 30
0.0
 11
100.4499999030267
 21
114.4000001323201
 31
0.0
  0
LINE
  5
436
330
1F
100
AcDbEntity
  8
0
100
AcDbLine
 10
107.4499999030265
 20
118.9000001323202
 30
0.0
 11
102.4499999030267
 21
118.9000001323202
 31
0.0
  0
LINE
  5
437
330
1F
100
AcDbEntity
  8
0
100
AcDbLine
 10
107.4499999030265
 20
117.0000001323202
 30
0.0
 11
102.4499999030267
 21
117.0000001323203
 31
0.0
  0
LINE
  5
438
330
1F
100
AcDbEntity
  8
0
100
AcDbLine
 10
107.4499999030265
 20
115.4000001323201
 30
0.0
 11
102.4499999030267
 21
115.4000001323201
 31
0.0
  0
ARC
  5
439
330
1F
100
AcDbEntity
  8
0
100
AcDbCircle
 10
102.4499999030267
 20
116.2000001323202
 30
0.0
 40
0.8
100
AcDbArc
 50
90.0
 51
270.0
  0
LINE
  5
43A
330
1F
100
AcDbEntity
  8
0
100
AcDbLine
 10
1.599999903026676
 20
189.9000001323203
 30
0.0
 11
52.39999990302685
 21
189.9000001323203
 31
0.0
  0
LINE
  5
43B
330
1F
100
AcDbEntity
  8
0
100
AcDbLine
 10
51.49999990302672
 20
230.0000001323202
 30
0.0
 11
2.499999903026774
 21
230.0000001323202
 31
0.0
1001
GENIUS_GENREC_14
1002
{
1000
PYDIR
1011
-0.0000000969732241
1021
230.0000001323202
1031
0.0
1002
}
1002
{
1000
PXDIR
1011
53.99999990302672
1021
120.0000001323203
1031
0.0
1002
}
1002
{
1000
PORI
1011
-0.0000000969732241
1021
120.0000001323203
1031
0.0
1002
}
1002
{
1000
PINS
1011
-0.0000000969732241
1021
120.0000001323203
1031
0.0
1002
}
1002
{
1000
HVAL
1000
110
1002
}
1002
{
1000
H
1070
     2
1002
}
1002
{
1000
WVAL
1000
54
1002
}
1002
{
1000
W
1070
     2
1002
}
1002
{
1000
C
1070
     1
1002
}
1001
GENIUS_GENODEF_13
1002
{
1000
HIER
1070
     0
1002
}
1002
{
1000
MANEDIT
1070
     0
1002
}
1002
{
1000
NOSEL
1070
     0
1002
}
1002
{
1000
BEHIND
1070
     0
1002
}
1002
{
1000
REACTOR
1002
}
1001
GENIUS_GENOBJ-N-REC_13
1002
{
1000
OWNER
1000
GEN
1002
}
  0
LINE
  5
43C
330
1F
100
AcDbEntity
  8
0
100
AcDbLine
 10
2.599999903026676
 20
219.5000001323204
 30
0.0
 11
51.39999990302683
 21
219.5000001323204
 31
0.0
  0
LINE
  5
43D
330
1F
100
AcDbEntity
  8
0
100
AcDbLine
 10
1.499999903026774
 20
220.9000001323203
 30
0.0
 11
52.49999990302672
 21
220.9000001323203
 31
0.0
  0
LINE
  5
43E
330
1F
100
AcDbEntity
  8
0
100
AcDbLine
 10
1.499999903026774
 20
221.6000001323203
 30
0.0
 11
52.49999990302672
 21
221.6000001323203
 31
0.0
  0
LINE
  5
43F
330
1F
100
AcDbEntity
  8
0
100
AcDbLine
 10
1.499999903026774
 20
222.3000001323203
 30
0.0
 11
52.49999990302672
 21
222.3000001323203
 31
0.0
  0
LINE
  5
440
330
1F
100
AcDbEntity
  8
0
100
AcDbLine
 10
1.499999903026774
 20
223.0000001323201
 30
0.0
 11
52.49999990302672
 21
223.0000001323201
 31
0.0
  0
LINE
  5
441
330
1F
100
AcDbEntity
  8
0
100
AcDbLine
 10
1.499999903026774
 20
223.7000001323202
 30
0.0
 11
52.49999990302672
 21
223.7000001323202
 31
0.0
  0
LINE
  5
442
330
1F
100
AcDbEntity
  8
0
100
AcDbLine
 10
1.499999903026774
 20
224.4000001323203
 30
0.0
 11
52.49999990302672
 21
224.4000001323203
 31
0.0
  0
LINE
  5
443
330
1F
100
AcDbEntity
  8
0
100
AcDbLine
 10
2.799999903026737
 20
219.4000001323203
 30
0.0
 11
51.19999990302685
 21
219.4000001323203
 31
0.0
  0
ARC
  5
444
330
1F
100
AcDbEntity
  8
0
100
AcDbCircle
 10
2.599999903026676
 20
218.4000001323203
 30
0.0
 40
1.1
100
AcDbArc
 50
90.0
 51
180.0
1001
GENIUS_GENODEF_13
1002
{
1000
HIER
1070
     0
1002
}
1002
{
1000
MANEDIT
1070
     0
1002
}
1002
{
1000
NOSEL
1070
     0
1002
}
1002
{
1000
BEHIND
1070
     0
1002
}
1002
{
1000
REACTOR
1002
}
1001
GENIUS_GENOBJ-N-FIL_13
1002
{
1000
OWNER
1000
GEN
1002
}
  0
ARC
  5
445
330
1F
100
AcDbEntity
  8
0
100
AcDbCircle
 10
2.799999903026737
 20
218.2000001323203
 30
0.0
 40
1.199999999999999
100
AcDbArc
 50
90.0
 51
180.0
1001
GENIUS_GENODEF_13
1002
{
1000
HIER
1070
     0
1002
}
1002
{
1000
MANEDIT
1070
     0
1002
}
1002
{
1000
NOSEL
1070
     0
1002
}
1002
{
1000
BEHIND
1070
     0
1002
}
1002
{
1000
REACTOR
1002
}
1001
GENIUS_GENOBJ-N-FIL_13
1002
{
1000
OWNER
1000
GEN
1002
}
  0
ARC
  5
446
330
1F
100
AcDbEntity
  8
0
100
AcDbCircle
 10
2.499999903026774
 20
227.5000001323202
 30
0.0
 40
2.5
100
AcDbArc
 50
90.0
 51
180.0
1001
GENIUS_GENODEF_13
1002
{
1000
HIER
1070
     0
1002
}
1002
{
1000
MANEDIT
1070
     0
1002
}
1002
{
1000
NOSEL
1070
     0
1002
}
1002
{
1000
BEHIND
1070
     0
1002
}
1002
{
1000
REACTOR
1002
}
1001
GENIUS_GENOBJ-N-FIL_13
1002
{
1000
OWNER
1000
GEN
1002
}
  0
LINE
  5
447
330
1F
100
AcDbEntity
  8
0
100
AcDbLine
 10
1.499999903026774
 20
224.4000001323203
 30
0.0
 11
1.499999903026774
 21
223.7000001323202
 31
0.0
  0
LINE
  5
448
330
1F
100
AcDbEntity
  8
0
100
AcDbLine
 10
1.499999903026774
 20
223.0000001323201
 30
0.0
 11
1.499999903026774
 21
222.3000001323203
 31
0.0
  0
LINE
  5
449
330
1F
100
AcDbEntity
  8
0
100
AcDbLine
 10
1.499999903026774
 20
221.6000001323203
 30
0.0
 11
1.499999903026774
 21
220.9000001323203
 31
0.0
  0
LINE
  5
44A
330
1F
100
AcDbEntity
  8
0
100
AcDbLine
 10
46.49999990302676
 20
212.9000001323203
 30
0.0
 11
46.49999990302676
 21
191.9000001323203
 31
0.0
1001
GENIUS_GENODEF_13
1002
{
1000
HIER
1070
     0
1002
}
1002
{
1000
MANEDIT
1070
     0
1002
}
1002
{
1000
NOSEL
1070
     0
1002
}
1002
{
1000
BEHIND
1070
     0
1002
}
1002
{
1000
REACTOR
1002
}
1001
GENIUS_GENOBJ-N-CEN_13
1002
{
1000
OWNER
1000
GEN
1002
}
  0
LINE
  5
44B
330
1F
100
AcDbEntity
  8
0
100
AcDbLine
 10
7.499999903026774
 20
212.9000001323203
 30
0.0
 11
7.499999903026774
 21
191.9000001323203
 31
0.0
1001
GENIUS_GENODEF_13
1002
{
1000
HIER
1070
     0
1002
}
1002
{
1000
MANEDIT
1070
     0
1002
}
1002
{
1000
NOSEL
1070
     0
1002
}
1002
{
1000
BEHIND
1070
     0
1002
}
1002
{
1000
REACTOR
1002
}
1001
GENIUS_GENOBJ-N-CEN_13
1002
{
1000
OWNER
1000
GEN
1002
}
  0
LINE
  5
44C
330
1F
100
AcDbEntity
  8
0
100
AcDbLine
 10
7.499999903026774
 20
191.9000001323203
 30
0.0
 11
46.49999990302676
 21
191.9000001323203
 31
0.0
  0
LINE
  5
44D
330
1F
100
AcDbEntity
  8
0
100
AcDbLine
 10
7.499999903026774
 20
212.9000001323203
 30
0.0
 11
46.49999990302676
 21
212.9000001323203
 31
0.0
  0
ARC
  5
44E
330
1F
100
AcDbEntity
  8
0
100
AcDbCircle
 10
51.19999990302685
 20
218.2000001323203
 30
0.0
 40
1.199999999999999
100
AcDbArc
 50
0.0
 51
90.0
1001
GENIUS_GENODEF_13
1002
{
1000
HIER
1070
     0
1002
}
1002
{
1000
MANEDIT
1070
     0
1002
}
1002
{
1000
NOSEL
1070
     0
1002
}
1002
{
1000
BEHIND
1070
     0
1002
}
1002
{
1000
REACTOR
1002
}
1001
GENIUS_GENOBJ-N-FIL_13
1002
{
1000
OWNER
1000
GEN
1002
}
  0
ARC
  5
44F
330
1F
100
AcDbEntity
  8
0
100
AcDbCircle
 10
51.39999990302683
 20
218.4000001323203
 30
0.0
 40
1.1
100
AcDbArc
 50
0.0
 51
90.0
1001
GENIUS_GENODEF_13
1002
{
1000
HIER
1070
     0
1002
}
1002
{
1000
MANEDIT
1070
     0
1002
}
1002
{
1000
NOSEL
1070
     0
1002
}
1002
{
1000
BEHIND
1070
     0
1002
}
1002
{
1000
REACTOR
1002
}
1001
GENIUS_GENOBJ-N-FIL_13
1002
{
1000
OWNER
1000
GEN
1002
}
  0
ARC
  5
450
330
1F
100
AcDbEntity
  8
0
100
AcDbCircle
 10
51.49999990302672
 20
227.5000001323202
 30
0.0
 40
2.5
100
AcDbArc
 50
0.0
 51
90.0
1001
GENIUS_GENODEF_13
1002
{
1000
HIER
1070
     0
1002
}
1002
{
1000
MANEDIT
1070
     0
1002
}
1002
{
1000
NOSEL
1070
     0
1002
}
1002
{
1000
BEHIND
1070
     0
1002
}
1002
{
1000
REACTOR
1002
}
1001
GENIUS_GENOBJ-N-FIL_13
1002
{
1000
OWNER
1000
GEN
1002
}
  0
LINE
  5
451
330
1F
100
AcDbEntity
  8
0
100
AcDbLine
 10
52.49999990302672
 20
224.4000001323203
 30
0.0
 11
52.49999990302672
 21
223.7000001323202
 31
0.0
  0
LINE
  5
452
330
1F
100
AcDbEntity
  8
0
100
AcDbLine
 10
52.49999990302672
 20
223.0000001323201
 30
0.0
 11
52.49999990302672
 21
222.3000001323203
 31
0.0
  0
LINE
  5
453
330
1F
100
AcDbEntity
  8
0
100
AcDbLine
 10
52.49999990302672
 20
221.6000001323203
 30
0.0
 11
52.49999990302672
 21
220.9000001323203
 31
0.0
  0
ARC
  5
454
330
1F
100
AcDbEntity
  8
0
100
AcDbCircle
 10
95.24999990302664
 20
228.5000001323203
 30
0.0
 40
1.5
100
AcDbArc
 50
90.0
 51
180.0
1001
GENIUS_GENODEF_13
1002
{
1000
HIER
1070
     0
1002
}
1002
{
1000
MANEDIT
1070
     0
1002
}
1002
{
1000
NOSEL
1070
     0
1002
}
1002
{
1000
BEHIND
1070
     0
1002
}
1002
{
1000
REACTOR
1002
}
1001
GENIUS_GENOBJ-N-FIL_13
1002
{
1000
OWNER
1000
GEN
1002
}
  0
LINE
  5
455
330
1F
100
AcDbEntity
  8
0
100
AcDbLine
 10
99.24999990302664
 20
228.3000001323203
 30
0.0
 11
98.74999990302663
 21
228.3000001323203
 31
0.0
  0
LINE
  5
456
330
1F
100
AcDbEntity
  8
0
100
AcDbLine
 10
99.24999990302664
 20
227.0000001323203
 30
0.0
 11
98.74999990302663
 21
227.0000001323203
 31
0.0
  0
LINE
  5
457
330
1F
100
AcDbEntity
  8
0
100
AcDbLine
 10
99.24999990302664
 20
224.0000001323203
 30
0.0
 11
98.74999990302663
 21
224.0000001323203
 31
0.0
  0
LINE
  5
458
330
1F
100
AcDbEntity
  8
0
100
AcDbLine
 10
98.74999990302663
 20
230.0000001323204
 30
0.0
 11
95.24999990302664
 21
230.0000001323204
 31
0.0
  0
LINE
  5
459
330
1F
100
AcDbEntity
  8
0
100
AcDbLine
 10
202.5499999030268
 20
191.5000001323202
 30
0.0
 11
202.5499999030268
 21
155.4000001323203
 31
0.0
1001
GENIUS_GENODEF_13
1002
{
1000
HIER
1070
     0
1002
}
1002
{
1000
MANEDIT
1070
     0
1002
}
1002
{
1000
NOSEL
1070
     0
1002
}
1002
{
1000
BEHIND
1070
     0
1002
}
1002
{
1000
REACTOR
1002
}
1001
GENIUS_GENOBJ-N-CEN_13
1002
{
1000
OWNER
1000
GEN
1002
}
  0
LINE
  5
45A
330
1F
100
AcDbEntity
  8
0
100
AcDbLine
 10
202.2999999030268
 20
191.2500001323201
 30
0.0
 11
202.2999999030268
 21
155.6500001323203
 31
0.0
1001
GENIUS_GENODEF_13
1002
{
1000
HIER
1070
     0
1002
}
1002
{
1000
MANEDIT
1070
     0
1002
}
1002
{
1000
NOSEL
1070
     0
1002
}
1002
{
1000
BEHIND
1070
     0
1002
}
1002
{
1000
REACTOR
1002
}
1001
GENIUS_GENOBJ-N-CEN_13
1002
{
1000
OWNER
1000
GEN
1002
}
  0
LINE
  5
45B
330
1F
100
AcDbEntity
  8
0
100
AcDbLine
 10
151.4499999030268
 20
191.5000001323202
 30
0.0
 11
151.4499999030268
 21
155.4000001323203
 31
0.0
1001
GENIUS_GENODEF_13
1002
{
1000
HIER
1070
     0
1002
}
1002
{
1000
MANEDIT
1070
     0
1002
}
1002
{
1000
NOSEL
1070
     0
1002
}
1002
{
1000
BEHIND
1070
     0
1002
}
1002
{
1000
REACTOR
1002
}
1001
GENIUS_GENOBJ-N-CEN_13
1002
{
1000
OWNER
1000
GEN
1002
}
  0
LINE
  5
45C
330
1F
100
AcDbEntity
  8
0
100
AcDbLine
 10
151.6999999030268
 20
191.2500001323201
 30
0.0
 11
151.6999999030268
 21
155.6500001323203
 31
0.0
1001
GENIUS_GENODEF_13
1002
{
1000
HIER
1070
     0
1002
}
1002
{
1000
MANEDIT
1070
     0
1002
}
1002
{
1000
NOSEL
1070
     0
1002
}
1002
{
1000
BEHIND
1070
     0
1002
}
1002
{
1000
REACTOR
1002
}
1001
GENIUS_GENOBJ-N-CEN_13
1002
{
1000
OWNER
1000
GEN
1002
}
  0
LINE
  5
45D
330
1F
100
AcDbEntity
  8
0
100
AcDbLine
 10
203.9999999030267
 20
122.5000001323202
 30
0.0
 11
203.9999999030268
 21
227.5000001323202
 31
0.0
1001
GENIUS_GENREC_14
1002
{
1000
PYDIR
1011
149.9999999030268
1021
230.0000001323202
1031
0.0
1002
}
1002
{
1000
PXDIR
1011
203.9999999030268
1021
120.0000001323203
1031
0.0
1002
}
1002
{
1000
PORI
1011
149.9999999030268
1021
120.0000001323203
1031
0.0
1002
}
1002
{
1000
PINS
1011
149.9999999030268
1021
120.0000001323203
1031
0.0
1002
}
1002
{
1000
HVAL
1000
110
1002
}
1002
{
1000
H
1070
     2
1002
}
1002
{
1000
WVAL
1000
54
1002
}
1002
{
1000
W
1070
     2
1002
}
1002
{
1000
C
1070
     1
1002
}
1001
GENIUS_GENODEF_13
1002
{
1000
HIER
1070
     0
1002
}
1002
{
1000
MANEDIT
1070
     0
1002
}
1002
{
1000
NOSEL
1070
     0
1002
}
1002
{
1000
BEHIND
1070
     0
1002
}
1002
{
1000
REACTOR
1002
}
1001
GENIUS_GENOBJ-N-REC_13
1002
{
1000
OWNER
1000
GEN
1002
}
  0
LINE
  5
45E
330
1F
100
AcDbEntity
  8
0
100
AcDbLine
 10
149.9999999030268
 20
227.5000001323202
 30
0.0
 11
149.9999999030268
 21
122.5000001323202
 31
0.0
1001
GENIUS_GENREC_14
1002
{
1000
PYDIR
1011
149.9999999030268
1021
230.0000001323202
1031
0.0
1002
}
1002
{
1000
PXDIR
1011
203.9999999030268
1021
120.0000001323203
1031
0.0
1002
}
1002
{
1000
PORI
1011
149.9999999030268
1021
120.0000001323203
1031
0.0
1002
}
1002
{
1000
PINS
1011
149.9999999030268
1021
120.0000001323203
1031
0.0
1002
}
1002
{
1000
HVAL
1000
110
1002
}
1002
{
1000
H
1070
     2
1002
}
1002
{
1000
WVAL
1000
54
1002
}
1002
{
1000
W
1070
     2
1002
}
1002
{
1000
C
1070
     1
1002
}
1001
GENIUS_GENODEF_13
1002
{
1000
HIER
1070
     0
1002
}
1002
{
1000
MANEDIT
1070
     0
1002
}
1002
{
1000
NOSEL
1070
     0
1002
}
1002
{
1000
BEHIND
1070
     0
1002
}
1002
{
1000
REACTOR
1002
}
1001
GENIUS_GENOBJ-N-REC_13
1002
{
1000
OWNER
1000
GEN
1002
}
  0
LINE
  5
45F
330
1F
100
AcDbEntity
  8
0
100
AcDbLine
 10
114.2499999030266
 20
228.5000001323202
 30
0.0
 11
114.2499999030266
 21
121.5000001323202
 31
0.0
  0
LINE
  5
460
330
1F
100
AcDbEntity
  8
0
100
AcDbLine
 10
172.3999999030267
 20
151.9500001323202
 30
0.0
 11
151.5999999030267
 21
151.9500001323202
 31
0.0
1001
GENIUS_GENREC_14
1002
{
1000
PYDIR
1011
149.9999999030268
1021
230.0000001323202
1031
0.0
1002
}
1002
{
1000
PXDIR
1011
203.9999999030268
1021
120.0000001323203
1031
0.0
1002
}
1002
{
1000
PORI
1011
149.9999999030268
1021
120.0000001323203
1031
0.0
1002
}
1002
{
1000
PINS
1011
149.9999999030268
1021
120.0000001323203
1031
0.0
1002
}
1002
{
1000
HVAL
1000
110
1002
}
1002
{
1000
H
1070
     2
1002
}
1002
{
1000
WVAL
1000
54
1002
}
1002
{
1000
W
1070
     2
1002
}
1002
{
1000
C
1070
     1
1002
}
1001
GENIUS_GENODEF_13
1002
{
1000
HIER
1070
     0
1002
}
1002
{
1000
MANEDIT
1070
     0
1002
}
1002
{
1000
NOSEL
1070
     0
1002
}
1002
{
1000
BEHIND
1070
     0
1002
}
1002
{
1000
REACTOR
1002
}
1001
GENIUS_GENOBJ-N-REC_13
1002
{
1000
OWNER
1000
GEN
1002
}
  0
LINE
  5
461
330
1F
100
AcDbEntity
  8
0
100
AcDbLine
 10
171.5999999030267
 20
151.1500001323202
 30
0.0
 11
152.3999999030267
 21
151.1500001323202
 31
0.0
1001
GENIUS_GENREC_14
1002
{
1000
PYDIR
1011
149.9999999030268
1021
230.0000001323202
1031
0.0
1002
}
1002
{
1000
PXDIR
1011
203.9999999030268
1021
120.0000001323203
1031
0.0
1002
}
1002
{
1000
PORI
1011
149.9999999030268
1021
120.0000001323203
1031
0.0
1002
}
1002
{
1000
PINS
1011
149.9999999030268
1021
120.0000001323203
1031
0.0
1002
}
1002
{
1000
HVAL
1000
110
1002
}
1002
{
1000
H
1070
     2
1002
}
1002
{
1000
WVAL
1000
54
1002
}
1002
{
1000
W
1070
     2
1002
}
1002
{
1000
C
1070
     1
1002
}
1001
GENIUS_GENODEF_13
1002
{
1000
HIER
1070
     0
1002
}
1002
{
1000
MANEDIT
1070
     0
1002
}
1002
{
1000
NOSEL
1070
     0
1002
}
1002
{
1000
BEHIND
1070
     0
1002
}
1002
{
1000
REACTOR
1002
}
1001
GENIUS_GENOBJ-N-REC_13
1002
{
1000
OWNER
1000
GEN
1002
}
  0
LINE
  5
462
330
1F
100
AcDbEntity
  8
0
100
AcDbLine
 10
171.5999999030267
 20
145.5500001323202
 30
0.0
 11
152.3999999030267
 21
145.5500001323202
 31
0.0
1001
GENIUS_GENREC_14
1002
{
1000
PYDIR
1011
149.9999999030268
1021
230.0000001323202
1031
0.0
1002
}
1002
{
1000
PXDIR
1011
203.9999999030268
1021
120.0000001323203
1031
0.0
1002
}
1002
{
1000
PORI
1011
149.9999999030268
1021
120.0000001323203
1031
0.0
1002
}
1002
{
1000
PINS
1011
149.9999999030268
1021
120.0000001323203
1031
0.0
1002
}
1002
{
1000
HVAL
1000
110
1002
}
1002
{
1000
H
1070
     2
1002
}
1002
{
1000
WVAL
1000
54
1002
}
1002
{
1000
W
1070
     2
1002
}
1002
{
1000
C
1070
     1
1002
}
1001
GENIUS_GENODEF_13
1002
{
1000
HIER
1070
     0
1002
}
1002
{
1000
MANEDIT
1070
     0
1002
}
1002
{
1000
NOSEL
1070
     0
1002
}
1002
{
1000
BEHIND
1070
     0
1002
}
1002
{
1000
REACTOR
1002
}
1001
GENIUS_GENOBJ-N-REC_13
1002
{
1000
OWNER
1000
GEN
1002
}
  0
LINE
  5
463
330
1F
100
AcDbEntity
  8
0
100
AcDbLine
 10
202.5499999030268
 20
155.4000001323203
 30
0.0
 11
151.4499999030268
 21
155.4000001323203
 31
0.0
1001
GENIUS_GENREC_14
1002
{
1000
PYDIR
1011
149.9999999030268
1021
230.0000001323202
1031
0.0
1002
}
1002
{
1000
PXDIR
1011
203.9999999030268
1021
120.0000001323203
1031
0.0
1002
}
1002
{
1000
PORI
1011
149.9999999030268
1021
120.0000001323203
1031
0.0
1002
}
1002
{
1000
PINS
1011
149.9999999030268
1021
120.0000001323203
1031
0.0
1002
}
1002
{
1000
HVAL
1000
110
1002
}
1002
{
1000
H
1070
     2
1002
}
1002
{
1000
WVAL
1000
54
1002
}
1002
{
1000
W
1070
     2
1002
}
1002
{
1000
C
1070
     1
1002
}
1001
GENIUS_GENODEF_13
1002
{
1000
HIER
1070
     0
1002
}
1002
{
1000
MANEDIT
1070
     0
1002
}
1002
{
1000
NOSEL
1070
     0
1002
}
1002
{
1000
BEHIND
1070
     0
1002
}
1002
{
1000
REACTOR
1002
}
1001
GENIUS_GENOBJ-N-REC_13
1002
{
1000
OWNER
1000
GEN
1002
}
  0
LINE
  5
464
330
1F
100
AcDbEntity
  8
0
100
AcDbLine
 10
172.5499999030267
 20
152.1000001323202
 30
0.0
 11
151.4499999030268
 21
152.1000001323202
 31
0.0
1001
GENIUS_GENREC_14
1002
{
1000
PYDIR
1011
149.9999999030268
1021
230.0000001323202
1031
0.0
1002
}
1002
{
1000
PXDIR
1011
203.9999999030268
1021
120.0000001323203
1031
0.0
1002
}
1002
{
1000
PORI
1011
149.9999999030268
1021
120.0000001323203
1031
0.0
1002
}
1002
{
1000
PINS
1011
149.9999999030268
1021
120.0000001323203
1031
0.0
1002
}
1002
{
1000
HVAL
1000
110
1002
}
1002
{
1000
H
1070
     2
1002
}
1002
{
1000
WVAL
1000
54
1002
}
1002
{
1000
W
1070
     2
1002
}
1002
{
1000
C
1070
     1
1002
}
1001
GENIUS_GENODEF_13
1002
{
1000
HIER
1070
     0
1002
}
1002
{
1000
MANEDIT
1070
     0
1002
}
1002
{
1000
NOSEL
1070
     0
1002
}
1002
{
1000
BEHIND
1070
     0
1002
}
1002
{
1000
REACTOR
1002
}
1001
GENIUS_GENOBJ-N-REC_13
1002
{
1000
OWNER
1000
GEN
1002
}
  0
LINE
  5
465
330
1F
100
AcDbEntity
  8
0
100
AcDbLine
 10
202.2999999030268
 20
155.6500001323203
 30
0.0
 11
151.6999999030268
 21
155.6500001323203
 31
0.0
1001
GENIUS_GENREC_14
1002
{
1000
PYDIR
1011
149.9999999030268
1021
230.0000001323202
1031
0.0
1002
}
1002
{
1000
PXDIR
1011
203.9999999030268
1021
120.0000001323203
1031
0.0
1002
}
1002
{
1000
PORI
1011
149.9999999030268
1021
120.0000001323203
1031
0.0
1002
}
1002
{
1000
PINS
1011
149.9999999030268
1021
120.0000001323203
1031
0.0
1002
}
1002
{
1000
HVAL
1000
110
1002
}
1002
{
1000
H
1070
     2
1002
}
1002
{
1000
WVAL
1000
54
1002
}
1002
{
1000
W
1070
     2
1002
}
1002
{
1000
C
1070
     1
1002
}
1001
GENIUS_GENODEF_13
1002
{
1000
HIER
1070
     0
1002
}
1002
{
1000
MANEDIT
1070
     0
1002
}
1002
{
1000
NOSEL
1070
     0
1002
}
1002
{
1000
BEHIND
1070
     0
1002
}
1002
{
1000
REACTOR
1002
}
1001
GENIUS_GENOBJ-N-REC_13
1002
{
1000
OWNER
1000
GEN
1002
}
  0
LINE
  5
466
330
1F
100
AcDbEntity
  8
0
100
AcDbLine
 10
163.5999999030267
 20
129.7000001323202
 30
0.0
 11
170.5999999030266
 21
129.7000001323202
 31
0.0
  0
LINE
  5
467
330
1F
100
AcDbEntity
  8
0
100
AcDbLine
 10
163.2999999030267
 20
129.3000001323203
 30
0.0
 11
170.8999999030267
 21
129.3000001323203
 31
0.0
  0
ARC
  5
468
330
1F
100
AcDbEntity
  8
0
100
AcDbCircle
 10
164.004987465139
 20
102.2000001323202
 30
0.0
 40
1.0
100
AcDbArc
 50
185.7105931375003
 51
270.0
  0
LINE
  5
469
330
1F
100
AcDbEntity
  8
0
100
AcDbLine
 10
163.2999999030267
 20
107.7000001323202
 30
0.0
 11
170.8999999030267
 21
107.7000001323202
 31
0.0
  0
LINE
  5
46A
330
1F
100
AcDbEntity
  8
0
100
AcDbLine
 10
163.2999999030267
 20
114.7000001323202
 30
0.0
 11
170.8999999030267
 21
114.7000001323202
 31
0.0
  0
LINE
  5
46B
330
1F
100
AcDbEntity
  8
0
100
AcDbLine
 10
163.2999999030267
 20
113.7000001323202
 30
0.0
 11
170.8999999030267
 21
113.7000001323202
 31
0.0
  0
LINE
  5
46C
330
1F
100
AcDbEntity
  8
0
100
AcDbLine
 10
163.2999999030267
 20
113.2000001323202
 30
0.0
 11
170.8999999030267
 21
113.2000001323202
 31
0.0
  0
LINE
  5
46D
330
1F
100
AcDbEntity
  8
0
100
AcDbLine
 10
163.2999999030267
 20
112.2000001323202
 30
0.0
 11
170.8999999030267
 21
112.2000001323202
 31
0.0
  0
LINE
  5
46E
330
1F
100
AcDbEntity
  8
0
100
AcDbLine
 10
163.2999999030267
 20
110.7000001323202
 30
0.0
 11
170.8999999030267
 21
110.7000001323202
 31
0.0
  0
LINE
  5
46F
330
1F
100
AcDbEntity
  8
0
100
AcDbLine
 10
163.2999999030267
 20
111.7000001323201
 30
0.0
 11
170.8999999030267
 21
111.7000001323201
 31
0.0
  0
LINE
  5
470
330
1F
100
AcDbEntity
  8
0
100
AcDbLine
 10
163.2999999030267
 20
110.2000001323202
 30
0.0
 11
170.8999999030267
 21
110.2000001323202
 31
0.0
  0
LINE
  5
471
330
1F
100
AcDbEntity
  8
0
100
AcDbLine
 10
163.2999999030267
 20
109.2000001323202
 30
0.0
 11
170.8999999030267
 21
109.2000001323202
 31
0.0
  0
LINE
  5
472
330
1F
100
AcDbEntity
  8
0
100
AcDbLine
 10
163.2999999030267
 20
108.7000001323202
 30
0.0
 11
170.8999999030267
 21
108.7000001323202
 31
0.0
  0
LINE
  5
473
330
1F
100
AcDbEntity
  8
0
100
AcDbLine
 10
172.3999999030267
 20
132.1500001323202
 30
0.0
 11
151.5999999030267
 21
132.1500001323202
 31
0.0
1001
GENIUS_GENREC_14
1002
{
1000
PYDIR
1011
149.9999999030268
1021
230.0000001323202
1031
0.0
1002
}
1002
{
1000
PXDIR
1011
203.9999999030268
1021
120.0000001323203
1031
0.0
1002
}
1002
{
1000
PORI
1011
149.9999999030268
1021
120.0000001323203
1031
0.0
1002
}
1002
{
1000
PINS
1011
149.9999999030268
1021
120.0000001323203
1031
0.0
1002
}
1002
{
1000
HVAL
1000
110
1002
}
1002
{
1000
H
1070
     2
1002
}
1002
{
1000
WVAL
1000
54
1002
}
1002
{
1000
W
1070
     2
1002
}
1002
{
1000
C
1070
     1
1002
}
1001
GENIUS_GENODEF_13
1002
{
1000
HIER
1070
     0
1002
}
1002
{
1000
MANEDIT
1070
     0
1002
}
1002
{
1000
NOSEL
1070
     0
1002
}
1002
{
1000
BEHIND
1070
     0
1002
}
1002
{
1000
REACTOR
1002
}
1001
GENIUS_GENOBJ-N-REC_13
1002
{
1000
OWNER
1000
GEN
1002
}
  0
LINE
  5
474
330
1F
100
AcDbEntity
  8
0
100
AcDbLine
 10
171.5999999030267
 20
132.9500001323203
 30
0.0
 11
152.3999999030267
 21
132.9500001323202
 31
0.0
1001
GENIUS_GENREC_14
1002
{
1000
PYDIR
1011
149.9999999030268
1021
230.0000001323202
1031
0.0
1002
}
1002
{
1000
PXDIR
1011
203.9999999030268
1021
120.0000001323203
1031
0.0
1002
}
1002
{
1000
PORI
1011
149.9999999030268
1021
120.0000001323203
1031
0.0
1002
}
1002
{
1000
PINS
1011
149.9999999030268
1021
120.0000001323203
1031
0.0
1002
}
1002
{
1000
HVAL
1000
110
1002
}
1002
{
1000
H
1070
     2
1002
}
1002
{
1000
WVAL
1000
54
1002
}
1002
{
1000
W
1070
     2
1002
}
1002
{
1000
C
1070
     1
1002
}
1001
GENIUS_GENODEF_13
1002
{
1000
HIER
1070
     0
1002
}
1002
{
1000
MANEDIT
1070
     0
1002
}
1002
{
1000
NOSEL
1070
     0
1002
}
1002
{
1000
BEHIND
1070
     0
1002
}
1002
{
1000
REACTOR
1002
}
1001
GENIUS_GENOBJ-N-REC_13
1002
{
1000
OWNER
1000
GEN
1002
}
  0
LINE
  5
475
330
1F
100
AcDbEntity
  8
0
100
AcDbLine
 10
171.5999999030267
 20
137.5500001323203
 30
0.0
 11
152.3999999030267
 21
137.5500001323203
 31
0.0
1001
GENIUS_GENREC_14
1002
{
1000
PYDIR
1011
149.9999999030268
1021
230.0000001323202
1031
0.0
1002
}
1002
{
1000
PXDIR
1011
203.9999999030268
1021
120.0000001323203
1031
0.0
1002
}
1002
{
1000
PORI
1011
149.9999999030268
1021
120.0000001323203
1031
0.0
1002
}
1002
{
1000
PINS
1011
149.9999999030268
1021
120.0000001323203
1031
0.0
1002
}
1002
{
1000
HVAL
1000
110
1002
}
1002
{
1000
H
1070
     2
1002
}
1002
{
1000
WVAL
1000
54
1002
}
1002
{
1000
W
1070
     2
1002
}
1002
{
1000
C
1070
     1
1002
}
1001
GENIUS_GENODEF_13
1002
{
1000
HIER
1070
     0
1002
}
1002
{
1000
MANEDIT
1070
     0
1002
}
1002
{
1000
NOSEL
1070
     0
1002
}
1002
{
1000
BEHIND
1070
     0
1002
}
1002
{
1000
REACTOR
1002
}
1001
GENIUS_GENOBJ-N-REC_13
1002
{
1000
OWNER
1000
GEN
1002
}
  0
LINE
  5
476
330
1F
100
AcDbEntity
  8
0
100
AcDbLine
 10
172.5499999030267
 20
132.0000001323201
 30
0.0
 11
151.4499999030268
 21
132.0000001323201
 31
0.0
1001
GENIUS_GENREC_14
1002
{
1000
PYDIR
1011
149.9999999030268
1021
230.0000001323202
1031
0.0
1002
}
1002
{
1000
PXDIR
1011
203.9999999030268
1021
120.0000001323203
1031
0.0
1002
}
1002
{
1000
PORI
1011
149.9999999030268
1021
120.0000001323203
1031
0.0
1002
}
1002
{
1000
PINS
1011
149.9999999030268
1021
120.0000001323203
1031
0.0
1002
}
1002
{
1000
HVAL
1000
110
1002
}
1002
{
1000
H
1070
     2
1002
}
1002
{
1000
WVAL
1000
54
1002
}
1002
{
1000
W
1070
     2
1002
}
1002
{
1000
C
1070
     1
1002
}
1001
GENIUS_GENODEF_13
1002
{
1000
HIER
1070
     0
1002
}
1002
{
1000
MANEDIT
1070
     0
1002
}
1002
{
1000
NOSEL
1070
     0
1002
}
1002
{
1000
BEHIND
1070
     0
1002
}
1002
{
1000
REACTOR
1002
}
1001
GENIUS_GENOBJ-N-REC_13
1002
{
1000
OWNER
1000
GEN
1002
}
  0
ARC
  5
477
330
1F
100
AcDbEntity
  8
0
100
AcDbCircle
 10
162.2999999030267
 20
114.4123759686098
 30
0.0
 40
1.199999999999999
100
AcDbArc
 50
180.0
 51
270.0
1001
GENIUS_GENODEF_13
1002
{
1000
HIER
1070
     0
1002
}
1002
{
1000
MANEDIT
1070
     0
1002
}
1002
{
1000
NOSEL
1070
     0
1002
}
1002
{
1000
BEHIND
1070
     0
1002
}
1002
{
1000
REACTOR
1002
}
1001
GENIUS_GENOBJ-N-FIL_13
1002
{
1000
OWNER
1000
GEN
1002
}
  0
LINE
  5
478
330
1F
100
AcDbEntity
  8
0
100
AcDbLine
 10
163.2999999030267
 20
129.3000001323203
 30
0.0
 11
163.2999999030267
 21
107.7000001323202
 31
0.0
  0
ARC
  5
479
330
1F
100
AcDbEntity
  8
0
100
AcDbCircle
 10
113.6499999030267
 20
114.2000001323202
 30
0.0
 40
0.5
100
AcDbArc
 50
270.0
 51
90.0
  0
ARC
  5
47A
330
1F
100
AcDbEntity
  8
0
100
AcDbCircle
 10
108.2499999030266
 20
114.4000001323201
 30
0.0
 40
1.199999999999999
100
AcDbArc
 50
270.0
 51
0.0
1001
GENIUS_GENODEF_13
1002
{
1000
HIER
1070
     0
1002
}
1002
{
1000
MANEDIT
1070
     0
1002
}
1002
{
1000
NOSEL
1070
     0
1002
}
1002
{
1000
BEHIND
1070
     0
1002
}
1002
{
1000
REACTOR
1002
}
1001
GENIUS_GENOBJ-N-FIL_13
1002
{
1000
OWNER
1000
GEN
1002
}
  0
LINE
  5
47B
330
1F
100
AcDbEntity
  8
0
100
AcDbLine
 10
111.6499999030267
 20
119.6288121739444
 30
0.0
 11
111.6499999030267
 21
107.7000001323202
 31
0.0
  0
LINE
  5
47C
330
1F
100
AcDbEntity
  8
0
100
AcDbLine
 10
108.4499999030267
 20
113.2000001323202
 30
0.0
 11
108.4499999030267
 21
102.2000001323202
 31
0.0
  0
LINE
  5
47D
330
1F
100
AcDbEntity
  8
0
100
AcDbLine
 10
110.916672706128
 20
109.6133494203842
 30
0.0
 11
108.4833270999251
 21
103.2866508442563
 31
0.0
  0
ARC
  5
47E
330
1F
100
AcDbEntity
  8
0
100
AcDbCircle
 10
108.9499999030267
 20
103.1071613046019
 30
0.0
 40
0.5
100
AcDbArc
 50
158.9624889745793
 51
180.0
1001
GENIUS_GENODEF_13
1002
{
1000
HIER
1070
     0
1002
}
1002
{
1000
MANEDIT
1070
     0
1002
}
1002
{
1000
NOSEL
1070
     0
1002
}
1002
{
1000
BEHIND
1070
     0
1002
}
1002
{
1000
REACTOR
1002
}
1001
GENIUS_GENOBJ-N-FIL_13
1002
{
1000
OWNER
1000
GEN
1002
}
  0
LINE
  5
47F
330
1F
100
AcDbEntity
  8
0
100
AcDbLine
 10
113.1499999030267
 20
109.2000001323202
 30
0.0
 11
113.1499999030267
 21
108.7000001323202
 31
0.0
  0
ARC
  5
480
330
1F
100
AcDbEntity
  8
0
100
AcDbCircle
 10
113.6499999030267
 20
108.2000001323202
 30
0.0
 40
0.5
100
AcDbArc
 50
270.0
 51
90.0
  0
LINE
  5
481
330
1F
100
AcDbEntity
  8
0
100
AcDbLine
 10
113.6499999030267
 20
107.7000001323202
 30
0.0
 11
111.6499999030267
 21
107.7000001323202
 31
0.0
  0
LINE
  5
482
330
1F
100
AcDbEntity
  8
0
100
AcDbLine
 10
113.6499999030267
 20
108.7000001323202
 30
0.0
 11
113.1499999030267
 21
108.7000001323202
 31
0.0
  0
ARC
  5
483
330
1F
100
AcDbEntity
  8
0
100
AcDbCircle
 10
110.4499999030267
 20
111.7000001323201
 30
0.0
 40
0.5
100
AcDbArc
 50
0.0
 51
90.0
1001
GENIUS_GENODEF_13
1002
{
1000
HIER
1070
     0
1002
}
1002
{
1000
MANEDIT
1070
     0
1002
}
1002
{
1000
NOSEL
1070
     0
1002
}
1002
{
1000
BEHIND
1070
     0
1002
}
1002
{
1000
REACTOR
1002
}
1001
GENIUS_GENOBJ-N-FIL_13
1002
{
1000
OWNER
1000
GEN
1002
}
  0
ARC
  5
484
330
1F
100
AcDbEntity
  8
0
100
AcDbCircle
 10
110.4499999030267
 20
109.7928389600385
 30
0.0
 40
0.5
100
AcDbArc
 50
338.9624889745793
 51
0.0
1001
GENIUS_GENODEF_13
1002
{
1000
HIER
1070
     0
1002
}
1002
{
1000
MANEDIT
1070
     0
1002
}
1002
{
1000
NOSEL
1070
     0
1002
}
1002
{
1000
BEHIND
1070
     0
1002
}
1002
{
1000
REACTOR
1002
}
1001
GENIUS_GENOBJ-N-FIL_13
1002
{
1000
OWNER
1000
GEN
1002
}
  0
LINE
  5
485
330
1F
100
AcDbEntity
  8
0
100
AcDbLine
 10
110.9499999030267
 20
111.7000001323201
 30
0.0
 11
110.9499999030267
 21
109.7928389600385
 31
0.0
  0
ARC
  5
486
330
1F
100
AcDbEntity
  8
0
100
AcDbCircle
 10
108.9499999030267
 20
112.7000001323201
 30
0.0
 40
0.5
100
AcDbArc
 50
180.0
 51
270.0
1001
GENIUS_GENODEF_13
1002
{
1000
HIER
1070
     0
1002
}
1002
{
1000
MANEDIT
1070
     0
1002
}
1002
{
1000
NOSEL
1070
     0
1002
}
1002
{
1000
BEHIND
1070
     0
1002
}
1002
{
1000
REACTOR
1002
}
1001
GENIUS_GENOBJ-N-FIL_13
1002
{
1000
OWNER
1000
GEN
1002
}
  0
LINE
  5
487
330
1F
100
AcDbEntity
  8
0
100
AcDbLine
 10
110.4499999030267
 20
112.2000001323202
 30
0.0
 11
108.9499999030267
 21
112.2000001323202
 31
0.0
  0
ARC
  5
488
330
1F
100
AcDbEntity
  8
0
100
AcDbCircle
 10
113.6499999030267
 20
112.7000001323201
 30
0.0
 40
0.5
100
AcDbArc
 50
270.0
 51
90.0
  0
ARC
  5
489
330
1F
100
AcDbEntity
  8
0
100
AcDbCircle
 10
113.6499999030267
 20
109.7000001323202
 30
0.0
 40
0.5
100
AcDbArc
 50
270.0
 51
90.0
  0
ARC
  5
48A
330
1F
100
AcDbEntity
  8
0
100
AcDbCircle
 10
113.6499999030267
 20
111.2000001323202
 30
0.0
 40
0.5
100
AcDbArc
 50
270.0
 51
90.0
  0
LINE
  5
48B
330
1F
100
AcDbEntity
  8
0
100
AcDbLine
 10
113.1499999030265
 20
113.7000001323202
 30
0.0
 11
113.1499999030265
 21
113.2000001323202
 31
0.0
  0
LINE
  5
48C
330
1F
100
AcDbEntity
  8
0
100
AcDbLine
 10
113.1499999030267
 20
112.2000001323202
 30
0.0
 11
113.1499999030267
 21
111.7000001323201
 31
0.0
  0
LINE
  5
48D
330
1F
100
AcDbEntity
  8
0
100
AcDbLine
 10
113.1499999030267
 20
110.7000001323202
 30
0.0
 11
113.1499999030267
 21
110.2000001323202
 31
0.0
  0
LINE
  5
48E
330
1F
100
AcDbEntity
  8
0
100
AcDbLine
 10
113.6499999030267
 20
113.7000001323202
 30
0.0
 11
113.1499999030267
 21
113.7000001323202
 31
0.0
  0
LINE
  5
48F
330
1F
100
AcDbEntity
  8
0
100
AcDbLine
 10
113.6499999030267
 20
113.2000001323202
 30
0.0
 11
113.1499999030267
 21
113.2000001323202
 31
0.0
  0
LINE
  5
490
330
1F
100
AcDbEntity
  8
0
100
AcDbLine
 10
113.6499999030267
 20
112.2000001323202
 30
0.0
 11
113.1499999030267
 21
112.2000001323202
 31
0.0
  0
LINE
  5
491
330
1F
100
AcDbEntity
  8
0
100
AcDbLine
 10
113.6499999030267
 20
111.7000001323201
 30
0.0
 11
113.1499999030267
 21
111.7000001323201
 31
0.0
  0
LINE
  5
492
330
1F
100
AcDbEntity
  8
0
100
AcDbLine
 10
113.6499999030267
 20
110.7000001323202
 30
0.0
 11
113.1499999030267
 21
110.7000001323202
 31
0.0
  0
LINE
  5
493
330
1F
100
AcDbEntity
  8
0
100
AcDbLine
 10
113.6499999030267
 20
110.2000001323202
 30
0.0
 11
113.1499999030267
 21
110.2000001323202
 31
0.0
  0
LINE
  5
494
330
1F
100
AcDbEntity
  8
0
100
AcDbLine
 10
113.6499999030267
 20
109.2000001323202
 30
0.0
 11
113.1499999030267
 21
109.2000001323202
 31
0.0
  0
LINE
  5
495
330
1F
100
AcDbEntity
  8
0
100
AcDbLine
 10
162.0999999030266
 20
111.2000001323202
 30
0.0
 11
163.0099502749289
 21
102.1004964132993
 31
0.0
  0
LINE
  5
496
330
1F
100
AcDbEntity
  8
0
100
AcDbLine
 10
162.2999999030267
 20
113.2123759686098
 30
0.0
 11
163.2999999030267
 21
113.2123759686098
 31
0.0
  0
LINE
  5
497
330
1F
100
AcDbEntity
  8
0
100
AcDbLine
 10
162.0999999030266
 20
113.2291600119899
 30
0.0
 11
162.0999999030266
 21
111.2000001323202
 31
0.0
  0
LINE
  5
498
330
1F
100
AcDbEntity
  8
0
100
AcDbLine
 10
113.1499999030267
 20
120.0543169028401
 30
0.0
 11
113.1499999030267
 21
114.7000001323202
 31
0.0
  0
LINE
  5
499
330
1F
100
AcDbEntity
  8
0
100
AcDbLine
 10
109.4499999030267
 20
120.0000001323202
 30
0.0
 11
109.4499999030267
 21
114.4000001323201
 31
0.0
  0
ARC
  5
49A
330
1F
100
AcDbEntity
  8
0
100
AcDbCircle
 10
104.9499999030267
 20
121.7000001323202
 30
0.0
 40
7.0
100
AcDbArc
 50
315.7595228987311
 51
342.7894469119892
  0
ARC
  5
49B
330
1F
100
AcDbEntity
  8
0
100
AcDbCircle
 10
111.3499999030265
 20
116.6885901591043
 30
0.0
 40
0.3
100
AcDbArc
 50
0.0
 51
151.2482814979189
1001
GENIUS_GENODEF_13
1002
{
1000
HIER
1070
     0
1002
}
1002
{
1000
MANEDIT
1070
     0
1002
}
1002
{
1000
NOSEL
1070
     0
1002
}
1002
{
1000
BEHIND
1070
     0
1002
}
1002
{
1000
REACTOR
1002
}
1001
GENIUS_GENOBJ-N-FIL_13
1002
{
1000
OWNER
1000
GEN
1002
}
  0
ARC
  5
49C
330
1F
100
AcDbEntity
  8
0
100
AcDbCircle
 10
104.9499999030267
 20
120.2000001323202
 30
0.0
 40
7.0
100
AcDbArc
 50
310.0052008848593
 51
331.2482814979189
  0
ARC
  5
49D
330
1F
100
AcDbEntity
  8
0
100
AcDbCircle
 10
109.7499999030266
 20
117.0256017753121
 30
0.0
 40
0.3
100
AcDbArc
 50
180.0000000000031
 51
315.7595228987288
1001
GENIUS_GENODEF_13
1002
{
1000
HIER
1070
     0
1002
}
1002
{
1000
MANEDIT
1070
     0
1002
}
1002
{
1000
NOSEL
1070
     0
1002
}
1002
{
1000
BEHIND
1070
     0
1002
}
1002
{
1000
REACTOR
1002
}
1001
GENIUS_GENOBJ-N-FIL_13
1002
{
1000
OWNER
1000
GEN
1002
}
  0
LINE
  5
49E
330
1F
100
AcDbEntity
  8
0
100
AcDbLine
 10
113.6499999030267
 20
114.7000001323202
 30
0.0
 11
113.1499999030267
 21
114.7000001323202
 31
0.0
  0
LINE
  5
49F
330
1F
100
AcDbEntity
  8
0
100
AcDbLine
 10
111.6499999030267
 20
120.0000001323202
 30
0.0
 11
111.6499999030267
 21
119.6288121739444
 31
0.0
  0
ARC
  5
4A0
330
1F
100
AcDbEntity
  8
0
100
AcDbCircle
 10
111.3499999030265
 20
119.7175773721605
 30
0.0
 40
0.3
100
AcDbArc
 50
342.7894469119892
 51
0.0
1001
GENIUS_GENODEF_13
1002
{
1000
HIER
1070
     0
1002
}
1002
{
1000
MANEDIT
1070
     0
1002
}
1002
{
1000
NOSEL
1070
     0
1002
}
1002
{
1000
BEHIND
1070
     0
1002
}
1002
{
1000
REACTOR
1002
}
1001
GENIUS_GENOBJ-N-FIL_13
1002
{
1000
OWNER
1000
GEN
1002
}
  0
ARC
  5
4A1
330
1F
100
AcDbEntity
  8
0
100
AcDbCircle
 10
112.7499999030266
 20
121.5000001323202
 30
0.0
 40
1.5
100
AcDbArc
 50
270.0
 51
0.0
1001
GENIUS_GENODEF_13
1002
{
1000
HIER
1070
     0
1002
}
1002
{
1000
MANEDIT
1070
     0
1002
}
1002
{
1000
NOSEL
1070
     0
1002
}
1002
{
1000
BEHIND
1070
     0
1002
}
1002
{
1000
REACTOR
1002
}
1001
GENIUS_GENOBJ-N-FIL_13
1002
{
1000
OWNER
1000
GEN
1002
}
  0
LINE
  5
4A2
330
1F
100
AcDbEntity
  8
0
100
AcDbLine
 10
151.4499999030268
 20
152.1000001323202
 30
0.0
 11
151.4499999030268
 21
132.0000001323201
 31
0.0
  0
LINE
  5
4A3
330
1F
100
AcDbEntity
  8
0
100
AcDbLine
 10
151.5999999030267
 20
151.9500001323202
 30
0.0
 11
151.5999999030267
 21
132.1500001323202
 31
0.0
  0
LINE
  5
4A4
330
1F
100
AcDbEntity
  8
0
100
AcDbLine
 10
152.3999999030267
 20
151.1500001323202
 30
0.0
 11
152.3999999030267
 21
132.9500001323202
 31
0.0
  0
LINE
  5
4A5
330
1F
100
AcDbEntity
  8
0
100
AcDbLine
 10
158.5999999030267
 20
151.1500001323202
 30
0.0
 11
158.5999999030267
 21
132.9500001323202
 31
0.0
  0
LINE
  5
4A6
330
1F
100
AcDbEntity
  8
0
100
AcDbLine
 10
163.0999999030267
 20
129.2000001323202
 30
0.0
 11
163.0999999030267
 21
120.0000001323203
 31
0.0
1001
GENIUS_GENODEF_13
1002
{
1000
HIER
1070
     0
1002
}
1002
{
1000
MANEDIT
1070
     0
1002
}
1002
{
1000
NOSEL
1070
     0
1002
}
1002
{
1000
BEHIND
1070
     0
1002
}
1002
{
1000
REACTOR
1002
}
1001
GENIUS_GENOBJ-N-CEN_13
1002
{
1000
OWNER
1000
GEN
1002
}
  0
LINE
  5
4A7
330
1F
100
AcDbEntity
  8
0
100
AcDbLine
 10
152.4999999030268
 20
120.0000001323203
 30
0.0
 11
163.2999999030267
 21
120.0000001323203
 31
0.0
  0
ARC
  5
4A8
330
1F
100
AcDbEntity
  8
0
100
AcDbCircle
 10
152.4999999030268
 20
122.5000001323202
 30
0.0
 40
2.5
100
AcDbArc
 50
180.0
 51
270.0
1001
GENIUS_GENODEF_13
1002
{
1000
HIER
1070
     0
1002
}
1002
{
1000
MANEDIT
1070
     0
1002
}
1002
{
1000
NOSEL
1070
     0
1002
}
1002
{
1000
BEHIND
1070
     0
1002
}
1002
{
1000
REACTOR
1002
}
1001
GENIUS_GENOBJ-N-FIL_13
1002
{
1000
OWNER
1000
GEN
1002
}
  0
LINE
  5
4A9
330
1F
100
AcDbEntity
  8
0
100
AcDbLine
 10
161.0999999030267
 20
114.4123759686098
 30
0.0
 11
161.0999999030267
 21
120.0000001323203
 31
0.0
  0
ARC
  5
4AA
330
1F
100
AcDbEntity
  8
0
100
AcDbCircle
 10
163.5999999030267
 20
129.2000001323202
 30
0.0
 40
0.5
100
AcDbArc
 50
90.0
 51
180.0
1001
GENIUS_GENODEF_13
1002
{
1000
HIER
1070
     0
1002
}
1002
{
1000
MANEDIT
1070
     0
1002
}
1002
{
1000
NOSEL
1070
     0
1002
}
1002
{
1000
BEHIND
1070
     0
1002
}
1002
{
1000
REACTOR
1002
}
1001
GENIUS_GENOBJ-N-FIL_13
1002
{
1000
OWNER
1000
GEN
1002
}
  0
LINE
  5
4AB
330
1F
100
AcDbEntity
  8
0
100
AcDbLine
 10
163.0999999030267
 20
125.5000001323202
 30
0.0
 11
163.2999999030267
 21
125.5000001323202
 31
0.0
  0
LINE
  5
4AC
330
1F
100
AcDbEntity
  8
0
100
AcDbLine
 10
170.8999999030267
 20
129.3000001323203
 30
0.0
 11
170.8999999030267
 21
107.7000001323202
 31
0.0
  0
ARC
  5
4AD
330
1F
100
AcDbEntity
  8
0
100
AcDbCircle
 10
171.8999999030265
 20
114.4123759686098
 30
0.0
 40
1.199999999999999
100
AcDbArc
 50
270.0
 51
0.0
1001
GENIUS_GENODEF_13
1002
{
1000
HIER
1070
     0
1002
}
1002
{
1000
MANEDIT
1070
     0
1002
}
1002
{
1000
NOSEL
1070
     0
1002
}
1002
{
1000
BEHIND
1070
     0
1002
}
1002
{
1000
REACTOR
1002
}
1001
GENIUS_GENOBJ-N-FIL_13
1002
{
1000
OWNER
1000
GEN
1002
}
  0
LINE
  5
4AE
330
1F
100
AcDbEntity
  8
0
100
AcDbLine
 10
171.1900495311248
 20
102.1004964132993
 30
0.0
 11
172.099999903027
 21
111.2000001323202
 31
0.0
  0
ARC
  5
4AF
330
1F
100
AcDbEntity
  8
0
100
AcDbCircle
 10
170.1950123409148
 20
102.2000001323202
 30
0.0
 40
1.0
100
AcDbArc
 50
270.0
 51
354.2894068624997
  0
LINE
  5
4B0
330
1F
100
AcDbEntity
  8
0
100
AcDbLine
 10
164.004987465139
 20
101.2000001323202
 30
0.0
 11
170.1950123409148
 21
101.2000001323202
 31
0.0
  0
LINE
  5
4B1
330
1F
100
AcDbEntity
  8
0
100
AcDbLine
 10
164.8499999030269
 20
91.20000013232022
 30
0.0
 11
169.3499999030269
 21
91.2000001323202
 31
0.0
  0
LINE
  5
4B2
330
1F
100
AcDbEntity
  8
0
100
AcDbLine
 10
170.8999999030267
 20
113.2123759686098
 30
0.0
 11
171.8999999030265
 21
113.2123759686098
 31
0.0
  0
LINE
  5
4B3
330
1F
100
AcDbEntity
  8
0
100
AcDbLine
 10
172.099999903027
 20
111.2000001323202
 30
0.0
 11
172.099999903027
 21
113.2291600119899
 31
0.0
  0
ARC
  5
4B4
330
1F
100
AcDbEntity
  8
0
100
AcDbCircle
 10
192.8999999030266
 20
143.4000001323203
 30
0.0
 40
0.5
100
AcDbArc
 50
0.0
 51
90.0
1001
GENIUS_GENODEF_13
1002
{
1000
HIER
1070
     0
1002
}
1002
{
1000
MANEDIT
1070
     0
1002
}
1002
{
1000
NOSEL
1070
     0
1002
}
1002
{
1000
BEHIND
1070
     0
1002
}
1002
{
1000
REACTOR
1002
}
1001
GENIUS_GENOBJ-N-FIL_13
1002
{
1000
OWNER
1000
GEN
1002
}
  0
ARC
  5
4B5
330
1F
100
AcDbEntity
  8
0
100
AcDbCircle
 10
192.8999999030266
 20
139.6000001323202
 30
0.0
 40
0.5
100
AcDbArc
 50
270.0
 51
0.0
1001
GENIUS_GENODEF_13
1002
{
1000
HIER
1070
     0
1002
}
1002
{
1000
MANEDIT
1070
     0
1002
}
1002
{
1000
NOSEL
1070
     0
1002
}
1002
{
1000
BEHIND
1070
     0
1002
}
1002
{
1000
REACTOR
1002
}
1001
GENIUS_GENOBJ-N-FIL_13
1002
{
1000
OWNER
1000
GEN
1002
}
  0
LINE
  5
4B6
330
1F
100
AcDbEntity
  8
0
100
AcDbLine
 10
179.9999999030265
 20
133.0000001323201
 30
0.0
 11
199.9999999030265
 21
133.0000001323201
 31
0.0
1001
GENIUS_GENREC_14
1002
{
1000
PYDIR
1011
149.9999999030268
1021
230.0000001323202
1031
0.0
1002
}
1002
{
1000
PXDIR
1011
203.9999999030268
1021
120.0000001323203
1031
0.0
1002
}
1002
{
1000
PORI
1011
149.9999999030268
1021
120.0000001323203
1031
0.0
1002
}
1002
{
1000
PINS
1011
149.9999999030268
1021
120.0000001323203
1031
0.0
1002
}
1002
{
1000
HVAL
1000
110
1002
}
1002
{
1000
H
1070
     2
1002
}
1002
{
1000
WVAL
1000
54
1002
}
1002
{
1000
W
1070
     2
1002
}
1002
{
1000
C
1070
     1
1002
}
1001
GENIUS_GENODEF_13
1002
{
1000
HIER
1070
     0
1002
}
1002
{
1000
MANEDIT
1070
     0
1002
}
1002
{
1000
NOSEL
1070
     0
1002
}
1002
{
1000
BEHIND
1070
     0
1002
}
1002
{
1000
REACTOR
1002
}
1001
GENIUS_GENOBJ-N-REC_13
1002
{
1000
OWNER
1000
GEN
1002
}
  0
LINE
  5
4B7
330
1F
100
AcDbEntity
  8
0
100
AcDbLine
 10
179.9999999030265
 20
137.0000001323202
 30
0.0
 11
199.9999999030265
 21
137.0000001323202
 31
0.0
1001
GENIUS_GENREC_14
1002
{
1000
PYDIR
1011
149.9999999030268
1021
230.0000001323202
1031
0.0
1002
}
1002
{
1000
PXDIR
1011
203.9999999030268
1021
120.0000001323203
1031
0.0
1002
}
1002
{
1000
PORI
1011
149.9999999030268
1021
120.0000001323203
1031
0.0
1002
}
1002
{
1000
PINS
1011
149.9999999030268
1021
120.0000001323203
1031
0.0
1002
}
1002
{
1000
HVAL
1000
110
1002
}
1002
{
1000
H
1070
     2
1002
}
1002
{
1000
WVAL
1000
54
1002
}
1002
{
1000
W
1070
     2
1002
}
1002
{
1000
C
1070
     1
1002
}
1001
GENIUS_GENODEF_13
1002
{
1000
HIER
1070
     0
1002
}
1002
{
1000
MANEDIT
1070
     0
1002
}
1002
{
1000
NOSEL
1070
     0
1002
}
1002
{
1000
BEHIND
1070
     0
1002
}
1002
{
1000
REACTOR
1002
}
1001
GENIUS_GENOBJ-N-REC_13
1002
{
1000
OWNER
1000
GEN
1002
}
  0
LINE
  5
4B8
330
1F
100
AcDbEntity
  8
0
100
AcDbLine
 10
170.8999999030267
 20
120.0000001323203
 30
0.0
 11
183.0999999030268
 21
120.0000001323203
 31
0.0
  0
LINE
  5
4B9
330
1F
100
AcDbEntity
  8
0
100
AcDbLine
 10
179.9999999030265
 20
133.0000001323201
 30
0.0
 11
179.9999999030265
 21
137.0000001323202
 31
0.0
1001
GENIUS_GENREC_14
1002
{
1000
PYDIR
1011
149.9999999030268
1021
230.0000001323202
1031
0.0
1002
}
1002
{
1000
PXDIR
1011
203.9999999030268
1021
120.0000001323203
1031
0.0
1002
}
1002
{
1000
PORI
1011
149.9999999030268
1021
120.0000001323203
1031
0.0
1002
}
1002
{
1000
PINS
1011
149.9999999030268
1021
120.0000001323203
1031
0.0
1002
}
1002
{
1000
HVAL
1000
110
1002
}
1002
{
1000
H
1070
     2
1002
}
1002
{
1000
WVAL
1000
54
1002
}
1002
{
1000
W
1070
     2
1002
}
1002
{
1000
C
1070
     1
1002
}
1001
GENIUS_GENODEF_13
1002
{
1000
HIER
1070
     0
1002
}
1002
{
1000
MANEDIT
1070
     0
1002
}
1002
{
1000
NOSEL
1070
     0
1002
}
1002
{
1000
BEHIND
1070
     0
1002
}
1002
{
1000
REACTOR
1002
}
1001
GENIUS_GENOBJ-N-REC_13
1002
{
1000
OWNER
1000
GEN
1002
}
  0
LINE
  5
4BA
330
1F
100
AcDbEntity
  8
0
100
AcDbLine
 10
172.5499999030267
 20
152.1000001323202
 30
0.0
 11
172.5499999030267
 21
132.0000001323201
 31
0.0
  0
LINE
  5
4BB
330
1F
100
AcDbEntity
  8
0
100
AcDbLine
 10
172.3999999030267
 20
151.9500001323202
 30
0.0
 11
172.3999999030267
 21
132.1500001323202
 31
0.0
  0
LINE
  5
4BC
330
1F
100
AcDbEntity
  8
0
100
AcDbLine
 10
171.5999999030267
 20
151.1500001323202
 30
0.0
 11
171.5999999030267
 21
132.9500001323202
 31
0.0
  0
LINE
  5
4BD
330
1F
100
AcDbEntity
  8
0
100
AcDbLine
 10
171.0999999030267
 20
129.2000001323202
 30
0.0
 11
171.0999999030267
 21
120.0000001323203
 31
0.0
1001
GENIUS_GENODEF_13
1002
{
1000
HIER
1070
     0
1002
}
1002
{
1000
MANEDIT
1070
     0
1002
}
1002
{
1000
NOSEL
1070
     0
1002
}
1002
{
1000
BEHIND
1070
     0
1002
}
1002
{
1000
REACTOR
1002
}
1001
GENIUS_GENOBJ-N-CEN_13
1002
{
1000
OWNER
1000
GEN
1002
}
  0
LINE
  5
4BE
330
1F
100
AcDbEntity
  8
0
100
AcDbLine
 10
173.0999999030269
 20
114.4123759686098
 30
0.0
 11
173.0999999030269
 21
120.0000001323203
 31
0.0
  0
ARC
  5
4BF
330
1F
100
AcDbEntity
  8
0
100
AcDbCircle
 10
170.5999999030266
 20
129.2000001323202
 30
0.0
 40
0.5
100
AcDbArc
 50
0.0
 51
90.0
1001
GENIUS_GENODEF_13
1002
{
1000
HIER
1070
     0
1002
}
1002
{
1000
MANEDIT
1070
     0
1002
}
1002
{
1000
NOSEL
1070
     0
1002
}
1002
{
1000
BEHIND
1070
     0
1002
}
1002
{
1000
REACTOR
1002
}
1001
GENIUS_GENOBJ-N-FIL_13
1002
{
1000
OWNER
1000
GEN
1002
}
  0
LINE
  5
4C0
330
1F
100
AcDbEntity
  8
0
100
AcDbLine
 10
170.8999999030267
 20
125.5000001323202
 30
0.0
 11
171.0999999030267
 21
125.5000001323202
 31
0.0
  0
LINE
  5
4C1
330
1F
100
AcDbEntity
  8
0
100
AcDbLine
 10
188.5999999030267
 20
139.6000001323202
 30
0.0
 11
188.5999999030267
 21
143.4000001323201
 31
0.0
1001
GENIUS_GENREC_14
1002
{
1000
PYDIR
1011
149.9999999030268
1021
230.0000001323202
1031
0.0
1002
}
1002
{
1000
PXDIR
1011
203.9999999030268
1021
120.0000001323203
1031
0.0
1002
}
1002
{
1000
PORI
1011
149.9999999030268
1021
120.0000001323203
1031
0.0
1002
}
1002
{
1000
PINS
1011
149.9999999030268
1021
120.0000001323203
1031
0.0
1002
}
1002
{
1000
HVAL
1000
110
1002
}
1002
{
1000
H
1070
     2
1002
}
1002
{
1000
WVAL
1000
54
1002
}
1002
{
1000
W
1070
     2
1002
}
1002
{
1000
C
1070
     1
1002
}
1001
GENIUS_GENODEF_13
1002
{
1000
HIER
1070
     0
1002
}
1002
{
1000
MANEDIT
1070
     0
1002
}
1002
{
1000
NOSEL
1070
     0
1002
}
1002
{
1000
BEHIND
1070
     0
1002
}
1002
{
1000
REACTOR
1002
}
1001
GENIUS_GENOBJ-N-REC_13
1002
{
1000
OWNER
1000
GEN
1002
}
  0
LINE
  5
4C2
330
1F
100
AcDbEntity
  8
0
100
AcDbLine
 10
189.0999999030267
 20
139.1000001323202
 30
0.0
 11
192.8999999030266
 21
139.1000001323202
 31
0.0
1001
GENIUS_GENREC_14
1002
{
1000
PYDIR
1011
149.9999999030268
1021
230.0000001323202
1031
0.0
1002
}
1002
{
1000
PXDIR
1011
203.9999999030268
1021
120.0000001323203
1031
0.0
1002
}
1002
{
1000
PORI
1011
149.9999999030268
1021
120.0000001323203
1031
0.0
1002
}
1002
{
1000
PINS
1011
149.9999999030268
1021
120.0000001323203
1031
0.0
1002
}
1002
{
1000
HVAL
1000
110
1002
}
1002
{
1000
H
1070
     2
1002
}
1002
{
1000
WVAL
1000
54
1002
}
1002
{
1000
W
1070
     2
1002
}
1002
{
1000
C
1070
     1
1002
}
1001
GENIUS_GENODEF_13
1002
{
1000
HIER
1070
     0
1002
}
1002
{
1000
MANEDIT
1070
     0
1002
}
1002
{
1000
NOSEL
1070
     0
1002
}
1002
{
1000
BEHIND
1070
     0
1002
}
1002
{
1000
REACTOR
1002
}
1001
GENIUS_GENOBJ-N-REC_13
1002
{
1000
OWNER
1000
GEN
1002
}
  0
ARC
  5
4C3
330
1F
100
AcDbEntity
  8
0
100
AcDbCircle
 10
189.0999999030267
 20
139.6000001323202
 30
0.0
 40
0.5
100
AcDbArc
 50
180.0
 51
270.0
1001
GENIUS_GENODEF_13
1002
{
1000
HIER
1070
     0
1002
}
1002
{
1000
MANEDIT
1070
     0
1002
}
1002
{
1000
NOSEL
1070
     0
1002
}
1002
{
1000
BEHIND
1070
     0
1002
}
1002
{
1000
REACTOR
1002
}
1001
GENIUS_GENOBJ-N-FIL_13
1002
{
1000
OWNER
1000
GEN
1002
}
  0
LINE
  5
4C4
330
1F
100
AcDbEntity
  8
0
100
AcDbLine
 10
189.0999999030267
 20
143.9000001323202
 30
0.0
 11
192.8999999030266
 21
143.9000001323203
 31
0.0
1001
GENIUS_GENREC_14
1002
{
1000
PYDIR
1011
149.9999999030268
1021
230.0000001323202
1031
0.0
1002
}
1002
{
1000
PXDIR
1011
203.9999999030268
1021
120.0000001323203
1031
0.0
1002
}
1002
{
1000
PORI
1011
149.9999999030268
1021
120.0000001323203
1031
0.0
1002
}
1002
{
1000
PINS
1011
149.9999999030268
1021
120.0000001323203
1031
0.0
1002
}
1002
{
1000
HVAL
1000
110
1002
}
1002
{
1000
H
1070
     2
1002
}
1002
{
1000
WVAL
1000
54
1002
}
1002
{
1000
W
1070
     2
1002
}
1002
{
1000
C
1070
     1
1002
}
1001
GENIUS_GENODEF_13
1002
{
1000
HIER
1070
     0
1002
}
1002
{
1000
MANEDIT
1070
     0
1002
}
1002
{
1000
NOSEL
1070
     0
1002
}
1002
{
1000
BEHIND
1070
     0
1002
}
1002
{
1000
REACTOR
1002
}
1001
GENIUS_GENOBJ-N-REC_13
1002
{
1000
OWNER
1000
GEN
1002
}
  0
ARC
  5
4C5
330
1F
100
AcDbEntity
  8
0
100
AcDbCircle
 10
189.0999999030267
 20
143.4000001323201
 30
0.0
 40
0.5
100
AcDbArc
 50
90.0
 51
180.0
1001
GENIUS_GENODEF_13
1002
{
1000
HIER
1070
     0
1002
}
1002
{
1000
MANEDIT
1070
     0
1002
}
1002
{
1000
NOSEL
1070
     0
1002
}
1002
{
1000
BEHIND
1070
     0
1002
}
1002
{
1000
REACTOR
1002
}
1001
GENIUS_GENOBJ-N-FIL_13
1002
{
1000
OWNER
1000
GEN
1002
}
  0
LINE
  5
4C6
330
1F
100
AcDbEntity
  8
0
100
AcDbLine
 10
199.9999999030265
 20
133.0000001323201
 30
0.0
 11
199.9999999030265
 21
137.0000001323202
 31
0.0
1001
GENIUS_GENREC_14
1002
{
1000
PYDIR
1011
149.9999999030268
1021
230.0000001323202
1031
0.0
1002
}
1002
{
1000
PXDIR
1011
203.9999999030268
1021
120.0000001323203
1031
0.0
1002
}
1002
{
1000
PORI
1011
149.9999999030268
1021
120.0000001323203
1031
0.0
1002
}
1002
{
1000
PINS
1011
149.9999999030268
1021
120.0000001323203
1031
0.0
1002
}
1002
{
1000
HVAL
1000
110
1002
}
1002
{
1000
H
1070
     2
1002
}
1002
{
1000
WVAL
1000
54
1002
}
1002
{
1000
W
1070
     2
1002
}
1002
{
1000
C
1070
     1
1002
}
1001
GENIUS_GENODEF_13
1002
{
1000
HIER
1070
     0
1002
}
1002
{
1000
MANEDIT
1070
     0
1002
}
1002
{
1000
NOSEL
1070
     0
1002
}
1002
{
1000
BEHIND
1070
     0
1002
}
1002
{
1000
REACTOR
1002
}
1001
GENIUS_GENOBJ-N-REC_13
1002
{
1000
OWNER
1000
GEN
1002
}
  0
ARC
  5
4C7
330
1F
100
AcDbEntity
  8
0
100
AcDbCircle
 10
201.4999999030266
 20
122.5000001323202
 30
0.0
 40
2.5
100
AcDbArc
 50
270.0
 51
0.0
1001
GENIUS_GENODEF_13
1002
{
1000
HIER
1070
     0
1002
}
1002
{
1000
MANEDIT
1070
     0
1002
}
1002
{
1000
NOSEL
1070
     0
1002
}
1002
{
1000
BEHIND
1070
     0
1002
}
1002
{
1000
REACTOR
1002
}
1001
GENIUS_GENOBJ-N-FIL_13
1002
{
1000
OWNER
1000
GEN
1002
}
  0
LINE
  5
4C8
330
1F
100
AcDbEntity
  8
0
100
AcDbLine
 10
193.3999999030267
 20
139.6000001323202
 30
0.0
 11
193.3999999030267
 21
143.4000001323203
 31
0.0
1001
GENIUS_GENREC_14
1002
{
1000
PYDIR
1011
149.9999999030268
1021
230.0000001323202
1031
0.0
1002
}
1002
{
1000
PXDIR
1011
203.9999999030268
1021
120.0000001323203
1031
0.0
1002
}
1002
{
1000
PORI
1011
149.9999999030268
1021
120.0000001323203
1031
0.0
1002
}
1002
{
1000
PINS
1011
149.9999999030268
1021
120.0000001323203
1031
0.0
1002
}
1002
{
1000
HVAL
1000
110
1002
}
1002
{
1000
H
1070
     2
1002
}
1002
{
1000
WVAL
1000
54
1002
}
1002
{
1000
W
1070
     2
1002
}
1002
{
1000
C
1070
     1
1002
}
1001
GENIUS_GENODEF_13
1002
{
1000
HIER
1070
     0
1002
}
1002
{
1000
MANEDIT
1070
     0
1002
}
1002
{
1000
NOSEL
1070
     0
1002
}
1002
{
1000
BEHIND
1070
     0
1002
}
1002
{
1000
REACTOR
1002
}
1001
GENIUS_GENOBJ-N-REC_13
1002
{
1000
OWNER
1000
GEN
1002
}
  0
ARC
  5
4C9
330
1F
100
AcDbEntity
  8
0
100
AcDbCircle
 10
158.9999999030266
 20
197.0000001323201
 30
0.0
 40
5.75
100
AcDbArc
 50
270.0
 51
359.9999999999935
1001
GENIUS_GENOBJ-N-FIL_13
1002
{
1000
OWNER
1000
GEN
1002
}
1001
GENIUS_GENODEF_13
1002
{
1000
HIER
1070
     0
1002
}
1002
{
1000
MANEDIT
1070
     0
1002
}
1002
{
1000
NOSEL
1070
     0
1002
}
1002
{
1000
BEHIND
1070
     0
1002
}
1002
{
1000
OTHER
1070
     0
1002
}
1002
{
1000
REACTOR
1002
}
  0
ARC
  5
4CA
330
1F
100
AcDbEntity
  8
0
100
AcDbCircle
 10
163.4999999030268
 20
188.2500001323201
 30
0.0
 40
0.25
100
AcDbArc
 50
353.9576715809494
 51
186.0423284190506
  0
LINE
  5
4CB
330
1F
100
AcDbEntity
  8
0
100
AcDbLine
 10
163.7486110033911
 20
188.2236843428466
 30
0.0
 11
163.6491665632453
 21
187.2842106586361
 31
0.0
  0
CIRCLE
  5
4CC
330
1F
100
AcDbEntity
  8
0
100
AcDbCircle
 10
163.4999999030268
 20
186.8000001323203
 30
0.0
 40
0.2
  0
LINE
  5
4CD
330
1F
100
AcDbEntity
  8
0
100
AcDbLine
 10
162.2499999030268
 20
186.5000001323202
 30
0.0
 11
164.7499999030268
 21
186.5000001323202
 31
0.0
  0
LINE
  5
4CE
330
1F
100
AcDbEntity
  8
0
100
AcDbLine
 10
163.4999999030268
 20
189.0000001323201
 30
0.0
 11
164.7499999030268
 21
186.5000001323202
 31
0.0
  0
ARC
  5
4CF
330
1F
100
AcDbEntity
  8
0
100
AcDbCircle
 10
158.9999999030268
 20
197.0000001323201
 30
0.0
 40
5.5
100
AcDbArc
 50
270.0
 51
0.0
  0
LINE
  5
4D0
330
1F
100
AcDbEntity
  8
0
100
AcDbLine
 10
201.4999999030268
 20
230.0000001323202
 30
0.0
 11
152.4999999030268
 21
230.0000001323202
 31
0.0
1001
GENIUS_GENREC_14
1002
{
1000
PYDIR
1011
149.9999999030268
1021
230.0000001323202
1031
0.0
1002
}
1002
{
1000
PXDIR
1011
203.9999999030268
1021
120.0000001323203
1031
0.0
1002
}
1002
{
1000
PORI
1011
149.9999999030268
1021
120.0000001323203
1031
0.0
1002
}
1002
{
1000
PINS
1011
149.9999999030268
1021
120.0000001323203
1031
0.0
1002
}
1002
{
1000
HVAL
1000
110
1002
}
1002
{
1000
H
1070
     2
1002
}
1002
{
1000
WVAL
1000
54
1002
}
1002
{
1000
W
1070
     2
1002
}
1002
{
1000
C
1070
     1
1002
}
1001
GENIUS_GENODEF_13
1002
{
1000
HIER
1070
     0
1002
}
1002
{
1000
MANEDIT
1070
     0
1002
}
1002
{
1000
NOSEL
1070
     0
1002
}
1002
{
1000
BEHIND
1070
     0
1002
}
1002
{
1000
REACTOR
1002
}
1001
GENIUS_GENOBJ-N-REC_13
1002
{
1000
OWNER
1000
GEN
1002
}
  0
LINE
  5
4D1
330
1F
100
AcDbEntity
  8
0
100
AcDbLine
 10
203.9999999030268
 20
227.0000001323202
 30
0.0
 11
149.9999999030268
 21
227.0000001323202
 31
0.0
1001
GENIUS_GENREC_14
1002
{
1000
PYDIR
1011
149.9999999030268
1021
230.0000001323202
1031
0.0
1002
}
1002
{
1000
PXDIR
1011
203.9999999030268
1021
120.0000001323203
1031
0.0
1002
}
1002
{
1000
PORI
1011
149.9999999030268
1021
120.0000001323203
1031
0.0
1002
}
1002
{
1000
PINS
1011
149.9999999030268
1021
120.0000001323203
1031
0.0
1002
}
1002
{
1000
HVAL
1000
110
1002
}
1002
{
1000
H
1070
     2
1002
}
1002
{
1000
WVAL
1000
54
1002
}
1002
{
1000
W
1070
     2
1002
}
1002
{
1000
C
1070
     1
1002
}
1001
GENIUS_GENODEF_13
1002
{
1000
HIER
1070
     0
1002
}
1002
{
1000
MANEDIT
1070
     0
1002
}
1002
{
1000
NOSEL
1070
     0
1002
}
1002
{
1000
BEHIND
1070
     0
1002
}
1002
{
1000
REACTOR
1002
}
1001
GENIUS_GENOBJ-N-REC_13
1002
{
1000
OWNER
1000
GEN
1002
}
  0
LINE
  5
4D2
330
1F
100
AcDbEntity
  8
0
100
AcDbLine
 10
190.4999999030268
 20
199.0000001323202
 30
0.0
 11
163.4999999030268
 21
199.0000001323202
 31
0.0
1001
GENIUS_GENREC_14
1002
{
1000
PYDIR
1011
149.9999999030268
1021
230.0000001323202
1031
0.0
1002
}
1002
{
1000
PXDIR
1011
203.9999999030268
1021
120.0000001323203
1031
0.0
1002
}
1002
{
1000
PORI
1011
149.9999999030268
1021
120.0000001323203
1031
0.0
1002
}
1002
{
1000
PINS
1011
149.9999999030268
1021
120.0000001323203
1031
0.0
1002
}
1002
{
1000
HVAL
1000
110
1002
}
1002
{
1000
H
1070
     2
1002
}
1002
{
1000
WVAL
1000
54
1002
}
1002
{
1000
W
1070
     2
1002
}
1002
{
1000
C
1070
     1
1002
}
1001
GENIUS_GENODEF_13
1002
{
1000
HIER
1070
     0
1002
}
1002
{
1000
MANEDIT
1070
     0
1002
}
1002
{
1000
NOSEL
1070
     0
1002
}
1002
{
1000
BEHIND
1070
     0
1002
}
1002
{
1000
REACTOR
1002
}
1001
GENIUS_GENOBJ-N-REC_13
1002
{
1000
OWNER
1000
GEN
1002
}
  0
LINE
  5
4D3
330
1F
100
AcDbEntity
  8
0
100
AcDbLine
 10
163.4999999030268
 20
197.0000001323201
 30
0.0
 11
163.4999999030268
 21
199.0000001323202
 31
0.0
  0
LINE
  5
4D4
330
1F
100
AcDbEntity
  8
0
100
AcDbLine
 10
154.4999999030268
 20
197.0000001323201
 30
0.0
 11
154.4999999030268
 21
199.0000001323202
 31
0.0
  0
CIRCLE
  5
4D6
330
1F
100
AcDbEntity
  8
0
100
AcDbCircle
 10
158.9999999030268
 20
197.0000001323201
 30
0.0
 40
2.75
  0
LINE
  5
4D7
330
1F
100
AcDbEntity
  8
0
100
AcDbLine
 10
163.2513888026625
 20
188.2236843428466
 30
0.0
 11
163.3508332428081
 21
187.2842106586361
 31
0.0
  0
LINE
  5
4D8
330
1F
100
AcDbEntity
  8
0
100
AcDbLine
 10
163.4999999030268
 20
189.0000001323201
 30
0.0
 11
162.2499999030268
 21
186.5000001323202
 31
0.0
  0
ARC
  5
4D9
330
1F
100
AcDbEntity
  8
0
100
AcDbCircle
 10
163.4999999030268
 20
187.3000001323202
 30
0.0
 40
0.15
100
AcDbArc
 50
186.042328419054
 51
353.9576715809459
  0
LINE
  5
4DA
330
1F
100
AcDbEntity
  8
0
100
AcDbLine
 10
158.9999999030268
 20
191.5000001323202
 30
0.0
 11
151.4499999030268
 21
191.5000001323202
 31
0.0
  0
LINE
  5
4DB
330
1F
100
AcDbEntity
  8
0
100
AcDbLine
 10
158.9999999030266
 20
191.2500001323201
 30
0.0
 11
151.6999999030268
 21
191.2500001323201
 31
0.0
  0
ARC
  5
4DC
330
1F
100
AcDbEntity
  8
0
100
AcDbCircle
 10
158.9999999030268
 20
197.0000001323201
 30
0.0
 40
4.5
100
AcDbArc
 50
180.0
 51
0.0
  0
LINE
  5
4DD
330
1F
100
AcDbEntity
  8
0
100
AcDbLine
 10
110.7499999030266
 20
227.0000001323202
 30
0.0
 11
110.7499999030266
 21
199.0000001323202
 31
0.0
  0
LINE
  5
4DE
330
1F
100
AcDbEntity
  8
0
100
AcDbLine
 10
114.2499999030266
 20
199.0000001323202
 30
0.0
 11
110.7499999030266
 21
199.0000001323202
 31
0.0
  0
ARC
  5
4DF
330
1F
100
AcDbEntity
  8
0
100
AcDbCircle
 10
112.7499999030266
 20
228.5000001323202
 30
0.0
 40
1.5
100
AcDbArc
 50
0.0
 51
90.0
1001
GENIUS_GENODEF_13
1002
{
1000
HIER
1070
     0
1002
}
1002
{
1000
MANEDIT
1070
     0
1002
}
1002
{
1000
NOSEL
1070
     0
1002
}
1002
{
1000
BEHIND
1070
     0
1002
}
1002
{
1000
REACTOR
1002
}
1001
GENIUS_GENOBJ-N-FIL_13
1002
{
1000
OWNER
1000
GEN
1002
}
  0
LINE
  5
4E0
330
1F
100
AcDbEntity
  8
0
100
AcDbLine
 10
114.2499999030266
 20
227.0000001323202
 30
0.0
 11
110.7499999030266
 21
227.0000001323202
 31
0.0
  0
LINE
  5
4E1
330
1F
100
AcDbEntity
  8
0
100
AcDbLine
 10
154.4999999030268
 20
199.0000001323202
 30
0.0
 11
149.9999999030268
 21
199.0000001323202
 31
0.0
1001
GENIUS_GENREC_14
1002
{
1000
PYDIR
1011
149.9999999030268
1021
230.0000001323202
1031
0.0
1002
}
1002
{
1000
PXDIR
1011
203.9999999030268
1021
120.0000001323203
1031
0.0
1002
}
1002
{
1000
PORI
1011
149.9999999030268
1021
120.0000001323203
1031
0.0
1002
}
1002
{
1000
PINS
1011
149.9999999030268
1021
120.0000001323203
1031
0.0
1002
}
1002
{
1000
HVAL
1000
110
1002
}
1002
{
1000
H
1070
     2
1002
}
1002
{
1000
WVAL
1000
54
1002
}
1002
{
1000
W
1070
     2
1002
}
1002
{
1000
C
1070
     1
1002
}
1001
GENIUS_GENODEF_13
1002
{
1000
HIER
1070
     0
1002
}
1002
{
1000
MANEDIT
1070
     0
1002
}
1002
{
1000
NOSEL
1070
     0
1002
}
1002
{
1000
BEHIND
1070
     0
1002
}
1002
{
1000
REACTOR
1002
}
1001
GENIUS_GENOBJ-N-REC_13
1002
{
1000
OWNER
1000
GEN
1002
}
  0
ARC
  5
4E2
330
1F
100
AcDbEntity
  8
0
100
AcDbCircle
 10
152.4999999030268
 20
227.5000001323202
 30
0.0
 40
2.5
100
AcDbArc
 50
90.0
 51
180.0
1001
GENIUS_GENODEF_13
1002
{
1000
HIER
1070
     0
1002
}
1002
{
1000
MANEDIT
1070
     0
1002
}
1002
{
1000
NOSEL
1070
     0
1002
}
1002
{
1000
BEHIND
1070
     0
1002
}
1002
{
1000
REACTOR
1002
}
1001
GENIUS_GENOBJ-N-FIL_13
1002
{
1000
OWNER
1000
GEN
1002
}
  0
LINE
  5
4E3
330
1F
100
AcDbEntity
  8
0
100
AcDbLine
 10
199.4999999030268
 20
197.0000001323201
 30
0.0
 11
199.4999999030268
 21
199.0000001323202
 31
0.0
  0
CIRCLE
  5
4E5
330
1F
100
AcDbEntity
  8
0
100
AcDbCircle
 10
194.9999999030268
 20
197.0000001323201
 30
0.0
 40
2.75
  0
LINE
  5
4E6
330
1F
100
AcDbEntity
  8
0
100
AcDbLine
 10
190.4999999030268
 20
197.0000001323201
 30
0.0
 11
190.4999999030268
 21
199.0000001323203
 31
0.0
  0
ARC
  5
4E7
330
1F
100
AcDbEntity
  8
0
100
AcDbCircle
 10
195.0499999030267
 20
197.0000001323203
 30
0.0
 40
5.75
100
AcDbArc
 50
180.0
 51
270.0
1001
GENIUS_GENOBJ-N-FIL_13
1002
{
1000
OWNER
1000
GEN
1002
}
1001
GENIUS_GENODEF_13
1002
{
1000
HIER
1070
     0
1002
}
1002
{
1000
MANEDIT
1070
     0
1002
}
1002
{
1000
NOSEL
1070
     0
1002
}
1002
{
1000
BEHIND
1070
     0
1002
}
1002
{
1000
OTHER
1070
     0
1002
}
1002
{
1000
REACTOR
1002
}
  0
ARC
  5
4E8
330
1F
100
AcDbEntity
  8
0
100
AcDbCircle
 10
194.9999999030268
 20
197.0000001323201
 30
0.0
 40
5.5
100
AcDbArc
 50
180.0
 51
270.0
  0
ARC
  5
4E9
330
1F
100
AcDbEntity
  8
0
100
AcDbCircle
 10
194.9999999030268
 20
197.0000001323201
 30
0.0
 40
4.5
100
AcDbArc
 50
180.0
 51
0.0
  0
LINE
  5
4EA
330
1F
100
AcDbEntity
  8
0
100
AcDbLine
 10
189.4999999030268
 20
197.5000001323201
 30
0.0
 11
164.4999999030268
 21
197.5000001323201
 31
0.0
1001
GENIUS_GENREC_14
1002
{
1000
PYDIR
1011
149.9999999030268
1021
230.5000001323202
1031
0.0
1002
}
1002
{
1000
PXDIR
1011
203.9999999030268
1021
120.5000001323202
1031
0.0
1002
}
1002
{
1000
PORI
1011
149.9999999030268
1021
120.5000001323202
1031
0.0
1002
}
1002
{
1000
PINS
1011
149.9999999030268
1021
120.5000001323202
1031
0.0
1002
}
1002
{
1000
HVAL
1000
110
1002
}
1002
{
1000
H
1070
     2
1002
}
1002
{
1000
WVAL
1000
54
1002
}
1002
{
1000
W
1070
     2
1002
}
1002
{
1000
C
1070
     1
1002
}
1001
GENIUS_GENODEF_13
1002
{
1000
HIER
1070
     0
1002
}
1002
{
1000
MANEDIT
1070
     0
1002
}
1002
{
1000
NOSEL
1070
     0
1002
}
1002
{
1000
BEHIND
1070
     0
1002
}
1002
{
1000
REACTOR
1002
}
1001
GENIUS_GENOBJ-N-REC_13
1002
{
1000
OWNER
1000
GEN
1002
}
  0
LINE
  5
4EB
330
1F
100
AcDbEntity
  8
0
100
AcDbLine
 10
189.2999999030267
 20
197.2500001323201
 30
0.0
 11
164.7499999030268
 21
197.2500001323201
 31
0.0
1001
GENIUS_GENREC_14
1002
{
1000
PYDIR
1011
149.9999999030268
1021
230.5000001323202
1031
0.0
1002
}
1002
{
1000
PXDIR
1011
203.9999999030268
1021
120.5000001323202
1031
0.0
1002
}
1002
{
1000
PORI
1011
149.9999999030268
1021
120.5000001323202
1031
0.0
1002
}
1002
{
1000
PINS
1011
149.9999999030268
1021
120.5000001323202
1031
0.0
1002
}
1002
{
1000
HVAL
1000
110
1002
}
1002
{
1000
H
1070
     2
1002
}
1002
{
1000
WVAL
1000
54
1002
}
1002
{
1000
W
1070
     2
1002
}
1002
{
1000
C
1070
     1
1002
}
1001
GENIUS_GENODEF_13
1002
{
1000
HIER
1070
     0
1002
}
1002
{
1000
MANEDIT
1070
     0
1002
}
1002
{
1000
NOSEL
1070
     0
1002
}
1002
{
1000
BEHIND
1070
     0
1002
}
1002
{
1000
REACTOR
1002
}
1001
GENIUS_GENOBJ-N-REC_13
1002
{
1000
OWNER
1000
GEN
1002
}
  0
CIRCLE
  5
4EC
330
1F
100
AcDbEntity
  8
0
100
AcDbCircle
 10
168.9999999030268
 20
193.0000001323201
 30
0.0
 40
1.25
  0
LINE
  5
4ED
330
1F
100
AcDbEntity
  8
0
100
AcDbLine
 10
164.4999999030268
 20
197.0000001323201
 30
0.0
 11
164.4999999030268
 21
197.5000001323201
 31
0.0
  0
LINE
  5
4EE
330
1F
100
AcDbEntity
  8
0
100
AcDbLine
 10
164.7499999030266
 20
197.0000001323196
 30
0.0
 11
164.7499999030268
 21
197.2500001323201
 31
0.0
  0
CIRCLE
  5
4EF
330
1F
100
AcDbEntity
  8
0
100
AcDbCircle
 10
184.9999999030268
 20
193.0000001323201
 30
0.0
 40
1.25
  0
LINE
  5
4F0
330
1F
100
AcDbEntity
  8
0
100
AcDbLine
 10
189.4999999030268
 20
197.0000001323201
 30
0.0
 11
189.4999999030268
 21
197.5000001323201
 31
0.0
  0
LINE
  5
4F1
330
1F
100
AcDbEntity
  8
0
100
AcDbLine
 10
189.2999999030267
 20
197.0000001323203
 30
0.0
 11
189.2999999030267
 21
197.2500001323201
 31
0.0
  0
LINE
  5
4F2
330
1F
100
AcDbEntity
  8
0
100
AcDbLine
 10
194.9999999030268
 20
191.5000001323202
 30
0.0
 11
202.5499999030268
 21
191.5000001323202
 31
0.0
  0
LINE
  5
4F3
330
1F
100
AcDbEntity
  8
0
100
AcDbLine
 10
195.0499999030267
 20
191.2500001323201
 30
0.0
 11
202.2999999030268
 21
191.2500001323201
 31
0.0
  0
LINE
  5
4F4
330
1F
100
AcDbEntity
  8
0
100
AcDbLine
 10
178.9999999030268
 20
228.5000001323202
 30
0.0
 11
174.9999999030268
 21
228.5000001323203
 31
0.0
1001
GENIUS_GENREC_14
1002
{
1000
PYDIR
1011
149.9999999030268
1021
230.0000001323202
1031
0.0
1002
}
1002
{
1000
PXDIR
1011
203.9999999030268
1021
120.0000001323203
1031
0.0
1002
}
1002
{
1000
PORI
1011
149.9999999030268
1021
120.0000001323203
1031
0.0
1002
}
1002
{
1000
PINS
1011
149.9999999030268
1021
120.0000001323203
1031
0.0
1002
}
1002
{
1000
HVAL
1000
110
1002
}
1002
{
1000
H
1070
     2
1002
}
1002
{
1000
WVAL
1000
54
1002
}
1002
{
1000
W
1070
     2
1002
}
1002
{
1000
C
1070
     1
1002
}
1001
GENIUS_GENODEF_13
1002
{
1000
HIER
1070
     0
1002
}
1002
{
1000
MANEDIT
1070
     0
1002
}
1002
{
1000
NOSEL
1070
     0
1002
}
1002
{
1000
BEHIND
1070
     0
1002
}
1002
{
1000
REACTOR
1002
}
1001
GENIUS_GENOBJ-N-REC_13
1002
{
1000
OWNER
1000
GEN
1002
}
  0
LINE
  5
4F5
330
1F
100
AcDbEntity
  8
0
100
AcDbLine
 10
174.9999999030268
 20
228.5000001323202
 30
0.0
 11
174.9999999030268
 21
227.0000001323202
 31
0.0
1001
GENIUS_GENODEF_13
1002
{
1000
HIER
1070
     0
1002
}
1002
{
1000
MANEDIT
1070
     0
1002
}
1002
{
1000
NOSEL
1070
     0
1002
}
1002
{
1000
BEHIND
1070
     0
1002
}
1002
{
1000
REACTOR
1002
}
1001
GENIUS_GENOBJ-N-CEN_13
1002
{
1000
OWNER
1000
GEN
1002
}
  0
LINE
  5
4F6
330
1F
100
AcDbEntity
  8
0
100
AcDbLine
 10
178.9999999030268
 20
228.5000001323202
 30
0.0
 11
178.9999999030268
 21
227.0000001323202
 31
0.0
1001
GENIUS_GENODEF_13
1002
{
1000
HIER
1070
     0
1002
}
1002
{
1000
MANEDIT
1070
     0
1002
}
1002
{
1000
NOSEL
1070
     0
1002
}
1002
{
1000
BEHIND
1070
     0
1002
}
1002
{
1000
REACTOR
1002
}
1001
GENIUS_GENOBJ-N-CEN_13
1002
{
1000
OWNER
1000
GEN
1002
}
  0
LINE
  5
4F7
330
1F
100
AcDbEntity
  8
0
100
AcDbLine
 10
203.9999999030267
 20
199.0000001323202
 30
0.0
 11
199.4999999030268
 21
199.0000001323202
 31
0.0
1001
GENIUS_GENREC_14
1002
{
1000
PYDIR
1011
149.9999999030268
1021
230.0000001323202
1031
0.0
1002
}
1002
{
1000
PXDIR
1011
203.9999999030268
1021
120.0000001323203
1031
0.0
1002
}
1002
{
1000
PORI
1011
149.9999999030268
1021
120.0000001323203
1031
0.0
1002
}
1002
{
1000
PINS
1011
149.9999999030268
1021
120.0000001323203
1031
0.0
1002
}
1002
{
1000
HVAL
1000
110
1002
}
1002
{
1000
H
1070
     2
1002
}
1002
{
1000
WVAL
1000
54
1002
}
1002
{
1000
W
1070
     2
1002
}
1002
{
1000
C
1070
     1
1002
}
1001
GENIUS_GENODEF_13
1002
{
1000
HIER
1070
     0
1002
}
1002
{
1000
MANEDIT
1070
     0
1002
}
1002
{
1000
NOSEL
1070
     0
1002
}
1002
{
1000
BEHIND
1070
     0
1002
}
1002
{
1000
REACTOR
1002
}
1001
GENIUS_GENOBJ-N-REC_13
1002
{
1000
OWNER
1000
GEN
1002
}
  0
ARC
  5
4F8
330
1F
100
AcDbEntity
  8
0
100
AcDbCircle
 10
201.4999999030268
 20
227.5000001323202
 30
0.0
 40
2.5
100
AcDbArc
 50
0.0
 51
90.0
1001
GENIUS_GENODEF_13
1002
{
1000
HIER
1070
     0
1002
}
1002
{
1000
MANEDIT
1070
     0
1002
}
1002
{
1000
NOSEL
1070
     0
1002
}
1002
{
1000
BEHIND
1070
     0
1002
}
1002
{
1000
REACTOR
1002
}
1001
GENIUS_GENOBJ-N-FIL_13
1002
{
1000
OWNER
1000
GEN
1002
}
  0
ELLIPSE
  5
4F9
330
1F
100
AcDbEntity
  8
0
100
AcDbEllipse
 10
15.7088436115848
 20
216.1017126943729
 30
0.0
 11
-1.241379310344757
 21
0.0
 31
0.0
210
0.0
220
0.0
230
1.0
 40
0.5833333335538831
 41
0.0
 42
6.283185307179584
  0
ELLIPSE
  5
4FA
330
1F
100
AcDbEntity
  8
0
100
AcDbEllipse
 10
15.70886352390887
 20
216.1017126943729
 30
0.0
 11
-0.6896750847377909
 21
0.0
 31
0.0
210
0.0
220
0.0
230
1.0
 40
0.7499783459728237
 41
0.0
 42
6.283185307179584
  0
ELLIPSE
  5
4FB
330
1F
100
AcDbEntity
  8
0
100
AcDbEllipse
 10
6.20882369926133
 20
216.1017126943729
 30
0.0
 11
-1.258640601979132
 21
0.0
 31
0.0
210
0.0
220
0.0
230
1.0
 40
0.5753333635477672
 41
3.859128061423156
 42
9.190159774811283
  0
ELLIPSE
  5
4FC
330
1F
100
AcDbEntity
  8
0
100
AcDbEllipse
 10
6.294899073686686
 20
216.1017126943729
 30
0.0
 11
0.7929918384734909
 21
0.0
 31
0.0
210
0.0
220
0.0
230
1.0
 40
0.652265703397408
 41
0.3314984999877911
 42
5.951686807191792
  0
LINE
  5
4FD
330
1F
100
AcDbEntity
  8
0
100
AcDbLine
 10
7.432981542619771
 20
216.8258506254075
 30
0.0
 11
7.157119473654276
 21
216.8258506254075
 31
0.0
  0
LINE
  5
4FE
330
1F
100
AcDbEntity
  8
0
100
AcDbLine
 10
7.432981542619771
 20
215.9333711555015
 30
0.0
 11
7.044717029040203
 21
215.9333711555015
 31
0.0
  0
LINE
  5
4FF
330
1F
100
AcDbEntity
  8
0
100
AcDbLine
 10
7.432981542619771
 20
216.2700542332444
 30
0.0
 11
7.044717029040203
 21
216.2700542332444
 31
0.0
  0
LINE
  5
500
330
1F
100
AcDbEntity
  8
0
100
AcDbLine
 10
7.157119473654276
 20
216.8258506254075
 30
0.0
 11
7.157119473654276
 21
216.5778549464773
 31
0.0
  0
LINE
  5
501
330
1F
100
AcDbEntity
  8
0
100
AcDbLine
 10
10.26056774951617
 20
216.8258506254075
 30
0.0
 11
9.157119473654169
 21
216.8258506254075
 31
0.0
  0
LINE
  5
502
330
1F
100
AcDbEntity
  8
0
100
AcDbLine
 10
10.26056774951617
 20
215.3775747633387
 30
0.0
 11
9.157119473654169
 21
215.3775747633387
 31
0.0
  0
LINE
  5
503
330
1F
100
AcDbEntity
  8
0
100
AcDbLine
 10
9.432981542619682
 20
216.6189540736833
 30
0.0
 11
9.157119473654169
 21
216.6189540736833
 31
0.0
  0
LINE
  5
504
330
1F
100
AcDbEntity
  8
0
100
AcDbLine
 10
9.157119473654169
 20
216.8258506254075
 30
0.0
 11
9.157119473654169
 21
216.6189540736833
 31
0.0
  0
LINE
  5
505
330
1F
100
AcDbEntity
  8
0
100
AcDbLine
 10
8.777809128826593
 20
216.8258506254075
 30
0.0
 11
8.777809128826593
 21
216.6189540736833
 31
0.0
  0
LINE
  5
506
330
1F
100
AcDbEntity
  8
0
100
AcDbLine
 10
8.777809128826593
 20
216.6189540736833
 30
0.0
 11
8.501947059861105
 21
216.6189540736833
 31
0.0
  0
LINE
  5
507
330
1F
100
AcDbEntity
  8
0
100
AcDbLine
 10
9.157119473654169
 20
215.5844713150628
 30
0.0
 11
9.157119473654169
 21
215.3775747633387
 31
0.0
  0
LINE
  5
508
330
1F
100
AcDbEntity
  8
0
100
AcDbLine
 10
9.432981542619682
 20
215.5844713150628
 30
0.0
 11
9.157119473654169
 21
215.5844713150628
 31
0.0
  0
LINE
  5
509
330
1F
100
AcDbEntity
  8
0
100
AcDbLine
 10
9.432981542619682
 20
215.9810230392006
 30
0.0
 11
9.432981542619682
 21
215.5844713150628
 31
0.0
  0
LINE
  5
50A
330
1F
100
AcDbEntity
  8
0
100
AcDbLine
 10
8.777809128826593
 20
215.5844713150628
 30
0.0
 11
8.777809128826593
 21
215.3775747633387
 31
0.0
  0
LINE
  5
50B
330
1F
100
AcDbEntity
  8
0
100
AcDbLine
 10
8.777809128826593
 20
215.5844713150628
 30
0.0
 11
8.501947059861105
 21
215.5844713150628
 31
0.0
  0
LINE
  5
50C
330
1F
100
AcDbEntity
  8
0
100
AcDbLine
 10
8.501947059861105
 20
215.9810230392006
 30
0.0
 11
8.501947059861105
 21
215.5844713150628
 31
0.0
  0
LINE
  5
50D
330
1F
100
AcDbEntity
  8
0
100
AcDbLine
 10
8.501947059861105
 20
216.2224023495455
 30
0.0
 11
9.432981542619682
 21
216.2224023495455
 31
0.0
  0
LINE
  5
50E
330
1F
100
AcDbEntity
  8
0
100
AcDbLine
 10
8.501947059861105
 20
215.9810230392006
 30
0.0
 11
9.432981542619682
 21
215.9810230392006
 31
0.0
  0
LINE
  5
50F
330
1F
100
AcDbEntity
  8
0
100
AcDbLine
 10
9.432981542619682
 20
216.6189540736833
 30
0.0
 11
9.432981542619682
 21
216.2224023495455
 31
0.0
  0
LINE
  5
510
330
1F
100
AcDbEntity
  8
0
100
AcDbLine
 10
8.501947059861105
 20
216.6189540736833
 30
0.0
 11
8.501947059861105
 21
216.2224023495455
 31
0.0
  0
LINE
  5
511
330
1F
100
AcDbEntity
  8
0
100
AcDbLine
 10
7.950222921930095
 20
216.6189540736833
 30
0.0
 11
7.674360852964607
 21
216.6189540736833
 31
0.0
  0
LINE
  5
512
330
1F
100
AcDbEntity
  8
0
100
AcDbLine
 10
7.674360852964607
 20
216.8258506254075
 30
0.0
 11
7.674360852964607
 21
216.6189540736833
 31
0.0
  0
LINE
  5
513
330
1F
100
AcDbEntity
  8
0
100
AcDbLine
 10
7.674360852964607
 20
215.5844713150628
 30
0.0
 11
7.674360852964607
 21
215.3775747633387
 31
0.0
  0
LINE
  5
514
330
1F
100
AcDbEntity
  8
0
100
AcDbLine
 10
7.950222921930095
 20
215.5844713150628
 30
0.0
 11
7.674360852964607
 21
215.5844713150628
 31
0.0
  0
LINE
  5
515
330
1F
100
AcDbEntity
  8
0
100
AcDbLine
 10
7.950222921930095
 20
216.6189540736833
 30
0.0
 11
7.950222921930095
 21
215.5844713150628
 31
0.0
  0
LINE
  5
516
330
1F
100
AcDbEntity
  8
0
100
AcDbLine
 10
7.432981542619771
 20
216.8258506254075
 30
0.0
 11
7.432981542619771
 21
216.2700542332444
 31
0.0
  0
LINE
  5
517
330
1F
100
AcDbEntity
  8
0
100
AcDbLine
 10
8.777809128826593
 20
215.3775747633387
 30
0.0
 11
7.674360852964607
 21
215.3775747633387
 31
0.0
  0
LINE
  5
518
330
1F
100
AcDbEntity
  8
0
100
AcDbLine
 10
8.777809128826593
 20
216.8258506254075
 30
0.0
 11
7.674360852964607
 21
216.8258506254075
 31
0.0
  0
LINE
  5
519
330
1F
100
AcDbEntity
  8
0
100
AcDbLine
 10
11.63987809434369
 20
216.6189540736833
 30
0.0
 11
11.36401602537817
 21
216.6189540736833
 31
0.0
  0
LINE
  5
51A
330
1F
100
AcDbEntity
  8
0
100
AcDbLine
 10
11.63987809434369
 20
216.8258506254075
 30
0.0
 11
11.63987809434369
 21
216.6189540736833
 31
0.0
  0
LINE
  5
51B
330
1F
100
AcDbEntity
  8
0
100
AcDbLine
 10
10.53642981848167
 20
216.8258506254075
 30
0.0
 11
10.53642981848167
 21
216.6189540736833
 31
0.0
  0
LINE
  5
51C
330
1F
100
AcDbEntity
  8
0
100
AcDbLine
 10
10.26056774951617
 20
216.8258506254075
 30
0.0
 11
10.26056774951617
 21
216.6189540736833
 31
0.0
  0
LINE
  5
51D
330
1F
100
AcDbEntity
  8
0
100
AcDbLine
 10
10.81229188744718
 20
216.6189540736833
 30
0.0
 11
10.53642981848167
 21
216.6189540736833
 31
0.0
  0
LINE
  5
51E
330
1F
100
AcDbEntity
  8
0
100
AcDbLine
 10
11.63987809434369
 20
216.8258506254075
 30
0.0
 11
10.53642981848167
 21
216.8258506254075
 31
0.0
  0
LINE
  5
51F
330
1F
100
AcDbEntity
  8
0
100
AcDbLine
 10
10.26056774951617
 20
216.6189540736833
 30
0.0
 11
9.984705680550685
 21
216.6189540736833
 31
0.0
  0
LINE
  5
520
330
1F
100
AcDbEntity
  8
0
100
AcDbLine
 10
11.63987809434369
 20
215.5844713150628
 30
0.0
 11
11.63987809434369
 21
215.3775747633387
 31
0.0
  0
LINE
  5
521
330
1F
100
AcDbEntity
  8
0
100
AcDbLine
 10
11.63987809434369
 20
215.5844713150628
 30
0.0
 11
11.36401602537818
 21
215.5844713150628
 31
0.0
  0
LINE
  5
522
330
1F
100
AcDbEntity
  8
0
100
AcDbLine
 10
10.53642981848167
 20
215.5844713150628
 30
0.0
 11
10.53642981848167
 21
215.3775747633387
 31
0.0
  0
LINE
  5
523
330
1F
100
AcDbEntity
  8
0
100
AcDbLine
 10
10.26056774951617
 20
215.5844713150628
 30
0.0
 11
10.26056774951617
 21
215.3775747633387
 31
0.0
  0
LINE
  5
524
330
1F
100
AcDbEntity
  8
0
100
AcDbLine
 10
10.81229188744718
 20
215.5844713150628
 30
0.0
 11
10.53642981848167
 21
215.5844713150628
 31
0.0
  0
LINE
  5
525
330
1F
100
AcDbEntity
  8
0
100
AcDbLine
 10
11.63987809434369
 20
215.3775747633387
 30
0.0
 11
10.53642981848167
 21
215.3775747633387
 31
0.0
  0
LINE
  5
526
330
1F
100
AcDbEntity
  8
0
100
AcDbLine
 10
10.26056774951617
 20
215.5844713150628
 30
0.0
 11
9.984705680550685
 21
215.5844713150628
 31
0.0
  0
LINE
  5
527
330
1F
100
AcDbEntity
  8
0
100
AcDbLine
 10
11.36401602537817
 20
216.6189540736833
 30
0.0
 11
11.36401602537818
 21
215.5844713150628
 31
0.0
  0
LINE
  5
528
330
1F
100
AcDbEntity
  8
0
100
AcDbLine
 10
10.81229188744718
 20
216.6189540736833
 30
0.0
 11
10.81229188744718
 21
215.5844713150628
 31
0.0
  0
LINE
  5
529
330
1F
100
AcDbEntity
  8
0
100
AcDbLine
 10
9.984705680550685
 20
216.6189540736833
 30
0.0
 11
9.984705680550685
 21
215.5844713150628
 31
0.0
  0
LINE
  5
52A
330
1F
100
AcDbEntity
  8
0
100
AcDbLine
 10
14.3984987839987
 20
216.8258506254075
 30
0.0
 11
13.5364298184815
 21
216.8258506254075
 31
0.0
  0
LINE
  5
52B
330
1F
100
AcDbEntity
  8
0
100
AcDbLine
 10
14.12263671503321
 20
215.3775747633387
 30
0.0
 11
13.54336120216347
 21
215.3775747633387
 31
0.0
  0
LINE
  5
52C
330
1F
100
AcDbEntity
  8
0
100
AcDbLine
 10
13.5364298184815
 20
216.8258506254075
 30
0.0
 11
13.5364298184815
 21
216.6189540736833
 31
0.0
  0
LINE
  5
52D
330
1F
100
AcDbEntity
  8
0
100
AcDbLine
 10
13.81229188744699
 20
216.6189540736833
 30
0.0
 11
13.5364298184815
 21
216.6189540736833
 31
0.0
  0
LINE
  5
52E
330
1F
100
AcDbEntity
  8
0
100
AcDbLine
 10
12.19160223227468
 20
216.6189540736833
 30
0.0
 11
11.91574016330917
 21
216.6189540736833
 31
0.0
  0
LINE
  5
52F
330
1F
100
AcDbEntity
  8
0
100
AcDbLine
 10
11.91574016330917
 20
216.8258506254075
 30
0.0
 11
11.91574016330917
 21
216.6189540736833
 31
0.0
  0
LINE
  5
530
330
1F
100
AcDbEntity
  8
0
100
AcDbLine
 10
12.77780912882638
 20
216.8258506254075
 30
0.0
 11
11.91574016330917
 21
216.8258506254075
 31
0.0
  0
LINE
  5
531
330
1F
100
AcDbEntity
  8
0
100
AcDbLine
 10
12.77780912882638
 20
215.5844713150628
 30
0.0
 11
12.77780912882638
 21
215.3775747633387
 31
0.0
  0
LINE
  5
532
330
1F
100
AcDbEntity
  8
0
100
AcDbLine
 10
12.50194705986087
 20
215.5844713150628
 30
0.0
 11
12.77780912882638
 21
215.5844713150628
 31
0.0
  0
LINE
  5
533
330
1F
100
AcDbEntity
  8
0
100
AcDbLine
 10
11.91574016330917
 20
215.5844713150628
 30
0.0
 11
11.91574016330917
 21
215.3775747633387
 31
0.0
  0
LINE
  5
534
330
1F
100
AcDbEntity
  8
0
100
AcDbLine
 10
12.1916022322747
 20
215.5844713150628
 30
0.0
 11
11.91574016330917
 21
215.5844713150628
 31
0.0
  0
LINE
  5
535
330
1F
100
AcDbEntity
  8
0
100
AcDbLine
 10
12.77780912882638
 20
215.3775747633387
 30
0.0
 11
11.91574016330917
 21
215.3775747633387
 31
0.0
  0
LINE
  5
536
330
1F
100
AcDbEntity
  8
0
100
AcDbLine
 10
12.1916022322747
 20
216.6189540736833
 30
0.0
 11
12.1916022322747
 21
215.5844713150628
 31
0.0
  0
LINE
  5
537
330
1F
100
AcDbEntity
  8
0
100
AcDbLine
 10
12.50194705986087
 20
216.4189889056411
 30
0.0
 11
12.50194705986087
 21
215.5844713150628
 31
0.0
  0
LINE
  5
538
330
1F
100
AcDbEntity
  8
0
100
AcDbLine
 10
12.77780912882638
 20
216.8258506254075
 30
0.0
 11
13.81229188744702
 21
215.7913678667869
 31
0.0
  0
LINE
  5
539
330
1F
100
AcDbEntity
  8
0
100
AcDbLine
 10
12.50194705986087
 20
216.4189889056411
 30
0.0
 11
13.54336120216347
 21
215.3775747633387
 31
0.0
  0
LINE
  5
53A
330
1F
100
AcDbEntity
  8
0
100
AcDbLine
 10
13.81229188744699
 20
216.6189540736833
 30
0.0
 11
13.81229188744702
 21
215.7913678667869
 31
0.0
  0
LINE
  5
53B
330
1F
100
AcDbEntity
  8
0
100
AcDbLine
 10
14.3984987839987
 20
216.8258506254075
 30
0.0
 11
14.3984987839987
 21
216.6189540736833
 31
0.0
  0
LINE
  5
53C
330
1F
100
AcDbEntity
  8
0
100
AcDbLine
 10
14.39849878399871
 20
216.6189540736833
 30
0.0
 11
14.12263671503321
 21
216.6189540736833
 31
0.0
  0
LINE
  5
53D
330
1F
100
AcDbEntity
  8
0
100
AcDbLine
 10
14.1226367150332
 20
216.6189540736833
 30
0.0
 11
14.12263671503321
 21
215.3775747633387
 31
0.0
  0
ARC
  5
53E
330
1F
100
AcDbEntity
  8
0
370
    25
100
AcDbCircle
 10
201.5999999030267
 20
158.5000001323201
 30
0.0
 40
2.0
100
AcDbArc
 50
90.0
 51
270.0
  0
ARC
  5
53F
330
1F
100
AcDbEntity
  8
0
370
    25
100
AcDbCircle
 10
198.1999999030266
 20
158.5000001323201
 30
0.0
 40
2.0
100
AcDbArc
 50
90.0
 51
270.0
  0
ARC
  5
540
330
1F
100
AcDbEntity
  8
0
370
    25
100
AcDbCircle
 10
198.1999999030266
 20
158.5000001323201
 30
0.0
 40
1.399999999999999
100
AcDbArc
 50
90.0
 51
270.0
  0
LINE
  5
541
330
1F
100
AcDbEntity
  8
0
370
    25
100
AcDbLine
 10
198.1999999030266
 20
160.5000001323201
 30
0.0
 11
198.1999999030266
 21
159.9000001323201
 31
0.0
  0
LINE
  5
542
330
1F
100
AcDbEntity
  8
0
370
    25
100
AcDbLine
 10
198.1999999030266
 20
157.1000001323201
 30
0.0
 11
198.1999999030266
 21
156.5000001323201
 31
0.0
  0
ARC
  5
543
330
1F
100
AcDbEntity
  8
0
370
    25
100
AcDbCircle
 10
201.5999999030267
 20
158.5000001323201
 30
0.0
 40
1.399999999999999
100
AcDbArc
 50
90.0
 51
167.6263749999993
  0
ARC
  5
544
330
1F
100
AcDbEntity
  8
0
370
    25
100
AcDbCircle
 10
201.5999999030267
 20
158.5000001323201
 30
0.0
 40
1.399999999999999
100
AcDbArc
 50
192.3736250000007
 51
270.0
  0
LINE
  5
545
330
1F
100
AcDbEntity
  8
0
370
    25
100
AcDbLine
 10
201.1999994030265
 20
158.8000001323201
 30
0.0
 11
200.2325204030267
 21
158.8000001323201
 31
0.0
  0
LINE
  5
546
330
1F
100
AcDbEntity
  8
0
370
    25
100
AcDbLine
 10
201.1999994030265
 20
158.2000001323202
 30
0.0
 11
200.2325204030267
 21
158.2000001323202
 31
0.0
  0
LINE
  5
547
330
1F
100
AcDbEntity
  8
0
370
    25
100
AcDbLine
 10
201.1999994030265
 20
158.8000001323201
 30
0.0
 11
201.1999994030265
 21
158.2000001323202
 31
0.0
  0
LINE
  5
548
330
1F
100
AcDbEntity
  8
0
370
    25
100
AcDbLine
 10
201.5999999030267
 20
160.5000001323201
 30
0.0
 11
201.5999999030267
 21
159.9000001323201
 31
0.0
  0
LINE
  5
549
330
1F
100
AcDbEntity
  8
0
370
    25
100
AcDbLine
 10
201.5999999030267
 20
157.1000001323201
 30
0.0
 11
201.5999999030267
 21
156.5000001323201
 31
0.0
  0
LINE
  5
54A
330
1F
100
AcDbEntity
  8
0
100
AcDbLine
 10
3.249999903026718
 20
185.4000001323204
 30
0.0
 11
15.74999990302672
 21
185.4000001323203
 31
0.0
  0
LINE
  5
54B
330
1F
100
AcDbEntity
  8
0
100
AcDbLine
 10
3.249999903026718
 20
176.4000001323203
 30
0.0
 11
15.74999990302672
 21
176.4000001323203
 31
0.0
  0
LINE
  5
54C
330
1F
100
AcDbEntity
  8
0
100
AcDbLine
 10
2.749999903026719
 20
184.9000001323204
 30
0.0
 11
2.749999903026719
 21
176.9000001323203
 31
0.0
1001
GENIUS_GENODEF_13
1002
{
1000
HIER
1070
     0
1002
}
1002
{
1000
MANEDIT
1070
     0
1002
}
1002
{
1000
NOSEL
1070
     0
1002
}
1002
{
1000
BEHIND
1070
     0
1002
}
1002
{
1000
REACTOR
1002
}
1001
GENIUS_GENOBJ-N-CEN_13
1002
{
1000
OWNER
1000
GEN
1002
}
  0
ARC
  5
54D
330
1F
100
AcDbEntity
  8
0
100
AcDbCircle
 10
3.249999903026718
 20
176.9000001323203
 30
0.0
 40
0.5
100
AcDbArc
 50
180.0
 51
270.0
1001
GENIUS_GENODEF_13
1002
{
1000
HIER
1070
     0
1002
}
1002
{
1000
MANEDIT
1070
     0
1002
}
1002
{
1000
NOSEL
1070
     0
1002
}
1002
{
1000
BEHIND
1070
     0
1002
}
1002
{
1000
REACTOR
1002
}
1001
GENIUS_GENOBJ-N-FIL_13
1002
{
1000
OWNER
1000
GEN
1002
}
  0
ARC
  5
54E
330
1F
100
AcDbEntity
  8
0
100
AcDbCircle
 10
3.249999903026718
 20
184.9000001323204
 30
0.0
 40
0.5
100
AcDbArc
 50
89.99999999999673
 51
180.0
1001
GENIUS_GENODEF_13
1002
{
1000
HIER
1070
     0
1002
}
1002
{
1000
MANEDIT
1070
     0
1002
}
1002
{
1000
NOSEL
1070
     0
1002
}
1002
{
1000
BEHIND
1070
     0
1002
}
1002
{
1000
REACTOR
1002
}
1001
GENIUS_GENOBJ-N-FIL_13
1002
{
1000
OWNER
1000
GEN
1002
}
  0
LINE
  5
54F
330
1F
100
AcDbEntity
  8
0
100
AcDbLine
 10
16.24999990302672
 20
184.9000001323203
 30
0.0
 11
16.24999990302672
 21
176.9000001323203
 31
0.0
1001
GENIUS_GENODEF_13
1002
{
1000
HIER
1070
     0
1002
}
1002
{
1000
MANEDIT
1070
     0
1002
}
1002
{
1000
NOSEL
1070
     0
1002
}
1002
{
1000
BEHIND
1070
     0
1002
}
1002
{
1000
REACTOR
1002
}
1001
GENIUS_GENOBJ-N-CEN_13
1002
{
1000
OWNER
1000
GEN
1002
}
  0
ARC
  5
550
330
1F
100
AcDbEntity
  8
0
100
AcDbCircle
 10
15.74999990302672
 20
176.9000001323203
 30
0.0
 40
0.5
100
AcDbArc
 50
270.0
 51
0.0
1001
GENIUS_GENODEF_13
1002
{
1000
HIER
1070
     0
1002
}
1002
{
1000
MANEDIT
1070
     0
1002
}
1002
{
1000
NOSEL
1070
     0
1002
}
1002
{
1000
BEHIND
1070
     0
1002
}
1002
{
1000
REACTOR
1002
}
1001
GENIUS_GENOBJ-N-FIL_13
1002
{
1000
OWNER
1000
GEN
1002
}
  0
ARC
  5
551
330
1F
100
AcDbEntity
  8
0
100
AcDbCircle
 10
15.74999990302672
 20
184.9000001323203
 30
0.0
 40
0.5
100
AcDbArc
 50
0.0
 51
89.99999999999673
1001
GENIUS_GENODEF_13
1002
{
1000
HIER
1070
     0
1002
}
1002
{
1000
MANEDIT
1070
     0
1002
}
1002
{
1000
NOSEL
1070
     0
1002
}
1002
{
1000
BEHIND
1070
     0
1002
}
1002
{
1000
REACTOR
1002
}
1001
GENIUS_GENOBJ-N-FIL_13
1002
{
1000
OWNER
1000
GEN
1002
}
  0
ARC
  5
554
330
1F
100
AcDbEntity
  8
0
100
AcDbCircle
 10
33.24999990302672
 20
184.9000001323203
 30
0.0
 40
0.5
100
AcDbArc
 50
0.0
 51
89.99999999999673
1001
GENIUS_GENODEF_13
1002
{
1000
HIER
1070
     0
1002
}
1002
{
1000
MANEDIT
1070
     0
1002
}
1002
{
1000
NOSEL
1070
     0
1002
}
1002
{
1000
BEHIND
1070
     0
1002
}
1002
{
1000
REACTOR
1002
}
1001
GENIUS_GENOBJ-N-FIL_13
1002
{
1000
OWNER
1000
GEN
1002
}
  0
ARC
  5
555
330
1F
100
AcDbEntity
  8
0
100
AcDbCircle
 10
33.24999990302672
 20
176.9000001323203
 30
0.0
 40
0.5
100
AcDbArc
 50
270.0
 51
0.0
1001
GENIUS_GENODEF_13
1002
{
1000
HIER
1070
     0
1002
}
1002
{
1000
MANEDIT
1070
     0
1002
}
1002
{
1000
NOSEL
1070
     0
1002
}
1002
{
1000
BEHIND
1070
     0
1002
}
1002
{
1000
REACTOR
1002
}
1001
GENIUS_GENOBJ-N-FIL_13
1002
{
1000
OWNER
1000
GEN
1002
}
  0
LINE
  5
556
330
1F
100
AcDbEntity
  8
0
100
AcDbLine
 10
33.74999990302672
 20
184.9000001323203
 30
0.0
 11
33.74999990302672
 21
176.9000001323203
 31
0.0
1001
GENIUS_GENODEF_13
1002
{
1000
HIER
1070
     0
1002
}
1002
{
1000
MANEDIT
1070
     0
1002
}
1002
{
1000
NOSEL
1070
     0
1002
}
1002
{
1000
BEHIND
1070
     0
1002
}
1002
{
1000
REACTOR
1002
}
1001
GENIUS_GENOBJ-N-CEN_13
1002
{
1000
OWNER
1000
GEN
1002
}
  0
ARC
  5
557
330
1F
100
AcDbEntity
  8
0
100
AcDbCircle
 10
20.74999990302672
 20
184.9000001323204
 30
0.0
 40
0.5
100
AcDbArc
 50
89.99999999999673
 51
180.0
1001
GENIUS_GENODEF_13
1002
{
1000
HIER
1070
     0
1002
}
1002
{
1000
MANEDIT
1070
     0
1002
}
1002
{
1000
NOSEL
1070
     0
1002
}
1002
{
1000
BEHIND
1070
     0
1002
}
1002
{
1000
REACTOR
1002
}
1001
GENIUS_GENOBJ-N-FIL_13
1002
{
1000
OWNER
1000
GEN
1002
}
  0
ARC
  5
558
330
1F
100
AcDbEntity
  8
0
100
AcDbCircle
 10
20.74999990302672
 20
176.9000001323203
 30
0.0
 40
0.5
100
AcDbArc
 50
180.0
 51
270.0
1001
GENIUS_GENODEF_13
1002
{
1000
HIER
1070
     0
1002
}
1002
{
1000
MANEDIT
1070
     0
1002
}
1002
{
1000
NOSEL
1070
     0
1002
}
1002
{
1000
BEHIND
1070
     0
1002
}
1002
{
1000
REACTOR
1002
}
1001
GENIUS_GENOBJ-N-FIL_13
1002
{
1000
OWNER
1000
GEN
1002
}
  0
LINE
  5
559
330
1F
100
AcDbEntity
  8
0
100
AcDbLine
 10
20.24999990302672
 20
184.9000001323204
 30
0.0
 11
20.24999990302672
 21
176.9000001323203
 31
0.0
1001
GENIUS_GENODEF_13
1002
{
1000
HIER
1070
     0
1002
}
1002
{
1000
MANEDIT
1070
     0
1002
}
1002
{
1000
NOSEL
1070
     0
1002
}
1002
{
1000
BEHIND
1070
     0
1002
}
1002
{
1000
REACTOR
1002
}
1001
GENIUS_GENOBJ-N-CEN_13
1002
{
1000
OWNER
1000
GEN
1002
}
  0
LINE
  5
55A
330
1F
100
AcDbEntity
  8
0
100
AcDbLine
 10
20.74999990302672
 20
176.4000001323203
 30
0.0
 11
33.24999990302672
 21
176.4000001323203
 31
0.0
  0
LINE
  5
55B
330
1F
100
AcDbEntity
  8
0
100
AcDbLine
 10
20.74999990302672
 20
185.4000001323204
 30
0.0
 11
33.24999990302672
 21
185.4000001323203
 31
0.0
  0
LINE
  5
55C
330
1F
100
AcDbEntity
  8
0
100
AcDbLine
 10
38.24999990302672
 20
185.4000001323204
 30
0.0
 11
50.74999990302671
 21
185.4000001323203
 31
0.0
  0
LINE
  5
55D
330
1F
100
AcDbEntity
  8
0
100
AcDbLine
 10
38.24999990302672
 20
176.4000001323203
 30
0.0
 11
50.74999990302671
 21
176.4000001323203
 31
0.0
  0
LINE
  5
55E
330
1F
100
AcDbEntity
  8
0
100
AcDbLine
 10
37.74999990302672
 20
184.9000001323204
 30
0.0
 11
37.74999990302672
 21
176.9000001323203
 31
0.0
1001
GENIUS_GENODEF_13
1002
{
1000
HIER
1070
     0
1002
}
1002
{
1000
MANEDIT
1070
     0
1002
}
1002
{
1000
NOSEL
1070
     0
1002
}
1002
{
1000
BEHIND
1070
     0
1002
}
1002
{
1000
REACTOR
1002
}
1001
GENIUS_GENOBJ-N-CEN_13
1002
{
1000
OWNER
1000
GEN
1002
}
  0
ARC
  5
55F
330
1F
100
AcDbEntity
  8
0
100
AcDbCircle
 10
38.24999990302672
 20
176.9000001323203
 30
0.0
 40
0.5
100
AcDbArc
 50
180.0
 51
270.0
1001
GENIUS_GENODEF_13
1002
{
1000
HIER
1070
     0
1002
}
1002
{
1000
MANEDIT
1070
     0
1002
}
1002
{
1000
NOSEL
1070
     0
1002
}
1002
{
1000
BEHIND
1070
     0
1002
}
1002
{
1000
REACTOR
1002
}
1001
GENIUS_GENOBJ-N-FIL_13
1002
{
1000
OWNER
1000
GEN
1002
}
  0
ARC
  5
560
330
1F
100
AcDbEntity
  8
0
100
AcDbCircle
 10
38.24999990302672
 20
184.9000001323204
 30
0.0
 40
0.5
100
AcDbArc
 50
89.99999999999673
 51
180.0
1001
GENIUS_GENODEF_13
1002
{
1000
HIER
1070
     0
1002
}
1002
{
1000
MANEDIT
1070
     0
1002
}
1002
{
1000
NOSEL
1070
     0
1002
}
1002
{
1000
BEHIND
1070
     0
1002
}
1002
{
1000
REACTOR
1002
}
1001
GENIUS_GENOBJ-N-FIL_13
1002
{
1000
OWNER
1000
GEN
1002
}
  0
LINE
  5
561
330
1F
100
AcDbEntity
  8
0
100
AcDbLine
 10
51.24999990302671
 20
184.9000001323203
 30
0.0
 11
51.24999990302671
 21
176.9000001323203
 31
0.0
1001
GENIUS_GENODEF_13
1002
{
1000
HIER
1070
     0
1002
}
1002
{
1000
MANEDIT
1070
     0
1002
}
1002
{
1000
NOSEL
1070
     0
1002
}
1002
{
1000
BEHIND
1070
     0
1002
}
1002
{
1000
REACTOR
1002
}
1001
GENIUS_GENOBJ-N-CEN_13
1002
{
1000
OWNER
1000
GEN
1002
}
  0
ARC
  5
562
330
1F
100
AcDbEntity
  8
0
100
AcDbCircle
 10
50.74999990302671
 20
176.9000001323203
 30
0.0
 40
0.5
100
AcDbArc
 50
270.0
 51
0.0
1001
GENIUS_GENODEF_13
1002
{
1000
HIER
1070
     0
1002
}
1002
{
1000
MANEDIT
1070
     0
1002
}
1002
{
1000
NOSEL
1070
     0
1002
}
1002
{
1000
BEHIND
1070
     0
1002
}
1002
{
1000
REACTOR
1002
}
1001
GENIUS_GENOBJ-N-FIL_13
1002
{
1000
OWNER
1000
GEN
1002
}
  0
ARC
  5
563
330
1F
100
AcDbEntity
  8
0
100
AcDbCircle
 10
50.74999990302671
 20
184.9000001323203
 30
0.0
 40
0.5
100
AcDbArc
 50
0.0
 51
89.99999999999673
1001
GENIUS_GENODEF_13
1002
{
1000
HIER
1070
     0
1002
}
1002
{
1000
MANEDIT
1070
     0
1002
}
1002
{
1000
NOSEL
1070
     0
1002
}
1002
{
1000
BEHIND
1070
     0
1002
}
1002
{
1000
REACTOR
1002
}
1001
GENIUS_GENOBJ-N-FIL_13
1002
{
1000
OWNER
1000
GEN
1002
}
  0
LINE
  5
570
330
1F
100
AcDbEntity
  8
0
100
AcDbLine
 10
22.99999990302672
 20
183.6500001323203
 30
0.0
 11
30.99999990302683
 21
183.6500001323203
 31
0.0
  0
ARC
  5
571
330
1F
100
AcDbEntity
  8
0
100
AcDbCircle
 10
30.99999990302683
 20
183.4000001323203
 30
0.0
 40
0.25
100
AcDbArc
 50
359.9999999999968
 51
90.0
1001
GENIUS_GENODEF_13
1002
{
1000
HIER
1070
     0
1002
}
1002
{
1000
MANEDIT
1070
     0
1002
}
1002
{
1000
NOSEL
1070
     0
1002
}
1002
{
1000
BEHIND
1070
     0
1002
}
1002
{
1000
OTHER
1070
     0
1002
}
1002
{
1000
REACTOR
1002
}
1001
GENIUS_GENOBJ-N-FIL_13
1002
{
1000
OWNER
1000
GEN
1002
}
  0
LINE
  5
572
330
1F
100
AcDbEntity
  8
0
100
AcDbLine
 10
31.24999990302683
 20
183.4000001323203
 30
0.0
 11
31.24999990302649
 21
178.4000001323203
 31
0.0
1001
GENIUS_GENODEF_13
1002
{
1000
HIER
1070
     0
1002
}
1002
{
1000
MANEDIT
1070
     0
1002
}
1002
{
1000
NOSEL
1070
     0
1002
}
1002
{
1000
BEHIND
1070
     0
1002
}
1002
{
1000
REACTOR
1002
}
1001
GENIUS_GENOBJ-N-CEN_13
1002
{
1000
OWNER
1000
GEN
1002
}
  0
ARC
  5
573
330
1F
100
AcDbEntity
  8
0
100
AcDbCircle
 10
30.99999990302649
 20
178.4000001323203
 30
0.0
 40
0.25
100
AcDbArc
 50
270.0
 51
0.0
1001
GENIUS_GENOBJ-N-CEN_13
1002
{
1000
OWNER
1000
GEN
1002
}
1001
GENIUS_GENOBJ-N-FIL_13
1002
{
1000
OWNER
1000
GEN
1002
}
1001
GENIUS_GENODEF_13
1002
{
1000
HIER
1070
     0
1002
}
1002
{
1000
MANEDIT
1070
     0
1002
}
1002
{
1000
NOSEL
1070
     0
1002
}
1002
{
1000
BEHIND
1070
     0
1002
}
1002
{
1000
OTHER
1070
     0
1002
}
1002
{
1000
REACTOR
1002
}
  0
LINE
  5
574
330
1F
100
AcDbEntity
  8
0
100
AcDbLine
 10
22.99999990302672
 20
178.1500001323203
 30
0.0
 11
30.99999990302649
 21
178.1500001323203
 31
0.0
  0
ARC
  5
575
330
1F
100
AcDbEntity
  8
0
100
AcDbCircle
 10
22.99999990302672
 20
178.4000001323203
 30
0.0
 40
0.25
100
AcDbArc
 50
180.0
 51
270.0
1001
GENIUS_GENODEF_13
1002
{
1000
HIER
1070
     0
1002
}
1002
{
1000
MANEDIT
1070
     0
1002
}
1002
{
1000
NOSEL
1070
     0
1002
}
1002
{
1000
BEHIND
1070
     0
1002
}
1002
{
1000
OTHER
1070
     0
1002
}
1002
{
1000
REACTOR
1002
}
1001
GENIUS_GENOBJ-N-FIL_13
1002
{
1000
OWNER
1000
GEN
1002
}
  0
LINE
  5
576
330
1F
100
AcDbEntity
  8
0
100
AcDbLine
 10
22.74999990302672
 20
183.4000001323203
 30
0.0
 11
22.74999990302672
 21
178.4000001323203
 31
0.0
1001
GENIUS_GENODEF_13
1002
{
1000
HIER
1070
     0
1002
}
1002
{
1000
MANEDIT
1070
     0
1002
}
1002
{
1000
NOSEL
1070
     0
1002
}
1002
{
1000
BEHIND
1070
     0
1002
}
1002
{
1000
REACTOR
1002
}
1001
GENIUS_GENOBJ-N-CEN_13
1002
{
1000
OWNER
1000
GEN
1002
}
  0
ARC
  5
577
330
1F
100
AcDbEntity
  8
0
100
AcDbCircle
 10
22.99999990302672
 20
183.4000001323203
 30
0.0
 40
0.25
100
AcDbArc
 50
90.0
 51
180.0
1001
GENIUS_GENOBJ-N-CEN_13
1002
{
1000
OWNER
1000
GEN
1002
}
1001
GENIUS_GENOBJ-N-FIL_13
1002
{
1000
OWNER
1000
GEN
1002
}
1001
GENIUS_GENODEF_13
1002
{
1000
HIER
1070
     0
1002
}
1002
{
1000
MANEDIT
1070
     0
1002
}
1002
{
1000
NOSEL
1070
     0
1002
}
1002
{
1000
BEHIND
1070
     0
1002
}
1002
{
1000
OTHER
1070
     0
1002
}
1002
{
1000
REACTOR
1002
}
  0
LINE
  5
578
330
1F
100
AcDbEntity
  8
0
100
AcDbLine
 10
22.99999990302672
 20
183.6500001323203
 30
0.0
 11
30.99999990302683
 21
183.6500001323203
 31
0.0
  0
LINE
  5
579
330
1F
100
AcDbEntity
  8
0
100
AcDbLine
 10
40.49999990302672
 20
183.6500001323203
 30
0.0
 11
48.49999990302682
 21
183.6500001323203
 31
0.0
  0
ARC
  5
57A
330
1F
100
AcDbEntity
  8
0
100
AcDbCircle
 10
40.49999990302672
 20
183.4000001323203
 30
0.0
 40
0.25
100
AcDbArc
 50
90.0
 51
180.0
1001
GENIUS_GENOBJ-N-CEN_13
1002
{
1000
OWNER
1000
GEN
1002
}
1001
GENIUS_GENOBJ-N-FIL_13
1002
{
1000
OWNER
1000
GEN
1002
}
1001
GENIUS_GENODEF_13
1002
{
1000
HIER
1070
     0
1002
}
1002
{
1000
MANEDIT
1070
     0
1002
}
1002
{
1000
NOSEL
1070
     0
1002
}
1002
{
1000
BEHIND
1070
     0
1002
}
1002
{
1000
OTHER
1070
     0
1002
}
1002
{
1000
REACTOR
1002
}
  0
LINE
  5
57B
330
1F
100
AcDbEntity
  8
0
100
AcDbLine
 10
40.24999990302672
 20
183.4000001323203
 30
0.0
 11
40.24999990302672
 21
178.4000001323203
 31
0.0
1001
GENIUS_GENODEF_13
1002
{
1000
HIER
1070
     0
1002
}
1002
{
1000
MANEDIT
1070
     0
1002
}
1002
{
1000
NOSEL
1070
     0
1002
}
1002
{
1000
BEHIND
1070
     0
1002
}
1002
{
1000
REACTOR
1002
}
1001
GENIUS_GENOBJ-N-CEN_13
1002
{
1000
OWNER
1000
GEN
1002
}
  0
ARC
  5
57C
330
1F
100
AcDbEntity
  8
0
100
AcDbCircle
 10
40.49999990302672
 20
178.4000001323203
 30
0.0
 40
0.25
100
AcDbArc
 50
180.0
 51
270.0
1001
GENIUS_GENODEF_13
1002
{
1000
HIER
1070
     0
1002
}
1002
{
1000
MANEDIT
1070
     0
1002
}
1002
{
1000
NOSEL
1070
     0
1002
}
1002
{
1000
BEHIND
1070
     0
1002
}
1002
{
1000
OTHER
1070
     0
1002
}
1002
{
1000
REACTOR
1002
}
1001
GENIUS_GENOBJ-N-FIL_13
1002
{
1000
OWNER
1000
GEN
1002
}
  0
LINE
  5
57D
330
1F
100
AcDbEntity
  8
0
100
AcDbLine
 10
40.49999990302672
 20
178.1500001323203
 30
0.0
 11
48.49999990302642
 21
178.1500001323203
 31
0.0
  0
ARC
  5
57E
330
1F
100
AcDbEntity
  8
0
100
AcDbCircle
 10
48.49999990302642
 20
178.4000001323203
 30
0.0
 40
0.25
100
AcDbArc
 50
270.0
 51
0.0
1001
GENIUS_GENOBJ-N-CEN_13
1002
{
1000
OWNER
1000
GEN
1002
}
1001
GENIUS_GENOBJ-N-FIL_13
1002
{
1000
OWNER
1000
GEN
1002
}
1001
GENIUS_GENODEF_13
1002
{
1000
HIER
1070
     0
1002
}
1002
{
1000
MANEDIT
1070
     0
1002
}
1002
{
1000
NOSEL
1070
     0
1002
}
1002
{
1000
BEHIND
1070
     0
1002
}
1002
{
1000
OTHER
1070
     0
1002
}
1002
{
1000
REACTOR
1002
}
  0
LINE
  5
57F
330
1F
100
AcDbEntity
  8
0
100
AcDbLine
 10
48.74999990302683
 20
183.4000001323203
 30
0.0
 11
48.74999990302654
 21
178.4000001323203
 31
0.0
1001
GENIUS_GENODEF_13
1002
{
1000
HIER
1070
     0
1002
}
1002
{
1000
MANEDIT
1070
     0
1002
}
1002
{
1000
NOSEL
1070
     0
1002
}
1002
{
1000
BEHIND
1070
     0
1002
}
1002
{
1000
REACTOR
1002
}
1001
GENIUS_GENOBJ-N-CEN_13
1002
{
1000
OWNER
1000
GEN
1002
}
  0
ARC
  5
580
330
1F
100
AcDbEntity
  8
0
100
AcDbCircle
 10
48.49999990302682
 20
183.4000001323203
 30
0.0
 40
0.25
100
AcDbArc
 50
359.9999999999968
 51
90.0
1001
GENIUS_GENODEF_13
1002
{
1000
HIER
1070
     0
1002
}
1002
{
1000
MANEDIT
1070
     0
1002
}
1002
{
1000
NOSEL
1070
     0
1002
}
1002
{
1000
BEHIND
1070
     0
1002
}
1002
{
1000
OTHER
1070
     0
1002
}
1002
{
1000
REACTOR
1002
}
1001
GENIUS_GENOBJ-N-FIL_13
1002
{
1000
OWNER
1000
GEN
1002
}
  0
LINE
  5
581
330
1F
100
AcDbEntity
  8
0
100
AcDbLine
 10
40.49999990302672
 20
183.6500001323203
 30
0.0
 11
48.49999990302682
 21
183.6500001323203
 31
0.0
  0
LINE
  5
582
330
1F
100
AcDbEntity
  8
0
100
AcDbLine
 10
5.499999903026719
 20
183.5500001323203
 30
0.0
 11
13.49999990302683
 21
183.5500001323203
 31
0.0
  0
ARC
  5
583
330
1F
100
AcDbEntity
  8
0
100
AcDbCircle
 10
5.499999903026719
 20
183.4000001323203
 30
0.0
 40
0.15
100
AcDbArc
 50
90.0
 51
180.0
1001
GENIUS_GENOBJ-N-CEN_13
1002
{
1000
OWNER
1000
GEN
1002
}
1001
GENIUS_GENOBJ-N-FIL_13
1002
{
1000
OWNER
1000
GEN
1002
}
1001
GENIUS_GENODEF_13
1002
{
1000
HIER
1070
     0
1002
}
1002
{
1000
MANEDIT
1070
     0
1002
}
1002
{
1000
NOSEL
1070
     0
1002
}
1002
{
1000
BEHIND
1070
     0
1002
}
1002
{
1000
OTHER
1070
     0
1002
}
1002
{
1000
REACTOR
1002
}
  0
LINE
  5
584
330
1F
100
AcDbEntity
  8
0
100
AcDbLine
 10
5.34999990302674
 20
183.4000001323203
 30
0.0
 11
5.34999990302674
 21
178.4000001323203
 31
0.0
1001
GENIUS_GENODEF_13
1002
{
1000
HIER
1070
     0
1002
}
1002
{
1000
MANEDIT
1070
     0
1002
}
1002
{
1000
NOSEL
1070
     0
1002
}
1002
{
1000
BEHIND
1070
     0
1002
}
1002
{
1000
REACTOR
1002
}
1001
GENIUS_GENOBJ-N-CEN_13
1002
{
1000
OWNER
1000
GEN
1002
}
  0
ARC
  5
585
330
1F
100
AcDbEntity
  8
0
100
AcDbCircle
 10
5.499999903026719
 20
178.4000001323203
 30
0.0
 40
0.15
100
AcDbArc
 50
180.0
 51
270.0
1001
GENIUS_GENOBJ-N-FIL_13
1002
{
1000
OWNER
1000
GEN
1002
}
1001
GENIUS_GENODEF_13
1002
{
1000
HIER
1070
     0
1002
}
1002
{
1000
MANEDIT
1070
     0
1002
}
1002
{
1000
NOSEL
1070
     0
1002
}
1002
{
1000
BEHIND
1070
     0
1002
}
1002
{
1000
OTHER
1070
     0
1002
}
1002
{
1000
REACTOR
1002
}
  0
ARC
  5
586
330
1F
100
AcDbEntity
  8
0
100
AcDbCircle
 10
13.49999990302683
 20
183.4000001323203
 30
0.0
 40
0.15
100
AcDbArc
 50
359.9999999999984
 51
90.0
1001
GENIUS_GENOBJ-N-FIL_13
1002
{
1000
OWNER
1000
GEN
1002
}
1001
GENIUS_GENODEF_13
1002
{
1000
HIER
1070
     0
1002
}
1002
{
1000
MANEDIT
1070
     0
1002
}
1002
{
1000
NOSEL
1070
     0
1002
}
1002
{
1000
BEHIND
1070
     0
1002
}
1002
{
1000
OTHER
1070
     0
1002
}
1002
{
1000
REACTOR
1002
}
  0
LINE
  5
587
330
1F
100
AcDbEntity
  8
0
100
AcDbLine
 10
13.64999990302681
 20
183.4000001323203
 30
0.0
 11
13.64999990302652
 21
178.4000001323203
 31
0.0
1001
GENIUS_GENODEF_13
1002
{
1000
HIER
1070
     0
1002
}
1002
{
1000
MANEDIT
1070
     0
1002
}
1002
{
1000
NOSEL
1070
     0
1002
}
1002
{
1000
BEHIND
1070
     0
1002
}
1002
{
1000
REACTOR
1002
}
1001
GENIUS_GENOBJ-N-CEN_13
1002
{
1000
OWNER
1000
GEN
1002
}
  0
ARC
  5
588
330
1F
100
AcDbEntity
  8
0
100
AcDbCircle
 10
13.4999999030266
 20
178.4000001323203
 30
0.0
 40
0.15
100
AcDbArc
 50
270.0
 51
0.0
1001
GENIUS_GENOBJ-N-CEN_13
1002
{
1000
OWNER
1000
GEN
1002
}
1001
GENIUS_GENODEF_13
1002
{
1000
HIER
1070
     0
1002
}
1002
{
1000
MANEDIT
1070
     0
1002
}
1002
{
1000
NOSEL
1070
     0
1002
}
1002
{
1000
BEHIND
1070
     0
1002
}
1002
{
1000
OTHER
1070
     0
1002
}
1002
{
1000
REACTOR
1002
}
1001
GENIUS_GENOBJ-N-FIL_13
1002
{
1000
OWNER
1000
GEN
1002
}
  0
LINE
  5
589
330
1F
100
AcDbEntity
  8
0
100
AcDbLine
 10
5.499999903026719
 20
178.2500001323203
 30
0.0
 11
13.4999999030266
 21
178.2500001323201
 31
0.0
  0
LINE
  5
597
330
1F
100
AcDbEntity
  8
0
100
AcDbLine
 10
39.89999990302676
 20
3.000000132320278
 30
0.0
 11
39.89999990302676
 21
32.00000013232028
 31
0.0
  0
LINE
  5
598
330
1F
100
AcDbEntity
  8
0
100
AcDbLine
 10
33.89999990302681
 20
3.000000132320278
 30
0.0
 11
33.89999990302681
 21
32.00000013232028
 31
0.0
  0
ARC
  5
599
330
1F
100
AcDbEntity
  8
0
100
AcDbCircle
 10
36.89999990302676
 20
3.000000132320278
 30
0.0
 40
2.999999999999998
100
AcDbArc
 50
180.0
 51
0.0
  0
LINE
  5
59A
330
1F
100
AcDbEntity
  8
0
100
AcDbLine
 10
33.89999990302681
 20
32.00000013232028
 30
0.0
 11
39.89999990302676
 21
32.00000013232028
 31
0.0
  0
LINE
  5
59B
330
1F
100
AcDbEntity
  8
0
100
AcDbLine
 10
168.5999999030269
 20
71.95710663171405
 30
0.0
 11
165.5999999030269
 21
68.9571066317135
 31
0.0
  0
LINE
  5
59C
330
1F
100
AcDbEntity
  8
0
100
AcDbLine
 10
107.9499999030267
 20
3.00000013232028
 30
0.0
 11
107.9499999030267
 21
32.00000013232028
 31
0.0
  0
LINE
  5
59D
330
1F
100
AcDbEntity
  8
0
100
AcDbLine
 10
101.9499999030268
 20
3.00000013232028
 30
0.0
 11
101.9499999030268
 21
32.00000013232028
 31
0.0
  0
ARC
  5
59E
330
1F
100
AcDbEntity
  8
0
100
AcDbCircle
 10
104.9499999030267
 20
3.00000013232028
 30
0.0
 40
2.999999999999998
100
AcDbArc
 50
180.0
 51
0.0
  0
LINE
  5
59F
330
1F
100
AcDbEntity
  8
0
100
AcDbLine
 10
101.9499999030268
 20
32.00000013232028
 30
0.0
 11
107.9499999030267
 21
32.00000013232028
 31
0.0
  0
LINE
  5
5A0
330
1F
100
AcDbEntity
  8
0
100
AcDbLine
 10
168.5999999030269
 20
70.54289306934084
 30
0.0
 11
165.5999999030269
 21
67.54289306934025
 31
0.0
  0
LINE
  5
5A1
330
1F
100
AcDbEntity
  8
0
100
AcDbLine
 10
170.0999999030269
 20
3.00000013232028
 30
0.0
 11
170.0999999030269
 21
32.00000013232028
 31
0.0
  0
LINE
  5
5A2
330
1F
100
AcDbEntity
  8
0
100
AcDbLine
 10
164.0999999030269
 20
3.00000013232028
 30
0.0
 11
164.0999999030269
 21
32.00000013232028
 31
0.0
  0
ARC
  5
5A3
330
1F
100
AcDbEntity
  8
0
100
AcDbCircle
 10
167.0999999030269
 20
3.00000013232028
 30
0.0
 40
2.999999999999998
100
AcDbArc
 50
180.0
 51
0.0
  0
LINE
  5
5A4
330
1F
100
AcDbEntity
  8
0
100
AcDbLine
 10
164.0999999030269
 20
32.00000013232028
 30
0.0
 11
170.0999999030269
 21
32.00000013232028
 31
0.0
  0
LINE
  5
5A5
330
1F
100
AcDbEntity
  8
0
100
AcDbLine
 10
167.0999999030269
 20
91.20000013232022
 30
0.0
 11
167.0999999030269
 21
70.45710663171376
 31
0.0
  0
LINE
  5
5A6
330
1F
100
AcDbEntity
  8
0
100
AcDbLine
 10
164.8499999030269
 20
101.2000001323202
 30
0.0
 11
164.8499999030269
 21
91.20000013232022
 31
0.0
  0
LINE
  5
5A7
330
1F
100
AcDbEntity
  8
0
100
AcDbLine
 10
169.3499999030269
 20
101.2000001323202
 30
0.0
 11
169.3499999030269
 21
91.2000001323202
 31
0.0
  0
LINE
  5
5A8
330
1F
100
AcDbEntity
  8
0
100
AcDbLine
 10
167.0999999030269
 20
69.04289306934055
 30
0.0
 11
167.0999999030269
 21
32.00000013232028
 31
0.0
  0
LINE
  5
5A9
330
1F
100
AcDbEntity
  8
0
100
AcDbLine
 10
168.5999999030269
 20
91.2000001323202
 30
0.0
 11
168.5999999030269
 21
71.95710663171405
 31
0.0
  0
LINE
  5
5AA
330
1F
100
AcDbEntity
  8
0
100
AcDbLine
 10
168.5999999030269
 20
70.54289306934084
 30
0.0
 11
168.5999999030269
 21
32.00000013232028
 31
0.0
  0
LINE
  5
5AB
330
1F
100
AcDbEntity
  8
0
100
AcDbLine
 10
165.5999999030269
 20
91.20000013232022
 30
0.0
 11
165.5999999030269
 21
68.9571066317135
 31
0.0
  0
LINE
  5
5AC
330
1F
100
AcDbEntity
  8
0
100
AcDbLine
 10
165.5999999030269
 20
67.54289306934025
 30
0.0
 11
165.5999999030269
 21
32.00000013232028
 31
0.0
  0
LINE
  5
5AD
330
1F
100
AcDbEntity
  8
0
100
AcDbLine
 10
34.64999990302678
 20
91.20000013232022
 30
0.0
 11
39.14999990302675
 21
91.2000001323202
 31
0.0
  0
LINE
  5
5AE
330
1F
100
AcDbEntity
  8
0
100
AcDbLine
 10
38.39999990302676
 20
71.95710663171405
 30
0.0
 11
35.39999990302675
 21
68.9571066317135
 31
0.0
  0
LINE
  5
5AF
330
1F
100
AcDbEntity
  8
0
100
AcDbLine
 10
38.39999990302676
 20
70.54289306934084
 30
0.0
 11
35.39999990302675
 21
67.54289306934025
 31
0.0
  0
LINE
  5
5B0
330
1F
100
AcDbEntity
  8
0
100
AcDbLine
 10
36.89999990302676
 20
91.20000013232022
 30
0.0
 11
36.89999990302676
 21
70.45710663171376
 31
0.0
  0
LINE
  5
5B1
330
1F
100
AcDbEntity
  8
0
100
AcDbLine
 10
34.64999990302676
 20
101.2000001323202
 30
0.0
 11
34.64999990302678
 21
91.20000013232022
 31
0.0
  0
LINE
  5
5B2
330
1F
100
AcDbEntity
  8
0
100
AcDbLine
 10
39.14999990302675
 20
101.2000001323202
 30
0.0
 11
39.14999990302675
 21
91.2000001323202
 31
0.0
  0
LINE
  5
5B3
330
1F
100
AcDbEntity
  8
0
100
AcDbLine
 10
36.89999990302676
 20
69.04289306934055
 30
0.0
 11
36.89999990302678
 21
32.00000013232028
 31
0.0
  0
LINE
  5
5B4
330
1F
100
AcDbEntity
  8
0
100
AcDbLine
 10
38.39999990302676
 20
91.2000001323202
 30
0.0
 11
38.39999990302676
 21
71.95710663171405
 31
0.0
  0
LINE
  5
5B5
330
1F
100
AcDbEntity
  8
0
100
AcDbLine
 10
38.39999990302676
 20
70.54289306934084
 30
0.0
 11
38.39999990302678
 21
32.00000013232028
 31
0.0
  0
LINE
  5
5B6
330
1F
100
AcDbEntity
  8
0
100
AcDbLine
 10
35.39999990302675
 20
91.20000013232022
 30
0.0
 11
35.39999990302675
 21
68.9571066317135
 31
0.0
  0
LINE
  5
5B7
330
1F
100
AcDbEntity
  8
0
100
AcDbLine
 10
35.39999990302675
 20
67.54289306934025
 30
0.0
 11
35.39999990302678
 21
32.00000013232028
 31
0.0
  0
LINE
  5
5B8
330
1F
100
AcDbEntity
  8
0
100
AcDbLine
 10
104.1999999030267
 20
91.20000013232022
 30
0.0
 11
104.1999999030267
 21
69.7071066317136
 31
0.0
  0
LINE
  5
5B9
330
1F
100
AcDbEntity
  8
0
100
AcDbLine
 10
104.1999999030267
 20
68.29289306934038
 30
0.0
 11
104.1999999030267
 21
32.00000013232028
 31
0.0
  0
LINE
  5
5BA
330
1F
100
AcDbEntity
  8
0
100
AcDbLine
 10
105.6999999030267
 20
91.2000001323202
 30
0.0
 11
105.6999999030267
 21
71.20710663171387
 31
0.0
  0
LINE
  5
5BB
330
1F
100
AcDbEntity
  8
0
100
AcDbLine
 10
105.6999999030267
 20
69.79289306934067
 30
0.0
 11
105.6999999030267
 21
32.00000013232028
 31
0.0
  0
LINE
  5
5BC
330
1F
100
AcDbEntity
  8
0
100
AcDbLine
 10
102.6999999030267
 20
91.20000013232022
 30
0.0
 11
107.1999999030267
 21
91.2000001323202
 31
0.0
  0
LINE
  5
5BD
330
1F
100
AcDbEntity
  8
0
100
AcDbLine
 10
102.6999999030267
 20
101.2000001323202
 30
0.0
 11
102.6999999030267
 21
91.20000013232022
 31
0.0
  0
LINE
  5
5BE
330
1F
100
AcDbEntity
  8
0
100
AcDbLine
 10
107.1999999030267
 20
101.2000001323202
 30
0.0
 11
107.1999999030267
 21
91.2000001323202
 31
0.0
  0
LINE
  5
5BF
330
1F
100
AcDbEntity
  8
0
100
AcDbLine
 10
105.6999999030267
 20
71.20710663171387
 30
0.0
 11
104.1999999030267
 21
69.7071066317136
 31
0.0
  0
LINE
  5
5C0
330
1F
100
AcDbEntity
  8
0
100
AcDbLine
 10
105.6999999030267
 20
69.79289306934067
 30
0.0
 11
104.1999999030267
 21
68.29289306934038
 31
0.0
  0
LINE
  5
5CA
330
1F
100
AcDbEntity
  8
0
370
    15
100
AcDbLine
 10
195.3781817212086
 20
196.6218183141384
 30
0.0
 11
195.3781817212087
 21
194.8963637686838
 31
0.0
  0
LINE
  5
5CB
330
1F
100
AcDbEntity
  8
0
370
    15
100
AcDbLine
 10
194.621818084845
 20
196.6218183141384
 30
0.0
 11
194.6218180848451
 21
194.8963637686838
 31
0.0
  0
CIRCLE
  5
5CC
330
1F
100
AcDbEntity
  8
1
  6
Continuous
 62
     7
100
AcDbCircle
 10
194.9999999030269
 20
197.0000001323203
 30
0.0
 40
2.600000000000058
  0
LINE
  5
5CD
330
1F
100
AcDbEntity
  8
0
370
    15
100
AcDbLine
 10
194.6218180848451
 20
194.8963637686838
 30
0.0
 11
195.3781817212087
 21
194.8963637686838
 31
0.0
  0
LINE
  5
5CE
330
1F
100
AcDbEntity
  8
0
370
    15
100
AcDbLine
 10
195.3781817212086
 20
196.6218183141384
 30
0.0
 11
197.1036362666635
 21
196.6218183141385
 31
0.0
  0
LINE
  5
5CF
330
1F
100
AcDbEntity
  8
0
370
    15
100
AcDbLine
 10
195.3781817212087
 20
197.3781819505021
 30
0.0
 11
197.1036362666635
 21
197.3781819505021
 31
0.0
  0
LINE
  5
5D0
330
1F
100
AcDbEntity
  8
0
370
    15
100
AcDbLine
 10
195.3781817212087
 20
199.1036364959567
 30
0.0
 11
195.3781817212086
 21
197.3781819505021
 31
0.0
  0
LINE
  5
5D1
330
1F
100
AcDbEntity
  8
0
370
    15
100
AcDbLine
 10
194.6218180848452
 20
199.1036364959567
 30
0.0
 11
195.3781817212087
 21
199.1036364959567
 31
0.0
  0
LINE
  5
5D2
330
1F
100
AcDbEntity
  8
0
370
    15
100
AcDbLine
 10
192.8963635393905
 20
197.3781819505021
 30
0.0
 11
192.8963635393905
 21
196.6218183141385
 31
0.0
  0
LINE
  5
5D3
330
1F
100
AcDbEntity
  8
0
370
    15
100
AcDbLine
 10
197.1036362666636
 20
197.3781819505021
 30
0.0
 11
197.1036362666635
 21
196.6218183141385
 31
0.0
  0
LINE
  5
5D4
330
1F
100
AcDbEntity
  8
0
370
    15
100
AcDbLine
 10
194.6218180848451
 20
199.1036364959567
 30
0.0
 11
194.621818084845
 21
197.3781819505021
 31
0.0
  0
LINE
  5
5D5
330
1F
100
AcDbEntity
  8
0
370
    15
100
AcDbLine
 10
192.8963635393905
 20
196.6218183141384
 30
0.0
 11
194.621818084845
 21
196.6218183141385
 31
0.0
  0
LINE
  5
5D6
330
1F
100
AcDbEntity
  8
0
370
    15
100
AcDbLine
 10
192.8963635393905
 20
197.3781819505021
 30
0.0
 11
194.621818084845
 21
197.3781819505021
 31
0.0
  0
LINE
  5
5D7
330
1F
100
AcDbEntity
  8
0
370
    15
100
AcDbLine
 10
159.3781817212086
 20
196.6218183141384
 30
0.0
 11
159.3781817212087
 21
194.8963637686838
 31
0.0
  0
LINE
  5
5D8
330
1F
100
AcDbEntity
  8
0
370
    15
100
AcDbLine
 10
158.621818084845
 20
196.6218183141384
 30
0.0
 11
158.6218180848451
 21
194.8963637686838
 31
0.0
  0
CIRCLE
  5
5D9
330
1F
100
AcDbEntity
  8
1
  6
Continuous
 62
     7
100
AcDbCircle
 10
158.9999999030269
 20
197.0000001323203
 30
0.0
 40
2.600000000000058
  0
LINE
  5
5DA
330
1F
100
AcDbEntity
  8
0
370
    15
100
AcDbLine
 10
158.6218180848451
 20
194.8963637686838
 30
0.0
 11
159.3781817212087
 21
194.8963637686838
 31
0.0
  0
LINE
  5
5DB
330
1F
100
AcDbEntity
  8
0
370
    15
100
AcDbLine
 10
159.3781817212086
 20
196.6218183141384
 30
0.0
 11
161.1036362666634
 21
196.6218183141385
 31
0.0
  0
LINE
  5
5DC
330
1F
100
AcDbEntity
  8
0
370
    15
100
AcDbLine
 10
159.3781817212087
 20
197.3781819505021
 30
0.0
 11
161.1036362666634
 21
197.3781819505021
 31
0.0
  0
LINE
  5
5DD
330
1F
100
AcDbEntity
  8
0
370
    15
100
AcDbLine
 10
159.3781817212087
 20
199.1036364959567
 30
0.0
 11
159.3781817212086
 21
197.3781819505021
 31
0.0
  0
LINE
  5
5DE
330
1F
100
AcDbEntity
  8
0
370
    15
100
AcDbLine
 10
158.6218180848452
 20
199.1036364959567
 30
0.0
 11
159.3781817212087
 21
199.1036364959567
 31
0.0
  0
LINE
  5
5DF
330
1F
100
AcDbEntity
  8
0
370
    15
100
AcDbLine
 10
156.8963635393904
 20
197.3781819505021
 30
0.0
 11
156.8963635393904
 21
196.6218183141385
 31
0.0
  0
LINE
  5
5E0
330
1F
100
AcDbEntity
  8
0
370
    15
100
AcDbLine
 10
161.1036362666635
 20
197.3781819505021
 30
0.0
 11
161.1036362666634
 21
196.6218183141385
 31
0.0
  0
LINE
  5
5E1
330
1F
100
AcDbEntity
  8
0
370
    15
100
AcDbLine
 10
158.6218180848451
 20
199.1036364959567
 30
0.0
 11
158.621818084845
 21
197.3781819505021
 31
0.0
  0
LINE
  5
5E2
330
1F
100
AcDbEntity
  8
0
370
    15
100
AcDbLine
 10
156.8963635393904
 20
196.6218183141384
 30
0.0
 11
158.621818084845
 21
196.6218183141385
 31
0.0
  0
LINE
  5
5E3
330
1F
100
AcDbEntity
  8
0
370
    15
100
AcDbLine
 10
156.8963635393904
 20
197.3781819505021
 30
0.0
 11
158.621818084845
 21
197.3781819505021
 31
0.0
  0
ARC
  5
5EF
330
1F
100
AcDbEntity
  8
0
100
AcDbCircle
 10
12.29999990302667
 20
114.4123759686098
 30
0.0
 40
1.199999999999999
100
AcDbArc
 50
180.0
 51
270.0
1001
GENIUS_GENODEF_13
1002
{
1000
HIER
1070
     0
1002
}
1002
{
1000
MANEDIT
1070
     0
1002
}
1002
{
1000
NOSEL
1070
     0
1002
}
1002
{
1000
BEHIND
1070
     0
1002
}
1002
{
1000
REACTOR
1002
}
1001
GENIUS_GENOBJ-N-FIL_13
1002
{
1000
OWNER
1000
GEN
1002
}
  0
ARC
  5
5F0
330
1F
100
AcDbEntity
  8
0
100
AcDbCircle
 10
21.89999990302682
 20
114.4123759686098
 30
0.0
 40
1.199999999999999
100
AcDbArc
 50
270.0
 51
0.000000000000007
1001
GENIUS_GENODEF_13
1002
{
1000
HIER
1070
     0
1002
}
1002
{
1000
MANEDIT
1070
     0
1002
}
1002
{
1000
NOSEL
1070
     0
1002
}
1002
{
1000
BEHIND
1070
     0
1002
}
1002
{
1000
REACTOR
1002
}
1001
GENIUS_GENOBJ-N-FIL_13
1002
{
1000
OWNER
1000
GEN
1002
}
  0
ARC
  5
5F1
330
1F
100
AcDbEntity
  8
0
100
AcDbCircle
 10
20.19501234091469
 20
102.2000001323202
 30
0.0
 40
1.0
100
AcDbArc
 50
270.0
 51
354.2894068624997
  0
LINE
  5
5F2
330
1F
100
AcDbEntity
  8
0
100
AcDbLine
 10
21.89999990302682
 20
113.2123759686098
 30
0.0
 11
12.29999990302667
 21
113.2123759686098
 31
0.0
  0
LINE
  5
5F3
330
1F
100
AcDbEntity
  8
0
100
AcDbLine
 10
22.09999990302666
 20
111.2000001323202
 30
0.0
 11
21.1900495311245
 21
102.1004964132993
 31
0.0
  0
LINE
  5
5F4
330
1F
100
AcDbEntity
  8
0
100
AcDbLine
 10
22.09999990302666
 20
113.2291600119899
 30
0.0
 11
22.09999990302666
 21
111.2000001323202
 31
0.0
  0
LINE
  5
5F5
330
1F
100
AcDbEntity
  8
0
100
AcDbLine
 10
13.00995027492878
 20
102.1004964132993
 30
0.0
 11
12.09999990302664
 21
111.2000001323202
 31
0.0
  0
LINE
  5
5F6
330
1F
100
AcDbEntity
  8
0
100
AcDbLine
 10
14.09999990302664
 20
112.7000001323201
 30
0.0
 11
14.09999990302664
 21
102.7000001323202
 31
0.0
  0
LINE
  5
5F7
330
1F
100
AcDbEntity
  8
0
100
AcDbLine
 10
20.09999990302664
 20
102.7000001323202
 30
0.0
 11
20.09999990302664
 21
112.7000001323201
 31
0.0
  0
ARC
  5
5F8
330
1F
100
AcDbEntity
  8
0
100
AcDbCircle
 10
14.00498746513882
 20
102.2000001323202
 30
0.0
 40
1.0
100
AcDbArc
 50
185.7105931375003
 51
270.0
  0
LINE
  5
5F9
330
1F
100
AcDbEntity
  8
0
100
AcDbLine
 10
20.19501234091469
 20
101.2000001323202
 30
0.0
 11
14.00498746513882
 21
101.2000001323202
 31
0.0
  0
LINE
  5
5FA
330
1F
100
AcDbEntity
  8
0
100
AcDbLine
 10
14.09999990302664
 20
102.7000001323202
 30
0.0
 11
20.09999990302664
 21
102.7000001323202
 31
0.0
  0
LINE
  5
5FB
330
1F
100
AcDbEntity
  8
0
100
AcDbLine
 10
20.09999990302664
 20
112.7000001323201
 30
0.0
 11
14.09999990302664
 21
112.7000001323201
 31
0.0
  0
LINE
  5
5FC
330
1F
100
AcDbEntity
  8
0
100
AcDbLine
 10
12.09999990302664
 20
111.2000001323202
 30
0.0
 11
12.09999990302664
 21
113.2291600119899
 31
0.0
  0
LINE
  5
5FD
330
1F
100
AcDbEntity
  8
0
100
AcDbLine
 10
23.09999990302664
 20
114.4123759686098
 30
0.0
 11
23.09999990302664
 21
120.0000001323203
 31
0.0
  0
LINE
  5
5FE
330
1F
100
AcDbEntity
  8
0
100
AcDbLine
 10
11.09999990302664
 20
114.4123759686098
 30
0.0
 11
11.09999990302664
 21
120.0000001323203
 31
0.0
  0
LINE
  5
5FF
330
1F
100
AcDbEntity
  8
0
100
AcDbLine
 10
14.09999990302675
 20
3.000000132320278
 30
0.0
 11
14.09999990302675
 21
32.00000013232028
 31
0.0
  0
LINE
  5
600
330
1F
100
AcDbEntity
  8
0
100
AcDbLine
 10
20.0999999030267
 20
3.000000132320278
 30
0.0
 11
20.0999999030267
 21
32.00000013232028
 31
0.0
  0
ARC
  5
601
330
1F
100
AcDbEntity
  8
0
100
AcDbCircle
 10
17.09999990302675
 20
3.000000132320278
 30
0.0
 40
2.999999999999998
100
AcDbArc
 50
180.0
 51
0.000000000000007
  0
LINE
  5
602
330
1F
100
AcDbEntity
  8
0
100
AcDbLine
 10
20.0999999030267
 20
32.00000013232028
 30
0.0
 11
14.09999990302675
 21
32.00000013232028
 31
0.0
  0
LINE
  5
603
330
1F
100
AcDbEntity
  8
0
100
AcDbLine
 10
19.34999990302673
 20
91.20000013232022
 30
0.0
 11
14.84999990302675
 21
91.2000001323202
 31
0.0
  0
LINE
  5
604
330
1F
100
AcDbEntity
  8
0
100
AcDbLine
 10
15.59999990302675
 20
71.95710663171405
 30
0.0
 11
18.59999990302675
 21
68.9571066317135
 31
0.0
  0
LINE
  5
605
330
1F
100
AcDbEntity
  8
0
100
AcDbLine
 10
15.59999990302675
 20
70.54289306934084
 30
0.0
 11
18.59999990302675
 21
67.54289306934025
 31
0.0
  0
LINE
  5
606
330
1F
100
AcDbEntity
  8
0
100
AcDbLine
 10
17.09999990302675
 20
91.20000013232022
 30
0.0
 11
17.09999990302675
 21
70.45710663171376
 31
0.0
  0
LINE
  5
607
330
1F
100
AcDbEntity
  8
0
100
AcDbLine
 10
19.34999990302675
 20
101.2000001323202
 30
0.0
 11
19.34999990302673
 21
91.20000013232022
 31
0.0
  0
LINE
  5
608
330
1F
100
AcDbEntity
  8
0
100
AcDbLine
 10
14.84999990302675
 20
101.2000001323202
 30
0.0
 11
14.84999990302675
 21
91.2000001323202
 31
0.0
  0
LINE
  5
609
330
1F
100
AcDbEntity
  8
0
100
AcDbLine
 10
17.09999990302675
 20
69.04289306934055
 30
0.0
 11
17.09999990302673
 21
32.00000013232028
 31
0.0
  0
LINE
  5
60A
330
1F
100
AcDbEntity
  8
0
100
AcDbLine
 10
15.59999990302675
 20
91.2000001323202
 30
0.0
 11
15.59999990302675
 21
71.95710663171405
 31
0.0
  0
LINE
  5
60B
330
1F
100
AcDbEntity
  8
0
100
AcDbLine
 10
15.59999990302675
 20
70.54289306934084
 30
0.0
 11
15.59999990302673
 21
32.00000013232028
 31
0.0
  0
LINE
  5
60C
330
1F
100
AcDbEntity
  8
0
100
AcDbLine
 10
18.59999990302675
 20
91.20000013232022
 30
0.0
 11
18.59999990302675
 21
68.9571066317135
 31
0.0
  0
LINE
  5
60D
330
1F
100
AcDbEntity
  8
0
100
AcDbLine
 10
18.59999990302675
 20
67.54289306934025
 30
0.0
 11
18.59999990302673
 21
32.00000013232028
 31
0.0
  0
LINE
  5
60E
330
1F
100
AcDbEntity
  8
0
100
AcDbLine
 10
190.3999999030268
 20
129.7000001323202
 30
0.0
 11
183.3999999030268
 21
129.7000001323202
 31
0.0
  0
LINE
  5
60F
330
1F
100
AcDbEntity
  8
0
100
AcDbLine
 10
190.6999999030269
 20
129.3000001323203
 30
0.0
 11
183.0999999030268
 21
129.3000001323203
 31
0.0
  0
ARC
  5
610
330
1F
100
AcDbEntity
  8
0
100
AcDbCircle
 10
189.9950123409146
 20
102.2000001323202
 30
0.0
 40
1.0
100
AcDbArc
 50
270.0
 51
354.2894068624997
  0
LINE
  5
611
330
1F
100
AcDbEntity
  8
0
100
AcDbLine
 10
190.6999999030269
 20
107.7000001323202
 30
0.0
 11
183.0999999030268
 21
107.7000001323202
 31
0.0
  0
LINE
  5
612
330
1F
100
AcDbEntity
  8
0
100
AcDbLine
 10
190.6999999030269
 20
114.7000001323202
 30
0.0
 11
183.0999999030268
 21
114.7000001323202
 31
0.0
  0
LINE
  5
613
330
1F
100
AcDbEntity
  8
0
100
AcDbLine
 10
190.6999999030269
 20
113.7000001323202
 30
0.0
 11
183.0999999030268
 21
113.7000001323202
 31
0.0
  0
LINE
  5
614
330
1F
100
AcDbEntity
  8
0
100
AcDbLine
 10
190.6999999030269
 20
113.2000001323202
 30
0.0
 11
183.0999999030268
 21
113.2000001323202
 31
0.0
  0
LINE
  5
615
330
1F
100
AcDbEntity
  8
0
100
AcDbLine
 10
190.6999999030269
 20
112.2000001323202
 30
0.0
 11
183.0999999030268
 21
112.2000001323202
 31
0.0
  0
LINE
  5
616
330
1F
100
AcDbEntity
  8
0
100
AcDbLine
 10
190.6999999030269
 20
110.7000001323202
 30
0.0
 11
183.0999999030268
 21
110.7000001323202
 31
0.0
  0
LINE
  5
617
330
1F
100
AcDbEntity
  8
0
100
AcDbLine
 10
190.6999999030269
 20
111.7000001323201
 30
0.0
 11
183.0999999030268
 21
111.7000001323201
 31
0.0
  0
LINE
  5
618
330
1F
100
AcDbEntity
  8
0
100
AcDbLine
 10
190.6999999030269
 20
110.2000001323202
 30
0.0
 11
183.0999999030268
 21
110.2000001323202
 31
0.0
  0
LINE
  5
619
330
1F
100
AcDbEntity
  8
0
100
AcDbLine
 10
190.6999999030269
 20
109.2000001323202
 30
0.0
 11
183.0999999030268
 21
109.2000001323202
 31
0.0
  0
LINE
  5
61A
330
1F
100
AcDbEntity
  8
0
100
AcDbLine
 10
190.6999999030269
 20
108.7000001323202
 30
0.0
 11
183.0999999030268
 21
108.7000001323202
 31
0.0
  0
ARC
  5
61B
330
1F
100
AcDbEntity
  8
0
100
AcDbCircle
 10
191.6999999030269
 20
114.4123759686098
 30
0.0
 40
1.199999999999999
100
AcDbArc
 50
270.0
 51
0.000000000000007
1001
GENIUS_GENODEF_13
1002
{
1000
HIER
1070
     0
1002
}
1002
{
1000
MANEDIT
1070
     0
1002
}
1002
{
1000
NOSEL
1070
     0
1002
}
1002
{
1000
BEHIND
1070
     0
1002
}
1002
{
1000
REACTOR
1002
}
1001
GENIUS_GENOBJ-N-FIL_13
1002
{
1000
OWNER
1000
GEN
1002
}
  0
LINE
  5
61C
330
1F
100
AcDbEntity
  8
0
100
AcDbLine
 10
190.6999999030269
 20
129.3000001323203
 30
0.0
 11
190.6999999030269
 21
107.7000001323202
 31
0.0
  0
LINE
  5
61D
330
1F
100
AcDbEntity
  8
0
100
AcDbLine
 10
191.8999999030268
 20
111.2000001323202
 30
0.0
 11
190.9900495311246
 21
102.1004964132993
 31
0.0
  0
LINE
  5
61E
330
1F
100
AcDbEntity
  8
0
100
AcDbLine
 10
191.6999999030269
 20
113.2123759686098
 30
0.0
 11
190.6999999030269
 21
113.2123759686098
 31
0.0
  0
LINE
  5
61F
330
1F
100
AcDbEntity
  8
0
100
AcDbLine
 10
191.8999999030268
 20
113.2291600119899
 30
0.0
 11
191.8999999030268
 21
111.2000001323202
 31
0.0
  0
LINE
  5
620
330
1F
100
AcDbEntity
  8
0
100
AcDbLine
 10
190.8999999030268
 20
129.2000001323202
 30
0.0
 11
190.8999999030268
 21
120.0000001323203
 31
0.0
1001
GENIUS_GENODEF_13
1002
{
1000
HIER
1070
     0
1002
}
1002
{
1000
MANEDIT
1070
     0
1002
}
1002
{
1000
NOSEL
1070
     0
1002
}
1002
{
1000
BEHIND
1070
     0
1002
}
1002
{
1000
REACTOR
1002
}
1001
GENIUS_GENOBJ-N-CEN_13
1002
{
1000
OWNER
1000
GEN
1002
}
  0
LINE
  5
621
330
1F
100
AcDbEntity
  8
0
100
AcDbLine
 10
192.8999999030268
 20
114.4123759686098
 30
0.0
 11
192.8999999030268
 21
120.0000001323203
 31
0.0
  0
ARC
  5
622
330
1F
100
AcDbEntity
  8
0
100
AcDbCircle
 10
190.3999999030268
 20
129.2000001323202
 30
0.0
 40
0.5
100
AcDbArc
 50
0.000000000000007
 51
90.0
1001
GENIUS_GENODEF_13
1002
{
1000
HIER
1070
     0
1002
}
1002
{
1000
MANEDIT
1070
     0
1002
}
1002
{
1000
NOSEL
1070
     0
1002
}
1002
{
1000
BEHIND
1070
     0
1002
}
1002
{
1000
REACTOR
1002
}
1001
GENIUS_GENOBJ-N-FIL_13
1002
{
1000
OWNER
1000
GEN
1002
}
  0
LINE
  5
623
330
1F
100
AcDbEntity
  8
0
100
AcDbLine
 10
190.8999999030268
 20
125.5000001323202
 30
0.0
 11
190.6999999030269
 21
125.5000001323202
 31
0.0
  0
LINE
  5
624
330
1F
100
AcDbEntity
  8
0
100
AcDbLine
 10
183.0999999030268
 20
129.3000001323203
 30
0.0
 11
183.0999999030268
 21
107.7000001323202
 31
0.0
  0
ARC
  5
625
330
1F
100
AcDbEntity
  8
0
100
AcDbCircle
 10
182.0999999030269
 20
114.4123759686098
 30
0.0
 40
1.199999999999999
100
AcDbArc
 50
180.0
 51
270.0
1001
GENIUS_GENODEF_13
1002
{
1000
HIER
1070
     0
1002
}
1002
{
1000
MANEDIT
1070
     0
1002
}
1002
{
1000
NOSEL
1070
     0
1002
}
1002
{
1000
BEHIND
1070
     0
1002
}
1002
{
1000
REACTOR
1002
}
1001
GENIUS_GENOBJ-N-FIL_13
1002
{
1000
OWNER
1000
GEN
1002
}
  0
LINE
  5
626
330
1F
100
AcDbEntity
  8
0
100
AcDbLine
 10
182.8099502749287
 20
102.1004964132993
 30
0.0
 11
181.8999999030266
 21
111.2000001323202
 31
0.0
  0
ARC
  5
627
330
1F
100
AcDbEntity
  8
0
100
AcDbCircle
 10
183.8049874651387
 20
102.2000001323202
 30
0.0
 40
1.0
100
AcDbArc
 50
185.7105931375003
 51
270.0
  0
LINE
  5
628
330
1F
100
AcDbEntity
  8
0
100
AcDbLine
 10
189.9950123409146
 20
101.2000001323202
 30
0.0
 11
183.8049874651387
 21
101.2000001323202
 31
0.0
  0
LINE
  5
629
330
1F
100
AcDbEntity
  8
0
100
AcDbLine
 10
189.1499999030266
 20
91.20000013232022
 30
0.0
 11
184.6499999030267
 21
91.2000001323202
 31
0.0
  0
LINE
  5
62A
330
1F
100
AcDbEntity
  8
0
100
AcDbLine
 10
183.0999999030268
 20
113.2123759686098
 30
0.0
 11
182.0999999030269
 21
113.2123759686098
 31
0.0
  0
LINE
  5
62B
330
1F
100
AcDbEntity
  8
0
100
AcDbLine
 10
181.8999999030266
 20
111.2000001323202
 30
0.0
 11
181.8999999030266
 21
113.2291600119899
 31
0.0
  0
LINE
  5
62C
330
1F
100
AcDbEntity
  8
0
100
AcDbLine
 10
182.8999999030268
 20
129.2000001323202
 30
0.0
 11
182.8999999030268
 21
120.0000001323203
 31
0.0
1001
GENIUS_GENODEF_13
1002
{
1000
HIER
1070
     0
1002
}
1002
{
1000
MANEDIT
1070
     0
1002
}
1002
{
1000
NOSEL
1070
     0
1002
}
1002
{
1000
BEHIND
1070
     0
1002
}
1002
{
1000
REACTOR
1002
}
1001
GENIUS_GENOBJ-N-CEN_13
1002
{
1000
OWNER
1000
GEN
1002
}
  0
LINE
  5
62D
330
1F
100
AcDbEntity
  8
0
100
AcDbLine
 10
180.8999999030266
 20
114.4123759686098
 30
0.0
 11
180.8999999030266
 21
120.0000001323203
 31
0.0
  0
ARC
  5
62E
330
1F
100
AcDbEntity
  8
0
100
AcDbCircle
 10
183.3999999030268
 20
129.2000001323202
 30
0.0
 40
0.5
100
AcDbArc
 50
90.0
 51
180.0
1001
GENIUS_GENODEF_13
1002
{
1000
HIER
1070
     0
1002
}
1002
{
1000
MANEDIT
1070
     0
1002
}
1002
{
1000
NOSEL
1070
     0
1002
}
1002
{
1000
BEHIND
1070
     0
1002
}
1002
{
1000
REACTOR
1002
}
1001
GENIUS_GENOBJ-N-FIL_13
1002
{
1000
OWNER
1000
GEN
1002
}
  0
LINE
  5
62F
330
1F
100
AcDbEntity
  8
0
100
AcDbLine
 10
183.0999999030268
 20
125.5000001323202
 30
0.0
 11
182.8999999030268
 21
125.5000001323202
 31
0.0
  0
LINE
  5
630
330
1F
100
AcDbEntity
  8
0
100
AcDbLine
 10
185.3999999030267
 20
71.95710663171405
 30
0.0
 11
188.3999999030267
 21
68.9571066317135
 31
0.0
  0
LINE
  5
631
330
1F
100
AcDbEntity
  8
0
100
AcDbLine
 10
185.3999999030267
 20
70.54289306934084
 30
0.0
 11
188.3999999030267
 21
67.54289306934025
 31
0.0
  0
LINE
  5
632
330
1F
100
AcDbEntity
  8
0
100
AcDbLine
 10
183.8999999030267
 20
3.00000013232028
 30
0.0
 11
183.8999999030267
 21
32.00000013232028
 31
0.0
  0
LINE
  5
633
330
1F
100
AcDbEntity
  8
0
100
AcDbLine
 10
189.8999999030266
 20
3.00000013232028
 30
0.0
 11
189.8999999030266
 21
32.00000013232028
 31
0.0
  0
ARC
  5
634
330
1F
100
AcDbEntity
  8
0
100
AcDbCircle
 10
186.8999999030267
 20
3.00000013232028
 30
0.0
 40
2.999999999999998
100
AcDbArc
 50
180.0
 51
0.000000000000007
  0
LINE
  5
635
330
1F
100
AcDbEntity
  8
0
100
AcDbLine
 10
189.8999999030266
 20
32.00000013232028
 30
0.0
 11
183.8999999030267
 21
32.00000013232028
 31
0.0
  0
LINE
  5
636
330
1F
100
AcDbEntity
  8
0
100
AcDbLine
 10
186.8999999030267
 20
91.20000013232022
 30
0.0
 11
186.8999999030267
 21
70.45710663171376
 31
0.0
  0
LINE
  5
637
330
1F
100
AcDbEntity
  8
0
100
AcDbLine
 10
189.1499999030267
 20
101.2000001323202
 30
0.0
 11
189.1499999030266
 21
91.20000013232022
 31
0.0
  0
LINE
  5
638
330
1F
100
AcDbEntity
  8
0
100
AcDbLine
 10
184.6499999030267
 20
101.2000001323202
 30
0.0
 11
184.6499999030267
 21
91.2000001323202
 31
0.0
  0
LINE
  5
639
330
1F
100
AcDbEntity
  8
0
100
AcDbLine
 10
186.8999999030267
 20
69.04289306934055
 30
0.0
 11
186.8999999030267
 21
32.00000013232028
 31
0.0
  0
LINE
  5
63A
330
1F
100
AcDbEntity
  8
0
100
AcDbLine
 10
185.3999999030267
 20
91.2000001323202
 30
0.0
 11
185.3999999030267
 21
71.95710663171405
 31
0.0
  0
LINE
  5
63B
330
1F
100
AcDbEntity
  8
0
100
AcDbLine
 10
185.3999999030267
 20
70.54289306934084
 30
0.0
 11
185.3999999030266
 21
32.00000013232028
 31
0.0
  0
LINE
  5
63C
330
1F
100
AcDbEntity
  8
0
100
AcDbLine
 10
188.3999999030267
 20
91.20000013232022
 30
0.0
 11
188.3999999030267
 21
68.9571066317135
 31
0.0
  0
LINE
  5
63D
330
1F
100
AcDbEntity
  8
0
100
AcDbLine
 10
188.3999999030267
 20
67.54289306934025
 30
0.0
 11
188.3999999030266
 21
32.00000013232028
 31
0.0
  0
LINE
  5
63E
330
1F
100
AcDbEntity
  8
0
100
AcDbLine
 10
190.6999999030269
 20
120.0000001323203
 30
0.0
 11
201.4999999030266
 21
120.0000001323203
 31
0.0
  0
ENDSEC
  0
SECTION
  2
OBJECTS
  0
DICTIONARY
  5
C
330
0
100
AcDbDictionary
281
     1
  3
ACAD_COLOR
350
BE
  3
ACAD_GROUP
350
D
  3
ACAD_LAYOUT
350
1A
  3
ACAD_MATERIAL
350
BD
  3
ACAD_MLINESTYLE
350
17
  3
ACAD_PLOTSETTINGS
350
19
  3
ACAD_PLOTSTYLENAME
350
E
  3
ACAD_TABLESTYLE
350
11A
  3
ACDBHEADERROUNDTRIPXREC
350
6E5
  3
AcDbVariableDictionary
350
94
  3
AcmDictionary
350
5B
  3
AMG
350
41
  3
AMGSNAPSETTINGS
350
1B8
  3
DWGPROPS
350
6E4
  0
DICTIONARY
  5
226
330
2
100
AcDbDictionary
280
     1
281
     1
  3
ACAD_LAYERSTATES
360
227
  0
DICTIONARY
  5
8F
330
1F
100
AcDbDictionary
280
     1
281
     1
  3
ACAD_SORTENTS
360
5C5
  0
DICTIONARY
  5
BE
102
{ACAD_REACTORS
330
C
102
}
330
C
100
AcDbDictionary
281
     1
  0
DICTIONARY
  5
D
102
{ACAD_REACTORS
330
C
102
}
330
C
100
AcDbDictionary
281
     1
  0
DICTIONARY
  5
1A
102
{ACAD_REACTORS
330
C
102
}
330
C
100
AcDbDictionary
281
     1
  3
Model
350
22
  3
レイアウト1
350
1E
  3
レイアウト2
350
26
  0
DICTIONARY
  5
BD
102
{ACAD_REACTORS
330
C
102
}
330
C
100
AcDbDictionary
281
     1
  0
DICTIONARY
  5
17
102
{ACAD_REACTORS
330
C
102
}
330
C
100
AcDbDictionary
281
     1
  3
Standard
350
18
  0
DICTIONARY
  5
19
102
{ACAD_REACTORS
330
C
102
}
330
C
100
AcDbDictionary
281
     1
  0
ACDBDICTIONARYWDFLT
  5
E
102
{ACAD_REACTORS
330
C
102
}
330
C
100
AcDbDictionary
281
     1
  3
Normal
350
F
100
AcDbDictionaryWithDefault
340
F
  0
DICTIONARY
  5
11A
102
{ACAD_REACTORS
330
C
102
}
330
C
100
AcDbDictionary
281
     1
  3
Standard
350
11B
  0
DICTIONARY
  5
6E5
102
{ACAD_REACTORS
330
C
102
}
330
C
100
AcDbDictionary
281
     1
  0
DICTIONARY
  5
94
102
{ACAD_REACTORS
330
C
102
}
330
C
100
AcDbDictionary
281
     1
  3
CTABLESTYLE
350
138
  3
DIMASSOC
350
96
  3
INDEXCTL
350
95
  3
PROJECTNAME
350
640
  0
DICTIONARY
  5
5B
102
{ACAD_REACTORS
330
C
102
}
330
C
100
AcDbDictionary
281
     1
  3
AcmBOM
350
1B5
  3
AcmStdDictionary
350
61
  3
AMDTSECTSYM_ARROWCOLOR
350
123
  0
DICTIONARY
  5
41
102
{ACAD_REACTORS
330
C
102
}
330
C
100
AcDbDictionary
281
     1
  0
DICTIONARY
  5
1B8
102
{ACAD_REACTORS
330
C
102
}
330
C
100
AcDbDictionary
281
     1
  0
XRECORD
  5
6E4
102
{ACAD_REACTORS
330
C
102
}
330
C
100
AcDbXrecord
280
     1
  1
DWGPROPS COOKIE
  2

  3

  4

  6

  7

  8

  9

300
AmdtFileType=84
301
=
302
=
303
=
304
=
305
=
306
=
307
=
308
=
309
=
 40
0.003302337962963
 41
2456406.566514028
 42
2456406.649020984
  1

 90
        1
  0
DICTIONARY
  5
227
102
{ACAD_REACTORS
330
226
102
}
330
226
100
AcDbDictionary
281
     1
  0
SORTENTSTABLE
  5
5C5
102
{ACAD_REACTORS
330
8F
102
}
330
8F
100
AcDbSortentsTable
330
1F
331
483
  5
483
331
4BA
  5
4BB
331
40F
  5
40F
331
444
  5
444
331
4F9
  5
514
331
501
  5
51C
331
44C
  5
44C
331
48B
  5
48B
331
4C2
  5
4C3
331
417
  5
417
331
509
  5
524
331
41F
  5
41F
331
454
  5
454
331
493
  5
493
331
4CA
  5
4CB
331
4D2
  5
4D3
331
45C
  5
45C
331
5CA
  5
4F3
331
515
  5
530
331
554
  5
577
331
601
  5
602
331
609
  5
60A
331
5D2
  5
4FB
331
51D
  5
538
331
55C
  5
57F
331
611
  5
612
331
59B
  5
5BE
331
525
  5
540
331
5DA
  5
4DA
331
5E2
  5
4E2
331
619
  5
61A
331
52D
  5
548
331
5A3
  5
5C7
331
49B
  5
49B
331
4DA
  5
4E9
331
425
  5
425
331
464
  5
464
331
4A3
  5
4A3
331
4E2
  5
4F1
331
42D
  5
42D
331
46C
  5
46C
331
474
  5
474
331
4AB
  5
4AB
331
435
  5
435
331
4EA
  5
505
331
4F2
  5
50D
331
43D
  5
43D
331
47C
  5
47C
331
4B3
  5
4B3
331
5AB
  5
5CF
331
535
  5
550
331
574
  5
597
331
621
  5
622
331
5B3
  5
5D7
331
5F2
  5
5F3
331
53D
  5
55A
331
57C
  5
59F
331
629
  5
62A
331
631
  5
632
331
584
  5
5A7
331
5BB
  5
5DF
331
545
  5
562
331
5FA
  5
5FB
331
639
  5
63A
331
54D
  5
56A
331
408
  5
408
331
4BB
  5
4BC
331
4FA
  5
515
331
410
  5
410
331
445
  5
445
331
484
  5
484
331
4C3
  5
4C4
331
502
  5
51D
331
418
  5
418
331
44D
  5
44D
331
48C
  5
48C
331
494
  5
494
331
4CB
  5
4CC
331
455
  5
455
331
50A
  5
525
331
45D
  5
45D
331
4D3
  5
4D4
331
602
  5
603
331
555
  5
578
331
516
  5
531
331
5CB
  5
4F4
331
5D3
  5
4FC
331
60A
  5
60B
331
51E
  5
539
331
55D
  5
580
331
59C
  5
5BF
331
5DB
  5
4DB
331
526
  5
541
331
612
  5
613
331
61A
  5
61B
331
5A4
  5
5C8
331
5E3
  5
4E3
331
52E
  5
549
331
465
  5
465
331
49C
  5
49C
331
426
  5
426
331
4DB
  5
4EA
331
4E3
  5
4F2
331
42E
  5
42E
331
46D
  5
46D
331
4A4
  5
4A4
331
4AC
  5
4AC
331
4EB
  5
506
331
436
  5
436
331
475
  5
475
331
4B4
  5
4B4
331
4F3
  5
50E
331
43E
  5
43E
331
47D
  5
47D
331
622
  5
623
331
575
  5
598
331
5AC
  5
5D0
331
536
  5
551
331
5F3
  5
5F4
331
62A
  5
62B
331
53E
  5
55B
331
57D
  5
5A0
331
5B4
  5
5D8
331
5BC
  5
5E0
331
5FB
  5
5FC
331
546
  5
563
331
585
  5
5A8
331
632
  5
633
331
54E
  5
56B
331
63A
  5
63B
331
409
  5
409
331
485
  5
485
331
4BC
  5
4BD
331
411
  5
411
331
446
  5
446
331
4FB
  5
516
331
503
  5
51E
331
419
  5
419
331
44E
  5
44E
331
48D
  5
48D
331
4C4
  5
4C5
331
4CC
  5
4CD
331
50B
  5
526
331
456
  5
456
331
495
  5
495
331
4D4
  5
4D6
331
45E
  5
45E
331
5CC
  5
4F5
331
517
  5
532
331
556
  5
579
331
603
  5
604
331
60B
  5
60C
331
55E
  5
581
331
51F
  5
53A
331
5D4
  5
4FD
331
613
  5
614
331
59D
  5
5C0
331
527
  5
542
331
5DC
  5
4DC
331
61B
  5
61C
331
52F
  5
54A
331
5A5
  5
5C9
331
49D
  5
49D
331
4DC
  5
4EB
331
427
  5
427
331
466
  5
466
331
46E
  5
46E
331
4A5
  5
4A5
331
42F
  5
42F
331
476
  5
476
331
4AD
  5
4AD
331
437
  5
437
331
4EC
  5
507
331
4F4
  5
50F
331
43F
  5
43F
331
47E
  5
47E
331
4B5
  5
4B5
331
5AD
  5
5D1
331
537
  5
554
331
576
  5
599
331
623
  5
624
331
62B
  5
62C
331
5B5
  5
5D9
331
5F4
  5
5F5
331
53F
  5
55C
331
57E
  5
5A1
331
633
  5
634
331
586
  5
5A9
331
5BD
  5
5E1
331
547
  5
564
331
5FC
  5
5FD
331
54F
  5
56C
331
63B
  5
63C
331
40A
  5
40A
331
4BD
  5
4BE
331
4FC
  5
517
331
412
  5
412
331
447
  5
447
331
486
  5
486
331
4C5
  5
4C6
331
504
  5
51F
331
41A
  5
41A
331
44F
  5
44F
331
48E
  5
48E
331
496
  5
496
331
4CD
  5
4CE
331
457
  5
457
331
50C
  5
527
331
45F
  5
45F
331
510
  5
52B
331
5CD
  5
4F6
331
604
  5
605
331
557
  5
57A
331
518
  5
533
331
5D5
  5
4FE
331
520
  5
53B
331
55F
  5
582
331
60C
  5
60D
331
59E
  5
5C1
331
5DD
  5
4DD
331
528
  5
543
331
614
  5
615
331
61C
  5
61D
331
5A6
  5
5CA
331
420
  5
420
331
4DD
  5
4EC
331
467
  5
467
331
49E
  5
49E
331
428
  5
428
331
4E5
  5
500
331
430
  5
430
331
46F
  5
46F
331
4A6
  5
4A6
331
4AE
  5
4AE
331
4ED
  5
508
331
403
  5
403
331
438
  5
438
331
477
  5
477
331
47F
  5
47F
331
4B6
  5
4B6
331
4F5
  5
510
331
530
  5
54B
331
624
  5
625
331
577
  5
59A
331
5AE
  5
5D2
331
538
  5
555
331
5F5
  5
5F6
331
62C
  5
62D
331
540
  5
55D
331
57F
  5
5A2
331
5B6
  5
5DA
331
5BE
  5
5E2
331
5FD
  5
5FE
331
548
  5
565
331
587
  5
5AA
331
634
  5
635
331
63C
  5
63D
331
40B
  5
40B
331
440
  5
440
331
487
  5
487
331
4BE
  5
4BF
331
413
  5
413
331
448
  5
448
331
4FD
  5
518
331
505
  5
520
331
41B
  5
41B
331
450
  5
450
331
48F
  5
48F
331
4C6
  5
4C7
331
4CE
  5
4CF
331
50D
  5
528
331
458
  5
458
331
497
  5
497
331
4D6
  5
4E5
331
511
  5
52C
331
550
  5
56D
331
5CE
  5
4F7
331
519
  5
534
331
558
  5
57B
331
605
  5
606
331
60D
  5
60E
331
560
  5
583
331
597
  5
5BA
331
521
  5
53C
331
5D6
  5
4FF
331
5DE
  5
4DE
331
615
  5
616
331
59F
  5
5C2
331
529
  5
544
331
61D
  5
61E
331
5A7
  5
5CB
331
421
  5
421
331
460
  5
460
331
49F
  5
49F
331
4DE
  5
4ED
331
429
  5
429
331
468
  5
468
331
470
  5
470
331
4A7
  5
4A7
331
431
  5
431
331
4E6
  5
501
331
4EE
  5
509
331
478
  5
478
331
4AF
  5
4AF
331
404
  5
404
331
439
  5
439
331
4F6
  5
511
331
4B7
  5
4B7
331
531
  5
54C
331
570
  5
593
331
5AF
  5
5D3
331
539
  5
556
331
578
  5
59B
331
625
  5
626
331
62D
  5
62E
331
580
  5
5A3
331
5B7
  5
5DB
331
541
  5
55E
331
5F6
  5
5F7
331
635
  5
636
331
5BF
  5
5E3
331
549
  5
566
331
5FE
  5
5FF
331
63D
  5
63E
331
40C
  5
40C
331
441
  5
441
331
480
  5
480
331
4BF
  5
4C0
331
4FE
  5
519
331
414
  5
414
331
449
  5
449
331
488
  5
488
331
490
  5
490
331
4C7
  5
4C8
331
41C
  5
41C
331
451
  5
451
331
506
  5
521
331
4CF
  5
4D0
331
459
  5
459
331
50E
  5
529
331
4D7
  5
4E6
331
551
  5
56E
331
588
  5
5AB
331
512
  5
52D
331
5CF
  5
4F8
331
606
  5
607
331
51A
  5
535
331
559
  5
57C
331
5D7
  5
4D7
331
60E
  5
60F
331
522
  5
53D
331
561
  5
584
331
598
  5
5BB
331
5A0
  5
5C3
331
5DF
  5
4DF
331
52A
  5
545
331
616
  5
617
331
61E
  5
61F
331
461
  5
461
331
498
  5
498
331
422
  5
422
331
4DF
  5
4EE
331
42A
  5
42A
331
469
  5
469
331
4A0
  5
4A0
331
4E7
  5
502
331
432
  5
432
331
471
  5
471
331
4A8
  5
4A8
331
4B0
  5
4B0
331
4EF
  5
50A
331
405
  5
405
331
43A
  5
43A
331
479
  5
479
331
4F7
  5
512
331
571
  5
594
331
5A8
  5
5CC
331
532
  5
54D
331
5EF
  5
5F0
331
626
  5
627
331
579
  5
59C
331
5B0
  5
5D4
331
53A
  5
557
331
5F7
  5
5F8
331
62E
  5
62F
331
542
  5
55F
331
581
  5
5A4
331
5B8
  5
5DC
331
5C0
  5
5EF
331
54A
  5
567
331
5FF
  5
600
331
636
  5
637
331
63E
  5
4B9
331
481
  5
481
331
4B8
  5
4B8
331
40D
  5
40D
331
442
  5
442
331
4FF
  5
51A
331
489
  5
489
331
4C0
  5
4C1
331
415
  5
415
331
44A
  5
44A
331
507
  5
522
331
41D
  5
41D
331
452
  5
452
331
491
  5
491
331
4C8
  5
4C9
331
4D0
  5
4D1
331
45A
  5
45A
331
50F
  5
52A
331
589
  5
5AC
331
513
  5
52E
331
5D0
  5
4F9
331
51B
  5
536
331
55A
  5
57D
331
607
  5
608
331
60F
  5
610
331
562
  5
585
331
599
  5
5BC
331
523
  5
53E
331
5D8
  5
4D8
331
5E0
  5
4E0
331
617
  5
618
331
52B
  5
546
331
5A1
  5
5C4
331
61F
  5
620
331
499
  5
499
331
4D8
  5
4E7
331
423
  5
423
331
462
  5
462
331
4A1
  5
4A1
331
4E0
  5
4EF
331
42B
  5
42B
331
46A
  5
46A
331
472
  5
472
331
4A9
  5
4A9
331
433
  5
433
331
4E8
  5
503
331
4F0
  5
50B
331
43B
  5
43B
331
47A
  5
47A
331
4B1
  5
4B1
331
406
  5
406
331
533
  5
54E
331
572
  5
595
331
5A9
  5
5CD
331
5B1
  5
5D5
331
5F0
  5
5F1
331
53B
  5
558
331
57A
  5
59D
331
627
  5
628
331
62F
  5
630
331
582
  5
5A5
331
5B9
  5
5DD
331
543
  5
560
331
5F8
  5
5F9
331
637
  5
638
331
54B
  5
568
331
4F8
  5
513
331
40E
  5
40E
331
443
  5
443
331
482
  5
482
331
4B9
  5
4BA
331
4C1
  5
4C2
331
500
  5
51B
331
416
  5
416
331
44B
  5
44B
331
48A
  5
48A
331
492
  5
492
331
4C9
  5
4CA
331
41E
  5
41E
331
453
  5
453
331
508
  5
523
331
4D1
  5
4D2
331
45B
  5
45B
331
600
  5
601
331
514
  5
52F
331
5D1
  5
4FA
331
608
  5
609
331
51C
  5
537
331
55B
  5
57E
331
59A
  5
5BD
331
5D9
  5
4D9
331
524
  5
53F
331
563
  5
586
331
610
  5
611
331
5A2
  5
5C6
331
5E1
  5
4E1
331
52C
  5
547
331
618
  5
619
331
463
  5
463
331
49A
  5
49A
331
424
  5
424
331
4D9
  5
4E8
331
4E1
  5
4F0
331
42C
  5
42C
331
46B
  5
46B
331
4A2
  5
4A2
331
4AA
  5
4AA
331
4E9
  5
504
331
434
  5
434
331
473
  5
473
331
4B2
  5
4B2
331
4F1
  5
50C
331
407
  5
407
331
43C
  5
43C
331
47B
  5
47B
331
620
  5
621
331
573
  5
596
331
5AA
  5
5CE
331
534
  5
54F
331
5F1
  5
5F2
331
628
  5
629
331
53C
  5
559
331
57B
  5
59E
331
5B2
  5
5D6
331
5F9
  5
5FA
331
630
  5
631
331
544
  5
561
331
583
  5
5A6
331
5BA
  5
5DE
331
54C
  5
569
331
638
  5
639
  0
LAYOUT
  5
22
102
{ACAD_XDICTIONARY
360
6E8
102
}
102
{ACAD_REACTORS
330
1A
102
}
330
1A
100
AcDbPlotSettings
  1

  2

  4

  6

 40
0.0
 41
0.0
 42
0.0
 43
0.0
 44
0.0
 45
0.0
 46
0.0
 47
0.0
 48
0.0
 49
0.0
140
0.0
141
0.0
142
1.0
143
1.0
 70
  1712
 72
     0
 73
     0
 74
     0
  7

 75
     0
147
1.0
148
0.0
149
0.0
100
AcDbLayout
  1
Model
 70
     1
 71
     0
 10
0.0
 20
0.0
 11
12.0
 21
9.0
 12
0.0
 22
0.0
 32
0.0
 14
0.0
 24
0.0
 34
0.0
 15
0.0
 25
0.0
 35
0.0
146
0.0
 13
0.0
 23
0.0
 33
0.0
 16
1.0
 26
0.0
 36
0.0
 17
0.0
 27
1.0
 37
0.0
 76
     0
330
1F
  0
LAYOUT
  5
1E
102
{ACAD_XDICTIONARY
360
6E6
102
}
102
{ACAD_REACTORS
330
1A
102
}
330
1A
100
AcDbPlotSettings
  1

  2

  4

  6

 40
0.0
 41
0.0
 42
0.0
 43
0.0
 44
0.0
 45
0.0
 46
0.0
 47
0.0
 48
0.0
 49
0.0
140
0.0
141
0.0
142
1.0
143
1.0
 70
   688
 72
     0
 73
     0
 74
     5
  7

 75
    16
147
1.0
148
0.0
149
0.0
100
AcDbLayout
  1
レイアウト1
 70
     1
 71
     1
 10
0.0
 20
0.0
 11
420.0
 21
297.0
 12
0.0
 22
0.0
 32
0.0
 14
1.000000000000000E+20
 24
1.000000000000000E+20
 34
1.000000000000000E+20
 15
-1.000000000000000E+20
 25
-1.000000000000000E+20
 35
-1.000000000000000E+20
146
0.0
 13
0.0
 23
0.0
 33
0.0
 16
1.0
 26
0.0
 36
0.0
 17
0.0
 27
1.0
 37
0.0
 76
     0
330
1B
  0
LAYOUT
  5
26
102
{ACAD_XDICTIONARY
360
6EA
102
}
102
{ACAD_REACTORS
330
1A
102
}
330
1A
100
AcDbPlotSettings
  1

  2

  4

  6

 40
0.0
 41
0.0
 42
0.0
 43
0.0
 44
0.0
 45
0.0
 46
0.0
 47
0.0
 48
0.0
 49
0.0
140
0.0
141
0.0
142
1.0
143
1.0
 70
   688
 72
     0
 73
     0
 74
     5
  7

 75
    16
147
1.0
148
0.0
149
0.0
100
AcDbLayout
  1
レイアウト2
 70
     1
 71
     2
 10
0.0
 20
0.0
 11
12.0
 21
9.0
 12
0.0
 22
0.0
 32
0.0
 14
0.0
 24
0.0
 34
0.0
 15
0.0
 25
0.0
 35
0.0
146
0.0
 13
0.0
 23
0.0
 33
0.0
 16
1.0
 26
0.0
 36
0.0
 17
0.0
 27
1.0
 37
0.0
 76
     0
330
23
  0
MLINESTYLE
  5
18
102
{ACAD_REACTORS
330
17
102
}
330
17
100
AcDbMlineStyle
  2
STANDARD
 70
     0
  3

 62
   256
 51
90.0
 52
90.0
 71
     2
 49
0.5
 62
   256
  6
BYLAYER
 49
-0.5
 62
   256
  6
BYLAYER
  0
ACDBPLACEHOLDER
  5
F
102
{ACAD_REACTORS
330
E
102
}
330
E
  0
TABLESTYLE
  5
11B
102
{ACAD_REACTORS
330
11A
102
}
330
11A
100
AcDbTableStyle
  3
Standard
 70
     0
 71
     0
 40
1.5
 41
1.5
280
     0
281
     0
  7
STANDARD
140
4.5
170
     2
 62
     0
 63
     7
283
     0
274
    -2
284
     1
 64
     0
275
    -2
285
     1
 65
     0
276
    -2
286
     1
 66
     0
277
    -2
287
     1
 67
     0
278
    -2
288
     1
 68
     0
279
    -2
289
     1
 69
     0
  7
STANDARD
140
6.0
170
     5
 62
     0
 63
     7
283
     0
274
    -2
284
     1
 64
     0
275
    -2
285
     1
 65
     0
276
    -2
286
     1
 66
     0
277
    -2
287
     1
 67
     0
278
    -2
288
     1
 68
     0
279
    -2
289
     1
 69
     0
  7
STANDARD
140
4.5
170
     5
 62
     0
 63
     7
283
     0
274
    -2
284
     1
 64
     0
275
    -2
285
     1
 65
     0
276
    -2
286
     1
 66
     0
277
    -2
287
     1
 67
     0
278
    -2
288
     1
 68
     0
279
    -2
289
     1
 69
     0
  0
DICTIONARYVAR
  5
138
102
{ACAD_REACTORS
330
94
102
}
330
94
100
DictionaryVariables
280
     0
  1
STANDARD
  0
DICTIONARYVAR
  5
96
102
{ACAD_REACTORS
330
94
102
}
330
94
100
DictionaryVariables
280
     0
  1
2
  0
DICTIONARYVAR
  5
95
102
{ACAD_REACTORS
330
94
102
}
330
94
100
DictionaryVariables
280
     0
  1
0
  0
DICTIONARYVAR
  5
640
102
{ACAD_REACTORS
330
94
102
}
330
94
100
DictionaryVariables
280
     0
  1

  0
DICTIONARY
  5
1B5
102
{ACAD_REACTORS
330
5B
102
}
330
5B
100
AcDbDictionary
281
     1
  0
DICTIONARY
  5
61
102
{ACAD_REACTORS
330
5B
102
}
330
5B
100
AcDbDictionary
281
     1
  0
XRECORD
  5
123
102
{ACAD_REACTORS
330
5B
102
}
330
5B
100
AcDbXrecord
280
     1
 90
-1023410169
  0
DICTIONARY
  5
6E8
330
22
100
AcDbDictionary
280
     1
281
     1
  3
ACAD_XREC_ROUNDTRIP
360
6E9
  0
DICTIONARY
  5
6E6
330
1E
100
AcDbDictionary
280
     1
281
     1
  3
ACAD_XREC_ROUNDTRIP
360
6E7
  0
DICTIONARY
  5
6EA
330
26
100
AcDbDictionary
280
     1
281
     1
  3
ACAD_XREC_ROUNDTRIP
360
6EB
  0
XRECORD
  5
6E9
102
{ACAD_REACTORS
330
6E8
102
}
330
6E8
100
AcDbXrecord
280
     1
102
SHADEPLOT
 70
     0
102
SHADEPLOTRESLEVEL
 70
     2
102
SHADEPLOTCUSTOMDPI
 70
   300
  0
XRECORD
  5
6E7
102
{ACAD_REACTORS
330
6E6
102
}
330
6E6
100
AcDbXrecord
280
     1
102
SHADEPLOT
 70
     0
102
SHADEPLOTRESLEVEL
 70
     2
102
SHADEPLOTCUSTOMDPI
 70
   300
  0
XRECORD
  5
6EB
102
{ACAD_REACTORS
330
6EA
102
}
330
6EA
100
AcDbXrecord
280
     1
102
SHADEPLOT
 70
     0
102
SHADEPLOTRESLEVEL
 70
     2
102
SHADEPLOTCUSTOMDPI
 70
   300
  0
ENDSEC
  0
EOF
