  0
SECTION
  2
HEADER
  9
$ACADVER
  1
AC1015
  9
$ACADMAINTVER
 70
    20
  9
$DWGCODEPAGE
  3
ANSI_932
  9
$INSBASE
 10
0.0
 20
0.0
 30
0.0
  9
$EXTMIN
 10
-0.517766701883645
 20
-0.5177669645152468
 30
0.0
  9
$EXTMAX
 10
416.5177672040489
 20
296.5177669414175
 30
0.0
  9
$LIMMIN
 10
0.0
 20
0.0
  9
$LIMMAX
 10
420.0
 20
297.0
  9
$ORTHOMODE
 70
     0
  9
$REGENMODE
 70
     1
  9
$FILLMODE
 70
     1
  9
$QTEXTMODE
 70
     0
  9
$MIRRTEXT
 70
     1
  9
$LTSCALE
 40
1.0
  9
$ATTMODE
 70
     1
  9
$TEXTSIZE
 40
1.0
  9
$TRACEWID
 40
1.0
  9
$TEXTSTYLE
  7
ACISOTS
  9
$CLAYER
  8
AM_0
  9
$CELTYPE
  6
ByLayer
  9
$CECOLOR
 62
   256
  9
$CELTSCALE
 40
1.0
  9
$DISPSILH
 70
     0
  9
$DIMSCALE
 40
1.0
  9
$DIMASZ
 40
2.5
  9
$DIMEXO
 40
1.0
  9
$DIMDLI
 40
10.0
  9
$DIMRND
 40
0.0
  9
$DIMDLE
 40
0.0
  9
$DIMEXE
 40
1.0
  9
$DIMTP
 40
0.1
  9
$DIMTM
 40
0.1
  9
$DIMTXT
 40
3.5
  9
$DIMCEN
 40
0.0
  9
$DIMTSZ
 40
0.0
  9
$DIMTOL
 70
     0
  9
$DIMLIM
 70
     0
  9
$DIMTIH
 70
     0
  9
$DIMTOH
 70
     0
  9
$DIMSE1
 70
     0
  9
$DIMSE2
 70
     0
  9
$DIMTAD
 70
     1
  9
$DIMZIN
 70
     8
  9
$DIMBLK
  1

  9
$DIMASO
 70
     1
  9
$DIMSHO
 70
     1
  9
$DIMPOST
  1

  9
$DIMAPOST
  1
"
  9
$DIMALT
 70
     0
  9
$DIMALTD
 70
     2
  9
$DIMALTF
 40
0.0393701
  9
$DIMLFAC
 40
1.0
  9
$DIMTOFL
 70
     1
  9
$DIMTVP
 40
0.0
  9
$DIMTIX
 70
     0
  9
$DIMSOXD
 70
     0
  9
$DIMSAH
 70
     0
  9
$DIMBLK1
  1

  9
$DIMBLK2
  1

  9
$DIMSTYLE
  2
AM_ISO
  9
$DIMCLRD
 70
   256
  9
$DIMCLRE
 70
   256
  9
$DIMCLRT
 70
     2
  9
$DIMTFAC
 40
0.71
  9
$DIMGAP
 40
1.5
  9
$DIMJUST
 70
     0
  9
$DIMSD1
 70
     0
  9
$DIMSD2
 70
     0
  9
$DIMTOLJ
 70
     0
  9
$DIMTZIN
 70
     8
  9
$DIMALTZ
 70
     0
  9
$DIMALTTZ
 70
     0
  9
$DIMUPT
 70
     0
  9
$DIMDEC
 70
     2
  9
$DIMTDEC
 70
     3
  9
$DIMALTU
 70
     2
  9
$DIMALTTD
 70
     4
  9
$DIMTXSTY
  7
STANDARD
  9
$DIMAUNIT
 70
     0
  9
$DIMADEC
 70
     0
  9
$DIMALTRND
 40
0.0
  9
$DIMAZIN
 70
     2
  9
$DIMDSEP
 70
    46
  9
$DIMATFIT
 70
     3
  9
$DIMFRAC
 70
     0
  9
$DIMLDRBLK
  1

  9
$DIMLUNIT
 70
     2
  9
$DIMLWD
 70
    -1
  9
$DIMLWE
 70
    -1
  9
$DIMTMOVE
 70
     0
  9
$LUNITS
 70
     2
  9
$LUPREC
 70
     2
  9
$SKETCHINC
 40
1.0
  9
$FILLETRAD
 40
2.5
  9
$AUNITS
 70
     0
  9
$AUPREC
 70
     0
  9
$MENU
  1
.
  9
$ELEVATION
 40
0.0
  9
$PELEVATION
 40
0.0
  9
$THICKNESS
 40
0.0
  9
$LIMCHECK
 70
     0
  9
$CHAMFERA
 40
2.5
  9
$CHAMFERB
 40
2.5
  9
$CHAMFERC
 40
20.0
  9
$CHAMFERD
 40
0.0
  9
$SKPOLY
 70
     0
  9
$TDCREATE
 40
2456406.543508843
  9
$TDUCREATE
 40
2456406.168508843
  9
$TDUPDATE
 40
2456406.646307812
  9
$TDUUPDATE
 40
2456406.271307812
  9
$TDINDWG
 40
0.0031135417
  9
$TDUSRTIMER
 40
0.0031084838
  9
$USRTIMER
 70
     1
  9
$ANGBASE
 50
0.0
  9
$ANGDIR
 70
     0
  9
$PDMODE
 70
     0
  9
$PDSIZE
 40
0.0
  9
$PLINEWID
 40
0.0
  9
$SPLFRAME
 70
     0
  9
$SPLINETYPE
 70
     6
  9
$SPLINESEGS
 70
     8
  9
$HANDSEED
  5
8A8
  9
$SURFTAB1
 70
     6
  9
$SURFTAB2
 70
     6
  9
$SURFTYPE
 70
     6
  9
$SURFU
 70
     6
  9
$SURFV
 70
     6
  9
$UCSBASE
  2

  9
$UCSNAME
  2

  9
$UCSORG
 10
0.0
 20
0.0
 30
0.0
  9
$UCSXDIR
 10
1.0
 20
0.0
 30
0.0
  9
$UCSYDIR
 10
0.0
 20
1.0
 30
0.0
  9
$UCSORTHOREF
  2

  9
$UCSORTHOVIEW
 70
     0
  9
$UCSORGTOP
 10
0.0
 20
0.0
 30
0.0
  9
$UCSORGBOTTOM
 10
0.0
 20
0.0
 30
0.0
  9
$UCSORGLEFT
 10
0.0
 20
0.0
 30
0.0
  9
$UCSORGRIGHT
 10
0.0
 20
0.0
 30
0.0
  9
$UCSORGFRONT
 10
0.0
 20
0.0
 30
0.0
  9
$UCSORGBACK
 10
0.0
 20
0.0
 30
0.0
  9
$PUCSBASE
  2

  9
$PUCSNAME
  2

  9
$PUCSORG
 10
0.0
 20
0.0
 30
0.0
  9
$PUCSXDIR
 10
1.0
 20
0.0
 30
0.0
  9
$PUCSYDIR
 10
0.0
 20
1.0
 30
0.0
  9
$PUCSORTHOREF
  2

  9
$PUCSORTHOVIEW
 70
     0
  9
$PUCSORGTOP
 10
0.0
 20
0.0
 30
0.0
  9
$PUCSORGBOTTOM
 10
0.0
 20
0.0
 30
0.0
  9
$PUCSORGLEFT
 10
0.0
 20
0.0
 30
0.0
  9
$PUCSORGRIGHT
 10
0.0
 20
0.0
 30
0.0
  9
$PUCSORGFRONT
 10
0.0
 20
0.0
 30
0.0
  9
$PUCSORGBACK
 10
0.0
 20
0.0
 30
0.0
  9
$USERI1
 70
     0
  9
$USERI2
 70
     0
  9
$USERI3
 70
     0
  9
$USERI4
 70
     0
  9
$USERI5
 70
     0
  9
$USERR1
 40
0.0
  9
$USERR2
 40
0.0
  9
$USERR3
 40
0.0
  9
$USERR4
 40
0.0
  9
$USERR5
 40
0.0
  9
$WORLDVIEW
 70
     1
  9
$SHADEDGE
 70
     3
  9
$SHADEDIF
 70
    70
  9
$TILEMODE
 70
     1
  9
$MAXACTVP
 70
    64
  9
$PINSBASE
 10
0.0
 20
0.0
 30
0.0
  9
$PLIMCHECK
 70
     0
  9
$PEXTMIN
 10
1.000000000000000E+20
 20
1.000000000000000E+20
 30
1.000000000000000E+20
  9
$PEXTMAX
 10
-1.000000000000000E+20
 20
-1.000000000000000E+20
 30
-1.000000000000000E+20
  9
$PLIMMIN
 10
0.0
 20
0.0
  9
$PLIMMAX
 10
420.0
 20
297.0
  9
$UNITMODE
 70
     0
  9
$VISRETAIN
 70
     1
  9
$PLINEGEN
 70
     0
  9
$PSLTSCALE
 70
     1
  9
$TREEDEPTH
 70
  3020
  9
$CMLSTYLE
  2
Standard
  9
$CMLJUST
 70
     0
  9
$CMLSCALE
 40
20.0
  9
$PROXYGRAPHICS
 70
     1
  9
$MEASUREMENT
 70
     1
  9
$CELWEIGHT
370
    -1
  9
$ENDCAPS
280
     0
  9
$JOINSTYLE
280
     0
  9
$LWDISPLAY
290
     0
  9
$INSUNITS
 70
     4
  9
$HYPERLINKBASE
  1

  9
$STYLESHEET
  1

  9
$XEDIT
290
     1
  9
$CEPSNTYPE
380
     0
  9
$PSTYLEMODE
290
     1
  9
$FINGERPRINTGUID
  2
{1BCD7820-F6D9-4A6F-A7E2-E1683DCB7CD5}
  9
$VERSIONGUID
  2
{D11BEED6-743C-404F-9ACF-C99C3BABA836}
  9
$EXTNAMES
290
     1
  9
$PSVPSCALE
 40
0.0
  9
$OLESTARTUP
290
     0
  0
ENDSEC
  0
SECTION
  2
CLASSES
  0
CLASS
  1
ACDBDICTIONARYWDFLT
  2
AcDbDictionaryWithDefault
  3
ObjectDBX Classes
 90
        0
280
     0
281
     0
  0
CLASS
  1
ACDBPLACEHOLDER
  2
AcDbPlaceHolder
  3
ObjectDBX Classes
 90
        0
280
     0
281
     0
  0
CLASS
  1
LAYOUT
  2
AcDbLayout
  3
ObjectDBX Classes
 90
        0
280
     0
281
     0
  0
CLASS
  1
ACME_DOCUMENT
  2
AcMeDbDoc
  3
AcMeServices
 90
        0
280
     0
281
     0
  0
CLASS
  1
AMGSETTINGSOBJ
  2
AmgSettingsObj
  3
"AcadM|Product Description: AutoCAD Mechanical 2000|Company: Autodesk"
 90
        0
280
     0
281
     0
  0
CLASS
  1
ACMESCOPE
  2
AcMeScope
  3
AcMeServices
 90
        0
280
     0
281
     0
  0
CLASS
  1
ACMECOMMANDHISTORY
  2
AcMeCommandHistory
  3
AcMeServices
 90
        0
280
     0
281
     0
  0
CLASS
  1
ACIMSYSVARMAN
  2
AcImSysVarManager
  3
AcMeServices
 90
        0
280
     0
281
     0
  0
CLASS
  1
ACIMREALSYSVAR
  2
AcImRealSysVar
  3
AcMeServices
 90
        0
280
     0
281
     0
  0
CLASS
  1
ACIMINTSYSVAR
  2
AcImIntSysVar
  3
AcMeServices
 90
        0
280
     0
281
     0
  0
CLASS
  1
ACMEDRAWINGMAN
  2
AcMeDrawingMan
  3
AcMeServices
 90
        0
280
     0
281
     0
  0
CLASS
  1
ACMEVIEW
  2
AcMeView
  3
AcMeServices
 90
        0
280
     0
281
     0
  0
CLASS
  1
ACDBENTITYCACHE
  2
AcMeEntityCache
  3
AcMeServices
 90
        0
280
     0
281
     0
  0
CLASS
  1
GSMANAGER
  2
AcMeGSManager
  3
AcMeServices
 90
        0
280
     0
281
     0
  0
CLASS
  1
AMDTINTERNALREACTOR
  2
AmdtInternalReactor
  3
AcMeServices
 90
        0
280
     0
281
     0
  0
CLASS
  1
ACMESTATEMGR
  2
AcMeStateMgr
  3
AcMeServices
 90
        0
280
     0
281
     0
  0
CLASS
  1
ACGREFMASTER
  2
AcGrefMaster
  3
AcAttribServices
 90
        0
280
     0
281
     0
  0
CLASS
  1
ACME_DATABASE
  2
AcMeDbDatabase
  3
AcMeServices
 90
        0
280
     0
281
     0
  0
CLASS
  1
ACRFINSADJUSTERMGR
  2
AcRfInsAdjusterMgr
  3
AcMeServices
 90
        0
280
     0
281
     0
  0
CLASS
  1
ACGREFACADMASTER
  2
AcGrefacadMaster
  3
AcGrefServices
 90
        0
280
     0
281
     0
  0
CLASS
  1
AMIMASTER
  2
AmiMaster
  3
AmiServices
 90
        0
280
     0
281
     0
  0
CLASS
  1
ACMDATADICTIONARY
  2
AcmDataDictionary
  3
"AcmSymBB|Product Description: AutoCAD Mechanical 2004 DX|Company: Autodesk"
 90
        0
280
     0
281
     0
  0
CLASS
  1
ACMDATAENTRYBLOCK
  2
AcmDataEntryBlock
  3
"AcmSymBB|Product Description: AutoCAD Mechanical 2004 DX|Company: Autodesk"
 90
    32768
280
     0
281
     0
  0
CLASS
  1
ACIMSTRSYSVAR
  2
AcImStrSysVar
  3
AcMeServices
 90
        0
280
     0
281
     0
  0
CLASS
  1
ACMSTANDARDISO
  2
AcmStandardISO
  3
"Amdt_StdImp|Product Description: AutoCAD Mechanical 2004 DX|Company: Autodesk"
 90
    32768
280
     0
281
     0
  0
CLASS
  1
AMGOBJPROPCFG
  2
AmgObjPropCfg
  3
"AmgLay|Product Description: AutoCAD Mechanical 2000|Company: Autodesk"
 90
        1
280
     0
281
     0
  0
CLASS
  1
AMDTEDGESTANDARDISO
  2
AmdtEdgeStdISO
  3
"Amdt_StdImp|Product Description: AutoCAD Mechanical 2004 DX|Company: Autodesk"
 90
    32768
280
     0
281
     0
  0
CLASS
  1
ACMSURFSTANDARDISO
  2
AcmSurfTextStdISO
  3
"Amdt_StdImp|Product Description: AutoCAD Mechanical 2004 DX|Company: Autodesk"
 90
    32768
280
     0
281
     0
  0
CLASS
  1
ACMFCFSTANDARDISO
  2
AcmFCFStdISO
  3
"Amdt_StdImp|Product Description: AutoCAD Mechanical 2004 DX|Company: Autodesk"
 90
    32768
280
     0
281
     0
  0
CLASS
  1
ACMWELDSTANDARDISO
  2
AcmWeldingStdISO
  3
"Amdt_StdImp|Product Description: AutoCAD Mechanical 2004 DX|Company: Autodesk"
 90
    32768
280
     0
281
     0
  0
CLASS
  1
ACMIDSTANDARDISO
  2
AcmIdStdISO
  3
"Amdt_StdImp|Product Description: AutoCAD Mechanical 2004 DX|Company: Autodesk"
 90
    32768
280
     0
281
     0
  0
CLASS
  1
ACMDATUMSTANDARDISO
  2
AcmDatumStdISO
  3
"Amdt_StdImp|Product Description: AutoCAD Mechanical 2004 DX|Company: Autodesk"
 90
    32768
280
     0
281
     0
  0
CLASS
  1
ACMBOMSTANDARDISO
  2
AcmBOMStdISO
  3
"Amdt_StdImp|Product Description: AutoCAD Mechanical 2004 DX|Company: Autodesk"
 90
    32768
280
     0
281
     0
  0
CLASS
  1
ACMDETAILSTANDARDISO
  2
AmdtDetailSymStdISO
  3
"Amdt_StdImp|Product Description: AutoCAD Mechanical 2004 DX|Company: Autodesk"
 90
    32768
280
     0
281
     0
  0
CLASS
  1
ACMSECTIONSTANDARDISO
  2
AmdtSectionSymStdISO
  3
"Amdt_StdImp|Product Description: AutoCAD Mechanical 2004 DX|Company: Autodesk"
 90
    32768
280
     0
281
     0
  0
CLASS
  1
ACMCENTERLINESTANDARDISO
  2
AmdtCenterLineStdISO
  3
"Amdt_StdImp|Product Description: AutoCAD Mechanical 2004 DX|Company: Autodesk"
 90
    32768
280
     0
281
     0
  0
CLASS
  1
ACMNOTESTANDARDISO
  2
AmdtNoteStdISO
  3
"Amdt_StdImp|Product Description: AutoCAD Mechanical 2004 DX|Company: Autodesk"
 90
    32768
280
     0
281
     0
  0
CLASS
  1
ACAMGLAYSTD
  2
AcAmgLayStd
  3
"AcAmgLayStd|Product Description: AutoCAD Mechanical 2000|Company: Autodesk"
 90
        0
280
     0
281
     0
  0
CLASS
  1
ACAMGDIMSTD
  2
AcAmgDimStd
  3
"AcAmgDimStd|Product Description: AutoCAD Mechanical 2000|Company: Autodesk"
 90
        0
280
     0
281
     0
  0
CLASS
  1
ACAMGHOLECHARTSTDISO
  2
AcAmgHoleChartStdISO
  3
ACMSYMBB_MODULE_NAME
 90
    32768
280
     0
281
     0
  0
CLASS
  1
ACAMGTITLESTD
  2
AcAmgTitleStd
  3
"TITLEAPP"
 90
        0
280
     0
281
     0
  0
CLASS
  1
LAYER_INDEX
  2
AcDbLayerIndex
  3
ObjectDBX Classes
 90
    32768
280
     0
281
     0
  0
CLASS
  1
IDBUFFER
  2
AcDbIdBuffer
  3
ObjectDBX Classes
 90
    32768
280
     0
281
     0
  0
CLASS
  1
DICTIONARYVAR
  2
AcDbDictionaryVar
  3
ObjectDBX Classes
 90
        0
280
     0
281
     0
  0
CLASS
  1
AM_DRAWING_MGR
  2
AcDmDwgMgr
  3
AcMechDwgViewMgmt
 90
        0
280
     0
281
     0
  0
CLASS
  1
AM_DWG_DOCUMENT
  2
AcDmDwgDocument
  3
AcMechDwgViewMgmt
 90
        0
280
     0
281
     0
  0
CLASS
  1
AM_DWG_SHEET
  2
AcDmSheet
  3
AcMechDwgViewMgmt
 90
        0
280
     0
281
     0
  0
CLASS
  1
AM_VIEWDIMPARMAP
  2
AcDmViewDimParMap
  3
AcMechDwgViewMgmt
 90
        0
280
     0
281
     0
  0
CLASS
  1
AM_DWGMGR_NAME
  2
AcDmDwgMgrName
  3
AcMechDwgViewMgmt
 90
        0
280
     0
281
     0
  0
CLASS
  1
AMDTMENUSTATEMGR
  2
AmdtMenuStateMgr
  3
McadcomServices
 90
        0
280
     0
281
     0
  0
CLASS
  1
AMDTMCOMMENUSTATE
  2
AmdtMcomMenuState
  3
McadcomServices
 90
        0
280
     0
281
     0
  0
CLASS
  1
MAPIAMMOUDLE
  2
MApiAmModule
  3
MApiAmServices
 90
        0
280
     0
281
     0
  0
CLASS
  1
AMDTADMENUSTATE
  2
AmdtAdMenuState
  3
DesignerServices
 90
        0
280
     0
281
     0
  0
CLASS
  1
ADAPPL
  2
AcAdAppl
  3
DesignerServices
 90
        0
280
     0
281
     0
  0
CLASS
  1
DEPMGR
  2
AcAdDepMgr
  3
DesignerServices
 90
        0
280
     0
281
     0
  0
CLASS
  1
PARAMMGR
  2
AcAdParamMgr
  3
DesignerServices
 90
        0
280
     0
281
     0
  0
CLASS
  1
PARAMSCOPE
  2
AcAdParamScope
  3
DesignerServices
 90
        0
280
     0
281
     0
  0
CLASS
  1
NAMEDAPPL
  2
AcAdNamedAppl
  3
DesignerServices
 90
        0
280
     0
281
     0
  0
CLASS
  1
AMDTDMMENUSTATE
  2
AmdtDmMenuState
  3
AcMechDwgViewMgmt
 90
        0
280
     0
281
     0
  0
CLASS
  1
AMDTAMMENUSTATE
  2
AmdtAmMenuState
  3
DesignerAssemblies
 90
        0
280
     0
281
     0
  0
CLASS
  1
ACAMPROJECT
  2
AcAmProject
  3
DesignerAssemblies
 90
        0
280
     0
281
     0
  0
CLASS
  1
ACAMGRCOMPDEF
  2
AcAmGrCompDef
  3
DesignerAssemblies
 90
        0
280
     0
281
     0
  0
CLASS
  1
ACCMCONTEXT
  2
AcCmContext
  3
DesignerAssemblies
 90
        0
280
     0
281
     0
  0
CLASS
  1
ACAMCOMPDEF
  2
AcAmCompDef
  3
DesignerAssemblies
 90
        0
280
     0
281
     0
  0
CLASS
  1
ACAMCOMPDEFMGR
  2
AcAmCompDefMgr
  3
DesignerAssemblies
 90
        0
280
     0
281
     0
  0
CLASS
  1
AMCONTEXTMGR
  2
AcAmContextMgr
  3
DesignerAssemblies
 90
        0
280
     0
281
     0
  0
CLASS
  1
ACAMCONTEXTMODELER
  2
AcAmContextModeler
  3
DesignerAssemblies
 90
        0
280
     0
281
     0
  0
CLASS
  1
ACMTHREADLINESTANDARDISO
  2
AmdtThreadLineStdISO
  3
"Amdt_StdImp|Product Description: AutoCAD Mechanical 2004 DX|Company: Autodesk"
 90
    32768
280
     0
281
     0
  0
CLASS
  1
CATALOGSTATE
  2
AcAmCatalogState
  3
DesignerAssemblies
 90
        0
280
     0
281
     0
  0
CLASS
  1
ACAMGRCOMPDEFSET
  2
AcAmGrCompDefSet
  3
DesignerAssemblies
 90
        0
280
     0
281
     0
  0
CLASS
  1
AMDTBROWSERDBTAB
  2
AmdtBrowserDbTab
  3
McadcomServices
 90
        0
280
     0
281
     0
  0
CLASS
  1
CBROWSERAPPOBJECT
  2
CBrowserAppObject
  3
McadcomServices
 90
        0
280
     0
281
     0
  0
CLASS
  1
DM_PLACEHOLDER
  2
AcDmSelsetPlaceholder
  3
AcMechDwgViewMgmt
 90
        0
280
     0
281
     0
  0
CLASS
  1
TABLESTYLE
  2
AcDbTableStyle
  3
ObjectDBX Classes
 90
     2047
280
     0
281
     0
  0
CLASS
  1
VAACXREFPANELOBJECT
  2
VaAcXREFPanelObject
  3
VAAC_ADDIN
 90
    32768
280
     0
281
     0
  0
CLASS
  1
VAACIMAGEINVENTORY
  2
VaAcImageInventory
  3
VAAC_ADDIN
 90
    32768
280
     0
281
     0
  0
CLASS
  1
AMDTNOTETEMPLATEDB
  2
AmdtNoteTemplateDB
  3
AMDT_STDIMP_MODULE_NAME
 90
        0
280
     0
281
     0
  0
CLASS
  1
ACMBOM
  2
AcmBom
  3
"AcmSymBB|Product Description: AutoCAD Mechanical 2004 DX|Company: Autodesk"
 90
    32768
280
     0
281
     0
  0
CLASS
  1
AMDTFORMULAUPDATEDISPATCHER
  2
AmdtFormulaUpdateDispatcher
  3
AcMeServices
 90
    32768
280
     0
281
     0
  0
CLASS
  1
ACMPARTLIST
  2
AcmPartList
  3
"AcmSymBB|Product Description: AutoCAD Mechanical 2004 DX|Company: Autodesk"
 90
    33791
280
     0
281
     1
  0
CLASS
  1
ACAMGFILTERDAT
  2
AcAmgFilterDat
  3
"AcadM|Product Description: AutoCAD Mechanical 2000|Company: Autodesk"
 90
    32768
280
     0
281
     0
  0
CLASS
  1
SORTENTSTABLE
  2
AcDbSortentsTable
  3
ObjectDBX Classes
 90
        0
280
     0
281
     0
  0
CLASS
  1
ACMSTANDARDJIS
  2
AcmStandardJIS
  3
"Amdt_StdImp|Product Description: AutoCAD Mechanical 2004 DX|Company: Autodesk"
 90
        0
280
     0
281
     0
  0
CLASS
  1
ACMSURFSTANDARDJIS
  2
AcmSurfTextStdJIS
  3
"Amdt_StdImp|Product Description: AutoCAD Mechanical 2004 DX|Company: Autodesk"
 90
        0
280
     0
281
     0
  0
CLASS
  1
ACMFCFSTANDARDJIS
  2
AcmFCFStdJIS
  3
"Amdt_StdImp|Product Description: AutoCAD Mechanical 2004 DX|Company: Autodesk"
 90
        0
280
     0
281
     0
  0
CLASS
  1
ACMWELDSTANDARDJIS
  2
AcmWeldingStdJIS
  3
"Amdt_StdImp|Product Description: AutoCAD Mechanical 2004 DX|Company: Autodesk"
 90
        0
280
     0
281
     0
  0
CLASS
  1
ACMIDSTANDARDJIS
  2
AcmIdStdJIS
  3
"Amdt_StdImp|Product Description: AutoCAD Mechanical 2004 DX|Company: Autodesk"
 90
        0
280
     0
281
     0
  0
CLASS
  1
ACMDATUMSTANDARDJIS
  2
AcmDatumStdJIS
  3
"Amdt_StdImp|Product Description: AutoCAD Mechanical 2004 DX|Company: Autodesk"
 90
        0
280
     0
281
     0
  0
CLASS
  1
ACMBOMSTANDARDJIS
  2
AcmBOMStdJIS
  3
"Amdt_StdImp|Product Description: AutoCAD Mechanical 2004 DX|Company: Autodesk"
 90
        0
280
     0
281
     0
  0
CLASS
  1
ACMDETAILSTANDARDJIS
  2
AmdtDetailSymStdJIS
  3
"Amdt_StdImp|Product Description: AutoCAD Mechanical 2004 DX|Company: Autodesk"
 90
        0
280
     0
281
     0
  0
CLASS
  1
ACMSECTIONSTANDARDJIS
  2
AmdtSectionSymStdJIS
  3
"Amdt_StdImp|Product Description: AutoCAD Mechanical 2004 DX|Company: Autodesk"
 90
        0
280
     0
281
     0
  0
CLASS
  1
ACMCENTERLINESTANDARDJIS
  2
AmdtCenterLineStdJIS
  3
"Amdt_StdImp|Product Description: AutoCAD Mechanical 2004 DX|Company: Autodesk"
 90
        0
280
     0
281
     0
  0
CLASS
  1
ACMTHREADLINESTANDARDJIS
  2
AmdtThreadLineStdJIS
  3
"Amdt_StdImp|Product Description: AutoCAD Mechanical 2004 DX|Company: Autodesk"
 90
        0
280
     0
281
     0
  0
CLASS
  1
ACMNOTESTANDARDJIS
  2
AmdtNoteStdJIS
  3
"Amdt_StdImp|Product Description: AutoCAD Mechanical 2004 DX|Company: Autodesk"
 90
        0
280
     0
281
     0
  0
CLASS
  1
ACAMGHOLECHARTSTDJIS
  2
AcAmgHoleChartStdJIS
  3
ACMSYMBB_MODULE_NAME
 90
        0
280
     0
281
     0
  0
CLASS
  1
ACRFATTGENMGR
  2
AcRfAttGeneralMgr
  3
AcAttribServices
 90
    32768
280
     0
281
     0
  0
CLASS
  1
DIMASSOC
  2
AcDbDimAssoc
  3
"AcDbDimAssoc|Product Desc:     AcDim ARX App For Dimension|Company:          Autodesk, Inc.|WEB Address:      www.autodesk.com"
 90
    32768
280
     0
281
     0
  0
ENDSEC
  0
SECTION
  2
TABLES
  0
TABLE
  2
VPORT
  5
8
330
0
100
AcDbSymbolTable
 70
     3
  0
VPORT
  5
89F
330
8
100
AcDbSymbolTableRecord
100
AcDbViewportTableRecord
  2
*Active
 70
     0
 10
0.0
 20
0.0
 11
1.0
 21
1.0
 12
207.9886916216118
 22
147.9965397812571
 13
0.0
 23
0.0
 14
2.5
 24
2.5
 15
10.0
 25
10.0
 16
0.0
 26
0.0
 36
1.0
 17
0.0
 27
0.0
 37
0.0
 40
595.759208726877
 41
1.954070981210855
 42
50.0
 43
0.0
 44
0.0
 50
0.0
 51
0.0
 71
     0
 72
   100
 73
     1
 74
     3
 75
     0
 76
     0
 77
     0
 78
     0
281
     0
 65
     1
110
0.0
120
0.0
130
0.0
111
1.0
121
0.0
131
0.0
112
0.0
122
1.0
132
0.0
 79
     0
146
0.0
  0
ENDTAB
  0
TABLE
  2
LTYPE
  5
5
330
0
100
AcDbSymbolTable
 70
    16
  0
LTYPE
  5
14
330
5
100
AcDbSymbolTableRecord
100
AcDbLinetypeTableRecord
  2
ByBlock
 70
     0
  3

 72
    65
 73
     0
 40
0.0
  0
LTYPE
  5
15
330
5
100
AcDbSymbolTableRecord
100
AcDbLinetypeTableRecord
  2
ByLayer
 70
     0
  3

 72
    65
 73
     0
 40
0.0
  0
LTYPE
  5
16
330
5
100
AcDbSymbolTableRecord
100
AcDbLinetypeTableRecord
  2
Continuous
 70
     0
  3
Solid line
 72
    65
 73
     0
 40
0.0
  0
LTYPE
  5
64
330
5
100
AcDbSymbolTableRecord
100
AcDbLinetypeTableRecord
  2
AM_ISO02W050
 70
     0
  3
__ __ __ __ __ __ __ __ __ __ __ __ __ __ __
 72
    65
 73
     2
 40
7.5
 49
6.0
 74
     0
 49
-1.5
 74
     0
  0
LTYPE
  5
65
330
5
100
AcDbSymbolTableRecord
100
AcDbLinetypeTableRecord
  2
AM_ISO08W050
 70
     0
  3
____ . ____ . ____ . ____ . ____ . ____ . ____
 72
    65
 73
     4
 40
18.0
 49
12.0
 74
     0
 49
-1.5
 74
     0
 49
3.0
 74
     0
 49
-1.5
 74
     0
  0
LTYPE
  5
66
330
5
100
AcDbSymbolTableRecord
100
AcDbLinetypeTableRecord
  2
AM_ISO09W050
 70
     0
  3
_____ . . _____ . . _____ . . ____ .. ____
 72
    65
 73
     6
 40
22.5
 49
12.0
 74
     0
 49
-1.5
 74
     0
 49
3.0
 74
     0
 49
-1.5
 74
     0
 49
3.0
 74
     0
 49
-1.5
 74
     0
  0
LTYPE
  5
67
330
5
100
AcDbSymbolTableRecord
100
AcDbLinetypeTableRecord
  2
Amconstr
 70
     0
  3
_______________________
 72
    65
 73
     2
 40
9999.0
 49
9999.0
 74
     0
 49
0.0
 74
     0
  0
LTYPE
  5
68
330
5
100
AcDbSymbolTableRecord
100
AcDbLinetypeTableRecord
  2
AM_ISO08W050x2
 70
     0
  3
__ . __ . __ . __ . __ . __
 72
    65
 73
     4
 40
9.0
 49
6.0
 74
     0
 49
-0.75
 74
     0
 49
1.5
 74
     0
 49
-0.75
 74
     0
  0
LTYPE
  5
69
330
5
100
AcDbSymbolTableRecord
100
AcDbLinetypeTableRecord
  2
AM_ISO02W050x2
 70
     0
  3
 _ _ _ _ _ _ _ _ _ _ _ _
 72
    65
 73
     2
 40
3.75
 49
3.0
 74
     0
 49
-0.75
 74
     0
  0
LTYPE
  5
6C
330
5
100
AcDbSymbolTableRecord
100
AcDbLinetypeTableRecord
  2
Amzigzag
 70
     0
  3
/\/-/\/-/\/-/\/-/\/-/\/
 72
    65
 73
     2
 40
11.0001
 49
0.0001
 74
     4
 75
   135
340
6B
 46
0.04
 50
0.0
 44
0.0
 45
0.0
 49
-11.0
 74
     0
  0
LTYPE
  5
7A
330
5
100
AcDbSymbolTableRecord
100
AcDbLinetypeTableRecord
  2
ACISOWELD
 70
     0
  3
_ _ _ _ _
 72
    65
 73
     2
 40
2.0
 49
2.0
 74
     0
 49
-1.0
 74
     0
  0
LTYPE
  5
7B
330
5
100
AcDbSymbolTableRecord
100
AcDbLinetypeTableRecord
  2
ACISOTGB
 70
     0
  3
__ . . __ . .
 72
    65
 73
     6
 40
9.0
 49
4.0
 74
     0
 49
-1.0
 74
     0
 49
1.0
 74
     0
 49
-1.0
 74
     0
 49
1.0
 74
     0
 49
-1.0
 74
     0
  0
LTYPE
  5
7C
330
5
100
AcDbSymbolTableRecord
100
AcDbLinetypeTableRecord
  2
ACISOTGL
 70
     0
  3
_ _ _ _ _
 72
    65
 73
     2
 40
3.0
 49
2.0
 74
     0
 49
-1.0
 74
     0
  0
LTYPE
  5
7E
330
5
100
AcDbSymbolTableRecord
100
AcDbLinetypeTableRecord
  2
CENTER
 70
     0
  3
__ . __
 72
    65
 73
     4
 40
7.0
 49
4.0
 74
     0
 49
-1.0
 74
     0
 49
1.0
 74
     0
 49
-1.0
 74
     0
  0
LTYPE
  5
D8
330
5
100
AcDbSymbolTableRecord
100
AcDbLinetypeTableRecord
  2
HIDDEN
 70
     0
  3
Hidden __ __ __ __ __ __ __ __ __ __ __ __ __ _
 72
    65
 73
     2
 40
9.524999999999996
 49
6.349999999999998
 74
     0
 49
-3.174999999999998
 74
     0
  0
LTYPE
  5
D9
330
5
100
AcDbSymbolTableRecord
100
AcDbLinetypeTableRecord
  2
PHANTOM2
 70
     0
  3
Phantom (.5x) ___ _ _ ___ _ _ ___ _ _ ___ _ _
 72
    65
 73
     6
 40
31.75
 49
15.875
 74
     0
 49
-3.174999999999998
 74
     0
 49
3.174999999999998
 74
     0
 49
-3.174999999999998
 74
     0
 49
3.174999999999998
 74
     0
 49
-3.174999999999998
 74
     0
  0
LTYPE
  5
207
330
5
100
AcDbSymbolTableRecord
100
AcDbLinetypeTableRecord
  2
ACJISTGB
 70
     0
  3
__ . . __ . .
 72
    65
 73
     6
 40
9.0
 49
4.0
 74
     0
 49
-1.0
 74
     0
 49
1.0
 74
     0
 49
-1.0
 74
     0
 49
1.0
 74
     0
 49
-1.0
 74
     0
  0
LTYPE
  5
208
330
5
100
AcDbSymbolTableRecord
100
AcDbLinetypeTableRecord
  2
ACJISTGL
 70
     0
  3
_ _ _ _ _
 72
    65
 73
     2
 40
3.0
 49
2.0
 74
     0
 49
-1.0
 74
     0
  0
ENDTAB
  0
TABLE
  2
LAYER
  5
2
102
{ACAD_XDICTIONARY
360
218
102
}
330
0
100
AcDbSymbolTable
 70
     3
  0
LAYER
  5
10
330
2
100
AcDbSymbolTableRecord
100
AcDbLayerTableRecord
  2
0
 70
     0
 62
     7
  6
Continuous
370
    -3
390
F
  0
LAYER
  5
1B0
330
2
100
AcDbSymbolTableRecord
100
AcDbLayerTableRecord
  2
AM_5
 70
     0
 62
     3
  6
Continuous
370
    25
390
F
  0
LAYER
  5
1FD
330
2
100
AcDbSymbolTableRecord
100
AcDbLayerTableRecord
  2
AM_0
 70
     0
 62
     7
  6
Continuous
370
    50
390
F
  0
ENDTAB
  0
TABLE
  2
STYLE
  5
3
330
0
100
AcDbSymbolTable
 70
     9
  0
STYLE
  5
11
330
3
100
AcDbSymbolTableRecord
100
AcDbTextStyleTableRecord
  2
STANDARD
 70
     0
 40
0.0
 41
1.0
 50
0.0
 71
     0
 42
2.5
  3
ISOCP.SHX
  4
extfont.shx
  0
STYLE
  5
6B
330
3
100
AcDbSymbolTableRecord
100
AcDbTextStyleTableRecord
  2

 70
     1
 40
0.0
 41
1.0
 50
0.0
 71
     0
 42
2.5
  3
ltypeshp.shx
  4

  0
STYLE
  5
6D
330
3
100
AcDbSymbolTableRecord
100
AcDbTextStyleTableRecord
  2
ACISOTS
 70
     0
 40
1.0
 41
1.0
 50
0.0
 71
     0
 42
1.0
  3
isocp.shx
  4
extfont.shx
  0
STYLE
  5
79
330
3
100
AcDbSymbolTableRecord
100
AcDbTextStyleTableRecord
  2
ACISOGDT
 70
     0
 40
0.0
 41
1.0
 50
0.0
 71
     0
 42
2.5
  3
amgdt.shx
  4
extfont.shx
  0
STYLE
  5
1F8
330
3
100
AcDbSymbolTableRecord
100
AcDbTextStyleTableRecord
  2
USER1
 70
     0
 40
0.0
 41
1.0
 50
0.0
 71
     0
 42
1.0
  3
TXT.SHX
  4

  0
STYLE
  5
1F9
330
3
100
AcDbSymbolTableRecord
100
AcDbTextStyleTableRecord
  2
USER2
 70
     0
 40
0.0
 41
1.0
 50
0.0
 71
     0
 42
1.0
  3
SIMPLEX.SHX
  4

  0
STYLE
  5
1FA
330
3
100
AcDbSymbolTableRecord
100
AcDbTextStyleTableRecord
  2
USER3
 70
     0
 40
0.0
 41
1.0
 50
0.0
 71
     0
 42
1.0
  3
ITALIC.SHX
  4

  0
STYLE
  5
1FB
330
3
100
AcDbSymbolTableRecord
100
AcDbTextStyleTableRecord
  2
ACJISTS
 70
     0
 40
1.0
 41
1.0
 50
0.0
 71
     0
 42
2.5
  3
isocp.shx
  4
extfont.shx
  0
STYLE
  5
1FC
330
3
100
AcDbSymbolTableRecord
100
AcDbTextStyleTableRecord
  2
ACJISGDT
 70
     0
 40
0.0
 41
1.0
 50
0.0
 71
     0
 42
2.5
  3
amgdt.shx
  4
extfont.shx
  0
ENDTAB
  0
TABLE
  2
VIEW
  5
6
330
0
100
AcDbSymbolTable
 70
     0
  0
ENDTAB
  0
TABLE
  2
UCS
  5
7
330
0
100
AcDbSymbolTable
 70
     0
  0
ENDTAB
  0
TABLE
  2
APPID
  5
9
330
0
100
AcDbSymbolTable
 70
    17
  0
APPID
  5
12
330
9
100
AcDbSymbolTableRecord
100
AcDbRegAppTableRecord
  2
ACAD
 70
     0
  0
APPID
  5
46
330
9
100
AcDbSymbolTableRecord
100
AcDbRegAppTableRecord
  2
MCAD_NO_VIS
 70
     0
  0
APPID
  5
47
330
9
100
AcDbSymbolTableRecord
100
AcDbRegAppTableRecord
  2
ACAD_TEMP_GRAPHIC
 70
     0
  0
APPID
  5
58
330
9
100
AcDbSymbolTableRecord
100
AcDbRegAppTableRecord
  2
ACATTRIBSERVICES
 70
     0
  0
APPID
  5
EE
330
9
100
AcDbSymbolTableRecord
100
AcDbRegAppTableRecord
  2
AD_DRAW
 70
     0
  0
APPID
  5
10C
330
9
100
AcDbSymbolTableRecord
100
AcDbRegAppTableRecord
  2
DESIGNERASSEMBLIES
 70
     0
  0
APPID
  5
111
330
9
100
AcDbSymbolTableRecord
100
AcDbRegAppTableRecord
  2
ACADM_DIM_EDIT
 70
     0
  0
APPID
  5
112
330
9
100
AcDbSymbolTableRecord
100
AcDbRegAppTableRecord
  2
AMDT_DM_ADJ
 70
     0
  0
APPID
  5
20F
330
9
100
AcDbSymbolTableRecord
100
AcDbRegAppTableRecord
  2
GENIUS_GENREC_14
 70
     0
  0
APPID
  5
210
330
9
100
AcDbSymbolTableRecord
100
AcDbRegAppTableRecord
  2
GENIUS_GENODEF_13
 70
     0
  0
APPID
  5
211
330
9
100
AcDbSymbolTableRecord
100
AcDbRegAppTableRecord
  2
GENIUS_GENOBJ-N-REC_13
 70
     0
  0
APPID
  5
212
330
9
100
AcDbSymbolTableRecord
100
AcDbRegAppTableRecord
  2
GENIUS_GENOBJ-N-FIL_13
 70
     0
  0
APPID
  5
213
330
9
100
AcDbSymbolTableRecord
100
AcDbRegAppTableRecord
  2
ACAD_PSEXT
 70
     0
  0
APPID
  5
214
330
9
100
AcDbSymbolTableRecord
100
AcDbRegAppTableRecord
  2
GENIUS_GENOBJ-N-CEN_13
 70
     0
  0
APPID
  5
215
330
9
100
AcDbSymbolTableRecord
100
AcDbRegAppTableRecord
  2
GENIUS_GENCEN_19
 70
     0
  0
APPID
  5
216
330
9
100
AcDbSymbolTableRecord
100
AcDbRegAppTableRecord
  2
GENIUS_GENFIL_13
 70
     0
  0
APPID
  5
217
330
9
100
AcDbSymbolTableRecord
100
AcDbRegAppTableRecord
  2
GENIUS_GENOBJ-N-CHA_13
 70
     0
  0
ENDTAB
  0
TABLE
  2
DIMSTYLE
  5
A
330
0
100
AcDbSymbolTable
 70
    15
100
AcDbDimStyleTable
 71
     2
340
81
340
1FE
  0
DIMSTYLE
105
27
330
A
100
AcDbSymbolTableRecord
100
AcDbDimStyleTableRecord
  2
ISO-25
 70
     0
 41
2.5
 42
0.625
 43
3.75
 44
1.25
 73
     0
 74
     0
 77
     1
 78
     8
140
2.5
141
2.5
143
0.03937007874016
147
0.625
171
     3
172
     1
271
     2
272
     2
274
     3
278
    44
283
     0
284
     8
340
11
  0
DIMSTYLE
105
81
330
A
100
AcDbSymbolTableRecord
100
AcDbDimStyleTableRecord
  2
AM_ISO
 70
     0
  4
"
 41
2.5
 42
1.0
 43
10.0
 44
1.0
 47
0.1
 48
0.1
 73
     0
 74
     0
 77
     1
 78
     8
 79
     2
140
3.5
141
0.0
143
0.0393701
146
0.71
147
1.5
172
     1
176
   256
177
   256
178
     2
271
     2
272
     3
274
     4
283
     0
284
     8
340
11
371
    -1
372
    -1
  0
DIMSTYLE
105
82
330
A
100
AcDbSymbolTableRecord
100
AcDbDimStyleTableRecord
  2
AM_ISO$3
 70
     0
  4
"
 41
2.5
 42
1.0
 43
10.0
 44
1.0
 47
0.1
 48
0.1
 73
     0
 77
     1
 78
     8
 79
     2
140
3.5
141
0.0
143
0.0393701
146
0.71
147
1.5
176
   256
177
   256
178
     2
271
     2
272
     3
274
     4
283
     0
284
     8
288
     1
289
     0
340
11
371
    -1
372
    -1
  0
DIMSTYLE
105
83
330
A
100
AcDbSymbolTableRecord
100
AcDbDimStyleTableRecord
  2
AM_ISO$4
 70
     0
  4
"
 41
2.5
 42
1.0
 43
10.0
 44
1.0
 47
0.1
 48
0.1
 73
     0
 77
     1
 78
     8
 79
     2
140
3.5
141
0.0
143
0.0393701
146
0.71
147
1.5
176
   256
177
   256
178
     2
271
     2
272
     3
274
     4
283
     0
284
     8
288
     1
289
     0
340
11
371
    -1
372
    -1
  0
DIMSTYLE
105
84
330
A
100
AcDbSymbolTableRecord
100
AcDbDimStyleTableRecord
  2
AM_ISO$6
 70
     0
  4
"
 41
2.5
 42
1.0
 43
10.0
 44
1.0
 47
0.1
 48
0.1
 73
     0
 74
     0
 78
     8
 79
     2
140
3.5
141
0.0
143
0.0393701
146
0.71
147
1.5
172
     1
176
   256
177
   256
178
     2
271
     2
272
     3
274
     4
283
     0
284
     8
340
11
371
    -1
372
    -1
  0
DIMSTYLE
105
85
330
A
100
AcDbSymbolTableRecord
100
AcDbDimStyleTableRecord
  2
AM_ISO$7
 70
     0
  4
"
 41
2.5
 42
1.0
 43
10.0
 44
1.0
 47
0.1
 48
0.1
 73
     0
 74
     0
 77
     1
 78
     8
 79
     2
140
5.0
141
0.0
143
0.0393701
146
0.71
147
1.5
172
     1
176
   256
177
   256
178
     2
271
     2
272
     3
274
     4
283
     0
284
     8
340
11
371
    -1
372
    -1
  0
DIMSTYLE
105
86
330
A
100
AcDbSymbolTableRecord
100
AcDbDimStyleTableRecord
  2
AM_ISO$SF
 70
     0
  4
"
 41
2.5
 42
1.0
 43
10.0
 44
1.0
 47
0.1
 48
0.1
 73
     0
 74
     0
 75
     1
 76
     1
 77
     1
 78
     8
 79
     2
140
3.5
141
0.0
143
0.0393701
146
0.71
147
1.5
172
     1
176
   256
177
   256
178
     2
271
     2
272
     3
274
     4
283
     0
284
     8
340
11
371
    -1
372
    -1
  0
DIMSTYLE
105
8B
330
A
100
AcDbSymbolTableRecord
100
AcDbDimStyleTableRecord
  2
AM_ISO$SH
 70
     0
  4
"
 41
2.5
 42
1.0
 43
10.0
 44
1.0
 47
0.1
 48
0.1
 73
     0
 74
     0
 75
     1
 76
     1
 77
     1
 78
     8
 79
     2
140
3.5
141
0.0
143
0.0393701
144
2.0
146
0.71
147
1.5
172
     1
173
     1
176
   256
177
   256
178
     2
271
     2
272
     3
274
     4
283
     0
284
     8
340
11
343
87
371
    -1
372
    -1
  0
DIMSTYLE
105
1FE
330
A
100
AcDbSymbolTableRecord
100
AcDbDimStyleTableRecord
  2
AM_JIS
 70
     0
  4
"
 41
2.5
 42
1.0
 43
10.0
 44
1.0
 47
0.1
 48
0.1
 73
     0
 74
     0
 77
     3
 78
     8
 79
     2
140
3.5
141
0.0
143
0.0393701
146
0.71
147
1.5
172
     1
176
   256
177
   256
178
     2
271
     2
272
     3
274
     4
283
     0
284
     8
340
11
341
1FF
342
1FF
343
1FF
344
1FF
371
    -1
372
    -1
  0
DIMSTYLE
105
209
330
A
100
AcDbSymbolTableRecord
100
AcDbDimStyleTableRecord
  2
AM_JIS$3
 70
     0
  4
"
 41
2.5
 42
1.0
 43
10.0
 44
1.0
 47
0.1
 48
0.1
 73
     0
 77
     3
 78
     8
 79
     2
140
3.5
141
0.0
143
0.0393701
146
0.71
147
1.5
176
   256
177
   256
178
     2
271
     2
272
     3
274
     4
283
     0
284
     8
288
     1
289
     0
340
11
341
1FF
342
1FF
343
1FF
344
1FF
371
    -1
372
    -1
  0
DIMSTYLE
105
20A
330
A
100
AcDbSymbolTableRecord
100
AcDbDimStyleTableRecord
  2
AM_JIS$4
 70
     0
  4
"
 41
2.5
 42
1.0
 43
10.0
 44
1.0
 47
0.1
 48
0.1
 73
     0
 77
     3
 78
     8
 79
     2
140
3.5
141
0.0
143
0.0393701
146
0.71
147
1.5
176
   256
177
   256
178
     2
271
     2
272
     3
274
     4
283
     0
284
     8
288
     1
289
     0
340
11
341
1FF
342
1FF
343
1FF
344
1FF
371
    -1
372
    -1
  0
DIMSTYLE
105
20B
330
A
100
AcDbSymbolTableRecord
100
AcDbDimStyleTableRecord
  2
AM_JIS$6
 70
     0
  4
"
 41
2.5
 42
1.0
 43
10.0
 44
1.0
 47
0.1
 48
0.1
 73
     0
 74
     0
 78
     8
 79
     2
140
3.5
141
0.0
143
0.0393701
146
0.71
147
1.5
172
     1
176
   256
177
   256
178
     2
271
     2
272
     3
274
     4
283
     0
284
     8
340
11
341
1FF
342
1FF
343
1FF
344
1FF
371
    -1
372
    -1
  0
DIMSTYLE
105
20C
330
A
100
AcDbSymbolTableRecord
100
AcDbDimStyleTableRecord
  2
AM_JIS$7
 70
     0
  4
"
 41
2.5
 42
1.0
 43
10.0
 44
1.0
 47
0.1
 48
0.1
 73
     0
 74
     0
 77
     3
 78
     8
 79
     2
140
3.5
141
0.0
143
0.0393701
146
0.71
147
1.5
172
     1
176
   256
177
   256
178
     2
271
     2
272
     3
274
     4
283
     0
284
     8
340
11
341
1FF
342
1FF
343
1FF
344
1FF
371
    -1
372
    -1
  0
DIMSTYLE
105
20D
330
A
100
AcDbSymbolTableRecord
100
AcDbDimStyleTableRecord
  2
AM_JIS$SF
 70
     0
  4
"
 41
2.5
 42
1.0
 43
10.0
 44
1.0
 47
0.1
 48
0.1
 73
     0
 74
     0
 75
     1
 76
     1
 77
     3
 78
     8
 79
     2
140
3.5
141
0.0
143
0.0393701
146
0.71
147
1.5
172
     1
176
   256
177
   256
178
     2
271
     2
272
     3
274
     4
283
     0
284
     8
340
11
341
1FF
342
1FF
343
1FF
344
1FF
371
    -1
372
    -1
  0
DIMSTYLE
105
20E
330
A
100
AcDbSymbolTableRecord
100
AcDbDimStyleTableRecord
  2
AM_JIS$SH
 70
     0
  4
"
 41
2.5
 42
1.0
 43
10.0
 44
1.0
 47
0.1
 48
0.1
 73
     0
 74
     0
 75
     1
 76
     1
 77
     3
 78
     8
 79
     2
140
3.5
141
0.0
143
0.0393701
144
2.0
146
0.71
147
1.5
172
     1
173
     1
176
   256
177
   256
178
     2
271
     2
272
     3
274
     4
283
     0
284
     8
340
11
341
1FF
342
1FF
343
87
344
1FF
371
    -1
372
    -1
  0
ENDTAB
  0
TABLE
  2
BLOCK_RECORD
  5
1
330
0
100
AcDbSymbolTable
 70
     4
  0
BLOCK_RECORD
  5
1F
102
{ACAD_XDICTIONARY
360
8F
102
}
330
1
100
AcDbSymbolTableRecord
100
AcDbBlockTableRecord
  2
*Model_Space
340
22
  0
BLOCK_RECORD
  5
1B
330
1
100
AcDbSymbolTableRecord
100
AcDbBlockTableRecord
  2
*Paper_Space
340
1E
  0
BLOCK_RECORD
  5
23
330
1
100
AcDbSymbolTableRecord
100
AcDbBlockTableRecord
  2
*Paper_Space0
340
26
  0
BLOCK_RECORD
  5
87
330
1
100
AcDbSymbolTableRecord
100
AcDbBlockTableRecord
  2
GENAXEH
340
0
  0
BLOCK_RECORD
  5
1FF
330
1
100
AcDbSymbolTableRecord
100
AcDbBlockTableRecord
  2
_Open30
340
0
  0
ENDTAB
  0
ENDSEC
  0
SECTION
  2
BLOCKS
  0
BLOCK
  5
20
330
1F
100
AcDbEntity
  8
0
100
AcDbBlockBegin
  2
*Model_Space
 70
     0
 10
0.0
 20
0.0
 30
0.0
  3
*Model_Space
  1

  0
ENDBLK
  5
21
330
1F
100
AcDbEntity
  8
0
100
AcDbBlockEnd
  0
BLOCK
  5
1C
330
1B
100
AcDbEntity
 67
     1
  8
0
100
AcDbBlockBegin
  2
*Paper_Space
 70
     0
 10
0.0
 20
0.0
 30
0.0
  3
*Paper_Space
  1

  0
ENDBLK
  5
1D
330
1B
100
AcDbEntity
 67
     1
  8
0
100
AcDbBlockEnd
  0
BLOCK
  5
24
330
23
100
AcDbEntity
  8
0
100
AcDbBlockBegin
  2
*Paper_Space0
 70
     0
 10
0.0
 20
0.0
 30
0.0
  3
*Paper_Space0
  1

  0
ENDBLK
  5
25
330
23
100
AcDbEntity
  8
0
100
AcDbBlockEnd
  0
BLOCK
  5
887
330
87
100
AcDbEntity
  8
0
100
AcDbBlockBegin
  2
GENAXEH
 70
     0
 10
0.0
 20
0.0
 30
0.0
  3
GENAXEH
  1

  0
LINE
  5
888
330
87
100
AcDbEntity
  8
0
100
AcDbLine
 10
-1.0
 20
0.0
 30
0.0
 11
1.0
 21
0.0
 31
0.0
  0
ENDBLK
  5
889
330
87
100
AcDbEntity
  8
0
100
AcDbBlockEnd
  0
BLOCK
  5
87B
330
1FF
100
AcDbEntity
  8
0
100
AcDbBlockBegin
  2
_Open30
 70
     0
 10
0.0
 20
0.0
 30
0.0
  3
_Open30
  1

  0
LINE
  5
87C
330
1FF
100
AcDbEntity
  8
0
  6
ByBlock
 62
     0
370
    -2
100
AcDbLine
 10
-1.0
 20
0.26794919
 30
0.0
 11
0.0
 21
0.0
 31
0.0
  0
LINE
  5
87D
330
1FF
100
AcDbEntity
  8
0
  6
ByBlock
 62
     0
370
    -2
100
AcDbLine
 10
0.0
 20
0.0
 30
0.0
 11
-1.0
 21
-0.26794919
 31
0.0
  0
LINE
  5
87E
330
1FF
100
AcDbEntity
  8
0
  6
ByBlock
 62
     0
370
    -2
100
AcDbLine
 10
0.0
 20
0.0
 30
0.0
 11
-1.0
 21
0.0
 31
0.0
  0
ENDBLK
  5
87F
330
1FF
100
AcDbEntity
  8
0
100
AcDbBlockEnd
  0
ENDSEC
  0
SECTION
  2
ENTITIES
  0
LINE
  5
4EF
330
1F
100
AcDbEntity
  8
0
100
AcDbLine
 10
171.5000002510827
 20
290.6999999884511
 30
0.0
 11
170.0000002510827
 21
290.6999999884511
 31
0.0
  0
LINE
  5
4F0
330
1F
100
AcDbEntity
  8
0
100
AcDbLine
 10
171.5000002510827
 20
276.299999988451
 30
0.0
 11
170.0000002510827
 21
276.299999988451
 31
0.0
  0
LINE
  5
4F1
330
1F
100
AcDbEntity
  8
0
100
AcDbLine
 10
171.5000002510827
 20
274.999999988451
 30
0.0
 11
176.5000002510827
 21
274.999999988451
 31
0.0
  0
LINE
  5
4F2
330
1F
100
AcDbEntity
  8
0
100
AcDbLine
 10
171.5000002510827
 20
291.9999999884511
 30
0.0
 11
176.5000002510827
 21
291.9999999884511
 31
0.0
  0
LINE
  5
4F3
330
1F
100
AcDbEntity
  8
0
100
AcDbLine
 10
171.5000002510827
 20
291.9999999884511
 30
0.0
 11
171.5000002510827
 21
274.999999988451
 31
0.0
  0
LINE
  5
4F4
330
1F
100
AcDbEntity
  8
0
100
AcDbLine
 10
103.0000002510826
 20
295.999999988451
 30
0.0
 11
103.0000002510826
 21
125.9999999884511
 31
0.0
  0
LINE
  5
4F5
330
1F
100
AcDbEntity
  8
0
100
AcDbLine
 10
12.00000025108261
 20
295.9999999884511
 30
0.0
 11
12.00000025108261
 21
125.9999999884511
 31
0.0
  0
LINE
  5
4F6
330
1F
100
AcDbEntity
  8
0
100
AcDbLine
 10
30.50000025108273
 20
145.9999999884511
 30
0.0
 11
84.50000025108272
 21
145.9999999884511
 31
0.0
1001
GENIUS_GENOBJ-N-CEN_13
1002
{
1000
OWNER
1000
GEN
1002
}
1001
GENIUS_GENODEF_13
1002
{
1000
HIER
1070
     0
1002
}
1002
{
1000
MANEDIT
1070
     0
1002
}
1002
{
1000
NOSEL
1070
     0
1002
}
1002
{
1000
BEHIND
1070
     0
1002
}
1002
{
1000
OTHER
1070
     0
1002
}
1002
{
1000
REACTOR
1002
}
1001
GENIUS_GENCEN_19
1002
{
1040
2.793999999999998
1002
}
  0
LINE
  5
4F7
330
1F
100
AcDbEntity
  8
0
100
AcDbLine
 10
30.50000025108273
 20
145.9999999884511
 30
0.0
 11
30.50000025108273
 21
135.9999999884511
 31
0.0
1001
GENIUS_GENODEF_13
1002
{
1000
HIER
1070
     0
1002
}
1002
{
1000
MANEDIT
1070
     0
1002
}
1002
{
1000
NOSEL
1070
     0
1002
}
1002
{
1000
BEHIND
1070
     0
1002
}
1002
{
1000
OTHER
1070
     0
1002
}
1002
{
1000
REACTOR
1002
}
1001
GENIUS_GENOBJ-N-CEN_13
1002
{
1000
OWNER
1000
GEN
1002
}
1001
GENIUS_GENCEN_19
1002
{
1040
2.793999999999998
1002
}
  0
LINE
  5
4F8
330
1F
100
AcDbEntity
  8
0
100
AcDbLine
 10
84.50000025108272
 20
145.9999999884511
 30
0.0
 11
84.50000025108272
 21
135.9999999884511
 31
0.0
1001
GENIUS_GENODEF_13
1002
{
1000
HIER
1070
     0
1002
}
1002
{
1000
MANEDIT
1070
     0
1002
}
1002
{
1000
NOSEL
1070
     0
1002
}
1002
{
1000
BEHIND
1070
     0
1002
}
1002
{
1000
OTHER
1070
     0
1002
}
1002
{
1000
REACTOR
1002
}
1001
GENIUS_GENOBJ-N-CEN_13
1002
{
1000
OWNER
1000
GEN
1002
}
1001
GENIUS_GENCEN_19
1002
{
1040
2.793999999999998
1002
}
  0
ELLIPSE
  5
4F9
330
1F
100
AcDbEntity
  8
0
100
AcDbEllipse
 10
37.87743677953222
 20
140.9999999884511
 30
0.0
 11
-3.34255280751924
 21
0.0000000000000009
 31
0.0
210
0.0
220
0.0
230
1.0
 40
0.6522657033974208
 41
3.473091153577573
 42
9.093279460781598
  0
ELLIPSE
  5
4FA
330
1F
100
AcDbEntity
  8
0
100
AcDbEllipse
 10
37.51461906756481
 20
140.9999999884511
 30
0.0
 11
-5.305316490900693
 21
0.0000000000000345
 31
0.0
210
0.0
220
0.0
230
1.0
 40
0.5753333635477774
 41
3.859128061423162
 42
9.1901597748113
  0
LINE
  5
4FB
330
1F
100
AcDbEntity
  8
0
100
AcDbLine
 10
42.67458672125622
 20
140.2904208275101
 30
0.0
 11
41.03800664948169
 21
140.2904208275101
 31
0.0
  0
LINE
  5
4FC
330
1F
100
AcDbEntity
  8
0
100
AcDbLine
 10
42.67441885573396
 20
141.7095791493921
 30
0.0
 11
41.03800664948169
 21
141.7095791493921
 31
0.0
  0
LINE
  5
4FD
330
1F
100
AcDbEntity
  8
0
100
AcDbLine
 10
41.51179602358182
 20
144.0523255698465
 30
0.0
 11
41.51179602358182
 21
143.0069949464488
 31
0.0
  0
LINE
  5
4FE
330
1F
100
AcDbEntity
  8
0
100
AcDbLine
 10
42.67441885573396
 20
144.0523255698465
 30
0.0
 11
41.51179602358182
 21
144.0523255698465
 31
0.0
  0
LINE
  5
4FF
330
1F
100
AcDbEntity
  8
0
100
AcDbLine
 10
42.67441885573396
 20
141.7095791493921
 30
0.0
 11
42.67441885573396
 21
144.0523255698465
 31
0.0
  0
LINE
  5
500
330
1F
100
AcDbEntity
  8
0
100
AcDbLine
 10
50.66860490224553
 20
143.1802325465907
 30
0.0
 11
50.66860490224553
 21
141.5087209186836
 31
0.0
  0
LINE
  5
501
330
1F
100
AcDbEntity
  8
0
100
AcDbLine
 10
47.18023280922222
 20
143.1802325465907
 30
0.0
 11
47.18023280922222
 21
141.5087209186836
 31
0.0
  0
LINE
  5
502
330
1F
100
AcDbEntity
  8
0
100
AcDbLine
 10
44.85465141387338
 20
143.1802325465907
 30
0.0
 11
44.85465141387338
 21
138.8197674303115
 31
0.0
  0
LINE
  5
503
330
1F
100
AcDbEntity
  8
0
100
AcDbLine
 10
52.99418629759433
 20
143.1802325465907
 30
0.0
 11
52.99418629759433
 21
138.8197674303115
 31
0.0
  0
LINE
  5
504
330
1F
100
AcDbEntity
  8
0
100
AcDbLine
 10
47.18023280922222
 20
141.5087209186836
 30
0.0
 11
50.66860490224553
 21
141.5087209186836
 31
0.0
  0
LINE
  5
505
330
1F
100
AcDbEntity
  8
0
100
AcDbLine
 10
47.1802328092223
 20
140.4912790582186
 30
0.0
 11
50.66860490224553
 21
140.4912790582186
 31
0.0
  0
LINE
  5
506
330
1F
100
AcDbEntity
  8
0
100
AcDbLine
 10
48.34302350689672
 20
138.8197674303115
 30
0.0
 11
47.1802328092223
 21
138.8197674303115
 31
0.0
  0
LINE
  5
507
330
1F
100
AcDbEntity
  8
0
100
AcDbLine
 10
48.34302350689672
 20
137.9476744070558
 30
0.0
 11
43.69186071619902
 21
137.9476744070558
 31
0.0
  0
LINE
  5
508
330
1F
100
AcDbEntity
  8
0
100
AcDbLine
 10
43.69186071619902
 20
138.8197674303115
 30
0.0
 11
43.69186071619902
 21
137.9476744070558
 31
0.0
  0
LINE
  5
509
330
1F
100
AcDbEntity
  8
0
100
AcDbLine
 10
44.85465141387338
 20
138.8197674303115
 30
0.0
 11
43.69186071619902
 21
138.8197674303115
 31
0.0
  0
LINE
  5
50A
330
1F
100
AcDbEntity
  8
0
100
AcDbLine
 10
47.1802328092223
 20
140.4912790582186
 30
0.0
 11
47.1802328092223
 21
138.8197674303115
 31
0.0
  0
LINE
  5
50B
330
1F
100
AcDbEntity
  8
0
100
AcDbLine
 10
54.15697699526873
 20
137.9476744070558
 30
0.0
 11
49.50581420457101
 21
137.9476744070558
 31
0.0
  0
LINE
  5
50C
330
1F
100
AcDbEntity
  8
0
100
AcDbLine
 10
49.50581420457101
 20
138.8197674303115
 30
0.0
 11
49.50581420457101
 21
137.9476744070558
 31
0.0
  0
LINE
  5
50D
330
1F
100
AcDbEntity
  8
0
100
AcDbLine
 10
48.34302350689672
 20
138.8197674303115
 30
0.0
 11
48.34302350689672
 21
137.9476744070558
 31
0.0
  0
LINE
  5
50E
330
1F
100
AcDbEntity
  8
0
100
AcDbLine
 10
50.66860490224553
 20
138.8197674303115
 30
0.0
 11
49.50581420457101
 21
138.8197674303115
 31
0.0
  0
LINE
  5
50F
330
1F
100
AcDbEntity
  8
0
100
AcDbLine
 10
50.66860490224553
 20
140.4912790582186
 30
0.0
 11
50.66860490224553
 21
138.8197674303115
 31
0.0
  0
LINE
  5
510
330
1F
100
AcDbEntity
  8
0
100
AcDbLine
 10
54.15697699526873
 20
138.8197674303115
 30
0.0
 11
54.15697699526873
 21
137.9476744070558
 31
0.0
  0
LINE
  5
511
330
1F
100
AcDbEntity
  8
0
100
AcDbLine
 10
54.15697699526873
 20
138.8197674303115
 30
0.0
 11
52.99418629759433
 21
138.8197674303115
 31
0.0
  0
LINE
  5
512
330
1F
100
AcDbEntity
  8
0
100
AcDbLine
 10
48.34302350689672
 20
143.1802325465907
 30
0.0
 11
47.1802328092223
 21
143.1802325465907
 31
0.0
  0
LINE
  5
513
330
1F
100
AcDbEntity
  8
0
100
AcDbLine
 10
48.34302350689672
 20
144.0523255698465
 30
0.0
 11
43.69186071619902
 21
144.0523255698465
 31
0.0
  0
LINE
  5
514
330
1F
100
AcDbEntity
  8
0
100
AcDbLine
 10
43.69186071619902
 20
144.0523255698465
 30
0.0
 11
43.69186071619902
 21
143.1802325465907
 31
0.0
  0
LINE
  5
515
330
1F
100
AcDbEntity
  8
0
100
AcDbLine
 10
44.85465141387338
 20
143.1802325465907
 30
0.0
 11
43.69186071619902
 21
143.1802325465907
 31
0.0
  0
LINE
  5
516
330
1F
100
AcDbEntity
  8
0
100
AcDbLine
 10
54.15697699526873
 20
144.0523255698465
 30
0.0
 11
49.50581420457101
 21
144.0523255698465
 31
0.0
  0
LINE
  5
517
330
1F
100
AcDbEntity
  8
0
100
AcDbLine
 10
50.66860490224553
 20
143.1802325465907
 30
0.0
 11
49.50581420457101
 21
143.1802325465907
 31
0.0
  0
LINE
  5
518
330
1F
100
AcDbEntity
  8
0
100
AcDbLine
 10
49.50581420457101
 20
144.0523255698465
 30
0.0
 11
49.50581420457101
 21
143.1802325465907
 31
0.0
  0
LINE
  5
519
330
1F
100
AcDbEntity
  8
0
100
AcDbLine
 10
48.34302350689672
 20
144.0523255698465
 30
0.0
 11
48.34302350689672
 21
143.1802325465907
 31
0.0
  0
LINE
  5
51A
330
1F
100
AcDbEntity
  8
0
100
AcDbLine
 10
54.15697699526873
 20
144.0523255698465
 30
0.0
 11
54.15697699526873
 21
143.1802325465907
 31
0.0
  0
LINE
  5
51B
330
1F
100
AcDbEntity
  8
0
100
AcDbLine
 10
54.15697699526873
 20
143.1802325465907
 30
0.0
 11
52.99418629759433
 21
143.1802325465907
 31
0.0
  0
LINE
  5
51C
330
1F
100
AcDbEntity
  8
0
100
AcDbLine
 10
56.33720955340822
 20
143.1802325465907
 30
0.0
 11
56.33720955340822
 21
138.8197674303115
 31
0.0
  0
LINE
  5
51D
330
1F
100
AcDbEntity
  8
0
100
AcDbLine
 10
58.66279094875713
 20
143.1802325465907
 30
0.0
 11
58.66279094875713
 21
138.8197674303115
 31
0.0
  0
LINE
  5
51E
330
1F
100
AcDbEntity
  8
0
100
AcDbLine
 10
59.82558164643164
 20
137.9476744070558
 30
0.0
 11
55.1744188557339
 21
137.9476744070558
 31
0.0
  0
LINE
  5
51F
330
1F
100
AcDbEntity
  8
0
100
AcDbLine
 10
55.1744188557339
 20
138.8197674303115
 30
0.0
 11
55.1744188557339
 21
137.9476744070558
 31
0.0
  0
LINE
  5
520
330
1F
100
AcDbEntity
  8
0
100
AcDbLine
 10
56.33720955340822
 20
138.8197674303115
 30
0.0
 11
55.1744188557339
 21
138.8197674303115
 31
0.0
  0
LINE
  5
521
330
1F
100
AcDbEntity
  8
0
100
AcDbLine
 10
59.82558164643164
 20
138.8197674303115
 30
0.0
 11
59.82558164643164
 21
137.9476744070558
 31
0.0
  0
LINE
  5
522
330
1F
100
AcDbEntity
  8
0
100
AcDbLine
 10
59.82558164643164
 20
138.8197674303115
 30
0.0
 11
58.66279094875713
 21
138.8197674303115
 31
0.0
  0
LINE
  5
523
330
1F
100
AcDbEntity
  8
0
100
AcDbLine
 10
59.82558164643164
 20
144.0523255698465
 30
0.0
 11
55.1744188557339
 21
144.0523255698465
 31
0.0
  0
LINE
  5
524
330
1F
100
AcDbEntity
  8
0
100
AcDbLine
 10
55.1744188557339
 20
144.0523255698465
 30
0.0
 11
55.17441885573383
 21
143.1802325465907
 31
0.0
  0
LINE
  5
525
330
1F
100
AcDbEntity
  8
0
100
AcDbLine
 10
56.33720955340822
 20
143.1802325465907
 30
0.0
 11
55.1744188557339
 21
143.1802325465907
 31
0.0
  0
LINE
  5
526
330
1F
100
AcDbEntity
  8
0
100
AcDbLine
 10
59.82558164643164
 20
143.1802325465907
 30
0.0
 11
58.66279094875713
 21
143.1802325465907
 31
0.0
  0
LINE
  5
527
330
1F
100
AcDbEntity
  8
0
100
AcDbLine
 10
59.82558164643164
 20
144.0523255698465
 30
0.0
 11
59.82558164643164
 21
143.1802325465907
 31
0.0
  0
LINE
  5
528
330
1F
100
AcDbEntity
  8
0
100
AcDbLine
 10
68.83720955340823
 20
143.1802325465907
 30
0.0
 11
68.83720955340823
 21
139.6918604535674
 31
0.0
  0
LINE
  5
529
330
1F
100
AcDbEntity
  8
0
100
AcDbLine
 10
64.47674443712924
 20
144.0523255698465
 30
0.0
 11
68.83720955340823
 21
139.6918604535674
 31
0.0
  0
LINE
  5
52A
330
1F
100
AcDbEntity
  8
0
100
AcDbLine
 10
63.31395373945483
 20
142.3373561115291
 30
0.0
 11
67.70363544392822
 21
137.9476744070558
 31
0.0
  0
LINE
  5
52B
330
1F
100
AcDbEntity
  8
0
100
AcDbLine
 10
63.31395373945483
 20
142.3373561115291
 30
0.0
 11
63.31395373945483
 21
138.8197674303115
 31
0.0
  0
LINE
  5
52C
330
1F
100
AcDbEntity
  8
0
100
AcDbLine
 10
62.00581420457104
 20
143.1802325465907
 30
0.0
 11
62.00581420457104
 21
138.8197674303115
 31
0.0
  0
LINE
  5
52D
330
1F
100
AcDbEntity
  8
0
100
AcDbLine
 10
70.1453490882919
 20
143.1802325465907
 30
0.0
 11
70.14534908829213
 21
137.9476744070558
 31
0.0
  0
LINE
  5
52E
330
1F
100
AcDbEntity
  8
0
100
AcDbLine
 10
64.47674443712924
 20
138.8197674303115
 30
0.0
 11
64.47674443712924
 21
137.9476744070558
 31
0.0
  0
LINE
  5
52F
330
1F
100
AcDbEntity
  8
0
100
AcDbLine
 10
60.84302350689672
 20
138.8197674303115
 30
0.0
 11
60.84302350689672
 21
137.9476744070558
 31
0.0
  0
LINE
  5
530
330
1F
100
AcDbEntity
  8
0
100
AcDbLine
 10
64.47674443712924
 20
137.9476744070558
 30
0.0
 11
60.84302350689672
 21
137.9476744070558
 31
0.0
  0
LINE
  5
531
330
1F
100
AcDbEntity
  8
0
100
AcDbLine
 10
62.00581420457104
 20
138.8197674303115
 30
0.0
 11
60.84302350689672
 21
138.8197674303115
 31
0.0
  0
LINE
  5
532
330
1F
100
AcDbEntity
  8
0
100
AcDbLine
 10
63.31395373945483
 20
138.8197674303115
 30
0.0
 11
64.47674443712924
 21
138.8197674303115
 31
0.0
  0
LINE
  5
533
330
1F
100
AcDbEntity
  8
0
100
AcDbLine
 10
70.14534908829213
 20
137.9476744070558
 30
0.0
 11
67.70363544392822
 21
137.9476744070558
 31
0.0
  0
LINE
  5
534
330
1F
100
AcDbEntity
  8
0
100
AcDbLine
 10
64.47674443712924
 20
144.0523255698465
 30
0.0
 11
60.84302350689672
 21
144.0523255698465
 31
0.0
  0
LINE
  5
535
330
1F
100
AcDbEntity
  8
0
100
AcDbLine
 10
60.84302350689672
 20
144.0523255698465
 30
0.0
 11
60.84302350689672
 21
143.1802325465907
 31
0.0
  0
LINE
  5
536
330
1F
100
AcDbEntity
  8
0
100
AcDbLine
 10
62.00581420457104
 20
143.1802325465907
 30
0.0
 11
60.84302350689672
 21
143.1802325465907
 31
0.0
  0
LINE
  5
537
330
1F
100
AcDbEntity
  8
0
100
AcDbLine
 10
71.3081397859664
 20
144.0523255698465
 30
0.0
 11
67.6744188557339
 21
144.0523255698465
 31
0.0
  0
LINE
  5
538
330
1F
100
AcDbEntity
  8
0
100
AcDbLine
 10
67.6744188557339
 20
144.0523255698464
 30
0.0
 11
67.6744188557339
 21
143.1802325465906
 31
0.0
  0
LINE
  5
539
330
1F
100
AcDbEntity
  8
0
100
AcDbLine
 10
68.83720955340823
 20
143.1802325465907
 30
0.0
 11
67.6744188557339
 21
143.1802325465907
 31
0.0
  0
LINE
  5
53A
330
1F
100
AcDbEntity
  8
0
100
AcDbLine
 10
71.3081397859664
 20
144.0523255698464
 30
0.0
 11
71.3081397859664
 21
143.1802325465906
 31
0.0
  0
LINE
  5
53B
330
1F
100
AcDbEntity
  8
0
100
AcDbLine
 10
71.3081397859664
 20
143.1802325465907
 30
0.0
 11
70.14534908829213
 21
143.1802325465907
 31
0.0
  0
ELLIPSE
  5
53C
330
1F
100
AcDbEntity
  8
0
100
AcDbEllipse
 10
76.97674443712923
 20
140.9999999884511
 30
0.0
 11
-5.232558139534883
 21
0.0
 31
0.0
210
0.0
220
0.0
230
1.0
 40
0.5833333335538831
 41
0.0
 42
6.283185307179584
  0
ELLIPSE
  5
53D
330
1F
100
AcDbEntity
  8
0
100
AcDbEllipse
 10
76.9768283698904
 20
140.9999999884511
 30
0.0
 11
-2.907060676947248
 21
0.0
 31
0.0
210
0.0
220
0.0
230
1.0
 40
0.7499783459728238
 41
0.0
 42
6.283185307179584
  0
LINE
  5
53E
330
1F
100
AcDbEntity
  8
0
100
AcDbLine
 10
30.50000025108273
 20
135.9999999884511
 30
0.0
 11
84.50000025108272
 21
135.9999999884511
 31
0.0
1001
GENIUS_GENOBJ-N-CEN_13
1002
{
1000
OWNER
1000
GEN
1002
}
1001
GENIUS_GENODEF_13
1002
{
1000
HIER
1070
     0
1002
}
1002
{
1000
MANEDIT
1070
     0
1002
}
1002
{
1000
NOSEL
1070
     0
1002
}
1002
{
1000
BEHIND
1070
     0
1002
}
1002
{
1000
OTHER
1070
     0
1002
}
1002
{
1000
REACTOR
1002
}
1001
GENIUS_GENCEN_19
1002
{
1040
2.793999999999998
1002
}
  0
LINE
  5
53F
330
1F
100
AcDbEntity
  8
0
100
AcDbLine
 10
179.0000002510827
 20
295.999999988451
 30
0.0
 11
209.5000002510829
 21
295.999999988451
 31
0.0
  0
LINE
  5
540
330
1F
100
AcDbEntity
  8
0
100
AcDbLine
 10
209.5000002510827
 20
293.4999999884512
 30
0.0
 11
210.0000002510827
 21
293.4999999884512
 31
0.0
  0
LINE
  5
541
330
1F
100
AcDbEntity
  8
0
100
AcDbLine
 10
210.0000002510827
 20
295.9999999884512
 30
0.0
 11
210.0000002510827
 21
294.4999999884512
 31
0.0
  0
LINE
  5
542
330
1F
100
AcDbEntity
  8
0
100
AcDbLine
 10
176.5000002510827
 20
293.499999988451
 30
0.0
 11
176.5000002510827
 21
128.4999999884511
 31
0.0
  0
ARC
  5
543
330
1F
100
AcDbEntity
  8
0
100
AcDbCircle
 10
179.0000002510827
 20
293.499999988451
 30
0.0
 40
2.5
100
AcDbArc
 50
90.0
 51
180.0
1001
GENIUS_GENOBJ-N-FIL_13
1002
{
1000
OWNER
1000
GEN
1002
}
1001
GENIUS_GENODEF_13
1002
{
1000
HIER
1070
     0
1002
}
1002
{
1000
MANEDIT
1070
     0
1002
}
1002
{
1000
NOSEL
1070
     0
1002
}
1002
{
1000
BEHIND
1070
     0
1002
}
1002
{
1000
OTHER
1070
     0
1002
}
1002
{
1000
REACTOR
1002
}
  0
LINE
  5
544
330
1F
100
AcDbEntity
  8
0
100
AcDbLine
 10
179.0000002510827
 20
125.9999999884511
 30
0.0
 11
209.5000002510827
 21
125.9999999884511
 31
0.0
  0
ARC
  5
545
330
1F
100
AcDbEntity
  8
0
100
AcDbCircle
 10
179.0000002510827
 20
128.4999999884511
 30
0.0
 40
2.5
100
AcDbArc
 50
180.0
 51
270.0
1001
GENIUS_GENOBJ-N-FIL_13
1002
{
1000
OWNER
1000
GEN
1002
}
1001
GENIUS_GENODEF_13
1002
{
1000
HIER
1070
     0
1002
}
1002
{
1000
MANEDIT
1070
     0
1002
}
1002
{
1000
NOSEL
1070
     0
1002
}
1002
{
1000
BEHIND
1070
     0
1002
}
1002
{
1000
OTHER
1070
     0
1002
}
1002
{
1000
REACTOR
1002
}
  0
LINE
  5
546
330
1F
100
AcDbEntity
  8
0
100
AcDbLine
 10
416.0000002510826
 20
293.4999999884511
 30
0.0
 11
416.0000002510826
 21
128.4999999884511
 31
0.0
  0
ARC
  5
547
330
1F
100
AcDbEntity
  8
0
100
AcDbCircle
 10
413.5000002510826
 20
128.4999999884511
 30
0.0
 40
2.5
100
AcDbArc
 50
270.0
 51
0.0
1001
GENIUS_GENODEF_13
1002
{
1000
HIER
1070
     0
1002
}
1002
{
1000
MANEDIT
1070
     0
1002
}
1002
{
1000
NOSEL
1070
     0
1002
}
1002
{
1000
BEHIND
1070
     0
1002
}
1002
{
1000
OTHER
1070
     0
1002
}
1002
{
1000
REACTOR
1002
}
1001
GENIUS_GENOBJ-N-FIL_13
1002
{
1000
OWNER
1000
GEN
1002
}
  0
ARC
  5
548
330
1F
100
AcDbEntity
  8
0
100
AcDbCircle
 10
413.5000002510826
 20
293.4999999884511
 30
0.0
 40
2.5
100
AcDbArc
 50
0.0
 51
90.0
1001
GENIUS_GENOBJ-N-FIL_13
1002
{
1000
OWNER
1000
GEN
1002
}
1001
GENIUS_GENODEF_13
1002
{
1000
HIER
1070
     0
1002
}
1002
{
1000
MANEDIT
1070
     0
1002
}
1002
{
1000
NOSEL
1070
     0
1002
}
1002
{
1000
BEHIND
1070
     0
1002
}
1002
{
1000
OTHER
1070
     0
1002
}
1002
{
1000
REACTOR
1002
}
  0
LINE
  5
549
330
1F
100
AcDbEntity
  8
0
100
AcDbLine
 10
301.0000002510826
 20
293.499999988451
 30
0.0
 11
301.0000002510826
 21
128.4999999884511
 31
0.0
  0
LINE
  5
54A
330
1F
100
AcDbEntity
  8
0
100
AcDbLine
 10
413.5000002510826
 20
125.9999999884511
 30
0.0
 11
303.5000002510825
 21
125.9999999884511
 31
0.0
  0
ARC
  5
54B
330
1F
100
AcDbEntity
  8
0
100
AcDbCircle
 10
396.0000002510827
 20
128.4999999884511
 30
0.0
 40
2.5
100
AcDbArc
 50
270.0
 51
0.0
1001
GENIUS_GENOBJ-N-FIL_13
1002
{
1000
OWNER
1000
GEN
1002
}
1001
GENIUS_GENODEF_13
1002
{
1000
HIER
1070
     0
1002
}
1002
{
1000
MANEDIT
1070
     0
1002
}
1002
{
1000
NOSEL
1070
     0
1002
}
1002
{
1000
BEHIND
1070
     0
1002
}
1002
{
1000
OTHER
1070
     0
1002
}
1002
{
1000
REACTOR
1002
}
  0
ARC
  5
54C
330
1F
100
AcDbEntity
  8
0
100
AcDbCircle
 10
303.5000002510825
 20
128.4999999884511
 30
0.0
 40
2.5
100
AcDbArc
 50
180.0
 51
270.0
1001
GENIUS_GENODEF_13
1002
{
1000
HIER
1070
     0
1002
}
1002
{
1000
MANEDIT
1070
     0
1002
}
1002
{
1000
NOSEL
1070
     0
1002
}
1002
{
1000
BEHIND
1070
     0
1002
}
1002
{
1000
OTHER
1070
     0
1002
}
1002
{
1000
REACTOR
1002
}
1001
GENIUS_GENOBJ-N-FIL_13
1002
{
1000
OWNER
1000
GEN
1002
}
  0
LINE
  5
54D
330
1F
100
AcDbEntity
  8
0
100
AcDbLine
 10
413.5000002510826
 20
295.9999999884511
 30
0.0
 11
303.5000002510827
 21
295.999999988451
 31
0.0
  0
ARC
  5
54E
330
1F
100
AcDbEntity
  8
0
100
AcDbCircle
 10
321.0000002510826
 20
293.499999988451
 30
0.0
 40
2.5
100
AcDbArc
 50
90.0
 51
180.0
1001
GENIUS_GENODEF_13
1002
{
1000
HIER
1070
     0
1002
}
1002
{
1000
MANEDIT
1070
     0
1002
}
1002
{
1000
NOSEL
1070
     0
1002
}
1002
{
1000
BEHIND
1070
     0
1002
}
1002
{
1000
OTHER
1070
     0
1002
}
1002
{
1000
REACTOR
1002
}
1001
GENIUS_GENOBJ-N-FIL_13
1002
{
1000
OWNER
1000
GEN
1002
}
  0
ARC
  5
54F
330
1F
100
AcDbEntity
  8
0
100
AcDbCircle
 10
303.5000002510827
 20
293.499999988451
 30
0.0
 40
2.5
100
AcDbArc
 50
90.0
 51
180.0
1001
GENIUS_GENODEF_13
1002
{
1000
HIER
1070
     0
1002
}
1002
{
1000
MANEDIT
1070
     0
1002
}
1002
{
1000
NOSEL
1070
     0
1002
}
1002
{
1000
BEHIND
1070
     0
1002
}
1002
{
1000
OTHER
1070
     0
1002
}
1002
{
1000
REACTOR
1002
}
1001
GENIUS_GENOBJ-N-FIL_13
1002
{
1000
OWNER
1000
GEN
1002
}
  0
LINE
  5
550
330
1F
100
AcDbEntity
  8
0
100
AcDbLine
 10
398.5000002510827
 20
128.4999999884511
 30
0.0
 11
398.5000002510827
 21
293.4999999884511
 31
0.0
  0
ARC
  5
551
330
1F
100
AcDbEntity
  8
0
100
AcDbCircle
 10
396.0000002510827
 20
293.4999999884511
 30
0.0
 40
2.5
100
AcDbArc
 50
0.0
 51
90.0
1001
GENIUS_GENOBJ-N-FIL_13
1002
{
1000
OWNER
1000
GEN
1002
}
1001
GENIUS_GENODEF_13
1002
{
1000
HIER
1070
     0
1002
}
1002
{
1000
MANEDIT
1070
     0
1002
}
1002
{
1000
NOSEL
1070
     0
1002
}
1002
{
1000
BEHIND
1070
     0
1002
}
1002
{
1000
OTHER
1070
     0
1002
}
1002
{
1000
REACTOR
1002
}
  0
LINE
  5
552
330
1F
100
AcDbEntity
  8
0
100
AcDbLine
 10
318.5000002510826
 20
293.499999988451
 30
0.0
 11
318.5000002510827
 21
128.4999999884511
 31
0.0
  0
ARC
  5
553
330
1F
100
AcDbEntity
  8
0
100
AcDbCircle
 10
321.0000002510827
 20
128.4999999884511
 30
0.0
 40
2.5
100
AcDbArc
 50
180.0
 51
270.0
1001
GENIUS_GENODEF_13
1002
{
1000
HIER
1070
     0
1002
}
1002
{
1000
MANEDIT
1070
     0
1002
}
1002
{
1000
NOSEL
1070
     0
1002
}
1002
{
1000
BEHIND
1070
     0
1002
}
1002
{
1000
OTHER
1070
     0
1002
}
1002
{
1000
REACTOR
1002
}
1001
GENIUS_GENOBJ-N-FIL_13
1002
{
1000
OWNER
1000
GEN
1002
}
  0
LINE
  5
554
330
1F
100
AcDbEntity
  8
0
100
AcDbLine
 10
210.0000002510832
 20
125.9999999884512
 30
0.0
 11
210.0000002510827
 21
295.9999999884512
 31
0.0
  0
LINE
  5
555
330
1F
100
AcDbEntity
  8
0
100
AcDbLine
 10
253.0000002510832
 20
128.4999999884512
 30
0.0
 11
253.0000002510829
 21
293.4999999884511
 31
0.0
  0
ARC
  5
556
330
1F
100
AcDbEntity
  8
0
100
AcDbCircle
 10
250.5000002510829
 20
293.4999999884511
 30
0.0
 40
2.5
100
AcDbArc
 50
0.0
 51
90.0
1001
GENIUS_GENOBJ-N-FIL_13
1002
{
1000
OWNER
1000
GEN
1002
}
1001
GENIUS_GENODEF_13
1002
{
1000
HIER
1070
     0
1002
}
1002
{
1000
MANEDIT
1070
     0
1002
}
1002
{
1000
NOSEL
1070
     0
1002
}
1002
{
1000
BEHIND
1070
     0
1002
}
1002
{
1000
OTHER
1070
     0
1002
}
1002
{
1000
REACTOR
1002
}
  0
LINE
  5
557
330
1F
100
AcDbEntity
  8
0
100
AcDbLine
 10
234.6000002510828
 20
264.699999988451
 30
0.0
 11
234.6000002510828
 21
280.2999999884513
 31
0.0
  0
LINE
  5
558
330
1F
100
AcDbEntity
  8
0
100
AcDbLine
 10
246.8000002510828
 20
264.6999999884514
 30
0.0
 11
246.8000002510828
 21
270.1499999884512
 31
0.0
  0
LINE
  5
559
330
1F
100
AcDbEntity
  8
0
100
AcDbLine
 10
246.8000002510828
 20
274.8499999884513
 30
0.0
 11
246.8000002510828
 21
280.2999999884513
 31
0.0
  0
LINE
  5
55A
330
1F
100
AcDbEntity
  8
0
100
AcDbLine
 10
247.8000002510829
 20
270.1499999884512
 30
0.0
 11
247.8000002510829
 21
274.8499999884513
 31
0.0
  0
LINE
  5
55B
330
1F
100
AcDbEntity
  8
0
100
AcDbLine
 10
210.0000002510827
 20
295.999999988451
 30
0.0
 11
250.5000002510829
 21
295.9999999884511
 31
0.0
  0
LINE
  5
55C
330
1F
100
AcDbEntity
  8
0
100
AcDbLine
 10
247.8000002510829
 20
274.8499999884513
 30
0.0
 11
246.8000002510828
 21
274.8499999884513
 31
0.0
  0
LINE
  5
55D
330
1F
100
AcDbEntity
  8
0
100
AcDbLine
 10
247.8000002510829
 20
270.1499999884512
 30
0.0
 11
246.8000002510828
 21
270.1499999884512
 31
0.0
  0
LINE
  5
55E
330
1F
100
AcDbEntity
  8
0
100
AcDbLine
 10
246.8000002510828
 20
280.2999999884513
 30
0.0
 11
234.6000002510828
 21
280.2999999884513
 31
0.0
  0
LINE
  5
55F
330
1F
100
AcDbEntity
  8
0
100
AcDbLine
 10
246.8000002510828
 20
264.6999999884514
 30
0.0
 11
234.6000002510828
 21
264.699999988451
 31
0.0
  0
LINE
  5
560
330
1F
100
AcDbEntity
  8
0
100
AcDbLine
 10
223.0049585351547
 20
125.9999999884512
 30
0.0
 11
223.0049585351541
 21
295.9999999884511
 31
0.0
  0
LINE
  5
561
330
1F
100
AcDbEntity
  8
0
100
AcDbLine
 10
210.0000002510829
 20
125.9999999884512
 30
0.0
 11
250.5000002510832
 21
125.9999999884512
 31
0.0
  0
LINE
  5
562
330
1F
100
AcDbEntity
  8
0
100
AcDbLine
 10
218.0000002510833
 20
122.9999999884512
 30
0.0
 11
238.0000002510831
 21
122.9999999884512
 31
0.0
  0
ARC
  5
563
330
1F
100
AcDbEntity
  8
0
100
AcDbCircle
 10
238.0000002510831
 20
123.4999999884512
 30
0.0
 40
0.5
100
AcDbArc
 50
270.0
 51
0.0
1001
GENIUS_GENODEF_13
1002
{
1000
HIER
1070
     0
1002
}
1002
{
1000
MANEDIT
1070
     0
1002
}
1002
{
1000
NOSEL
1070
     0
1002
}
1002
{
1000
BEHIND
1070
     0
1002
}
1002
{
1000
OTHER
1070
     0
1002
}
1002
{
1000
REACTOR
1002
}
1001
GENIUS_GENOBJ-N-FIL_13
1002
{
1000
OWNER
1000
GEN
1002
}
  0
ARC
  5
564
330
1F
100
AcDbEntity
  8
0
100
AcDbCircle
 10
250.5000002510832
 20
128.4999999884512
 30
0.0
 40
2.5
100
AcDbArc
 50
270.0
 51
0.0
1001
GENIUS_GENODEF_13
1002
{
1000
HIER
1070
     0
1002
}
1002
{
1000
MANEDIT
1070
     0
1002
}
1002
{
1000
NOSEL
1070
     0
1002
}
1002
{
1000
BEHIND
1070
     0
1002
}
1002
{
1000
OTHER
1070
     0
1002
}
1002
{
1000
REACTOR
1002
}
1001
GENIUS_GENOBJ-N-FIL_13
1002
{
1000
OWNER
1000
GEN
1002
}
  0
CIRCLE
  5
565
330
1F
100
AcDbEntity
  8
0
100
AcDbCircle
 10
240.000000251083
 20
205.9999999884511
 30
0.0
 40
2.0
  0
CIRCLE
  5
566
330
1F
100
AcDbEntity
  8
0
100
AcDbCircle
 10
240.000000251083
 20
205.9999999884511
 30
0.0
 40
1.649999999999999
  0
LINE
  5
567
330
1F
100
AcDbEntity
  8
0
100
AcDbLine
 10
209.5000002510829
 20
128.4999999884512
 30
0.0
 11
210.0000002510829
 21
128.4999999884512
 31
0.0
  0
LINE
  5
568
330
1F
100
AcDbEntity
  8
0
100
AcDbLine
 10
209.5000002510829
 20
125.9999999884512
 30
0.0
 11
209.5000002510829
 21
295.9999999884512
 31
0.0
  0
LINE
  5
569
330
1F
100
AcDbEntity
  8
0
100
AcDbLine
 10
210.0000002510829
 20
125.9999999884512
 30
0.0
 11
210.0000002510829
 21
127.4999999884512
 31
0.0
  0
LINE
  5
56A
330
1F
100
AcDbEntity
  8
0
100
AcDbLine
 10
52.05000025108262
 20
259.6999999884511
 30
0.0
 11
42.40000025108281
 21
259.6999999884511
 31
0.0
  0
LINE
  5
56B
330
1F
100
AcDbEntity
  8
0
100
AcDbLine
 10
52.05000025108262
 20
272.2999999884511
 30
0.0
 11
52.05000025108262
 21
259.6999999884511
 31
0.0
  0
LINE
  5
56C
330
1F
100
AcDbEntity
  8
0
100
AcDbLine
 10
42.40000025108281
 20
272.2999999884511
 30
0.0
 11
52.0500002510829
 21
272.2999999884511
 31
0.0
  0
LINE
  5
56D
330
1F
100
AcDbEntity
  8
0
100
AcDbLine
 10
42.40000025108281
 20
259.6999999884511
 30
0.0
 11
42.40000025108281
 21
272.2999999884511
 31
0.0
  0
LINE
  5
56E
330
1F
100
AcDbEntity
  8
0
100
AcDbLine
 10
72.60000025108261
 20
259.6999999884511
 30
0.0
 11
61.45000025108253
 21
259.6999999884511
 31
0.0
  0
LINE
  5
56F
330
1F
100
AcDbEntity
  8
0
100
AcDbLine
 10
72.60000025108261
 20
272.2999999884511
 30
0.0
 11
72.60000025108261
 21
259.6999999884511
 31
0.0
  0
LINE
  5
570
330
1F
100
AcDbEntity
  8
0
100
AcDbLine
 10
61.4500002510827
 20
272.2999999884511
 30
0.0
 11
72.60000025108261
 21
272.2999999884511
 31
0.0
  0
LINE
  5
571
330
1F
100
AcDbEntity
  8
0
100
AcDbLine
 10
61.4500002510827
 20
259.6999999884511
 30
0.0
 11
61.4500002510827
 21
272.2999999884511
 31
0.0
  0
CIRCLE
  5
572
330
1F
100
AcDbEntity
  8
0
100
AcDbCircle
 10
27.50000025108342
 20
283.4999999884511
 30
0.0
 40
8.5
  0
CIRCLE
  5
573
330
1F
100
AcDbEntity
  8
0
100
AcDbCircle
 10
27.50000025108342
 20
283.4999999884511
 30
0.0
 40
7.2
  0
CIRCLE
  5
574
330
1F
100
AcDbEntity
  8
0
100
AcDbCircle
 10
67.50000025108271
 20
283.4999999884511
 30
0.0
 40
8.5
  0
CIRCLE
  5
575
330
1F
100
AcDbEntity
  8
0
100
AcDbCircle
 10
67.50000025108271
 20
283.4999999884511
 30
0.0
 40
7.2
  0
CIRCLE
  5
576
330
1F
100
AcDbEntity
  8
0
100
AcDbCircle
 10
87.50000025108272
 20
283.4999999884511
 30
0.0
 40
8.5
  0
CIRCLE
  5
577
330
1F
100
AcDbEntity
  8
0
100
AcDbCircle
 10
87.50000025108272
 20
283.4999999884511
 30
0.0
 40
7.2
  0
LINE
  5
578
330
1F
100
AcDbEntity
  8
0
100
AcDbLine
 10
44.50000025108312
 20
260.0499999884508
 30
0.0
 11
49.95000025108303
 21
260.0499999884508
 31
0.0
  0
LINE
  5
579
330
1F
100
AcDbEntity
  8
0
100
AcDbLine
 10
42.75000025108311
 20
261.7999999884508
 30
0.0
 11
42.75000025108311
 21
270.199999988451
 31
0.0
  0
LINE
  5
57A
330
1F
100
AcDbEntity
  8
0
100
AcDbLine
 10
49.95000025108322
 20
271.9499999884509
 30
0.0
 11
44.50000025108312
 21
271.9499999884509
 31
0.0
  0
LINE
  5
57B
330
1F
100
AcDbEntity
  8
0
100
AcDbLine
 10
51.70000025108322
 20
261.7999999884509
 30
0.0
 11
51.70000025108322
 21
270.199999988451
 31
0.0
  0
LINE
  5
57C
330
1F
100
AcDbEntity
  8
0
100
AcDbLine
 10
61.80000025108313
 20
270.1999999884508
 30
0.0
 11
61.80000025108313
 21
261.7999999884508
 31
0.0
  0
LINE
  5
57D
330
1F
100
AcDbEntity
  8
0
100
AcDbLine
 10
70.50000025108312
 20
271.9499999884509
 30
0.0
 11
63.5500002510833
 21
271.9499999884509
 31
0.0
  0
LINE
  5
57E
330
1F
100
AcDbEntity
  8
0
100
AcDbLine
 10
72.25000025108312
 20
270.199999988451
 30
0.0
 11
72.25000025108312
 21
261.7999999884509
 31
0.0
  0
LINE
  5
57F
330
1F
100
AcDbEntity
  8
0
100
AcDbLine
 10
63.55000025108314
 20
260.0499999884508
 30
0.0
 11
70.50000025108312
 21
260.0499999884508
 31
0.0
  0
LINE
  5
580
330
1F
100
AcDbEntity
  8
0
100
AcDbLine
 10
50.90000025108304
 20
270.1999999884508
 30
0.0
 11
50.90000025108304
 21
261.7999999884508
 31
0.0
  0
LINE
  5
581
330
1F
100
AcDbEntity
  8
0
100
AcDbLine
 10
50.90000025108321
 20
261.7999999884508
 30
0.0
 11
43.5500002510833
 21
261.7999999884508
 31
0.0
  0
LINE
  5
582
330
1F
100
AcDbEntity
  8
0
100
AcDbLine
 10
63.60000025108331
 20
261.7999999884508
 30
0.0
 11
62.60000025108332
 21
262.7999999884508
 31
0.0
  0
LINE
  5
583
330
1F
100
AcDbEntity
  8
0
100
AcDbLine
 10
62.60000025108303
 20
262.7999999884509
 30
0.0
 11
62.60000025108303
 21
269.1999999884509
 31
0.0
  0
LINE
  5
584
330
1F
100
AcDbEntity
  8
0
100
AcDbLine
 10
62.60000025108332
 20
269.1999999884509
 30
0.0
 11
63.60000025108331
 21
270.199999988451
 31
0.0
  0
LINE
  5
585
330
1F
100
AcDbEntity
  8
0
100
AcDbLine
 10
63.60000025108303
 20
270.199999988451
 30
0.0
 11
70.45000025108301
 21
270.199999988451
 31
0.0
  0
LINE
  5
586
330
1F
100
AcDbEntity
  8
0
100
AcDbLine
 10
70.45000025108322
 20
270.199999988451
 30
0.0
 11
71.45000025108322
 21
269.1999999884509
 31
0.0
  0
LINE
  5
587
330
1F
100
AcDbEntity
  8
0
100
AcDbLine
 10
71.45000025108322
 20
269.1999999884508
 30
0.0
 11
71.45000025108322
 21
262.7999999884508
 31
0.0
  0
LINE
  5
588
330
1F
100
AcDbEntity
  8
0
100
AcDbLine
 10
71.45000025108322
 20
262.7999999884508
 30
0.0
 11
70.45000025108322
 21
261.7999999884508
 31
0.0
  0
LINE
  5
589
330
1F
100
AcDbEntity
  8
0
100
AcDbLine
 10
70.45000025108322
 20
261.7999999884508
 30
0.0
 11
63.60000025108303
 21
261.7999999884508
 31
0.0
  0
LINE
  5
58A
330
1F
100
AcDbEntity
  8
0
100
AcDbLine
 10
43.5500002510833
 20
270.1999999884508
 30
0.0
 11
50.90000025108321
 21
270.1999999884508
 31
0.0
  0
LINE
  5
58B
330
1F
100
AcDbEntity
  8
0
100
AcDbLine
 10
43.55000025108313
 20
261.7999999884509
 30
0.0
 11
43.55000025108313
 21
270.199999988451
 31
0.0
  0
ARC
  5
58C
330
1F
100
AcDbEntity
  8
0
100
AcDbCircle
 10
49.95000025108322
 20
261.7999999884508
 30
0.0
 40
1.75
100
AcDbArc
 50
270.0
 51
0.0
  0
ARC
  5
58D
330
1F
100
AcDbEntity
  8
0
100
AcDbCircle
 10
44.50000025108312
 20
261.7999999884508
 30
0.0
 40
1.75
100
AcDbArc
 50
180.0
 51
270.0
  0
ARC
  5
58E
330
1F
100
AcDbEntity
  8
0
100
AcDbCircle
 10
44.50000025108312
 20
270.199999988451
 30
0.0
 40
1.75
100
AcDbArc
 50
90.0
 51
180.0
  0
ARC
  5
58F
330
1F
100
AcDbEntity
  8
0
100
AcDbCircle
 10
49.95000025108322
 20
270.199999988451
 30
0.0
 40
1.75
100
AcDbArc
 50
0.0
 51
90.0
  0
ARC
  5
590
330
1F
100
AcDbEntity
  8
0
100
AcDbCircle
 10
63.55000025108314
 20
270.199999988451
 30
0.0
 40
1.75
100
AcDbArc
 50
90.0
 51
180.0
  0
ARC
  5
591
330
1F
100
AcDbEntity
  8
0
100
AcDbCircle
 10
70.50000025108312
 20
270.199999988451
 30
0.0
 40
1.75
100
AcDbArc
 50
0.0
 51
90.0
  0
ARC
  5
592
330
1F
100
AcDbEntity
  8
0
100
AcDbCircle
 10
70.50000025108312
 20
261.7999999884508
 30
0.0
 40
1.75
100
AcDbArc
 50
270.0
 51
0.0
  0
ARC
  5
593
330
1F
100
AcDbEntity
  8
0
100
AcDbCircle
 10
63.55000025108314
 20
261.7999999884508
 30
0.0
 40
1.75
100
AcDbArc
 50
180.0
 51
270.0
  0
ARC
  5
594
330
1F
100
AcDbEntity
  8
0
100
AcDbCircle
 10
47.22500025108303
 20
265.9999999884509
 30
0.0
 40
4.474999999999997
100
AcDbArc
 50
214.7919836824648
 51
249.8090390998776
  0
ARC
  5
595
330
1F
100
AcDbEntity
  8
0
100
AcDbCircle
 10
47.22500025108303
 20
265.9999999884509
 30
0.0
 40
4.474999999999997
100
AcDbArc
 50
110.1909609001258
 51
145.2080163175352
  0
ARC
  5
596
330
1F
100
AcDbEntity
  8
0
100
AcDbCircle
 10
47.22500025108303
 20
265.9999999884509
 30
0.0
 40
4.474999999999997
100
AcDbArc
 50
34.79198368246736
 51
69.80903909987415
  0
ARC
  5
597
330
1F
100
AcDbEntity
  8
0
100
AcDbCircle
 10
47.22500025108303
 20
265.9999999884509
 30
0.0
 40
4.474999999999997
100
AcDbArc
 50
290.1909609001224
 51
325.2080163175327
  0
LINE
  5
598
330
1F
100
AcDbEntity
  8
0
100
AcDbLine
 10
176.3000002510826
 20
204.3296735988289
 30
0.0
 11
176.5000002510827
 21
204.3261825858433
 31
0.0
  0
LINE
  5
599
330
1F
100
AcDbEntity
  8
0
100
AcDbLine
 10
176.3000002510826
 20
237.6703263780732
 30
0.0
 11
176.5000002510827
 21
237.6738173910587
 31
0.0
  0
LINE
  5
59A
330
1F
100
AcDbEntity
  8
0
100
AcDbLine
 10
176.3000002510826
 20
204.3296735988291
 30
0.0
 11
176.3000002510826
 21
237.6703263780731
 31
0.0
  0
LINE
  5
59B
330
1F
100
AcDbEntity
  8
0
100
AcDbLine
 10
172.332014579135
 20
205.4223452754888
 30
0.0
 11
173.1434503858419
 21
204.5402443770612
 31
0.0
  0
LINE
  5
59C
330
1F
100
AcDbEntity
  8
0
100
AcDbLine
 10
172.332014579135
 20
236.5776547014133
 30
0.0
 11
173.1434503858419
 21
237.459755599841
 31
0.0
  0
LINE
  5
59D
330
1F
100
AcDbEntity
  8
0
100
AcDbLine
 10
173.502709854571
 20
204.3788268739453
 30
0.0
 11
176.3000002510826
 21
204.3299999884511
 31
0.0
  0
LINE
  5
59E
330
1F
100
AcDbEntity
  8
0
100
AcDbLine
 10
173.502709854571
 20
237.6211731029568
 30
0.0
 11
176.3000002510826
 21
237.6699999884511
 31
0.0
  0
LINE
  5
59F
330
1F
100
AcDbEntity
  8
0
100
AcDbLine
 10
172.2000002510827
 20
236.2391483569511
 30
0.0
 11
172.2000002510827
 21
205.760851619951
 31
0.0
  0
ARC
  5
5A3
330
1F
100
AcDbEntity
  8
0
100
AcDbCircle
 10
172.7000002510827
 20
205.760851619951
 30
0.0
 40
0.5
100
AcDbArc
 50
180.0
 51
222.610642759998
  0
ARC
  5
5A4
330
1F
100
AcDbEntity
  8
0
100
AcDbCircle
 10
172.7000002510827
 20
236.2391483569511
 30
0.0
 40
0.5
100
AcDbArc
 50
137.3893572400019
 51
180.0
  0
ARC
  5
5A5
330
1F
100
AcDbEntity
  8
0
100
AcDbCircle
 10
173.5114360577896
 20
204.8787507215234
 30
0.0
 40
0.5000000000000001
100
AcDbArc
 50
222.610642759998
 51
269.0000000000015
  0
ARC
  5
5A6
330
1F
100
AcDbEntity
  8
0
100
AcDbCircle
 10
173.5114360577896
 20
237.1212492553787
 30
0.0
 40
0.5000000000000001
100
AcDbArc
 50
90.9999999999985
 51
137.3893572400019
  0
LINE
  5
5A8
330
1F
100
AcDbEntity
  8
0
100
AcDbLine
 10
169.5000002510827
 20
276.799999988451
 30
0.0
 11
169.5000002510827
 21
290.1999999884511
 31
0.0
  0
ARC
  5
5A9
330
1F
100
AcDbEntity
  8
0
100
AcDbCircle
 10
170.0000002510827
 20
290.1999999884511
 30
0.0
 40
0.5
100
AcDbArc
 50
90.0
 51
180.0
  0
ARC
  5
5AA
330
1F
100
AcDbEntity
  8
0
100
AcDbCircle
 10
170.0000002510827
 20
276.799999988451
 30
0.0
 40
0.5
100
AcDbArc
 50
180.0
 51
270.0
  0
LINE
  5
5AB
330
1F
100
AcDbEntity
  8
0
100
AcDbLine
 10
176.5000002510827
 20
271.9499999884508
 30
0.0
 11
176.4000002510828
 21
271.9499999884508
 31
0.0
  0
LINE
  5
5AC
330
1F
100
AcDbEntity
  8
0
100
AcDbLine
 10
176.4000002510828
 20
270.1999999884508
 30
0.0
 11
176.5000002510827
 21
270.1999999884508
 31
0.0
  0
LINE
  5
5AD
330
1F
100
AcDbEntity
  8
0
100
AcDbLine
 10
176.5000002510827
 20
261.7999999884508
 30
0.0
 11
176.4000002510828
 21
261.7999999884508
 31
0.0
  0
LINE
  5
5AE
330
1F
100
AcDbEntity
  8
0
100
AcDbLine
 10
176.4000002510828
 20
260.0499999884508
 30
0.0
 11
176.5000002510827
 21
260.0499999884508
 31
0.0
  0
LINE
  5
5AF
330
1F
100
AcDbEntity
  8
0
100
AcDbLine
 10
176.4000002510828
 20
260.0499999884508
 30
0.0
 11
176.4000002510828
 21
271.9499999884508
 31
0.0
  0
LINE
  5
5B0
330
1F
100
AcDbEntity
  8
0
100
AcDbLine
 10
182.5000002510827
 20
295.999999988451
 30
0.0
 11
182.5000002510827
 21
125.9999999884511
 31
0.0
  0
LINE
  5
5B1
330
1F
100
AcDbEntity
  8
0
100
AcDbLine
 10
102.645898284833
 20
76.49999998845112
 30
0.0
 11
12.35410221733232
 21
76.49999998845112
 31
0.0
  0
ARC
  5
5B2
330
1F
100
AcDbEntity
  8
0
100
AcDbCircle
 10
102.645898284833
 20
74.99999998845112
 30
0.0
 40
1.5
100
AcDbArc
 50
63.43494882292191
 51
90.0
1001
GENIUS_GENOBJ-N-FIL_13
1002
{
1000
OWNER
1000
GEN
1002
}
1001
GENIUS_GENODEF_13
1002
{
1000
HIER
1070
     0
1002
}
1002
{
1000
MANEDIT
1070
     0
1002
}
1002
{
1000
NOSEL
1070
     0
1002
}
1002
{
1000
BEHIND
1070
     0
1002
}
1002
{
1000
OTHER
1070
     0
1002
}
1002
{
1000
REACTOR
1002
}
  0
LINE
  5
5B3
330
1F
100
AcDbEntity
  8
0
100
AcDbLine
 10
115.0000002510827
 20
43.49999998845111
 30
0.0
 11
0.0000002510827386
 21
43.49999998845111
 31
0.0
  0
LINE
  5
5B4
330
1F
100
AcDbEntity
  8
0
100
AcDbLine
 10
115.0000002510827
 20
42.99999998845112
 30
0.0
 11
0.0000002510827386
 21
42.99999998845112
 31
0.0
  0
LINE
  5
5B5
330
1F
100
AcDbEntity
  8
0
100
AcDbLine
 10
115.0000002510827
 20
69.57294900532628
 30
0.0
 11
115.0000002510827
 21
43.49999998845111
 31
0.0
  0
ARC
  5
5B6
330
1F
100
AcDbEntity
  8
0
100
AcDbCircle
 10
113.5000002510827
 20
69.57294900532628
 30
0.0
 40
1.5
100
AcDbArc
 50
0.0
 51
63.43494882292191
1001
GENIUS_GENODEF_13
1002
{
1000
HIER
1070
     0
1002
}
1002
{
1000
MANEDIT
1070
     0
1002
}
1002
{
1000
NOSEL
1070
     0
1002
}
1002
{
1000
BEHIND
1070
     0
1002
}
1002
{
1000
OTHER
1070
     0
1002
}
1002
{
1000
REACTOR
1002
}
1001
GENIUS_GENOBJ-N-FIL_13
1002
{
1000
OWNER
1000
GEN
1002
}
  0
LINE
  5
5B7
330
1F
100
AcDbEntity
  8
0
100
AcDbLine
 10
0.0000002510826818
 20
69.57294900532628
 30
0.0
 11
0.0000002510827386
 21
43.49999998845111
 31
0.0
  0
ARC
  5
5B8
330
1F
100
AcDbEntity
  8
0
100
AcDbCircle
 10
1.500000251082653
 20
69.57294900532628
 30
0.0
 40
1.5
100
AcDbArc
 50
116.565051177078
 51
180.0
1001
GENIUS_GENODEF_13
1002
{
1000
HIER
1070
     0
1002
}
1002
{
1000
MANEDIT
1070
     0
1002
}
1002
{
1000
NOSEL
1070
     0
1002
}
1002
{
1000
BEHIND
1070
     0
1002
}
1002
{
1000
OTHER
1070
     0
1002
}
1002
{
1000
REACTOR
1002
}
1001
GENIUS_GENOBJ-N-FIL_13
1002
{
1000
OWNER
1000
GEN
1002
}
  0
LINE
  5
5B9
330
1F
100
AcDbEntity
  8
0
100
AcDbLine
 10
114.1708206443326
 20
70.91458979182618
 30
0.0
 11
103.3167186780829
 21
76.34164077495093
 31
0.0
  0
LINE
  5
5BA
330
1F
100
AcDbEntity
  8
0
100
AcDbLine
 10
11.68328182408242
 20
76.34164077495093
 30
0.0
 11
0.82917985783277
 21
70.91458979182618
 31
0.0
  0
ARC
  5
5BB
330
1F
100
AcDbEntity
  8
0
100
AcDbCircle
 10
12.35410221733232
 20
74.99999998845112
 30
0.0
 40
1.5
100
AcDbArc
 50
90.0
 51
116.565051177078
1001
GENIUS_GENODEF_13
1002
{
1000
HIER
1070
     0
1002
}
1002
{
1000
MANEDIT
1070
     0
1002
}
1002
{
1000
NOSEL
1070
     0
1002
}
1002
{
1000
BEHIND
1070
     0
1002
}
1002
{
1000
OTHER
1070
     0
1002
}
1002
{
1000
REACTOR
1002
}
1001
GENIUS_GENOBJ-N-FIL_13
1002
{
1000
OWNER
1000
GEN
1002
}
  0
LINE
  5
5BC
330
1F
100
AcDbEntity
  8
0
100
AcDbLine
 10
76.00000025108271
 20
60.99999998845103
 30
0.0
 11
39.00000025108273
 21
60.99999998845108
 31
0.0
  0
LINE
  5
5BD
330
1F
100
AcDbEntity
  8
0
100
AcDbLine
 10
76.00000025108271
 20
57.99999998845108
 30
0.0
 11
39.00000025108273
 21
57.99999998845108
 31
0.0
  0
ARC
  5
5BE
330
1F
100
AcDbEntity
  8
0
100
AcDbCircle
 10
39.00000025108273
 20
59.49999998845111
 30
0.0
 40
1.5
100
AcDbArc
 50
90.0
 51
270.0
  0
ARC
  5
5BF
330
1F
100
AcDbEntity
  8
0
100
AcDbCircle
 10
76.00000025108271
 20
59.49999998845111
 30
0.0
 40
1.5
100
AcDbArc
 50
270.0
 51
90.0
  0
LINE
  5
5C0
330
1F
100
AcDbEntity
  8
0
100
AcDbLine
 10
76.00000025108271
 20
65.99999998845103
 30
0.0
 11
39.00000025108273
 21
65.99999998845108
 31
0.0
  0
LINE
  5
5C1
330
1F
100
AcDbEntity
  8
0
100
AcDbLine
 10
76.00000025108271
 20
62.99999998845108
 30
0.0
 11
39.00000025108273
 21
62.99999998845108
 31
0.0
  0
ARC
  5
5C2
330
1F
100
AcDbEntity
  8
0
100
AcDbCircle
 10
39.00000025108273
 20
64.49999998845111
 30
0.0
 40
1.5
100
AcDbArc
 50
90.0
 51
270.0
  0
ARC
  5
5C3
330
1F
100
AcDbEntity
  8
0
100
AcDbCircle
 10
76.00000025108271
 20
64.49999998845111
 30
0.0
 40
1.5
100
AcDbArc
 50
270.0
 51
90.0
  0
LINE
  5
5C4
330
1F
100
AcDbEntity
  8
0
100
AcDbLine
 10
76.00000025108271
 20
70.99999998845103
 30
0.0
 11
39.00000025108273
 21
70.99999998845111
 31
0.0
  0
LINE
  5
5C5
330
1F
100
AcDbEntity
  8
0
100
AcDbLine
 10
76.00000025108271
 20
67.99999998845108
 30
0.0
 11
39.00000025108273
 21
67.99999998845108
 31
0.0
  0
ARC
  5
5C6
330
1F
100
AcDbEntity
  8
0
100
AcDbCircle
 10
39.00000025108273
 20
69.49999998845111
 30
0.0
 40
1.5
100
AcDbArc
 50
90.0
 51
270.0
  0
ARC
  5
5C7
330
1F
100
AcDbEntity
  8
0
100
AcDbCircle
 10
76.00000025108271
 20
69.49999998845111
 30
0.0
 40
1.5
100
AcDbArc
 50
270.0
 51
90.0
  0
LINE
  5
5C8
330
1F
100
AcDbEntity
  8
0
100
AcDbLine
 10
1.500000251082737
 20
43.49999998845111
 30
0.0
 11
1.500000251082737
 21
42.99999998845112
 31
0.0
  0
LINE
  5
5C9
330
1F
100
AcDbEntity
  8
0
100
AcDbLine
 10
113.5000002510827
 20
43.49999998845111
 30
0.0
 11
113.5000002510827
 21
42.99999998845112
 31
0.0
  0
LINE
  5
5CA
330
1F
100
AcDbEntity
  8
0
100
AcDbLine
 10
76.00000025108271
 20
55.99999998845103
 30
0.0
 11
39.00000025108273
 21
55.99999998845108
 31
0.0
  0
LINE
  5
5CB
330
1F
100
AcDbEntity
  8
0
100
AcDbLine
 10
76.00000025108271
 20
52.99999998845109
 30
0.0
 11
39.00000025108273
 21
52.99999998845109
 31
0.0
  0
ARC
  5
5CC
330
1F
100
AcDbEntity
  8
0
100
AcDbCircle
 10
39.00000025108273
 20
54.49999998845111
 30
0.0
 40
1.5
100
AcDbArc
 50
90.0
 51
270.0
  0
ARC
  5
5CD
330
1F
100
AcDbEntity
  8
0
100
AcDbCircle
 10
76.00000025108271
 20
54.49999998845111
 30
0.0
 40
1.5
100
AcDbArc
 50
270.0
 51
90.0
  0
LINE
  5
5CE
330
1F
100
AcDbEntity
  8
0
100
AcDbLine
 10
97.50000025108272
 20
2.499999988451122
 30
0.0
 11
97.50000025108272
 21
27.49999998845112
 31
0.0
  0
ARC
  5
5CF
330
1F
100
AcDbEntity
  8
0
100
AcDbCircle
 10
95.00000025108272
 20
2.499999988451122
 30
0.0
 40
2.5
100
AcDbArc
 50
270.0
 51
0.0
1001
GENIUS_GENODEF_13
1002
{
1000
HIER
1070
     0
1002
}
1002
{
1000
MANEDIT
1070
     0
1002
}
1002
{
1000
NOSEL
1070
     0
1002
}
1002
{
1000
BEHIND
1070
     0
1002
}
1002
{
1000
OTHER
1070
     0
1002
}
1002
{
1000
REACTOR
1002
}
1001
GENIUS_GENOBJ-N-FIL_13
1002
{
1000
OWNER
1000
GEN
1002
}
  0
LINE
  5
5D0
330
1F
100
AcDbEntity
  8
0
100
AcDbLine
 10
115.0000002510827
 20
29.99999998845112
 30
0.0
 11
115.0000002510827
 21
42.99999998845112
 31
0.0
  0
LINE
  5
5D1
330
1F
100
AcDbEntity
  8
0
100
AcDbLine
 10
97.50000025108272
 20
27.49999998845112
 30
0.0
 11
112.5000002510827
 21
27.49999998845112
 31
0.0
  0
ARC
  5
5D2
330
1F
100
AcDbEntity
  8
0
100
AcDbCircle
 10
112.5000002510827
 20
29.99999998845112
 30
0.0
 40
2.5
100
AcDbArc
 50
270.0
 51
0.0
1001
GENIUS_GENOBJ-N-FIL_13
1002
{
1000
OWNER
1000
GEN
1002
}
1001
GENIUS_GENODEF_13
1002
{
1000
HIER
1070
     0
1002
}
1002
{
1000
MANEDIT
1070
     0
1002
}
1002
{
1000
NOSEL
1070
     0
1002
}
1002
{
1000
BEHIND
1070
     0
1002
}
1002
{
1000
OTHER
1070
     0
1002
}
1002
{
1000
REACTOR
1002
}
  0
LINE
  5
5D3
330
1F
100
AcDbEntity
  8
0
100
AcDbLine
 10
20.00000025108272
 20
-0.0000000115488774
 30
0.0
 11
95.00000025108272
 21
-0.0000000115488774
 31
0.0
  0
ARC
  5
5D4
330
1F
100
AcDbEntity
  8
0
100
AcDbCircle
 10
20.00000025108272
 20
2.499999988451122
 30
0.0
 40
2.5
100
AcDbArc
 50
180.0
 51
270.0
1001
GENIUS_GENODEF_13
1002
{
1000
HIER
1070
     0
1002
}
1002
{
1000
MANEDIT
1070
     0
1002
}
1002
{
1000
NOSEL
1070
     0
1002
}
1002
{
1000
BEHIND
1070
     0
1002
}
1002
{
1000
OTHER
1070
     0
1002
}
1002
{
1000
REACTOR
1002
}
1001
GENIUS_GENOBJ-N-FIL_13
1002
{
1000
OWNER
1000
GEN
1002
}
  0
LINE
  5
5D5
330
1F
100
AcDbEntity
  8
0
100
AcDbLine
 10
17.50000025108272
 20
27.49999998845112
 30
0.0
 11
17.50000025108272
 21
2.499999988451122
 31
0.0
  0
LINE
  5
5D6
330
1F
100
AcDbEntity
  8
0
100
AcDbLine
 10
2.500000251082723
 20
27.49999998845112
 30
0.0
 11
17.50000025108272
 21
27.49999998845112
 31
0.0
  0
ARC
  5
5D7
330
1F
100
AcDbEntity
  8
0
100
AcDbCircle
 10
2.500000251082723
 20
29.99999998845112
 30
0.0
 40
2.5
100
AcDbArc
 50
180.0
 51
270.0
1001
GENIUS_GENOBJ-N-FIL_13
1002
{
1000
OWNER
1000
GEN
1002
}
1001
GENIUS_GENODEF_13
1002
{
1000
HIER
1070
     0
1002
}
1002
{
1000
MANEDIT
1070
     0
1002
}
1002
{
1000
NOSEL
1070
     0
1002
}
1002
{
1000
BEHIND
1070
     0
1002
}
1002
{
1000
OTHER
1070
     0
1002
}
1002
{
1000
REACTOR
1002
}
  0
LINE
  5
5D8
330
1F
100
AcDbEntity
  8
0
100
AcDbLine
 10
0.0000002510827244
 20
42.99999998845112
 30
0.0
 11
0.0000002510827244
 21
29.99999998845112
 31
0.0
  0
LINE
  5
5D9
330
1F
100
AcDbEntity
  8
0
100
AcDbLine
 10
41.92234553812034
 20
80.66798566039883
 30
0.0
 11
41.04024463969293
 21
79.85654985369201
 31
0.0
  0
LINE
  5
5DA
330
1F
100
AcDbEntity
  8
0
100
AcDbLine
 10
40.87882713657683
 20
79.49729038496283
 30
0.0
 11
40.83000025108261
 21
76.69999998845113
 31
0.0
  0
LINE
  5
5DB
330
1F
100
AcDbEntity
  8
0
100
AcDbLine
 10
42.2608518825826
 20
80.79999998845114
 30
0.0
 11
72.73914861958231
 21
80.79999998845114
 31
0.0
  0
ARC
  5
5DF
330
1F
100
AcDbEntity
  8
0
100
AcDbCircle
 10
42.2608518825826
 20
80.29999998845111
 30
0.0
 40
0.5
100
AcDbArc
 50
90.0
 51
132.6106427600161
  0
ARC
  5
5E0
330
1F
100
AcDbEntity
  8
0
100
AcDbCircle
 10
41.37875098415503
 20
79.48856418174422
 30
0.0
 40
0.5000000000000001
100
AcDbArc
 50
132.6106427599794
 51
179.0000000000015
  0
LINE
  5
5E1
330
1F
100
AcDbEntity
  8
0
100
AcDbLine
 10
36.00000025108332
 20
81.49999998845112
 30
0.0
 11
36.00000025108332
 21
76.49999998845112
 31
0.0
  0
LINE
  5
5E2
330
1F
100
AcDbEntity
  8
0
100
AcDbLine
 10
19.00000025108331
 20
81.49999998845112
 30
0.0
 11
19.00000025108331
 21
76.49999998845112
 31
0.0
  0
LINE
  5
5E3
330
1F
100
AcDbEntity
  8
0
100
AcDbLine
 10
20.30000025108332
 20
81.49999998845112
 30
0.0
 11
20.30000025108332
 21
82.99999998845112
 31
0.0
  0
LINE
  5
5E4
330
1F
100
AcDbEntity
  8
0
100
AcDbLine
 10
34.70000025108343
 20
81.49999998845112
 30
0.0
 11
34.70000025108343
 21
82.99999998845112
 31
0.0
  0
LINE
  5
5E5
330
1F
100
AcDbEntity
  8
0
100
AcDbLine
 10
19.00000025108331
 20
81.49999998845112
 30
0.0
 11
36.00000025108332
 21
81.49999998845112
 31
0.0
  0
LINE
  5
5E7
330
1F
100
AcDbEntity
  8
0
100
AcDbLine
 10
34.20000025108342
 20
83.49999998845111
 30
0.0
 11
20.80000025108332
 21
83.49999998845104
 31
0.0
  0
ARC
  5
5E8
330
1F
100
AcDbEntity
  8
0
100
AcDbCircle
 10
20.80000025108332
 20
82.99999998845112
 30
0.0
 40
0.5
100
AcDbArc
 50
90.0
 51
180.0
  0
ARC
  5
5E9
330
1F
100
AcDbEntity
  8
0
100
AcDbCircle
 10
34.20000025108342
 20
82.99999998845112
 30
0.0
 40
0.5
100
AcDbArc
 50
0.0
 51
90.0
  0
LINE
  5
5EA
330
1F
100
AcDbEntity
  8
0
100
AcDbLine
 10
76.00000025108271
 20
81.49999998845101
 30
0.0
 11
76.00000025108271
 21
76.49999998845101
 31
0.0
  0
LINE
  5
5EB
330
1F
100
AcDbEntity
  8
0
100
AcDbLine
 10
59.00000025108264
 20
81.49999998845101
 30
0.0
 11
59.00000025108264
 21
80.79999998845114
 31
0.0
  0
LINE
  5
5EC
330
1F
100
AcDbEntity
  8
0
100
AcDbLine
 10
60.30000025108262
 20
81.49999998845101
 30
0.0
 11
60.30000025108262
 21
82.999999988451
 31
0.0
  0
LINE
  5
5ED
330
1F
100
AcDbEntity
  8
0
100
AcDbLine
 10
74.70000025108271
 20
81.49999998845101
 30
0.0
 11
74.70000025108271
 21
82.999999988451
 31
0.0
  0
LINE
  5
5EE
330
1F
100
AcDbEntity
  8
0
100
AcDbLine
 10
59.00000025108264
 20
81.49999998845101
 30
0.0
 11
76.00000025108271
 21
81.49999998845112
 31
0.0
  0
LINE
  5
5F0
330
1F
100
AcDbEntity
  8
0
100
AcDbLine
 10
74.20000025108271
 20
83.49999998845111
 30
0.0
 11
60.80000025108262
 21
83.49999998845104
 31
0.0
  0
ARC
  5
5F1
330
1F
100
AcDbEntity
  8
0
100
AcDbCircle
 10
60.80000025108262
 20
82.999999988451
 30
0.0
 40
0.5
100
AcDbArc
 50
90.0
 51
180.0
  0
ARC
  5
5F2
330
1F
100
AcDbEntity
  8
0
100
AcDbCircle
 10
74.20000025108271
 20
82.99999998845112
 30
0.0
 40
0.5
100
AcDbArc
 50
0.0
 51
90.0
  0
LINE
  5
5F3
330
1F
100
AcDbEntity
  8
0
100
AcDbLine
 10
96.00000025108272
 20
81.49999998845112
 30
0.0
 11
96.00000025108272
 21
76.49999998845112
 31
0.0
  0
LINE
  5
5F4
330
1F
100
AcDbEntity
  8
0
100
AcDbLine
 10
79.00000025108274
 20
81.49999998845112
 30
0.0
 11
79.00000025108274
 21
76.49999998845112
 31
0.0
  0
LINE
  5
5F5
330
1F
100
AcDbEntity
  8
0
100
AcDbLine
 10
80.30000025108263
 20
81.49999998845112
 30
0.0
 11
80.30000025108263
 21
82.99999998845112
 31
0.0
  0
LINE
  5
5F6
330
1F
100
AcDbEntity
  8
0
100
AcDbLine
 10
94.70000025108273
 20
81.49999998845112
 30
0.0
 11
94.70000025108273
 21
82.99999998845112
 31
0.0
  0
LINE
  5
5F7
330
1F
100
AcDbEntity
  8
0
100
AcDbLine
 10
79.00000025108274
 20
81.49999998845112
 30
0.0
 11
96.00000025108272
 21
81.49999998845112
 31
0.0
  0
LINE
  5
5F9
330
1F
100
AcDbEntity
  8
0
100
AcDbLine
 10
94.2000002510827
 20
83.49999998845111
 30
0.0
 11
80.80000025108262
 21
83.49999998845104
 31
0.0
  0
ARC
  5
5FA
330
1F
100
AcDbEntity
  8
0
100
AcDbCircle
 10
80.80000025108262
 20
82.99999998845112
 30
0.0
 40
0.5
100
AcDbArc
 50
90.0
 51
180.0
  0
ARC
  5
5FB
330
1F
100
AcDbEntity
  8
0
100
AcDbCircle
 10
94.2000002510827
 20
82.99999998845112
 30
0.0
 40
0.5
100
AcDbArc
 50
0.0
 51
90.0
  0
LINE
  5
5FC
330
1F
100
AcDbEntity
  8
0
100
AcDbLine
 10
73.07765496404463
 20
80.66798566039942
 30
0.0
 11
73.95975586247202
 21
79.85654985369269
 31
0.0
  0
LINE
  5
5FD
330
1F
100
AcDbEntity
  8
0
100
AcDbLine
 10
74.12117336558812
 20
79.49729038496355
 30
0.0
 11
74.17000025108254
 21
76.69999998845181
 31
0.0
  0
ARC
  5
5FE
330
1F
100
AcDbEntity
  8
0
100
AcDbCircle
 10
72.73914861958231
 20
80.29999998845172
 30
0.0
 40
0.5
100
AcDbArc
 50
47.38935723998614
 51
90.00000000000246
  0
ARC
  5
5FF
330
1F
100
AcDbEntity
  8
0
100
AcDbCircle
 10
73.6212495180099
 20
79.48856418174492
 30
0.0
 40
0.5000000000000001
100
AcDbArc
 50
1.000000000000962
 51
47.3893572400227
  0
CIRCLE
  5
604
330
1F
100
AcDbEntity
  8
0
100
AcDbCircle
 10
57.50000025108224
 20
220.9999999884511
 30
0.0
 40
17.1
  0
CIRCLE
  5
605
330
1F
100
AcDbEntity
  8
0
100
AcDbCircle
 10
57.50000025108224
 20
220.9999999884511
 30
0.0
 40
10.7
  0
ELLIPSE
  5
606
330
1F
100
AcDbEntity
  8
0
100
AcDbEllipse
 10
50.34384519380342
 20
232.4394037188891
 30
0.0
 11
0.8620555849584913
 21
0.5491899763401058
 31
0.0
210
0.0
220
0.0
230
0.9999999999999998
 40
0.6522657033973938
 41
0.3314984999877621
 42
5.951686807191722
  0
ELLIPSE
  5
607
330
1F
100
AcDbEntity
  8
0
100
AcDbEllipse
 10
50.25027328845624
 20
232.3797918407454
 30
0.0
 11
1.368258924934594
 21
0.8716770701602284
 31
0.0
210
0.0
220
0.0
230
1.0
 40
0.5753333635477766
 41
0.71753540783337
 42
6.048567121221537
  0
LINE
  5
608
330
1F
100
AcDbEntity
  8
0
100
AcDbLine
 10
51.69763193176482
 20
233.044584878566
 30
0.0
 11
51.27555243972782
 21
232.7756905864923
 31
0.0
  0
LINE
  5
609
330
1F
100
AcDbEntity
  8
0
100
AcDbLine
 10
51.46441729627007
 20
233.4105629910148
 30
0.0
 11
51.04238109731432
 21
233.141696279676
 31
0.0
  0
LINE
  5
60A
330
1F
100
AcDbEntity
  8
0
100
AcDbLine
 10
50.77965373719361
 20
233.8237432486626
 30
0.0
 11
50.95140423251573
 21
233.554148973293
 31
0.0
  0
LINE
  5
60B
330
1F
100
AcDbEntity
  8
0
100
AcDbLine
 10
51.07949806677382
 20
234.01476515391
 30
0.0
 11
50.77965373719361
 21
233.8237432486626
 31
0.0
  0
LINE
  5
60C
330
1F
100
AcDbEntity
  8
0
100
AcDbLine
 10
51.46441729627007
 20
233.4105629910148
 30
0.0
 11
51.07949806677382
 21
234.01476515391
 31
0.0
  0
LINE
  5
60D
330
1F
100
AcDbEntity
  8
0
100
AcDbLine
 10
54.35041383784602
 20
234.8151620903908
 30
0.0
 11
54.4827057925469
 21
234.3214417940146
 31
0.0
  0
LINE
  5
60E
330
1F
100
AcDbEntity
  8
0
100
AcDbLine
 10
53.32004104540863
 20
234.5390745327541
 30
0.0
 11
53.45233300010963
 21
234.045354236378
 31
0.0
  0
LINE
  5
60F
330
1F
100
AcDbEntity
  8
0
100
AcDbLine
 10
52.63312585045053
 20
234.3550161609965
 30
0.0
 11
52.97823529749621
 21
233.0670501704497
 31
0.0
  0
LINE
  5
610
330
1F
100
AcDbEntity
  8
0
100
AcDbLine
 10
55.03732903280422
 20
234.9992204621485
 30
0.0
 11
55.38243847985004
 21
233.7112544716018
 31
0.0
  0
LINE
  5
611
330
1F
100
AcDbEntity
  8
0
100
AcDbLine
 10
53.45233300010963
 20
234.045354236378
 30
0.0
 11
54.4827057925469
 21
234.3214417940146
 31
0.0
  0
LINE
  5
612
330
1F
100
AcDbEntity
  8
0
100
AcDbLine
 10
53.53285853775364
 20
233.7448288385837
 30
0.0
 11
54.56323133019091
 21
234.0209163962203
 31
0.0
  0
LINE
  5
613
330
1F
100
AcDbEntity
  8
0
100
AcDbLine
 10
54.00860808993363
 20
233.3431377280864
 30
0.0
 11
53.66515049245442
 21
233.2511085422075
 31
0.0
  0
LINE
  5
614
330
1F
100
AcDbEntity
  8
0
100
AcDbLine
 10
54.07762997934261
 20
233.0855445299771
 30
0.0
 11
52.70379958942633
 21
232.7174277864616
 31
0.0
  0
LINE
  5
615
330
1F
100
AcDbEntity
  8
0
100
AcDbLine
 10
52.63477770001703
 20
232.9750209845711
 30
0.0
 11
52.70379958942633
 21
232.7174277864616
 31
0.0
  0
LINE
  5
616
330
1F
100
AcDbEntity
  8
0
100
AcDbLine
 10
52.97823529749621
 20
233.0670501704497
 30
0.0
 11
52.63477770001703
 21
232.9750209845711
 31
0.0
  0
LINE
  5
617
330
1F
100
AcDbEntity
  8
0
100
AcDbLine
 10
53.53285853775364
 20
233.7448288385837
 30
0.0
 11
53.66515049245442
 21
233.2511085422075
 31
0.0
  0
LINE
  5
618
330
1F
100
AcDbEntity
  8
0
100
AcDbLine
 10
55.79491796673821
 20
233.5456904593714
 30
0.0
 11
54.42108757682172
 21
233.1775737158559
 31
0.0
  0
LINE
  5
619
330
1F
100
AcDbEntity
  8
0
100
AcDbLine
 10
54.35206568741261
 20
233.4351669139653
 30
0.0
 11
54.42108757682172
 21
233.1775737158559
 31
0.0
  0
LINE
  5
61A
330
1F
100
AcDbEntity
  8
0
100
AcDbLine
 10
54.00860808993363
 20
233.3431377280864
 30
0.0
 11
54.07762997934261
 21
233.0855445299771
 31
0.0
  0
LINE
  5
61B
330
1F
100
AcDbEntity
  8
0
100
AcDbLine
 10
54.6955232848918
 20
233.5271960998441
 30
0.0
 11
54.35206568741261
 21
233.4351669139653
 31
0.0
  0
LINE
  5
61C
330
1F
100
AcDbEntity
  8
0
100
AcDbLine
 10
54.56323133019091
 20
234.0209163962203
 30
0.0
 11
54.6955232848918
 21
233.5271960998441
 31
0.0
  0
LINE
  5
61D
330
1F
100
AcDbEntity
  8
0
100
AcDbLine
 10
55.72589607732922
 20
233.8032836574806
 30
0.0
 11
55.79491796673821
 21
233.5456904593714
 31
0.0
  0
LINE
  5
61E
330
1F
100
AcDbEntity
  8
0
100
AcDbLine
 10
55.72589607732922
 20
233.8032836574806
 30
0.0
 11
55.38243847985004
 21
233.7112544716018
 31
0.0
  0
LINE
  5
61F
330
1F
100
AcDbEntity
  8
0
100
AcDbLine
 10
53.66349864288782
 20
234.6311037186331
 30
0.0
 11
53.32004104540863
 21
234.5390745327541
 31
0.0
  0
LINE
  5
620
330
1F
100
AcDbEntity
  8
0
100
AcDbLine
 10
53.59447675347863
 20
234.8886969167424
 30
0.0
 11
52.22064636356222
 21
234.520580173227
 31
0.0
  0
LINE
  5
621
330
1F
100
AcDbEntity
  8
0
100
AcDbLine
 10
52.22064636356222
 20
234.520580173227
 30
0.0
 11
52.28966825297132
 21
234.2629869751176
 31
0.0
  0
LINE
  5
622
330
1F
100
AcDbEntity
  8
0
100
AcDbLine
 10
52.63312585045053
 20
234.3550161609965
 30
0.0
 11
52.28966825297132
 21
234.2629869751176
 31
0.0
  0
LINE
  5
623
330
1F
100
AcDbEntity
  8
0
100
AcDbLine
 10
55.31176474087422
 20
235.3488428461367
 30
0.0
 11
53.93793435095769
 21
234.9807261026213
 31
0.0
  0
LINE
  5
624
330
1F
100
AcDbEntity
  8
0
100
AcDbLine
 10
54.35041383784602
 20
234.8151620903908
 30
0.0
 11
54.00695624036693
 21
234.723132904512
 31
0.0
  0
LINE
  5
625
330
1F
100
AcDbEntity
  8
0
100
AcDbLine
 10
53.93793435095769
 20
234.9807261026213
 30
0.0
 11
54.00695624036693
 21
234.723132904512
 31
0.0
  0
LINE
  5
626
330
1F
100
AcDbEntity
  8
0
100
AcDbLine
 10
53.59447675347863
 20
234.8886969167424
 30
0.0
 11
53.66349864288782
 21
234.6311037186331
 31
0.0
  0
LINE
  5
627
330
1F
100
AcDbEntity
  8
0
100
AcDbLine
 10
55.31176474087422
 20
235.3488428461367
 30
0.0
 11
55.3807866302834
 21
235.0912496480274
 31
0.0
  0
LINE
  5
628
330
1F
100
AcDbEntity
  8
0
100
AcDbLine
 10
55.3807866302834
 20
235.0912496480274
 30
0.0
 11
55.03732903280422
 21
234.9992204621485
 31
0.0
  0
LINE
  5
629
330
1F
100
AcDbEntity
  8
0
100
AcDbLine
 10
57.14442678094422
 20
235.1595948049316
 30
0.0
 11
57.14442678094422
 21
233.8261942937402
 31
0.0
  0
LINE
  5
62A
330
1F
100
AcDbEntity
  8
0
100
AcDbLine
 10
57.85557372024621
 20
235.1595948049316
 30
0.0
 11
57.85557372024621
 21
233.8261942937402
 31
0.0
  0
LINE
  5
62B
330
1F
100
AcDbEntity
  8
0
100
AcDbLine
 10
58.21114718989722
 20
233.5595141915021
 30
0.0
 11
56.78885331129322
 21
233.5595141915021
 31
0.0
  0
LINE
  5
62C
330
1F
100
AcDbEntity
  8
0
100
AcDbLine
 10
56.78885331129322
 20
233.8261942937402
 30
0.0
 11
56.78885331129322
 21
233.5595141915021
 31
0.0
  0
LINE
  5
62D
330
1F
100
AcDbEntity
  8
0
100
AcDbLine
 10
57.14442678094422
 20
233.8261942937402
 30
0.0
 11
56.78885331129322
 21
233.8261942937402
 31
0.0
  0
LINE
  5
62E
330
1F
100
AcDbEntity
  8
0
100
AcDbLine
 10
58.21114718989722
 20
233.8261942937402
 30
0.0
 11
58.21114718989722
 21
233.5595141915021
 31
0.0
  0
LINE
  5
62F
330
1F
100
AcDbEntity
  8
0
100
AcDbLine
 10
58.21114718989722
 20
233.8261942937402
 30
0.0
 11
57.85557372024621
 21
233.8261942937402
 31
0.0
  0
LINE
  5
630
330
1F
100
AcDbEntity
  8
0
100
AcDbLine
 10
58.21114718989722
 20
235.4262749071698
 30
0.0
 11
56.78885331129322
 21
235.4262749071698
 31
0.0
  0
LINE
  5
631
330
1F
100
AcDbEntity
  8
0
100
AcDbLine
 10
56.78885331129322
 20
235.4262749071698
 30
0.0
 11
56.78885331129322
 21
235.1595948049316
 31
0.0
  0
LINE
  5
632
330
1F
100
AcDbEntity
  8
0
100
AcDbLine
 10
57.14442678094422
 20
235.1595948049316
 30
0.0
 11
56.78885331129322
 21
235.1595948049316
 31
0.0
  0
LINE
  5
633
330
1F
100
AcDbEntity
  8
0
100
AcDbLine
 10
58.21114718989722
 20
235.1595948049316
 30
0.0
 11
57.85557372024621
 21
235.1595948049316
 31
0.0
  0
LINE
  5
634
330
1F
100
AcDbEntity
  8
0
100
AcDbLine
 10
58.21114718989722
 20
235.4262749071698
 30
0.0
 11
58.21114718989722
 21
235.1595948049316
 31
0.0
  0
LINE
  5
635
330
1F
100
AcDbEntity
  8
0
100
AcDbLine
 10
61.98048485347974
 20
234.4585489950909
 30
0.0
 11
61.70439729584313
 21
233.4281762026536
 31
0.0
  0
LINE
  5
636
330
1F
100
AcDbEntity
  8
0
100
AcDbLine
 10
60.76154075234222
 20
235.0612516402459
 30
0.0
 11
61.70439729584313
 21
233.4281762026536
 31
0.0
  0
LINE
  5
637
330
1F
100
AcDbEntity
  8
0
100
AcDbLine
 10
60.28235172583482
 20
234.6467242368076
 30
0.0
 11
61.23152572644722
 21
233.0027066425237
 31
0.0
  0
LINE
  5
638
330
1F
100
AcDbEntity
  8
0
100
AcDbLine
 10
60.28235172583482
 20
234.6467242368076
 30
0.0
 11
60.00395181840821
 21
233.6077216374688
 31
0.0
  0
LINE
  5
639
330
1F
100
AcDbEntity
  8
0
100
AcDbLine
 10
59.9626714682899
 20
234.9992204621293
 30
0.0
 11
59.6175620212441
 21
233.7112544715825
 31
0.0
  0
LINE
  5
63A
330
1F
100
AcDbEntity
  8
0
100
AcDbLine
 10
62.36687465064372
 20
234.3550161609771
 30
0.0
 11
61.95274331418882
 21
232.8094569723211
 31
0.0
  0
LINE
  5
63B
330
1F
100
AcDbEntity
  8
0
100
AcDbLine
 10
60.34740941588722
 20
233.5156924515899
 30
0.0
 11
60.27838752647813
 21
233.2580992534806
 31
0.0
  0
LINE
  5
63C
330
1F
100
AcDbEntity
  8
0
100
AcDbLine
 10
59.27410442376512
 20
233.8032836574614
 30
0.0
 11
59.20508253435591
 21
233.545690459352
 31
0.0
  0
LINE
  5
63D
330
1F
100
AcDbEntity
  8
0
100
AcDbLine
 10
60.27838752647813
 20
233.2580992534806
 30
0.0
 11
59.20508253435591
 21
233.545690459352
 31
0.0
  0
LINE
  5
63E
330
1F
100
AcDbEntity
  8
0
100
AcDbLine
 10
59.6175620212441
 20
233.7112544715825
 30
0.0
 11
59.27410442376512
 21
233.8032836574614
 31
0.0
  0
LINE
  5
63F
330
1F
100
AcDbEntity
  8
0
100
AcDbLine
 10
60.00395181840821
 20
233.6077216374688
 30
0.0
 11
60.34740941588722
 21
233.5156924515899
 31
0.0
  0
LINE
  5
640
330
1F
100
AcDbEntity
  8
0
100
AcDbLine
 10
61.95274331418882
 20
232.8094569723211
 30
0.0
 11
61.23152572644722
 21
233.0027066425237
 31
0.0
  0
LINE
  5
641
330
1F
100
AcDbEntity
  8
0
100
AcDbLine
 10
60.76154075234222
 20
235.0612516402459
 30
0.0
 11
59.68823576021993
 21
235.3488428461175
 31
0.0
  0
LINE
  5
642
330
1F
100
AcDbEntity
  8
0
100
AcDbLine
 10
59.68823576021993
 20
235.3488428461175
 30
0.0
 11
59.61921387081082
 21
235.0912496480081
 31
0.0
  0
LINE
  5
643
330
1F
100
AcDbEntity
  8
0
100
AcDbLine
 10
59.9626714682899
 20
234.9992204621293
 30
0.0
 11
59.61921387081082
 21
235.0912496480081
 31
0.0
  0
LINE
  5
644
330
1F
100
AcDbEntity
  8
0
100
AcDbLine
 10
62.77935413753205
 20
234.5205801732077
 30
0.0
 11
61.7060491454097
 21
234.8081713790792
 31
0.0
  0
LINE
  5
645
330
1F
100
AcDbEntity
  8
0
100
AcDbLine
 10
61.7060491454097
 20
234.808171379079
 30
0.0
 11
61.63702725600055
 21
234.5505781809697
 31
0.0
  0
LINE
  5
646
330
1F
100
AcDbEntity
  8
0
100
AcDbLine
 10
61.98048485347974
 20
234.4585489950909
 30
0.0
 11
61.63702725600064
 21
234.5505781809698
 31
0.0
  0
LINE
  5
647
330
1F
100
AcDbEntity
  8
0
100
AcDbLine
 10
62.77935413753205
 20
234.5205801732075
 30
0.0
 11
62.71033224812281
 21
234.2629869750982
 31
0.0
  0
LINE
  5
648
330
1F
100
AcDbEntity
  8
0
100
AcDbLine
 10
62.71033224812281
 20
234.2629869750983
 30
0.0
 11
62.36687465064372
 21
234.3550161609771
 31
0.0
  0
ELLIPSE
  5
649
330
1F
100
AcDbEntity
  8
0
100
AcDbEllipse
 10
64.74972721285414
 20
232.3797918404387
 30
0.0
 11
-1.349494301977488
 21
0.8597226869190263
 31
0.0
210
0.0
220
0.0
230
1.0
 40
0.5833333335538832
 41
0.0
 42
6.283185307179584
  0
ELLIPSE
  5
64A
330
1F
100
AcDbEntity
  8
0
100
AcDbEllipse
 10
64.74974885939507
 20
232.3797780500715
 30
0.0
 11
-0.7497407031949117
 21
0.4776375053223762
 31
0.0
210
0.0
220
0.0
230
1.0
 40
0.7499783459728234
 41
0.0
 42
6.283185307179584
  0
CIRCLE
  5
64D
330
1F
100
AcDbEntity
  8
0
100
AcDbCircle
 10
57.50000025108224
 20
220.9999999884511
 30
0.0
 40
15.23914836850011
  0
CIRCLE
  5
652
330
1F
100
AcDbEntity
  8
0
100
AcDbCircle
 10
57.50000025108224
 20
220.9999999884511
 30
0.0
 40
10.9
  0
CIRCLE
  5
653
330
1F
100
AcDbEntity
  8
0
100
AcDbCircle
 10
57.50000025108224
 20
220.9999999884511
 30
0.0
 40
11.1
  0
CIRCLE
  5
654
330
1F
100
AcDbEntity
  8
0
100
AcDbCircle
 10
57.50000025108224
 20
220.9999999884511
 30
0.0
 40
11.3
  0
CIRCLE
  5
655
330
1F
100
AcDbEntity
  8
0
100
AcDbCircle
 10
57.50000025108224
 20
220.9999999884511
 30
0.0
 40
11.6
  0
CIRCLE
  5
656
330
1F
100
AcDbEntity
  8
0
100
AcDbCircle
 10
57.50000025108224
 20
220.9999999884511
 30
0.0
 40
11.5
  0
LINE
  5
657
330
1F
100
AcDbEntity
  8
0
100
AcDbLine
 10
67.00000025108271
 20
24.49999998845115
 30
0.0
 11
69.00000025108273
 21
24.49999998845115
 31
0.0
  0
LINE
  5
658
330
1F
100
AcDbEntity
  8
0
100
AcDbLine
 10
80.00000025108271
 20
24.49999998845115
 30
0.0
 11
82.00000025108272
 21
24.49999998845115
 31
0.0
  0
LINE
  5
659
330
1F
100
AcDbEntity
  8
0
100
AcDbLine
 10
74.17000025108254
 20
76.69999998845181
 30
0.0
 11
74.17000025108254
 21
76.49999998845112
 31
0.0
  0
LINE
  5
65A
330
1F
100
AcDbEntity
  8
0
100
AcDbLine
 10
40.83000025108261
 20
76.69999998845113
 30
0.0
 11
40.83000025108261
 21
76.49999998845112
 31
0.0
  0
LINE
  5
65B
330
1F
100
AcDbEntity
  8
0
100
AcDbLine
 10
0.0000002510827244
 20
293.4999999884511
 30
0.0
 11
0.0000002510827244
 21
128.4999999884511
 31
0.0
  0
ARC
  5
65C
330
1F
100
AcDbEntity
  8
0
100
AcDbCircle
 10
2.500000251082723
 20
293.4999999884511
 30
0.0
 40
2.5
100
AcDbArc
 50
90.0
 51
180.0
1001
GENIUS_GENOBJ-N-FIL_13
1002
{
1000
OWNER
1000
GEN
1002
}
1001
GENIUS_GENODEF_13
1002
{
1000
HIER
1070
     0
1002
}
1002
{
1000
MANEDIT
1070
     0
1002
}
1002
{
1000
NOSEL
1070
     0
1002
}
1002
{
1000
BEHIND
1070
     0
1002
}
1002
{
1000
OTHER
1070
     0
1002
}
1002
{
1000
REACTOR
1002
}
  0
LINE
  5
65D
330
1F
100
AcDbEntity
  8
0
100
AcDbLine
 10
115.0000002510826
 20
293.499999988451
 30
0.0
 11
115.0000002510827
 21
128.4999999884511
 31
0.0
  0
ARC
  5
65E
330
1F
100
AcDbEntity
  8
0
100
AcDbCircle
 10
112.5000002510827
 20
128.4999999884511
 30
0.0
 40
2.5
100
AcDbArc
 50
270.0
 51
0.0
1001
GENIUS_GENODEF_13
1002
{
1000
HIER
1070
     0
1002
}
1002
{
1000
MANEDIT
1070
     0
1002
}
1002
{
1000
NOSEL
1070
     0
1002
}
1002
{
1000
BEHIND
1070
     0
1002
}
1002
{
1000
OTHER
1070
     0
1002
}
1002
{
1000
REACTOR
1002
}
1001
GENIUS_GENOBJ-N-FIL_13
1002
{
1000
OWNER
1000
GEN
1002
}
  0
ARC
  5
65F
330
1F
100
AcDbEntity
  8
0
100
AcDbCircle
 10
112.5000002510826
 20
293.499999988451
 30
0.0
 40
2.5
100
AcDbArc
 50
0.0
 51
90.0
1001
GENIUS_GENOBJ-N-FIL_13
1002
{
1000
OWNER
1000
GEN
1002
}
1001
GENIUS_GENODEF_13
1002
{
1000
HIER
1070
     0
1002
}
1002
{
1000
MANEDIT
1070
     0
1002
}
1002
{
1000
NOSEL
1070
     0
1002
}
1002
{
1000
BEHIND
1070
     0
1002
}
1002
{
1000
OTHER
1070
     0
1002
}
1002
{
1000
REACTOR
1002
}
  0
LINE
  5
660
330
1F
100
AcDbEntity
  8
0
100
AcDbLine
 10
2.500000251082723
 20
125.9999999884511
 30
0.0
 11
112.5000002510827
 21
125.9999999884511
 31
0.0
  0
LINE
  5
661
330
1F
100
AcDbEntity
  8
0
100
AcDbLine
 10
40.25000025108295
 20
120.7499999884511
 30
0.0
 11
53.75000025108292
 21
120.7499999884511
 31
0.0
  0
LINE
  5
662
330
1F
100
AcDbEntity
  8
0
100
AcDbLine
 10
39.00000025108295
 20
121.7499999884511
 30
0.0
 11
55.00000025108292
 21
121.7499999884511
 31
0.0
  0
LINE
  5
663
330
1F
100
AcDbEntity
  8
0
100
AcDbLine
 10
41.25000025108294
 20
114.9999999884511
 30
0.0
 11
52.75000025108292
 21
114.9999999884511
 31
0.0
  0
LINE
  5
664
330
1F
100
AcDbEntity
  8
0
100
AcDbLine
 10
25.50000025108273
 20
124.4999999884511
 30
0.0
 11
33.50000025108261
 21
124.4999999884511
 31
0.0
  0
LINE
  5
665
330
1F
100
AcDbEntity
  8
0
100
AcDbLine
 10
27.25000025108272
 20
120.4999999884511
 30
0.0
 11
31.75000025108273
 21
120.4999999884511
 31
0.0
  0
ARC
  5
666
330
1F
100
AcDbEntity
  8
0
100
AcDbCircle
 10
33.50000025108261
 20
124.9999999884511
 30
0.0
 40
0.5
100
AcDbArc
 50
270.0
 51
0.0
1001
GENIUS_GENOBJ-N-FIL_13
1002
{
1000
OWNER
1000
GEN
1002
}
1001
GENIUS_GENODEF_13
1002
{
1000
HIER
1070
     0
1002
}
1002
{
1000
MANEDIT
1070
     0
1002
}
1002
{
1000
NOSEL
1070
     0
1002
}
1002
{
1000
BEHIND
1070
     0
1002
}
1002
{
1000
OTHER
1070
     0
1002
}
1002
{
1000
REACTOR
1002
}
  0
LINE
  5
667
330
1F
100
AcDbEntity
  8
0
100
AcDbLine
 10
60.00000025108271
 20
123.4999999884511
 30
0.0
 11
89.00000025108273
 21
123.4999999884511
 31
0.0
  0
ARC
  5
668
330
1F
100
AcDbEntity
  8
0
100
AcDbCircle
 10
89.00000025108273
 20
123.9999999884511
 30
0.0
 40
0.5
100
AcDbArc
 50
270.0
 51
0.0
1001
GENIUS_GENODEF_13
1002
{
1000
HIER
1070
     0
1002
}
1002
{
1000
MANEDIT
1070
     0
1002
}
1002
{
1000
NOSEL
1070
     0
1002
}
1002
{
1000
BEHIND
1070
     0
1002
}
1002
{
1000
OTHER
1070
     0
1002
}
1002
{
1000
REACTOR
1002
}
1001
GENIUS_GENOBJ-N-FIL_13
1002
{
1000
OWNER
1000
GEN
1002
}
  0
ARC
  5
669
330
1F
100
AcDbEntity
  8
0
100
AcDbCircle
 10
2.500000251082723
 20
128.4999999884511
 30
0.0
 40
2.5
100
AcDbArc
 50
180.0
 51
270.0
1001
GENIUS_GENOBJ-N-FIL_13
1002
{
1000
OWNER
1000
GEN
1002
}
1001
GENIUS_GENODEF_13
1002
{
1000
HIER
1070
     0
1002
}
1002
{
1000
MANEDIT
1070
     0
1002
}
1002
{
1000
NOSEL
1070
     0
1002
}
1002
{
1000
BEHIND
1070
     0
1002
}
1002
{
1000
OTHER
1070
     0
1002
}
1002
{
1000
REACTOR
1002
}
  0
LINE
  5
66A
330
1F
100
AcDbEntity
  8
0
100
AcDbLine
 10
2.500000251082723
 20
295.9999999884511
 30
0.0
 11
112.5000002510826
 21
295.999999988451
 31
0.0
  0
LINE
  5
66C
330
1F
100
AcDbEntity
  8
0
100
AcDbLine
 10
62.50000025108271
 20
16.49999998845114
 30
0.0
 11
86.50000025108282
 21
16.49999998845114
 31
0.0
1001
GENIUS_GENREC_14
1002
{
1000
PYDIR
1011
59.50000025108272
1021
35.49999998845115
1031
0.0
1002
}
1002
{
1000
PXDIR
1011
89.50000025108272
1021
14.49999998845114
1031
0.0
1002
}
1002
{
1000
PORI
1011
59.50000025108272
1021
14.49999998845114
1031
0.0
1002
}
1002
{
1000
PINS
1011
59.50000025108272
1021
14.49999998845114
1031
0.0
1002
}
1002
{
1000
HVAL
1000
21
1002
}
1002
{
1000
H
1070
     2
1002
}
1002
{
1000
WVAL
1000
30
1002
}
1002
{
1000
W
1070
     2
1002
}
1002
{
1000
C
1070
     1
1002
}
1001
GENIUS_GENOBJ-N-REC_13
1002
{
1000
OWNER
1000
GEN
1002
}
1001
GENIUS_GENODEF_13
1002
{
1000
HIER
1070
     0
1002
}
1002
{
1000
MANEDIT
1070
     0
1002
}
1002
{
1000
NOSEL
1070
     0
1002
}
1002
{
1000
BEHIND
1070
     0
1002
}
1002
{
1000
OTHER
1070
     0
1002
}
1002
{
1000
REACTOR
1002
}
  0
LINE
  5
66D
330
1F
100
AcDbEntity
  8
0
100
AcDbLine
 10
75.50000025108271
 20
28.49999998845115
 30
0.0
 11
75.50000025108271
 21
24.49999998845112
 31
0.0
  0
LINE
  5
66E
330
1F
100
AcDbEntity
  8
0
100
AcDbLine
 10
86.50000025108282
 20
16.49999998845114
 30
0.0
 11
86.50000025108292
 21
28.49999998845115
 31
0.0
1001
GENIUS_GENREC_14
1002
{
1000
PYDIR
1011
58.50000025108272
1021
35.49999998845115
1031
0.0
1002
}
1002
{
1000
PXDIR
1011
88.50000025108272
1021
14.49999998845114
1031
0.0
1002
}
1002
{
1000
PORI
1011
58.50000025108272
1021
14.49999998845114
1031
0.0
1002
}
1002
{
1000
PINS
1011
58.50000025108272
1021
14.49999998845114
1031
0.0
1002
}
1002
{
1000
HVAL
1000
21
1002
}
1002
{
1000
H
1070
     2
1002
}
1002
{
1000
WVAL
1000
30
1002
}
1002
{
1000
W
1070
     2
1002
}
1002
{
1000
C
1070
     1
1002
}
1001
GENIUS_GENOBJ-N-REC_13
1002
{
1000
OWNER
1000
GEN
1002
}
1001
GENIUS_GENODEF_13
1002
{
1000
HIER
1070
     0
1002
}
1002
{
1000
MANEDIT
1070
     0
1002
}
1002
{
1000
NOSEL
1070
     0
1002
}
1002
{
1000
BEHIND
1070
     0
1002
}
1002
{
1000
OTHER
1070
     0
1002
}
1002
{
1000
REACTOR
1002
}
  0
LINE
  5
66F
330
1F
100
AcDbEntity
  8
0
100
AcDbLine
 10
81.50000025108282
 20
33.49999998845115
 30
0.0
 11
86.50000025108292
 21
28.49999998845115
 31
0.0
1001
GENIUS_GENFIL_13
1070
     0
1040
5.0
1040
5.0
1040
20.0
1040
0.0
1002
{
1002
}
1001
GENIUS_GENREC_14
1002
{
1000
PYDIR
1011
58.50000025108272
1021
35.49999998845115
1031
0.0
1002
}
1002
{
1000
PXDIR
1011
88.50000025108272
1021
14.49999998845114
1031
0.0
1002
}
1002
{
1000
PORI
1011
58.50000025108272
1021
14.49999998845114
1031
0.0
1002
}
1002
{
1000
PINS
1011
58.50000025108272
1021
14.49999998845114
1031
0.0
1002
}
1002
{
1000
HVAL
1000
21
1002
}
1002
{
1000
H
1070
     2
1002
}
1002
{
1000
WVAL
1000
30
1002
}
1002
{
1000
W
1070
     2
1002
}
1002
{
1000
C
1070
     1
1002
}
1001
GENIUS_GENOBJ-N-REC_13
1002
{
1000
OWNER
1000
GEN
1002
}
1001
GENIUS_GENOBJ-N-CHA_13
1002
{
1000
OWNER
1000
GEN
1002
}
1001
GENIUS_GENODEF_13
1002
{
1000
HIER
1070
     0
1002
}
1002
{
1000
MANEDIT
1070
     0
1002
}
1002
{
1000
NOSEL
1070
     0
1002
}
1002
{
1000
BEHIND
1070
     0
1002
}
1002
{
1000
OTHER
1070
     0
1002
}
1002
{
1000
REACTOR
1002
}
  0
LINE
  5
670
330
1F
100
AcDbEntity
  8
0
100
AcDbLine
 10
81.50000025108282
 20
33.49999998845115
 30
0.0
 11
67.50000025108281
 21
33.49999998845117
 31
0.0
1001
GENIUS_GENREC_14
1002
{
1000
PYDIR
1011
59.50000025108272
1021
35.49999998845115
1031
0.0
1002
}
1002
{
1000
PXDIR
1011
89.50000025108272
1021
14.49999998845114
1031
0.0
1002
}
1002
{
1000
PORI
1011
59.50000025108272
1021
14.49999998845114
1031
0.0
1002
}
1002
{
1000
PINS
1011
59.50000025108272
1021
14.49999998845114
1031
0.0
1002
}
1002
{
1000
HVAL
1000
21
1002
}
1002
{
1000
H
1070
     2
1002
}
1002
{
1000
WVAL
1000
30
1002
}
1002
{
1000
W
1070
     2
1002
}
1002
{
1000
C
1070
     1
1002
}
1001
GENIUS_GENOBJ-N-REC_13
1002
{
1000
OWNER
1000
GEN
1002
}
1001
GENIUS_GENODEF_13
1002
{
1000
HIER
1070
     0
1002
}
1002
{
1000
MANEDIT
1070
     0
1002
}
1002
{
1000
NOSEL
1070
     0
1002
}
1002
{
1000
BEHIND
1070
     0
1002
}
1002
{
1000
OTHER
1070
     0
1002
}
1002
{
1000
REACTOR
1002
}
  0
LINE
  5
671
330
1F
100
AcDbEntity
  8
0
100
AcDbLine
 10
62.50000025108281
 20
28.49999998845117
 30
0.0
 11
67.50000025108281
 21
33.49999998845117
 31
0.0
1001
GENIUS_GENFIL_13
1070
     0
1040
5.0
1040
5.0
1040
20.0
1040
0.0
1002
{
1002
}
1001
GENIUS_GENREC_14
1002
{
1000
PYDIR
1011
59.50000025108272
1021
35.49999998845115
1031
0.0
1002
}
1002
{
1000
PXDIR
1011
89.50000025108272
1021
14.49999998845114
1031
0.0
1002
}
1002
{
1000
PORI
1011
59.50000025108272
1021
14.49999998845114
1031
0.0
1002
}
1002
{
1000
PINS
1011
59.50000025108272
1021
14.49999998845114
1031
0.0
1002
}
1002
{
1000
HVAL
1000
21
1002
}
1002
{
1000
H
1070
     2
1002
}
1002
{
1000
WVAL
1000
30
1002
}
1002
{
1000
W
1070
     2
1002
}
1002
{
1000
C
1070
     1
1002
}
1001
GENIUS_GENOBJ-N-REC_13
1002
{
1000
OWNER
1000
GEN
1002
}
1001
GENIUS_GENOBJ-N-CHA_13
1002
{
1000
OWNER
1000
GEN
1002
}
1001
GENIUS_GENODEF_13
1002
{
1000
HIER
1070
     0
1002
}
1002
{
1000
MANEDIT
1070
     0
1002
}
1002
{
1000
NOSEL
1070
     0
1002
}
1002
{
1000
BEHIND
1070
     0
1002
}
1002
{
1000
OTHER
1070
     0
1002
}
1002
{
1000
REACTOR
1002
}
  0
LINE
  5
672
330
1F
100
AcDbEntity
  8
0
100
AcDbLine
 10
62.50000025108281
 20
28.49999998845117
 30
0.0
 11
62.50000025108271
 21
16.49999998845114
 31
0.0
1001
GENIUS_GENREC_14
1002
{
1000
PYDIR
1011
60.50000025108271
1021
35.49999998845115
1031
0.0
1002
}
1002
{
1000
PXDIR
1011
90.50000025108273
1021
14.49999998845114
1031
0.0
1002
}
1002
{
1000
PORI
1011
60.50000025108271
1021
14.49999998845114
1031
0.0
1002
}
1002
{
1000
PINS
1011
60.50000025108271
1021
14.49999998845114
1031
0.0
1002
}
1002
{
1000
HVAL
1000
21
1002
}
1002
{
1000
H
1070
     2
1002
}
1002
{
1000
WVAL
1000
30
1002
}
1002
{
1000
W
1070
     2
1002
}
1002
{
1000
C
1070
     1
1002
}
1001
GENIUS_GENOBJ-N-REC_13
1002
{
1000
OWNER
1000
GEN
1002
}
1001
GENIUS_GENODEF_13
1002
{
1000
HIER
1070
     0
1002
}
1002
{
1000
MANEDIT
1070
     0
1002
}
1002
{
1000
NOSEL
1070
     0
1002
}
1002
{
1000
BEHIND
1070
     0
1002
}
1002
{
1000
OTHER
1070
     0
1002
}
1002
{
1000
REACTOR
1002
}
  0
LINE
  5
673
330
1F
100
AcDbEntity
  8
0
100
AcDbLine
 10
74.75000025108271
 20
27.49999998845115
 30
0.0
 11
75.50000025108271
 21
28.49999998845115
 31
0.0
  0
LINE
  5
674
330
1F
100
AcDbEntity
  8
0
100
AcDbLine
 10
67.0000002510828
 20
20.49999998845115
 30
0.0
 11
69.00000025108273
 21
20.49999998845115
 31
0.0
  0
LINE
  5
675
330
1F
100
AcDbEntity
  8
0
100
AcDbLine
 10
73.50000025108271
 20
24.49999998845115
 30
0.0
 11
74.25000025108271
 21
25.49999998845115
 31
0.0
  0
LINE
  5
676
330
1F
100
AcDbEntity
  8
0
100
AcDbLine
 10
80.00000025108271
 20
20.49999998845115
 30
0.0
 11
82.00000025108272
 21
20.49999998845112
 31
0.0
  0
LINE
  5
677
330
1F
100
AcDbEntity
  8
0
100
AcDbLine
 10
67.75000025108273
 20
23.49999998845115
 30
0.0
 11
68.25000025108271
 21
23.49999998845115
 31
0.0
  0
LINE
  5
678
330
1F
100
AcDbEntity
  8
0
100
AcDbLine
 10
80.75000025108272
 20
23.49999998845115
 30
0.0
 11
81.25000025108271
 21
23.49999998845115
 31
0.0
  0
LINE
  5
679
330
1F
100
AcDbEntity
  8
0
100
AcDbLine
 10
67.75000025108273
 20
21.49999998845114
 30
0.0
 11
68.25000025108271
 21
21.49999998845114
 31
0.0
  0
LINE
  5
67A
330
1F
100
AcDbEntity
  8
0
100
AcDbLine
 10
80.75000025108272
 20
21.49999998845114
 30
0.0
 11
81.25000025108271
 21
21.49999998845114
 31
0.0
  0
LINE
  5
67B
330
1F
100
AcDbEntity
  8
0
100
AcDbLine
 10
67.00000025108271
 20
24.49999998845115
 30
0.0
 11
67.0000002510828
 21
20.49999998845115
 31
0.0
  0
LINE
  5
67C
330
1F
100
AcDbEntity
  8
0
100
AcDbLine
 10
69.00000025108273
 20
24.49999998845115
 30
0.0
 11
69.00000025108273
 21
20.49999998845115
 31
0.0
  0
LINE
  5
67D
330
1F
100
AcDbEntity
  8
0
100
AcDbLine
 10
68.25000025108271
 20
23.49999998845115
 30
0.0
 11
68.25000025108271
 21
21.49999998845114
 31
0.0
  0
LINE
  5
67E
330
1F
100
AcDbEntity
  8
0
100
AcDbLine
 10
67.75000025108273
 20
23.49999998845115
 30
0.0
 11
67.75000025108273
 21
21.49999998845114
 31
0.0
  0
LINE
  5
67F
330
1F
100
AcDbEntity
  8
0
100
AcDbLine
 10
80.00000025108271
 20
24.49999998845115
 30
0.0
 11
80.00000025108271
 21
20.49999998845115
 31
0.0
  0
LINE
  5
680
330
1F
100
AcDbEntity
  8
0
100
AcDbLine
 10
82.00000025108272
 20
24.49999998845115
 30
0.0
 11
82.00000025108272
 21
20.49999998845112
 31
0.0
  0
LINE
  5
681
330
1F
100
AcDbEntity
  8
0
100
AcDbLine
 10
81.25000025108271
 20
23.49999998845115
 30
0.0
 11
81.25000025108271
 21
21.49999998845114
 31
0.0
  0
LINE
  5
682
330
1F
100
AcDbEntity
  8
0
100
AcDbLine
 10
80.75000025108272
 20
23.49999998845115
 30
0.0
 11
80.75000025108272
 21
21.49999998845114
 31
0.0
  0
LINE
  5
683
330
1F
100
AcDbEntity
  8
0
100
AcDbLine
 10
80.00000025108271
 20
24.49999998845115
 30
0.0
 11
80.75000025108272
 21
23.49999998845115
 31
0.0
  0
LINE
  5
684
330
1F
100
AcDbEntity
  8
0
100
AcDbLine
 10
81.25000025108271
 20
23.49999998845115
 30
0.0
 11
82.00000025108272
 21
24.49999998845115
 31
0.0
  0
LINE
  5
685
330
1F
100
AcDbEntity
  8
0
100
AcDbLine
 10
80.00000025108271
 20
20.49999998845115
 30
0.0
 11
80.75000025108272
 21
21.49999998845114
 31
0.0
  0
LINE
  5
686
330
1F
100
AcDbEntity
  8
0
100
AcDbLine
 10
81.25000025108271
 20
21.49999998845114
 30
0.0
 11
82.00000025108272
 21
20.49999998845115
 31
0.0
  0
LINE
  5
687
330
1F
100
AcDbEntity
  8
0
100
AcDbLine
 10
67.0000002510828
 20
24.49999998845115
 30
0.0
 11
67.75000025108281
 21
23.49999998845115
 31
0.0
  0
LINE
  5
688
330
1F
100
AcDbEntity
  8
0
100
AcDbLine
 10
68.2500002510828
 20
23.49999998845115
 30
0.0
 11
69.00000025108281
 21
24.49999998845115
 31
0.0
  0
LINE
  5
689
330
1F
100
AcDbEntity
  8
0
100
AcDbLine
 10
67.0000002510828
 20
20.49999998845115
 30
0.0
 11
67.75000025108281
 21
21.49999998845114
 31
0.0
  0
LINE
  5
68A
330
1F
100
AcDbEntity
  8
0
100
AcDbLine
 10
68.2500002510828
 20
21.49999998845114
 30
0.0
 11
69.00000025108281
 21
20.49999998845115
 31
0.0
  0
LINE
  5
68B
330
1F
100
AcDbEntity
  8
0
100
AcDbLine
 10
73.50000025108271
 20
28.49999998845115
 30
0.0
 11
75.50000025108271
 21
28.49999998845115
 31
0.0
  0
LINE
  5
68C
330
1F
100
AcDbEntity
  8
0
100
AcDbLine
 10
73.50000025108271
 20
24.49999998845115
 30
0.0
 11
75.50000025108271
 21
24.49999998845112
 31
0.0
  0
LINE
  5
68D
330
1F
100
AcDbEntity
  8
0
100
AcDbLine
 10
74.25000025108271
 20
27.49999998845115
 30
0.0
 11
74.75000025108271
 21
27.49999998845115
 31
0.0
  0
LINE
  5
68E
330
1F
100
AcDbEntity
  8
0
100
AcDbLine
 10
74.25000025108271
 20
25.49999998845115
 30
0.0
 11
74.75000025108271
 21
25.49999998845115
 31
0.0
  0
LINE
  5
68F
330
1F
100
AcDbEntity
  8
0
100
AcDbLine
 10
73.50000025108271
 20
28.49999998845115
 30
0.0
 11
73.50000025108271
 21
24.49999998845115
 31
0.0
  0
LINE
  5
690
330
1F
100
AcDbEntity
  8
0
100
AcDbLine
 10
25.00000025108273
 20
34.99999998845106
 30
0.0
 11
34.00000025108262
 21
34.99999998845106
 31
0.0
  0
LINE
  5
691
330
1F
100
AcDbEntity
  8
0
100
AcDbLine
 10
74.25000025108271
 20
27.49999998845115
 30
0.0
 11
74.25000025108271
 21
25.49999998845115
 31
0.0
  0
LINE
  5
692
330
1F
100
AcDbEntity
  8
0
100
AcDbLine
 10
74.75000025108271
 20
27.49999998845115
 30
0.0
 11
74.75000025108271
 21
25.49999998845115
 31
0.0
  0
LINE
  5
693
330
1F
100
AcDbEntity
  8
0
100
AcDbLine
 10
73.50000025108271
 20
28.49999998845115
 30
0.0
 11
74.25000025108271
 21
27.49999998845115
 31
0.0
  0
LINE
  5
694
330
1F
100
AcDbEntity
  8
0
100
AcDbLine
 10
74.75000025108271
 20
25.49999998845115
 30
0.0
 11
75.50000025108271
 21
24.49999998845115
 31
0.0
  0
CIRCLE
  5
695
330
1F
100
AcDbEntity
  8
0
100
AcDbCircle
 10
47.00000025108292
 20
24.99999998845106
 30
0.0
 40
8.0
  0
CIRCLE
  5
696
330
1F
100
AcDbEntity
  8
0
100
AcDbCircle
 10
47.00000025108292
 20
24.99999998845106
 30
0.0
 40
5.75
  0
CIRCLE
  5
697
330
1F
100
AcDbEntity
  8
0
100
AcDbCircle
 10
47.00000025108292
 20
24.99999998845106
 30
0.0
 40
6.75
  0
ARC
  5
698
330
1F
100
AcDbEntity
  8
0
100
AcDbCircle
 10
47.00000025108292
 20
24.99999998845106
 30
0.0
 40
3.5
100
AcDbArc
 50
225.0000000000006
 51
299.999999999999
  0
ARC
  5
699
330
1F
100
AcDbEntity
  8
0
100
AcDbCircle
 10
47.00000025108292
 20
24.99999998845106
 30
0.0
 40
4.0
100
AcDbArc
 50
225.0000000000006
 51
299.9999999999982
  0
LINE
  5
69A
330
1F
100
AcDbEntity
  8
0
100
AcDbLine
 10
44.52512651693001
 20
22.52512625429812
 30
0.0
 11
44.17157312633674
 21
22.17157286370484
 31
0.0
  0
LINE
  5
69B
330
1F
100
AcDbEntity
  8
0
100
AcDbLine
 10
34.00000025108262
 20
34.99999998845106
 30
0.0
 11
34.00000025108273
 21
14.99999998845106
 31
0.0
  0
LINE
  5
69C
330
1F
100
AcDbEntity
  8
0
100
AcDbLine
 10
48.62284301093782
 20
22.1891538756869
 30
0.0
 11
48.75000025108281
 21
21.96891107520548
 31
0.0
  0
LINE
  5
69D
330
1F
100
AcDbEntity
  8
0
100
AcDbLine
 10
49.71553975624065
 20
22.23769043382665
 30
0.0
 11
48.62284301093782
 21
22.1891538756869
 31
0.0
  0
LINE
  5
69E
330
1F
100
AcDbEntity
  8
0
100
AcDbLine
 10
49.71553975624065
 20
22.23769043382665
 30
0.0
 11
49.12715749122793
 21
21.31565557283173
 31
0.0
  0
LINE
  5
69F
330
1F
100
AcDbEntity
  8
0
100
AcDbLine
 10
27.00000025108272
 20
32.99999998845106
 30
0.0
 11
27.00000025108272
 21
16.99999998845106
 31
0.0
  0
LINE
  5
6A0
330
1F
100
AcDbEntity
  8
0
100
AcDbLine
 10
49.00000025108281
 20
21.53589837331327
 30
0.0
 11
49.12715749122793
 21
21.31565557283173
 31
0.0
  0
LINE
  5
6A1
330
1F
100
AcDbEntity
  8
0
100
AcDbLine
 10
25.00000025108273
 20
34.99999998845106
 30
0.0
 11
25.00000025108273
 21
14.99999998845106
 31
0.0
  0
LINE
  5
6A2
330
1F
100
AcDbEntity
  8
0
100
AcDbLine
 10
25.00000025108273
 20
14.99999998845106
 30
0.0
 11
34.00000025108273
 21
14.99999998845106
 31
0.0
  0
ARC
  5
6A3
330
1F
100
AcDbEntity
  8
0
100
AcDbCircle
 10
60.00000025108271
 20
123.9999999884511
 30
0.0
 40
0.5
100
AcDbArc
 50
180.0
 51
270.0
1001
GENIUS_GENOBJ-N-FIL_13
1002
{
1000
OWNER
1000
GEN
1002
}
1001
GENIUS_GENODEF_13
1002
{
1000
HIER
1070
     0
1002
}
1002
{
1000
MANEDIT
1070
     0
1002
}
1002
{
1000
NOSEL
1070
     0
1002
}
1002
{
1000
BEHIND
1070
     0
1002
}
1002
{
1000
OTHER
1070
     0
1002
}
1002
{
1000
REACTOR
1002
}
  0
LINE
  5
6A4
330
1F
100
AcDbEntity
  8
0
100
AcDbLine
 10
27.25000025108272
 20
32.74999998845106
 30
0.0
 11
27.25000025108272
 21
17.24999998845106
 31
0.0
  0
LINE
  5
6A5
330
1F
100
AcDbEntity
  8
0
100
AcDbLine
 10
27.00000025108272
 20
16.99999998845106
 30
0.0
 11
32.00000025108272
 21
16.99999998845106
 31
0.0
  0
LINE
  5
6A6
330
1F
100
AcDbEntity
  8
0
100
AcDbLine
 10
27.25000025108272
 20
17.24999998845106
 30
0.0
 11
31.75000025108273
 21
17.24999998845106
 31
0.0
  0
LINE
  5
6A7
330
1F
100
AcDbEntity
  8
0
100
AcDbLine
 10
27.25000025108272
 20
30.24999998845105
 30
0.0
 11
31.75000025108273
 21
30.24999998845105
 31
0.0
  0
LINE
  5
6A8
330
1F
100
AcDbEntity
  8
0
100
AcDbLine
 10
27.00000025108272
 20
32.99999998845106
 30
0.0
 11
32.00000025108272
 21
32.99999998845106
 31
0.0
  0
LINE
  5
6A9
330
1F
100
AcDbEntity
  8
0
100
AcDbLine
 10
27.25000025108272
 20
32.74999998845106
 30
0.0
 11
31.75000025108273
 21
32.74999998845106
 31
0.0
  0
LINE
  5
6AA
330
1F
100
AcDbEntity
  8
0
100
AcDbLine
 10
39.00000025108295
 20
123.9999999884511
 30
0.0
 11
55.00000025108292
 21
123.9999999884511
 31
0.0
  0
LINE
  5
6AB
330
1F
100
AcDbEntity
  8
0
100
AcDbLine
 10
89.50000025108272
 20
123.9999999884511
 30
0.0
 11
89.50000025108272
 21
125.9999999884511
 31
0.0
  0
LINE
  5
6AC
330
1F
100
AcDbEntity
  8
0
100
AcDbLine
 10
59.50000025108272
 20
123.9999999884511
 30
0.0
 11
59.50000025108272
 21
125.9999999884511
 31
0.0
  0
LINE
  5
6AD
330
1F
100
AcDbEntity
  8
0
100
AcDbLine
 10
55.00000025108292
 20
121.7499999884511
 30
0.0
 11
55.00000025108292
 21
123.4999999884511
 31
0.0
  0
LINE
  5
6AE
330
1F
100
AcDbEntity
  8
0
100
AcDbLine
 10
25.00000025108273
 20
124.9999999884511
 30
0.0
 11
25.00000025108273
 21
125.9999999884511
 31
0.0
  0
LINE
  5
6AF
330
1F
100
AcDbEntity
  8
0
100
AcDbLine
 10
34.00000025108261
 20
124.9999999884511
 30
0.0
 11
34.00000025108261
 21
125.9999999884511
 31
0.0
  0
ARC
  5
6B0
330
1F
100
AcDbEntity
  8
0
100
AcDbCircle
 10
25.50000025108273
 20
124.9999999884511
 30
0.0
 40
0.5
100
AcDbArc
 50
180.0
 51
270.0
1001
GENIUS_GENOBJ-N-FIL_13
1002
{
1000
OWNER
1000
GEN
1002
}
1001
GENIUS_GENODEF_13
1002
{
1000
HIER
1070
     0
1002
}
1002
{
1000
MANEDIT
1070
     0
1002
}
1002
{
1000
NOSEL
1070
     0
1002
}
1002
{
1000
BEHIND
1070
     0
1002
}
1002
{
1000
OTHER
1070
     0
1002
}
1002
{
1000
REACTOR
1002
}
  0
LINE
  5
6B1
330
1F
100
AcDbEntity
  8
0
100
AcDbLine
 10
55.00000025108292
 20
123.9999999884511
 30
0.0
 11
55.00000025108292
 21
125.9999999884511
 31
0.0
  0
LINE
  5
6B2
330
1F
100
AcDbEntity
  8
0
100
AcDbLine
 10
39.00000025108295
 20
123.4999999884511
 30
0.0
 11
55.00000025108292
 21
123.4999999884511
 31
0.0
  0
LINE
  5
6B3
330
1F
100
AcDbEntity
  8
0
100
AcDbLine
 10
39.00000025108295
 20
121.749999988451
 30
0.0
 11
39.00000025108295
 21
123.4999999884511
 31
0.0
  0
LINE
  5
6B4
330
1F
100
AcDbEntity
  8
0
100
AcDbLine
 10
53.50000025108292
 20
123.4999999884511
 30
0.0
 11
53.50000025108292
 21
123.9999999884511
 31
0.0
  0
LINE
  5
6B5
330
1F
100
AcDbEntity
  8
0
100
AcDbLine
 10
40.50000025108295
 20
123.4999999884511
 30
0.0
 11
40.50000025108295
 21
123.9999999884511
 31
0.0
  0
LINE
  5
6B6
330
1F
100
AcDbEntity
  8
0
100
AcDbLine
 10
39.00000025108295
 20
123.9999999884511
 30
0.0
 11
39.00000025108295
 21
125.9999999884511
 31
0.0
  0
LINE
  5
6B7
330
1F
100
AcDbEntity
  8
0
100
AcDbLine
 10
52.75000025108292
 20
114.9999999884511
 30
0.0
 11
53.75000025108292
 21
120.7499999884511
 31
0.0
  0
LINE
  5
6B8
330
1F
100
AcDbEntity
  8
0
100
AcDbLine
 10
31.75000025108273
 20
120.4999999884511
 30
0.0
 11
31.75000025108273
 21
124.4999999884511
 31
0.0
  0
LINE
  5
6B9
330
1F
100
AcDbEntity
  8
0
100
AcDbLine
 10
27.25000025108272
 20
120.4999999884511
 30
0.0
 11
27.25000025108272
 21
124.4999999884511
 31
0.0
  0
LINE
  5
6BA
330
1F
100
AcDbEntity
  8
0
100
AcDbLine
 10
41.25000025108294
 20
114.9999999884511
 30
0.0
 11
40.25000025108295
 21
120.7499999884511
 31
0.0
  0
LINE
  5
6BB
330
1F
100
AcDbEntity
  8
0
100
AcDbLine
 10
55.00000025108292
 20
121.7499999884511
 30
0.0
 11
53.75000025108292
 21
120.7499999884511
 31
0.0
  0
LINE
  5
6BC
330
1F
100
AcDbEntity
  8
0
100
AcDbLine
 10
40.25000025108295
 20
120.7499999884511
 30
0.0
 11
39.00000025108295
 21
121.749999988451
 31
0.0
  0
LINE
  5
6BD
330
1F
100
AcDbEntity
  8
0
100
AcDbLine
 10
238.5000002510831
 20
123.4999999884512
 30
0.0
 11
238.5000002510832
 21
125.9999999884512
 31
0.0
  0
LINE
  5
6BE
330
1F
100
AcDbEntity
  8
0
100
AcDbLine
 10
217.5000002510832
 20
123.4999999884512
 30
0.0
 11
217.5000002510832
 21
125.9999999884512
 31
0.0
  0
ARC
  5
6BF
330
1F
100
AcDbEntity
  8
0
100
AcDbCircle
 10
218.0000002510833
 20
123.4999999884512
 30
0.0
 40
0.5
100
AcDbArc
 50
180.0
 51
270.0
1001
GENIUS_GENOBJ-N-FIL_13
1002
{
1000
OWNER
1000
GEN
1002
}
1001
GENIUS_GENODEF_13
1002
{
1000
HIER
1070
     0
1002
}
1002
{
1000
MANEDIT
1070
     0
1002
}
1002
{
1000
NOSEL
1070
     0
1002
}
1002
{
1000
BEHIND
1070
     0
1002
}
1002
{
1000
OTHER
1070
     0
1002
}
1002
{
1000
REACTOR
1002
}
  0
LINE
  5
6C0
330
1F
100
AcDbEntity
  8
0
100
AcDbLine
 10
221.2500002510834
 20
120.7499999884511
 30
0.0
 11
234.7500002510833
 21
120.7499999884511
 31
0.0
  0
LINE
  5
6C1
330
1F
100
AcDbEntity
  8
0
100
AcDbLine
 10
220.0000002510833
 20
121.7499999884511
 30
0.0
 11
236.0000002510834
 21
121.7499999884511
 31
0.0
  0
LINE
  5
6C2
330
1F
100
AcDbEntity
  8
0
100
AcDbLine
 10
222.2500002510833
 20
114.9999999884511
 30
0.0
 11
233.7500002510834
 21
114.9999999884511
 31
0.0
  0
LINE
  5
6C3
330
1F
100
AcDbEntity
  8
0
100
AcDbLine
 10
236.0000002510834
 20
121.7499999884511
 30
0.0
 11
236.0000002510834
 21
122.9999999884512
 31
0.0
  0
LINE
  5
6C4
330
1F
100
AcDbEntity
  8
0
100
AcDbLine
 10
220.0000002510833
 20
121.749999988451
 30
0.0
 11
220.0000002510833
 21
122.9999999884512
 31
0.0
  0
LINE
  5
6C5
330
1F
100
AcDbEntity
  8
0
100
AcDbLine
 10
233.7500002510834
 20
114.9999999884511
 30
0.0
 11
234.7500002510833
 21
120.7499999884511
 31
0.0
  0
LINE
  5
6C6
330
1F
100
AcDbEntity
  8
0
100
AcDbLine
 10
222.2500002510833
 20
114.9999999884511
 30
0.0
 11
221.2500002510834
 21
120.7499999884511
 31
0.0
  0
LINE
  5
6C7
330
1F
100
AcDbEntity
  8
0
100
AcDbLine
 10
236.0000002510834
 20
121.7499999884511
 30
0.0
 11
234.7500002510833
 21
120.7499999884511
 31
0.0
  0
LINE
  5
6C8
330
1F
100
AcDbEntity
  8
0
100
AcDbLine
 10
221.2500002510834
 20
120.7499999884511
 30
0.0
 11
220.0000002510833
 21
121.749999988451
 31
0.0
  0
LINE
  5
6C9
330
1F
100
AcDbEntity
  8
0
100
AcDbLine
 10
375.7500002510824
 20
120.7499999884511
 30
0.0
 11
362.2500002510824
 21
120.7499999884511
 31
0.0
  0
LINE
  5
6CA
330
1F
100
AcDbEntity
  8
0
100
AcDbLine
 10
377.0000002510824
 20
121.7499999884511
 30
0.0
 11
361.0000002510824
 21
121.7499999884511
 31
0.0
  0
LINE
  5
6CB
330
1F
100
AcDbEntity
  8
0
100
AcDbLine
 10
374.7500002510824
 20
114.9999999884511
 30
0.0
 11
363.2500002510824
 21
114.9999999884511
 31
0.0
  0
LINE
  5
6CC
330
1F
100
AcDbEntity
  8
0
100
AcDbLine
 10
390.5000002510827
 20
124.4999999884511
 30
0.0
 11
382.5000002510827
 21
124.4999999884511
 31
0.0
  0
LINE
  5
6CD
330
1F
100
AcDbEntity
  8
0
100
AcDbLine
 10
388.7500002510827
 20
120.4999999884511
 30
0.0
 11
384.2500002510827
 21
120.4999999884511
 31
0.0
  0
ARC
  5
6CE
330
1F
100
AcDbEntity
  8
0
100
AcDbCircle
 10
382.5000002510827
 20
124.9999999884511
 30
0.0
 40
0.5
100
AcDbArc
 50
180.0
 51
270.0
1001
GENIUS_GENOBJ-N-FIL_13
1002
{
1000
OWNER
1000
GEN
1002
}
1001
GENIUS_GENODEF_13
1002
{
1000
HIER
1070
     0
1002
}
1002
{
1000
MANEDIT
1070
     0
1002
}
1002
{
1000
NOSEL
1070
     0
1002
}
1002
{
1000
BEHIND
1070
     0
1002
}
1002
{
1000
OTHER
1070
     0
1002
}
1002
{
1000
REACTOR
1002
}
  0
LINE
  5
6CF
330
1F
100
AcDbEntity
  8
0
100
AcDbLine
 10
356.0000002510826
 20
123.4999999884511
 30
0.0
 11
327.0000002510826
 21
123.4999999884511
 31
0.0
  0
ARC
  5
6D0
330
1F
100
AcDbEntity
  8
0
100
AcDbCircle
 10
327.0000002510826
 20
123.9999999884511
 30
0.0
 40
0.5
100
AcDbArc
 50
180.0
 51
270.0
1001
GENIUS_GENODEF_13
1002
{
1000
HIER
1070
     0
1002
}
1002
{
1000
MANEDIT
1070
     0
1002
}
1002
{
1000
NOSEL
1070
     0
1002
}
1002
{
1000
BEHIND
1070
     0
1002
}
1002
{
1000
OTHER
1070
     0
1002
}
1002
{
1000
REACTOR
1002
}
1001
GENIUS_GENOBJ-N-FIL_13
1002
{
1000
OWNER
1000
GEN
1002
}
  0
LINE
  5
6D1
330
1F
100
AcDbEntity
  8
0
100
AcDbLine
 10
326.5000002510825
 20
123.9999999884511
 30
0.0
 11
326.5000002510825
 21
125.9999999884511
 31
0.0
  0
LINE
  5
6D2
330
1F
100
AcDbEntity
  8
0
100
AcDbLine
 10
356.5000002510827
 20
123.9999999884511
 30
0.0
 11
356.5000002510827
 21
125.9999999884511
 31
0.0
  0
ARC
  5
6D3
330
1F
100
AcDbEntity
  8
0
100
AcDbCircle
 10
356.0000002510826
 20
123.9999999884511
 30
0.0
 40
0.5
100
AcDbArc
 50
270.0
 51
0.0
1001
GENIUS_GENOBJ-N-FIL_13
1002
{
1000
OWNER
1000
GEN
1002
}
1001
GENIUS_GENODEF_13
1002
{
1000
HIER
1070
     0
1002
}
1002
{
1000
MANEDIT
1070
     0
1002
}
1002
{
1000
NOSEL
1070
     0
1002
}
1002
{
1000
BEHIND
1070
     0
1002
}
1002
{
1000
OTHER
1070
     0
1002
}
1002
{
1000
REACTOR
1002
}
  0
LINE
  5
6D4
330
1F
100
AcDbEntity
  8
0
100
AcDbLine
 10
361.0000002510824
 20
121.7499999884511
 30
0.0
 11
361.0000002510824
 21
123.4999999884511
 31
0.0
  0
LINE
  5
6D5
330
1F
100
AcDbEntity
  8
0
100
AcDbLine
 10
377.0000002510824
 20
123.9999999884511
 30
0.0
 11
361.0000002510824
 21
123.9999999884511
 31
0.0
  0
LINE
  5
6D6
330
1F
100
AcDbEntity
  8
0
100
AcDbLine
 10
391.0000002510827
 20
124.9999999884511
 30
0.0
 11
391.0000002510827
 21
125.9999999884511
 31
0.0
  0
LINE
  5
6D7
330
1F
100
AcDbEntity
  8
0
100
AcDbLine
 10
382.0000002510827
 20
124.9999999884511
 30
0.0
 11
382.0000002510827
 21
125.9999999884511
 31
0.0
  0
ARC
  5
6D8
330
1F
100
AcDbEntity
  8
0
100
AcDbCircle
 10
390.5000002510827
 20
124.9999999884511
 30
0.0
 40
0.5
100
AcDbArc
 50
270.0
 51
0.0
1001
GENIUS_GENOBJ-N-FIL_13
1002
{
1000
OWNER
1000
GEN
1002
}
1001
GENIUS_GENODEF_13
1002
{
1000
HIER
1070
     0
1002
}
1002
{
1000
MANEDIT
1070
     0
1002
}
1002
{
1000
NOSEL
1070
     0
1002
}
1002
{
1000
BEHIND
1070
     0
1002
}
1002
{
1000
OTHER
1070
     0
1002
}
1002
{
1000
REACTOR
1002
}
  0
LINE
  5
6D9
330
1F
100
AcDbEntity
  8
0
100
AcDbLine
 10
377.0000002510824
 20
123.4999999884511
 30
0.0
 11
361.0000002510824
 21
123.4999999884511
 31
0.0
  0
LINE
  5
6DA
330
1F
100
AcDbEntity
  8
0
100
AcDbLine
 10
377.0000002510824
 20
121.749999988451
 30
0.0
 11
377.0000002510824
 21
123.4999999884511
 31
0.0
  0
LINE
  5
6DB
330
1F
100
AcDbEntity
  8
0
100
AcDbLine
 10
362.5000002510824
 20
123.4999999884511
 30
0.0
 11
362.5000002510824
 21
123.9999999884511
 31
0.0
  0
LINE
  5
6DC
330
1F
100
AcDbEntity
  8
0
100
AcDbLine
 10
375.5000002510826
 20
123.4999999884511
 30
0.0
 11
375.5000002510826
 21
123.9999999884511
 31
0.0
  0
LINE
  5
6DD
330
1F
100
AcDbEntity
  8
0
100
AcDbLine
 10
377.0000002510824
 20
123.9999999884511
 30
0.0
 11
377.0000002510824
 21
125.9999999884511
 31
0.0
  0
LINE
  5
6DE
330
1F
100
AcDbEntity
  8
0
100
AcDbLine
 10
361.0000002510824
 20
123.9999999884511
 30
0.0
 11
361.0000002510824
 21
125.9999999884511
 31
0.0
  0
LINE
  5
6DF
330
1F
100
AcDbEntity
  8
0
100
AcDbLine
 10
384.2500002510827
 20
120.4999999884511
 30
0.0
 11
384.2500002510827
 21
124.4999999884511
 31
0.0
  0
LINE
  5
6E0
330
1F
100
AcDbEntity
  8
0
100
AcDbLine
 10
388.7500002510827
 20
120.4999999884511
 30
0.0
 11
388.7500002510827
 21
124.4999999884511
 31
0.0
  0
LINE
  5
6E1
330
1F
100
AcDbEntity
  8
0
100
AcDbLine
 10
363.2500002510824
 20
114.9999999884511
 30
0.0
 11
362.2500002510824
 21
120.7499999884511
 31
0.0
  0
LINE
  5
6E2
330
1F
100
AcDbEntity
  8
0
100
AcDbLine
 10
374.7500002510824
 20
114.9999999884511
 30
0.0
 11
375.7500002510824
 21
120.7499999884511
 31
0.0
  0
LINE
  5
6E3
330
1F
100
AcDbEntity
  8
0
100
AcDbLine
 10
361.0000002510824
 20
121.7499999884511
 30
0.0
 11
362.2500002510824
 21
120.7499999884511
 31
0.0
  0
LINE
  5
6E4
330
1F
100
AcDbEntity
  8
0
100
AcDbLine
 10
375.7500002510824
 20
120.7499999884511
 30
0.0
 11
377.0000002510824
 21
121.749999988451
 31
0.0
  0
CIRCLE
  5
6E5
330
1F
100
AcDbEntity
  8
0
100
AcDbCircle
 10
240.000000251083
 20
205.9999999884511
 30
0.0
 40
2.0
  0
LINE
  5
6E6
330
1F
100
AcDbEntity
  8
0
100
AcDbLine
 10
234.6000002510839
 20
236.899999988451
 30
0.0
 11
243.6000002510824
 21
236.899999988451
 31
0.0
1001
GENIUS_GENREC_14
1002
{
1000
PYDIR
1011
235.0000002510837
1021
258.9999999884511
1031
0.0
1002
}
1002
{
1000
PXDIR
1011
243.1000002510824
1021
237.3999999884509
1031
0.0
1002
}
1002
{
1000
PORI
1011
235.0000002510837
1021
237.3999999884509
1031
0.0
1002
}
1002
{
1000
PINS
1011
235.0000002510837
1021
237.3999999884509
1031
0.0
1002
}
1002
{
1000
PINS2
1011
243.1000002510824
1021
258.9999999884511
1031
0.0
1002
}
1002
{
1000
C
1070
     1
1002
}
1001
GENIUS_GENOBJ-N-REC_13
1002
{
1000
OWNER
1000
GEN
1002
}
1001
GENIUS_GENODEF_13
1002
{
1000
HIER
1070
     0
1002
}
1002
{
1000
MANEDIT
1070
     0
1002
}
1002
{
1000
NOSEL
1070
     0
1002
}
1002
{
1000
BEHIND
1070
     0
1002
}
1002
{
1000
OTHER
1070
     0
1002
}
1002
{
1000
REACTOR
1002
}
  0
LINE
  5
6E7
330
1F
100
AcDbEntity
  8
0
100
AcDbLine
 10
243.6000002510824
 20
236.899999988451
 30
0.0
 11
243.6000002510824
 21
259.4999999884511
 31
0.0
1001
GENIUS_GENREC_14
1002
{
1000
PYDIR
1011
235.0000002510837
1021
258.9999999884511
1031
0.0
1002
}
1002
{
1000
PXDIR
1011
243.1000002510824
1021
237.3999999884509
1031
0.0
1002
}
1002
{
1000
PORI
1011
235.0000002510837
1021
237.3999999884509
1031
0.0
1002
}
1002
{
1000
PINS
1011
235.0000002510837
1021
237.3999999884509
1031
0.0
1002
}
1002
{
1000
PINS2
1011
243.1000002510824
1021
258.9999999884511
1031
0.0
1002
}
1002
{
1000
C
1070
     1
1002
}
1001
GENIUS_GENOBJ-N-REC_13
1002
{
1000
OWNER
1000
GEN
1002
}
1001
GENIUS_GENODEF_13
1002
{
1000
HIER
1070
     0
1002
}
1002
{
1000
MANEDIT
1070
     0
1002
}
1002
{
1000
NOSEL
1070
     0
1002
}
1002
{
1000
BEHIND
1070
     0
1002
}
1002
{
1000
OTHER
1070
     0
1002
}
1002
{
1000
REACTOR
1002
}
  0
LINE
  5
6E8
330
1F
100
AcDbEntity
  8
0
100
AcDbLine
 10
243.6000002510824
 20
259.4999999884511
 30
0.0
 11
234.6000002510839
 21
259.4999999884511
 31
0.0
1001
GENIUS_GENREC_14
1002
{
1000
PYDIR
1011
235.0000002510837
1021
258.9999999884511
1031
0.0
1002
}
1002
{
1000
PXDIR
1011
243.1000002510824
1021
237.3999999884509
1031
0.0
1002
}
1002
{
1000
PORI
1011
235.0000002510837
1021
237.3999999884509
1031
0.0
1002
}
1002
{
1000
PINS
1011
235.0000002510837
1021
237.3999999884509
1031
0.0
1002
}
1002
{
1000
PINS2
1011
243.1000002510824
1021
258.9999999884511
1031
0.0
1002
}
1002
{
1000
C
1070
     1
1002
}
1001
GENIUS_GENOBJ-N-REC_13
1002
{
1000
OWNER
1000
GEN
1002
}
1001
GENIUS_GENODEF_13
1002
{
1000
HIER
1070
     0
1002
}
1002
{
1000
MANEDIT
1070
     0
1002
}
1002
{
1000
NOSEL
1070
     0
1002
}
1002
{
1000
BEHIND
1070
     0
1002
}
1002
{
1000
OTHER
1070
     0
1002
}
1002
{
1000
REACTOR
1002
}
  0
LINE
  5
6E9
330
1F
100
AcDbEntity
  8
0
100
AcDbLine
 10
234.6000002510839
 20
259.4999999884511
 30
0.0
 11
234.6000002510839
 21
236.899999988451
 31
0.0
1001
GENIUS_GENREC_14
1002
{
1000
PYDIR
1011
235.1000002510837
1021
258.9999999884511
1031
0.0
1002
}
1002
{
1000
PXDIR
1011
243.1000002510824
1021
237.3999999884509
1031
0.0
1002
}
1002
{
1000
PORI
1011
235.1000002510837
1021
237.3999999884509
1031
0.0
1002
}
1002
{
1000
PINS
1011
235.1000002510837
1021
237.3999999884509
1031
0.0
1002
}
1002
{
1000
PINS2
1011
243.1000002510824
1021
258.9999999884511
1031
0.0
1002
}
1002
{
1000
C
1070
     1
1002
}
1001
GENIUS_GENOBJ-N-REC_13
1002
{
1000
OWNER
1000
GEN
1002
}
1001
GENIUS_GENODEF_13
1002
{
1000
HIER
1070
     0
1002
}
1002
{
1000
MANEDIT
1070
     0
1002
}
1002
{
1000
NOSEL
1070
     0
1002
}
1002
{
1000
BEHIND
1070
     0
1002
}
1002
{
1000
OTHER
1070
     0
1002
}
1002
{
1000
REACTOR
1002
}
  0
LINE
  5
6EA
330
1F
100
AcDbEntity
  8
0
100
AcDbLine
 10
249.6000002510815
 20
258.4999999884513
 30
0.0
 11
249.6000002510832
 21
239.4999999884513
 31
0.0
  0
LINE
  5
6EB
330
1F
100
AcDbEntity
  8
0
100
AcDbLine
 10
244.6000002510815
 20
258.4999999884511
 30
0.0
 11
244.6000002510833
 21
239.4999999884511
 31
0.0
  0
LINE
  5
6EC
330
1F
100
AcDbEntity
  8
0
100
AcDbLine
 10
249.1000002510815
 20
258.9999999884513
 30
0.0
 11
245.1000002510815
 21
258.9999999884511
 31
0.0
  0
LINE
  5
6ED
330
1F
100
AcDbEntity
  8
0
100
AcDbLine
 10
245.1000002510832
 20
238.9999999884511
 30
0.0
 11
249.1000002510832
 21
238.9999999884511
 31
0.0
  0
ARC
  5
6EE
330
1F
100
AcDbEntity
  8
0
100
AcDbCircle
 10
249.1000002510832
 20
239.4999999884511
 30
0.0
 40
0.5
100
AcDbArc
 50
270.0000000000033
 51
0.0000000000032569
1001
GENIUS_GENODEF_13
1002
{
1000
HIER
1070
     0
1002
}
1002
{
1000
MANEDIT
1070
     0
1002
}
1002
{
1000
NOSEL
1070
     0
1002
}
1002
{
1000
BEHIND
1070
     0
1002
}
1002
{
1000
OTHER
1070
     0
1002
}
1002
{
1000
REACTOR
1002
}
1001
GENIUS_GENOBJ-N-FIL_13
1002
{
1000
OWNER
1000
GEN
1002
}
  0
ARC
  5
6EF
330
1F
100
AcDbEntity
  8
0
100
AcDbCircle
 10
245.1000002510832
 20
239.4999999884511
 30
0.0
 40
0.5
100
AcDbArc
 50
180.0000000000032
 51
270.0000000000033
1001
GENIUS_GENODEF_13
1002
{
1000
HIER
1070
     0
1002
}
1002
{
1000
MANEDIT
1070
     0
1002
}
1002
{
1000
NOSEL
1070
     0
1002
}
1002
{
1000
BEHIND
1070
     0
1002
}
1002
{
1000
OTHER
1070
     0
1002
}
1002
{
1000
REACTOR
1002
}
1001
GENIUS_GENOBJ-N-FIL_13
1002
{
1000
OWNER
1000
GEN
1002
}
  0
ARC
  5
6F0
330
1F
100
AcDbEntity
  8
0
100
AcDbCircle
 10
245.1000002510815
 20
258.4999999884511
 30
0.0
 40
0.5
100
AcDbArc
 50
90.00000000000325
 51
180.0000000000032
1001
GENIUS_GENOBJ-N-FIL_13
1002
{
1000
OWNER
1000
GEN
1002
}
1001
GENIUS_GENODEF_13
1002
{
1000
HIER
1070
     0
1002
}
1002
{
1000
MANEDIT
1070
     0
1002
}
1002
{
1000
NOSEL
1070
     0
1002
}
1002
{
1000
BEHIND
1070
     0
1002
}
1002
{
1000
OTHER
1070
     0
1002
}
1002
{
1000
REACTOR
1002
}
  0
ARC
  5
6F1
330
1F
100
AcDbEntity
  8
0
100
AcDbCircle
 10
249.1000002510815
 20
258.4999999884513
 30
0.0
 40
0.5
100
AcDbArc
 50
0.0000000000032569
 51
90.00000000000325
1001
GENIUS_GENOBJ-N-FIL_13
1002
{
1000
OWNER
1000
GEN
1002
}
1001
GENIUS_GENODEF_13
1002
{
1000
HIER
1070
     0
1002
}
1002
{
1000
MANEDIT
1070
     0
1002
}
1002
{
1000
NOSEL
1070
     0
1002
}
1002
{
1000
BEHIND
1070
     0
1002
}
1002
{
1000
OTHER
1070
     0
1002
}
1002
{
1000
REACTOR
1002
}
  0
LINE
  5
6F2
330
1F
100
AcDbEntity
  8
0
100
AcDbLine
 10
234.9000002510824
 20
258.9999999884511
 30
0.0
 11
243.6000002510824
 21
258.9999999884511
 31
0.0
  0
LINE
  5
6F3
330
1F
100
AcDbEntity
  8
0
100
AcDbLine
 10
240.9000002510824
 20
257.3999999884512
 30
0.0
 11
242.9000002510824
 21
257.3999999884512
 31
0.0
  0
LINE
  5
6F4
330
1F
100
AcDbEntity
  8
0
100
AcDbLine
 10
241.2500002510825
 20
257.099999988451
 30
0.0
 11
242.3000002510824
 21
257.099999988451
 31
0.0
  0
LINE
  5
6F5
330
1F
100
AcDbEntity
  8
0
100
AcDbLine
 10
234.9000002510836
 20
253.9999999884511
 30
0.0
 11
243.3500002510824
 21
253.9999999884511
 31
0.0
  0
CIRCLE
  5
6F6
330
1F
100
AcDbEntity
  8
0
100
AcDbCircle
 10
238.6000002510834
 20
256.499999988451
 30
0.0
 40
1.7
  0
LINE
  5
6F7
330
1F
100
AcDbEntity
  8
0
100
AcDbLine
 10
242.6000002510825
 20
256.199999988451
 30
0.0
 11
242.6000002510825
 21
255.1999999884512
 31
0.0
  0
LINE
  5
6F8
330
1F
100
AcDbEntity
  8
0
100
AcDbLine
 10
242.3000002510824
 20
257.099999988451
 30
0.0
 11
242.3000002510824
 21
256.199999988451
 31
0.0
  0
LINE
  5
6F9
330
1F
100
AcDbEntity
  8
0
100
AcDbLine
 10
242.3000002510824
 20
255.1999999884512
 30
0.0
 11
242.3000002510824
 21
254.299999988451
 31
0.0
  0
LINE
  5
6FA
330
1F
100
AcDbEntity
  8
0
100
AcDbLine
 10
241.2500002510825
 20
254.299999988451
 30
0.0
 11
242.3000002510824
 21
254.299999988451
 31
0.0
  0
LINE
  5
6FB
330
1F
100
AcDbEntity
  8
0
100
AcDbLine
 10
241.2500002510825
 20
257.099999988451
 30
0.0
 11
241.2500002510825
 21
254.299999988451
 31
0.0
  0
LINE
  5
6FC
330
1F
100
AcDbEntity
  8
0
100
AcDbLine
 10
234.9000002510833
 20
253.9999999884511
 30
0.0
 11
243.6000002510824
 21
253.9999999884511
 31
0.0
  0
LINE
  5
6FD
330
1F
100
AcDbEntity
  8
0
100
AcDbLine
 10
234.9000002510836
 20
248.9999999884511
 30
0.0
 11
243.3500002510824
 21
248.9999999884511
 31
0.0
  0
CIRCLE
  5
6FE
330
1F
100
AcDbEntity
  8
0
100
AcDbCircle
 10
238.6000002510834
 20
251.4999999884511
 30
0.0
 40
1.7
  0
LINE
  5
6FF
330
1F
100
AcDbEntity
  8
0
100
AcDbLine
 10
234.9000002510833
 20
248.9999999884511
 30
0.0
 11
243.6000002510824
 21
248.9999999884511
 31
0.0
  0
LINE
  5
700
330
1F
100
AcDbEntity
  8
0
100
AcDbLine
 10
234.9000002510836
 20
243.9999999884511
 30
0.0
 11
243.3500002510824
 21
243.9999999884511
 31
0.0
  0
CIRCLE
  5
701
330
1F
100
AcDbEntity
  8
0
100
AcDbCircle
 10
238.6000002510834
 20
246.4999999884511
 30
0.0
 40
1.7
  0
LINE
  5
702
330
1F
100
AcDbEntity
  8
0
100
AcDbLine
 10
234.9000002510833
 20
243.9999999884511
 30
0.0
 11
243.6000002510824
 21
243.9999999884511
 31
0.0
  0
LINE
  5
703
330
1F
100
AcDbEntity
  8
0
100
AcDbLine
 10
234.9000002510836
 20
238.9999999884511
 30
0.0
 11
243.6000002510824
 21
238.9999999884511
 31
0.0
  0
LINE
  5
704
330
1F
100
AcDbEntity
  8
0
100
AcDbLine
 10
234.9000002510837
 20
237.3999999884512
 30
0.0
 11
243.6000002510824
 21
237.3999999884512
 31
0.0
  0
LINE
  5
705
330
1F
100
AcDbEntity
  8
0
100
AcDbLine
 10
240.9000002510837
 20
237.3999999884517
 30
0.0
 11
240.9000002510824
 21
258.9999999884515
 31
0.0
  0
LINE
  5
706
330
1F
100
AcDbEntity
  8
0
100
AcDbLine
 10
242.9000002510837
 20
237.3999999884517
 30
0.0
 11
242.9000002510824
 21
258.9999999884515
 31
0.0
  0
LINE
  5
707
330
1F
100
AcDbEntity
  8
0
100
AcDbLine
 10
243.4000002510837
 20
237.3999999884517
 30
0.0
 11
243.4000002510824
 21
258.9999999884515
 31
0.0
  0
CIRCLE
  5
708
330
1F
100
AcDbEntity
  8
0
100
AcDbCircle
 10
238.6000002510834
 20
241.4999999884511
 30
0.0
 40
1.7
  0
CIRCLE
  5
709
330
1F
100
AcDbEntity
  8
0
100
AcDbCircle
 10
238.6000002510834
 20
256.499999988451
 30
0.0
 40
1.0
  0
CIRCLE
  5
70A
330
1F
100
AcDbEntity
  8
0
100
AcDbCircle
 10
238.6000002510834
 20
251.4999999884511
 30
0.0
 40
1.0
  0
CIRCLE
  5
70B
330
1F
100
AcDbEntity
  8
0
100
AcDbCircle
 10
238.6000002510834
 20
246.4999999884511
 30
0.0
 40
1.0
  0
CIRCLE
  5
70C
330
1F
100
AcDbEntity
  8
0
100
AcDbCircle
 10
238.6000002510834
 20
241.4999999884511
 30
0.0
 40
1.0
  0
LINE
  5
70D
330
1F
100
AcDbEntity
  8
0
100
AcDbLine
 10
242.3000002510824
 20
256.199999988451
 30
0.0
 11
242.6000002510825
 21
256.199999988451
 31
0.0
  0
LINE
  5
70E
330
1F
100
AcDbEntity
  8
0
100
AcDbLine
 10
242.3000002510824
 20
255.1999999884512
 30
0.0
 11
242.6000002510825
 21
255.1999999884512
 31
0.0
  0
LINE
  5
70F
330
1F
100
AcDbEntity
  8
0
100
AcDbLine
 10
240.9000002510824
 20
252.3999999884512
 30
0.0
 11
242.9000002510824
 21
252.3999999884512
 31
0.0
  0
LINE
  5
710
330
1F
100
AcDbEntity
  8
0
100
AcDbLine
 10
240.9000002510824
 20
247.3999999884512
 30
0.0
 11
242.9000002510824
 21
247.3999999884512
 31
0.0
  0
LINE
  5
711
330
1F
100
AcDbEntity
  8
0
100
AcDbLine
 10
240.9000002510824
 20
242.3999999884512
 30
0.0
 11
242.9000002510824
 21
242.3999999884512
 31
0.0
  0
LINE
  5
712
330
1F
100
AcDbEntity
  8
0
100
AcDbLine
 10
241.2500002510825
 20
252.099999988451
 30
0.0
 11
242.3000002510824
 21
252.099999988451
 31
0.0
  0
LINE
  5
713
330
1F
100
AcDbEntity
  8
0
100
AcDbLine
 10
242.6000002510825
 20
251.1999999884512
 30
0.0
 11
242.6000002510825
 21
250.1999999884511
 31
0.0
  0
LINE
  5
714
330
1F
100
AcDbEntity
  8
0
100
AcDbLine
 10
242.3000002510824
 20
252.099999988451
 30
0.0
 11
242.3000002510824
 21
251.1999999884512
 31
0.0
  0
LINE
  5
715
330
1F
100
AcDbEntity
  8
0
100
AcDbLine
 10
242.3000002510824
 20
250.1999999884511
 30
0.0
 11
242.3000002510824
 21
249.2999999884511
 31
0.0
  0
LINE
  5
716
330
1F
100
AcDbEntity
  8
0
100
AcDbLine
 10
241.2500002510825
 20
249.2999999884511
 30
0.0
 11
242.3000002510824
 21
249.2999999884511
 31
0.0
  0
LINE
  5
717
330
1F
100
AcDbEntity
  8
0
100
AcDbLine
 10
241.2500002510825
 20
252.099999988451
 30
0.0
 11
241.2500002510825
 21
249.2999999884511
 31
0.0
  0
LINE
  5
718
330
1F
100
AcDbEntity
  8
0
100
AcDbLine
 10
242.3000002510824
 20
251.1999999884512
 30
0.0
 11
242.6000002510825
 21
251.1999999884512
 31
0.0
  0
LINE
  5
719
330
1F
100
AcDbEntity
  8
0
100
AcDbLine
 10
242.3000002510824
 20
250.1999999884511
 30
0.0
 11
242.6000002510825
 21
250.1999999884511
 31
0.0
  0
LINE
  5
71A
330
1F
100
AcDbEntity
  8
0
100
AcDbLine
 10
241.2500002510825
 20
247.099999988451
 30
0.0
 11
242.3000002510824
 21
247.099999988451
 31
0.0
  0
LINE
  5
71B
330
1F
100
AcDbEntity
  8
0
100
AcDbLine
 10
242.6000002510825
 20
246.1999999884511
 30
0.0
 11
242.6000002510825
 21
245.1999999884512
 31
0.0
  0
LINE
  5
71C
330
1F
100
AcDbEntity
  8
0
100
AcDbLine
 10
242.3000002510824
 20
247.099999988451
 30
0.0
 11
242.3000002510824
 21
246.1999999884511
 31
0.0
  0
LINE
  5
71D
330
1F
100
AcDbEntity
  8
0
100
AcDbLine
 10
242.3000002510824
 20
245.1999999884512
 30
0.0
 11
242.3000002510824
 21
244.2999999884511
 31
0.0
  0
LINE
  5
71E
330
1F
100
AcDbEntity
  8
0
100
AcDbLine
 10
241.2500002510825
 20
244.2999999884511
 30
0.0
 11
242.3000002510824
 21
244.2999999884511
 31
0.0
  0
LINE
  5
71F
330
1F
100
AcDbEntity
  8
0
100
AcDbLine
 10
241.2500002510825
 20
247.099999988451
 30
0.0
 11
241.2500002510825
 21
244.2999999884511
 31
0.0
  0
LINE
  5
720
330
1F
100
AcDbEntity
  8
0
100
AcDbLine
 10
242.3000002510824
 20
246.1999999884511
 30
0.0
 11
242.6000002510825
 21
246.1999999884511
 31
0.0
  0
LINE
  5
721
330
1F
100
AcDbEntity
  8
0
100
AcDbLine
 10
242.3000002510824
 20
245.1999999884512
 30
0.0
 11
242.6000002510825
 21
245.1999999884512
 31
0.0
  0
LINE
  5
722
330
1F
100
AcDbEntity
  8
0
100
AcDbLine
 10
241.2500002510825
 20
242.099999988451
 30
0.0
 11
242.3000002510824
 21
242.099999988451
 31
0.0
  0
LINE
  5
723
330
1F
100
AcDbEntity
  8
0
100
AcDbLine
 10
242.6000002510825
 20
241.1999999884511
 30
0.0
 11
242.6000002510825
 21
240.1999999884511
 31
0.0
  0
LINE
  5
724
330
1F
100
AcDbEntity
  8
0
100
AcDbLine
 10
242.3000002510824
 20
242.099999988451
 30
0.0
 11
242.3000002510824
 21
241.1999999884511
 31
0.0
  0
LINE
  5
725
330
1F
100
AcDbEntity
  8
0
100
AcDbLine
 10
242.3000002510824
 20
240.1999999884511
 30
0.0
 11
242.3000002510824
 21
239.299999988451
 31
0.0
  0
LINE
  5
726
330
1F
100
AcDbEntity
  8
0
100
AcDbLine
 10
241.2500002510825
 20
239.299999988451
 30
0.0
 11
242.3000002510824
 21
239.299999988451
 31
0.0
  0
LINE
  5
727
330
1F
100
AcDbEntity
  8
0
100
AcDbLine
 10
241.2500002510825
 20
242.099999988451
 30
0.0
 11
241.2500002510825
 21
239.299999988451
 31
0.0
  0
LINE
  5
728
330
1F
100
AcDbEntity
  8
0
100
AcDbLine
 10
242.3000002510824
 20
241.1999999884511
 30
0.0
 11
242.6000002510825
 21
241.1999999884511
 31
0.0
  0
LINE
  5
729
330
1F
100
AcDbEntity
  8
0
100
AcDbLine
 10
242.3000002510824
 20
240.1999999884511
 30
0.0
 11
242.6000002510825
 21
240.1999999884511
 31
0.0
  0
LINE
  5
72A
330
1F
100
AcDbEntity
  8
0
100
AcDbLine
 10
234.900000251083
 20
236.899999988451
 30
0.0
 11
234.900000251083
 21
259.4999999884511
 31
0.0
1001
GENIUS_GENREC_14
1002
{
1000
PYDIR
1011
128.300000251083
1021
289.4999999884511
1031
0.0
1002
}
1002
{
1000
PXDIR
1011
203.300000251083
1021
227.4999999884511
1031
0.0
1002
}
1002
{
1000
PORI
1011
128.300000251083
1021
227.4999999884511
1031
0.0
1002
}
1002
{
1000
PINS
1011
128.300000251083
1021
227.4999999884511
1031
0.0
1002
}
1002
{
1000
HVAL
1000
70
1002
}
1002
{
1000
H
1070
     2
1002
}
1002
{
1000
WVAL
1000
70
1002
}
1002
{
1000
W
1070
     2
1002
}
1002
{
1000
C
1070
     1
1002
}
1001
GENIUS_GENOBJ-N-REC_13
1002
{
1000
OWNER
1000
GEN
1002
}
1001
GENIUS_GENODEF_13
1002
{
1000
HIER
1070
     0
1002
}
1002
{
1000
MANEDIT
1070
     0
1002
}
1002
{
1000
NOSEL
1070
     0
1002
}
1002
{
1000
BEHIND
1070
     0
1002
}
1002
{
1000
OTHER
1070
     0
1002
}
1002
{
1000
REACTOR
1002
}
  0
LINE
  5
72B
330
1F
100
AcDbEntity
  8
0
100
AcDbLine
 10
234.900000251083
 20
264.699999988451
 30
0.0
 11
234.900000251083
 21
280.2999999884513
 31
0.0
1001
GENIUS_GENREC_14
1002
{
1000
PYDIR
1011
128.300000251083
1021
289.4999999884511
1031
0.0
1002
}
1002
{
1000
PXDIR
1011
203.300000251083
1021
227.4999999884511
1031
0.0
1002
}
1002
{
1000
PORI
1011
128.300000251083
1021
227.4999999884511
1031
0.0
1002
}
1002
{
1000
PINS
1011
128.300000251083
1021
227.4999999884511
1031
0.0
1002
}
1002
{
1000
HVAL
1000
70
1002
}
1002
{
1000
H
1070
     2
1002
}
1002
{
1000
WVAL
1000
70
1002
}
1002
{
1000
W
1070
     2
1002
}
1002
{
1000
C
1070
     1
1002
}
1001
GENIUS_GENOBJ-N-REC_13
1002
{
1000
OWNER
1000
GEN
1002
}
1001
GENIUS_GENODEF_13
1002
{
1000
HIER
1070
     0
1002
}
1002
{
1000
MANEDIT
1070
     0
1002
}
1002
{
1000
NOSEL
1070
     0
1002
}
1002
{
1000
BEHIND
1070
     0
1002
}
1002
{
1000
OTHER
1070
     0
1002
}
1002
{
1000
REACTOR
1002
}
  0
LINE
  5
72C
330
1F
100
AcDbEntity
  8
0
100
AcDbLine
 10
249.6000002510824
 20
248.9999999884513
 30
0.0
 11
244.6000002510825
 21
248.9999999884511
 31
0.0
  0
CIRCLE
  5
72D
330
1F
100
AcDbEntity
  8
0
100
AcDbCircle
 10
308.386264988499
 20
285.9999999884511
 30
0.0
 40
3.5
  0
CIRCLE
  5
72F
330
1F
100
AcDbEntity
  8
0
100
AcDbCircle
 10
308.386264988499
 20
285.9999999884511
 30
0.0
 40
0.508
  0
ARC
  5
730
330
1F
100
AcDbEntity
  8
0
100
AcDbCircle
 10
310.0612649884989
 20
285.9999999884511
 30
0.0
 40
0.508
100
AcDbArc
 50
98.72208274907681
 51
261.2779172509231
  0
ARC
  5
731
330
1F
100
AcDbEntity
  8
0
100
AcDbCircle
 10
309.2237649884989
 20
287.4505925397901
 30
0.0
 40
0.508
100
AcDbArc
 50
158.722082750572
 51
321.2779172494393
  0
ARC
  5
732
330
1F
100
AcDbEntity
  8
0
100
AcDbCircle
 10
307.5487649884991
 20
287.4505925397902
 30
0.0
 40
0.508
100
AcDbArc
 50
218.7220827496057
 51
21.27791725038556
  0
ARC
  5
733
330
1F
100
AcDbEntity
  8
0
100
AcDbCircle
 10
306.7112649884989
 20
285.9999999884511
 30
0.0
 40
0.508
100
AcDbArc
 50
278.7220827503749
 51
81.27791724962499
  0
ARC
  5
734
330
1F
100
AcDbEntity
  8
0
100
AcDbCircle
 10
307.5487649884986
 20
284.549407437112
 30
0.0
 40
0.508
100
AcDbArc
 50
338.7220827501845
 51
141.277917249801
  0
ARC
  5
735
330
1F
100
AcDbEntity
  8
0
100
AcDbCircle
 10
309.2237649884991
 20
284.549407437112
 30
0.0
 40
0.508
100
AcDbArc
 50
38.72208275026149
 51
201.2779172497392
  0
CIRCLE
  5
736
330
1F
100
AcDbEntity
  8
0
100
AcDbCircle
 10
308.386264988499
 20
285.9999999884511
 30
0.0
 40
1.674999999992149
  0
CIRCLE
  5
737
330
1F
100
AcDbEntity
  8
0
100
AcDbCircle
 10
408.5000002510827
 20
285.9999999884511
 30
0.0
 40
3.5
  0
CIRCLE
  5
739
330
1F
100
AcDbEntity
  8
0
100
AcDbCircle
 10
408.5000002510827
 20
285.9999999884511
 30
0.0
 40
0.508
  0
ARC
  5
73A
330
1F
100
AcDbEntity
  8
0
100
AcDbCircle
 10
410.1750002510827
 20
285.9999999884511
 30
0.0
 40
0.508
100
AcDbArc
 50
98.72208274907681
 51
261.2779172509231
  0
ARC
  5
73B
330
1F
100
AcDbEntity
  8
0
100
AcDbCircle
 10
409.3375002510826
 20
287.4505925397901
 30
0.0
 40
0.508
100
AcDbArc
 50
158.7220827505733
 51
321.2779172494393
  0
ARC
  5
73C
330
1F
100
AcDbEntity
  8
0
100
AcDbCircle
 10
407.6625002510827
 20
287.4505925397902
 30
0.0
 40
0.508
100
AcDbArc
 50
218.722082749608
 51
21.27791725038556
  0
ARC
  5
73D
330
1F
100
AcDbEntity
  8
0
100
AcDbCircle
 10
406.8250002510825
 20
285.9999999884511
 30
0.0
 40
0.508
100
AcDbArc
 50
278.7220827503749
 51
81.27791724962499
  0
ARC
  5
73E
330
1F
100
AcDbEntity
  8
0
100
AcDbCircle
 10
407.6625002510824
 20
284.549407437112
 30
0.0
 40
0.508
100
AcDbArc
 50
338.7220827501845
 51
141.2779172498028
  0
ARC
  5
73F
330
1F
100
AcDbEntity
  8
0
100
AcDbCircle
 10
409.3375002510827
 20
284.549407437112
 30
0.0
 40
0.508
100
AcDbArc
 50
38.72208275026362
 51
201.2779172497392
  0
CIRCLE
  5
740
330
1F
100
AcDbEntity
  8
0
100
AcDbCircle
 10
408.5000002510827
 20
285.9999999884511
 30
0.0
 40
1.674999999992149
  0
CIRCLE
  5
741
330
1F
100
AcDbEntity
  8
0
100
AcDbCircle
 10
408.5000002510827
 20
135.9999999884511
 30
0.0
 40
3.5
  0
CIRCLE
  5
743
330
1F
100
AcDbEntity
  8
0
100
AcDbCircle
 10
408.5000002510827
 20
135.9999999884511
 30
0.0
 40
0.508
  0
ARC
  5
744
330
1F
100
AcDbEntity
  8
0
100
AcDbCircle
 10
410.1750002510827
 20
135.9999999884511
 30
0.0
 40
0.508
100
AcDbArc
 50
98.72208274907681
 51
261.2779172509231
  0
ARC
  5
745
330
1F
100
AcDbEntity
  8
0
100
AcDbCircle
 10
409.3375002510826
 20
137.4505925397901
 30
0.0
 40
0.508
100
AcDbArc
 50
158.7220827505749
 51
321.2779172494407
  0
ARC
  5
746
330
1F
100
AcDbEntity
  8
0
100
AcDbCircle
 10
407.6625002510827
 20
137.4505925397902
 30
0.0
 40
0.508
100
AcDbArc
 50
218.7220827496091
 51
21.27791725038556
  0
ARC
  5
747
330
1F
100
AcDbEntity
  8
0
100
AcDbCircle
 10
406.8250002510825
 20
135.9999999884511
 30
0.0
 40
0.508
100
AcDbArc
 50
278.7220827503749
 51
81.27791724962497
  0
ARC
  5
748
330
1F
100
AcDbEntity
  8
0
100
AcDbCircle
 10
407.6625002510824
 20
134.549407437112
 30
0.0
 40
0.508
100
AcDbArc
 50
338.7220827501845
 51
141.2779172498041
  0
ARC
  5
749
330
1F
100
AcDbEntity
  8
0
100
AcDbCircle
 10
409.3375002510827
 20
134.549407437112
 30
0.0
 40
0.508
100
AcDbArc
 50
38.72208275026493
 51
201.2779172497392
  0
CIRCLE
  5
74A
330
1F
100
AcDbEntity
  8
0
100
AcDbCircle
 10
408.5000002510827
 20
135.9999999884511
 30
0.0
 40
1.674999999992149
  0
CIRCLE
  5
74B
330
1F
100
AcDbEntity
  8
0
100
AcDbCircle
 10
308.5000002510827
 20
135.9999999884511
 30
0.0
 40
3.5
  0
CIRCLE
  5
74D
330
1F
100
AcDbEntity
  8
0
100
AcDbCircle
 10
308.5000002510827
 20
135.9999999884511
 30
0.0
 40
0.508
  0
ARC
  5
74E
330
1F
100
AcDbEntity
  8
0
100
AcDbCircle
 10
310.1750002510827
 20
135.9999999884511
 30
0.0
 40
0.508
100
AcDbArc
 50
98.72208274907681
 51
261.2779172509231
  0
ARC
  5
74F
330
1F
100
AcDbEntity
  8
0
100
AcDbCircle
 10
309.3375002510826
 20
137.4505925397901
 30
0.0
 40
0.508
100
AcDbArc
 50
158.7220827505737
 51
321.2779172494407
  0
ARC
  5
750
330
1F
100
AcDbEntity
  8
0
100
AcDbCircle
 10
307.6625002510827
 20
137.4505925397902
 30
0.0
 40
0.508
100
AcDbArc
 50
218.7220827496068
 51
21.27791725038556
  0
ARC
  5
751
330
1F
100
AcDbEntity
  8
0
100
AcDbCircle
 10
306.8250002510826
 20
135.9999999884511
 30
0.0
 40
0.508
100
AcDbArc
 50
278.7220827503749
 51
81.27791724962497
  0
ARC
  5
752
330
1F
100
AcDbEntity
  8
0
100
AcDbCircle
 10
307.6625002510824
 20
134.549407437112
 30
0.0
 40
0.508
100
AcDbArc
 50
338.7220827501845
 51
141.2779172498023
  0
ARC
  5
753
330
1F
100
AcDbEntity
  8
0
100
AcDbCircle
 10
309.3375002510827
 20
134.549407437112
 30
0.0
 40
0.508
100
AcDbArc
 50
38.72208275026263
 51
201.2779172497392
  0
CIRCLE
  5
754
330
1F
100
AcDbEntity
  8
0
100
AcDbCircle
 10
308.5000002510827
 20
135.9999999884511
 30
0.0
 40
1.674999999992149
  0
LINE
  5
755
330
1F
100
AcDbEntity
  8
0
100
AcDbLine
 10
223.0049585351541
 20
289.4999999884511
 30
0.0
 11
224.2671820997841
 21
289.2774359183207
 31
0.0
  0
LINE
  5
756
330
1F
100
AcDbEntity
  8
0
100
AcDbLine
 10
223.0049585351543
 20
282.4999999884511
 30
0.0
 11
224.2671820997839
 21
282.7225640585815
 31
0.0
  0
LINE
  5
757
330
1F
100
AcDbEntity
  8
0
100
AcDbLine
 10
223.0049585351541
 20
289.4999999884511
 30
0.0
 11
223.0049585351543
 21
282.4999999884511
 31
0.0
  0
ARC
  5
758
330
1F
100
AcDbEntity
  8
0
100
AcDbCircle
 10
216.6049585351544
 20
285.9999999884511
 30
0.0
 40
9.0
100
AcDbArc
 50
344.9670326081673
 51
15.0329673918328
  0
ARC
  5
759
330
1F
100
AcDbEntity
  8
0
100
AcDbCircle
 10
224.0414394688169
 20
284.0028141374972
 30
0.0
 40
1.3
100
AcDbArc
 50
279.9999999999961
 51
344.9670326081662
1001
GENIUS_GENOBJ-N-FIL_13
1002
{
1000
OWNER
1000
GEN
1002
}
1001
GENIUS_GENODEF_13
1002
{
1000
HIER
1070
     0
1002
}
1002
{
1000
MANEDIT
1070
     0
1002
}
1002
{
1000
NOSEL
1070
     0
1002
}
1002
{
1000
BEHIND
1070
     0
1002
}
1002
{
1000
OTHER
1070
     0
1002
}
1002
{
1000
REACTOR
1002
}
  0
ARC
  5
75A
330
1F
100
AcDbEntity
  8
0
100
AcDbCircle
 10
224.0414394688169
 20
287.997185839405
 30
0.0
 40
1.3
100
AcDbArc
 50
15.03296739183379
 51
79.99999999999403
1001
GENIUS_GENODEF_13
1002
{
1000
HIER
1070
     0
1002
}
1002
{
1000
MANEDIT
1070
     0
1002
}
1002
{
1000
NOSEL
1070
     0
1002
}
1002
{
1000
BEHIND
1070
     0
1002
}
1002
{
1000
OTHER
1070
     0
1002
}
1002
{
1000
REACTOR
1002
}
1001
GENIUS_GENOBJ-N-FIL_13
1002
{
1000
OWNER
1000
GEN
1002
}
  0
LINE
  5
75B
330
1F
100
AcDbEntity
  8
0
100
AcDbLine
 10
225.4477168717835
 20
286.5079999884511
 30
0.0
 11
225.5906102087949
 21
286.5079999884511
 31
0.0
  0
LINE
  5
75C
330
1F
100
AcDbEntity
  8
0
100
AcDbLine
 10
225.4477168717835
 20
285.4919999884511
 30
0.0
 11
225.5906102087949
 21
285.4919999884511
 31
0.0
  0
LINE
  5
75D
330
1F
100
AcDbEntity
  8
0
100
AcDbLine
 10
225.4477168717835
 20
287.6749999884433
 30
0.0
 11
225.4477168717835
 21
284.3249999884589
 31
0.0
  0
LINE
  5
75E
330
1F
100
AcDbEntity
  8
0
100
AcDbLine
 10
223.0049585351541
 20
139.7274705136186
 30
0.0
 11
224.2671820997841
 21
139.5049064434882
 31
0.0
  0
LINE
  5
75F
330
1F
100
AcDbEntity
  8
0
100
AcDbLine
 10
223.0049585351543
 20
132.7274705136186
 30
0.0
 11
224.2671820997839
 21
132.9500345837487
 31
0.0
  0
LINE
  5
760
330
1F
100
AcDbEntity
  8
0
100
AcDbLine
 10
223.0049585351541
 20
139.7274705136186
 30
0.0
 11
223.0049585351543
 21
132.7274705136186
 31
0.0
  0
ARC
  5
761
330
1F
100
AcDbEntity
  8
0
100
AcDbCircle
 10
216.6049585351544
 20
136.2274705136186
 30
0.0
 40
9.0
100
AcDbArc
 50
344.9670326081673
 51
15.0329673918328
  0
ARC
  5
762
330
1F
100
AcDbEntity
  8
0
100
AcDbCircle
 10
224.0414394688169
 20
134.2302846626647
 30
0.0
 40
1.3
100
AcDbArc
 50
279.9999999999961
 51
344.9670326081662
1001
GENIUS_GENOBJ-N-FIL_13
1002
{
1000
OWNER
1000
GEN
1002
}
1001
GENIUS_GENODEF_13
1002
{
1000
HIER
1070
     0
1002
}
1002
{
1000
MANEDIT
1070
     0
1002
}
1002
{
1000
NOSEL
1070
     0
1002
}
1002
{
1000
BEHIND
1070
     0
1002
}
1002
{
1000
OTHER
1070
     0
1002
}
1002
{
1000
REACTOR
1002
}
  0
ARC
  5
763
330
1F
100
AcDbEntity
  8
0
100
AcDbCircle
 10
224.0414394688169
 20
138.2246563645722
 30
0.0
 40
1.3
100
AcDbArc
 50
15.03296739183379
 51
79.99999999999403
1001
GENIUS_GENODEF_13
1002
{
1000
HIER
1070
     0
1002
}
1002
{
1000
MANEDIT
1070
     0
1002
}
1002
{
1000
NOSEL
1070
     0
1002
}
1002
{
1000
BEHIND
1070
     0
1002
}
1002
{
1000
OTHER
1070
     0
1002
}
1002
{
1000
REACTOR
1002
}
1001
GENIUS_GENOBJ-N-FIL_13
1002
{
1000
OWNER
1000
GEN
1002
}
  0
LINE
  5
764
330
1F
100
AcDbEntity
  8
0
100
AcDbLine
 10
225.4477168717835
 20
136.7354705136184
 30
0.0
 11
225.5906102087949
 21
136.7354705136184
 31
0.0
  0
LINE
  5
765
330
1F
100
AcDbEntity
  8
0
100
AcDbLine
 10
225.4477168717835
 20
135.7194705136186
 30
0.0
 11
225.5906102087949
 21
135.7194705136186
 31
0.0
  0
LINE
  5
766
330
1F
100
AcDbEntity
  8
0
100
AcDbLine
 10
225.4477168717835
 20
137.9024705136105
 30
0.0
 11
225.4477168717835
 21
134.5524705136261
 31
0.0
  0
LINE
  5
767
330
1F
100
AcDbEntity
  8
0
100
AcDbLine
 10
110.7611418022661
 20
27.49999998845113
 30
0.0
 11
110.5385777321359
 21
26.23777642382119
 31
0.0
  0
LINE
  5
768
330
1F
100
AcDbEntity
  8
0
100
AcDbLine
 10
103.7611418022662
 20
27.49999998845102
 30
0.0
 11
103.9837058723963
 21
26.23777642382142
 31
0.0
  0
LINE
  5
769
330
1F
100
AcDbEntity
  8
0
100
AcDbLine
 10
110.7611418022661
 20
27.49999998845113
 30
0.0
 11
103.7611418022662
 21
27.49999998845102
 31
0.0
  0
ARC
  5
76A
330
1F
100
AcDbEntity
  8
0
100
AcDbCircle
 10
107.2611418022661
 20
33.89999998845092
 30
0.0
 40
9.0
100
AcDbArc
 50
254.9670326081675
 51
285.0329673918325
  0
ARC
  5
76B
330
1F
100
AcDbEntity
  8
0
100
AcDbCircle
 10
105.2639559513122
 20
26.46351905478826
 30
0.0
 40
1.3
100
AcDbArc
 50
189.9999999999959
 51
254.9670326081658
1001
GENIUS_GENOBJ-N-FIL_13
1002
{
1000
OWNER
1000
GEN
1002
}
1001
GENIUS_GENODEF_13
1002
{
1000
HIER
1070
     0
1002
}
1002
{
1000
MANEDIT
1070
     0
1002
}
1002
{
1000
NOSEL
1070
     0
1002
}
1002
{
1000
BEHIND
1070
     0
1002
}
1002
{
1000
OTHER
1070
     0
1002
}
1002
{
1000
REACTOR
1002
}
  0
ARC
  5
76C
330
1F
100
AcDbEntity
  8
0
100
AcDbCircle
 10
109.2583276532199
 20
26.46351905478826
 30
0.0
 40
1.3
100
AcDbArc
 50
285.0329673918341
 51
349.9999999999942
1001
GENIUS_GENODEF_13
1002
{
1000
HIER
1070
     0
1002
}
1002
{
1000
MANEDIT
1070
     0
1002
}
1002
{
1000
NOSEL
1070
     0
1002
}
1002
{
1000
BEHIND
1070
     0
1002
}
1002
{
1000
OTHER
1070
     0
1002
}
1002
{
1000
REACTOR
1002
}
1001
GENIUS_GENOBJ-N-FIL_13
1002
{
1000
OWNER
1000
GEN
1002
}
  0
LINE
  5
76D
330
1F
100
AcDbEntity
  8
0
100
AcDbLine
 10
107.7691418022661
 20
25.05724165182175
 30
0.0
 11
107.7691418022661
 21
24.91434831481035
 31
0.0
  0
LINE
  5
76E
330
1F
100
AcDbEntity
  8
0
100
AcDbLine
 10
106.7531418022661
 20
25.05724165182175
 30
0.0
 11
106.7531418022661
 21
24.91434831481035
 31
0.0
  0
LINE
  5
76F
330
1F
100
AcDbEntity
  8
0
100
AcDbLine
 10
108.9361418022583
 20
25.05724165182175
 30
0.0
 11
105.5861418022738
 21
25.05724165182175
 31
0.0
  0
LINE
  5
770
330
1F
100
AcDbEntity
  8
0
100
AcDbLine
 10
10.76114180226614
 20
27.49999998845115
 30
0.0
 11
10.5385777321358
 21
26.23777642382119
 31
0.0
  0
LINE
  5
771
330
1F
100
AcDbEntity
  8
0
100
AcDbLine
 10
3.761141802266152
 20
27.49999998845103
 30
0.0
 11
3.98370587239637
 21
26.23777642382144
 31
0.0
  0
LINE
  5
772
330
1F
100
AcDbEntity
  8
0
100
AcDbLine
 10
10.76114180226614
 20
27.49999998845115
 30
0.0
 11
3.761141802266152
 21
27.49999998845103
 31
0.0
  0
ARC
  5
773
330
1F
100
AcDbEntity
  8
0
100
AcDbCircle
 10
7.261141802266081
 20
33.89999998845095
 30
0.0
 40
9.0
100
AcDbArc
 50
254.9670326081675
 51
285.0329673918325
  0
ARC
  5
774
330
1F
100
AcDbEntity
  8
0
100
AcDbCircle
 10
5.263955951312268
 20
26.46351905478827
 30
0.0
 40
1.3
100
AcDbArc
 50
189.9999999999959
 51
254.9670326081658
1001
GENIUS_GENOBJ-N-FIL_13
1002
{
1000
OWNER
1000
GEN
1002
}
1001
GENIUS_GENODEF_13
1002
{
1000
HIER
1070
     0
1002
}
1002
{
1000
MANEDIT
1070
     0
1002
}
1002
{
1000
NOSEL
1070
     0
1002
}
1002
{
1000
BEHIND
1070
     0
1002
}
1002
{
1000
OTHER
1070
     0
1002
}
1002
{
1000
REACTOR
1002
}
  0
ARC
  5
775
330
1F
100
AcDbEntity
  8
0
100
AcDbCircle
 10
9.258327653219922
 20
26.46351905478827
 30
0.0
 40
1.3
100
AcDbArc
 50
285.0329673918341
 51
349.9999999999942
1001
GENIUS_GENODEF_13
1002
{
1000
HIER
1070
     0
1002
}
1002
{
1000
MANEDIT
1070
     0
1002
}
1002
{
1000
NOSEL
1070
     0
1002
}
1002
{
1000
BEHIND
1070
     0
1002
}
1002
{
1000
OTHER
1070
     0
1002
}
1002
{
1000
REACTOR
1002
}
1001
GENIUS_GENOBJ-N-FIL_13
1002
{
1000
OWNER
1000
GEN
1002
}
  0
LINE
  5
776
330
1F
100
AcDbEntity
  8
0
100
AcDbLine
 10
7.769141802266105
 20
25.05724165182178
 30
0.0
 11
7.769141802266105
 21
24.91434831481039
 31
0.0
  0
LINE
  5
777
330
1F
100
AcDbEntity
  8
0
100
AcDbLine
 10
6.753141802266142
 20
25.05724165182178
 30
0.0
 11
6.753141802266142
 21
24.91434831481039
 31
0.0
  0
LINE
  5
778
330
1F
100
AcDbEntity
  8
0
100
AcDbLine
 10
8.936141802258275
 20
25.05724165182178
 30
0.0
 11
5.586141802273843
 21
25.05724165182178
 31
0.0
  0
LINE
  5
779
330
1F
100
AcDbEntity
  8
0
100
AcDbLine
 10
328.5000002510827
 20
202.499999988451
 30
0.0
 11
328.5000002510827
 21
136.499999988451
 31
0.0
  0
LINE
  5
77A
330
1F
100
AcDbEntity
  8
0
100
AcDbLine
 10
329.5000002510827
 20
201.9999999884511
 30
0.0
 11
329.5000002510827
 21
136.999999988451
 31
0.0
  0
ARC
  5
77B
330
1F
100
AcDbEntity
  8
0
100
AcDbCircle
 10
329.0000002510827
 20
136.499999988451
 30
0.0
 40
0.5
100
AcDbArc
 50
180.0
 51
270.0
1001
GENIUS_GENODEF_13
1002
{
1000
HIER
1070
     0
1002
}
1002
{
1000
MANEDIT
1070
     0
1002
}
1002
{
1000
NOSEL
1070
     0
1002
}
1002
{
1000
BEHIND
1070
     0
1002
}
1002
{
1000
OTHER
1070
     0
1002
}
1002
{
1000
REACTOR
1002
}
1001
GENIUS_GENOBJ-N-FIL_13
1002
{
1000
OWNER
1000
GEN
1002
}
  0
LINE
  5
77C
330
1F
100
AcDbEntity
  8
0
100
AcDbLine
 10
329.0000002510827
 20
202.999999988451
 30
0.0
 11
388.0000002510826
 21
202.999999988451
 31
0.0
  0
LINE
  5
77D
330
1F
100
AcDbEntity
  8
0
100
AcDbLine
 10
329.5000002510827
 20
196.999999988451
 30
0.0
 11
387.5000002510827
 21
196.999999988451
 31
0.0
  0
ARC
  5
77E
330
1F
100
AcDbEntity
  8
0
100
AcDbCircle
 10
329.0000002510827
 20
202.499999988451
 30
0.0
 40
0.5
100
AcDbArc
 50
90.0
 51
180.0
1001
GENIUS_GENODEF_13
1002
{
1000
HIER
1070
     0
1002
}
1002
{
1000
MANEDIT
1070
     0
1002
}
1002
{
1000
NOSEL
1070
     0
1002
}
1002
{
1000
BEHIND
1070
     0
1002
}
1002
{
1000
OTHER
1070
     0
1002
}
1002
{
1000
REACTOR
1002
}
1001
GENIUS_GENOBJ-N-FIL_13
1002
{
1000
OWNER
1000
GEN
1002
}
  0
LINE
  5
77F
330
1F
100
AcDbEntity
  8
0
100
AcDbLine
 10
329.5000002510827
 20
173.9999999884511
 30
0.0
 11
387.5000002510827
 21
173.999999988451
 31
0.0
  0
LINE
  5
780
330
1F
100
AcDbEntity
  8
0
100
AcDbLine
 10
388.5000002510827
 20
202.499999988451
 30
0.0
 11
388.5000002510827
 21
136.499999988451
 31
0.0
  0
LINE
  5
781
330
1F
100
AcDbEntity
  8
0
100
AcDbLine
 10
387.5000002510827
 20
201.9999999884511
 30
0.0
 11
387.5000002510827
 21
136.999999988451
 31
0.0
  0
ARC
  5
782
330
1F
100
AcDbEntity
  8
0
100
AcDbCircle
 10
388.0000002510826
 20
202.499999988451
 30
0.0
 40
0.5
100
AcDbArc
 50
0.0
 51
90.0
1001
GENIUS_GENODEF_13
1002
{
1000
HIER
1070
     0
1002
}
1002
{
1000
MANEDIT
1070
     0
1002
}
1002
{
1000
NOSEL
1070
     0
1002
}
1002
{
1000
BEHIND
1070
     0
1002
}
1002
{
1000
OTHER
1070
     0
1002
}
1002
{
1000
REACTOR
1002
}
1001
GENIUS_GENOBJ-N-FIL_13
1002
{
1000
OWNER
1000
GEN
1002
}
  0
ARC
  5
783
330
1F
100
AcDbEntity
  8
0
100
AcDbCircle
 10
388.0000002510826
 20
136.499999988451
 30
0.0
 40
0.5
100
AcDbArc
 50
270.0
 51
0.0
1001
GENIUS_GENODEF_13
1002
{
1000
HIER
1070
     0
1002
}
1002
{
1000
MANEDIT
1070
     0
1002
}
1002
{
1000
NOSEL
1070
     0
1002
}
1002
{
1000
BEHIND
1070
     0
1002
}
1002
{
1000
OTHER
1070
     0
1002
}
1002
{
1000
REACTOR
1002
}
1001
GENIUS_GENOBJ-N-FIL_13
1002
{
1000
OWNER
1000
GEN
1002
}
  0
LINE
  5
784
330
1F
100
AcDbEntity
  8
0
100
AcDbLine
 10
329.5000002510827
 20
201.9999999884511
 30
0.0
 11
387.5000002510827
 21
201.9999999884511
 31
0.0
  0
LINE
  5
785
330
1F
100
AcDbEntity
  8
0
100
AcDbLine
 10
329.5000002510827
 20
136.999999988451
 30
0.0
 11
387.5000002510827
 21
136.999999988451
 31
0.0
  0
LINE
  5
786
330
1F
100
AcDbEntity
  8
0
100
AcDbLine
 10
329.0000002510827
 20
135.999999988451
 30
0.0
 11
388.0000002510826
 21
135.999999988451
 31
0.0
  0
LINE
  5
787
330
1F
100
AcDbEntity
  8
0
100
AcDbLine
 10
329.5000002510827
 20
143.9999999884512
 30
0.0
 11
387.5000002510827
 21
143.9999999884511
 31
0.0
  0
ARC
  5
788
330
1F
100
AcDbEntity
  8
0
100
AcDbCircle
 10
382.0246406460956
 20
140.4999999745809
 30
0.0
 40
2.500000000000003
100
AcDbArc
 50
84.26082952273846
 51
275.7391704772615
  0
LINE
  5
789
330
1F
100
AcDbEntity
  8
0
100
AcDbLine
 10
386.5000002510825
 20
142.9874685622887
 30
0.0
 11
386.5000002510825
 21
142.2320507748844
 31
0.0
  0
ARC
  5
78A
330
1F
100
AcDbEntity
  8
0
100
AcDbCircle
 10
386.2500002007483
 20
140.4999999745809
 30
0.0
 40
1.750000000000003
100
AcDbArc
 50
81.78678763321348
 51
167.6263744188917
  0
LINE
  5
78B
330
1F
100
AcDbEntity
  8
0
100
AcDbLine
 10
382.2746406460956
 20
142.9874685673475
 30
0.0
 11
382.2746406460956
 21
142.2320507821497
 31
0.0
  0
ARC
  5
78C
330
1F
100
AcDbEntity
  8
0
100
AcDbCircle
 10
386.2500002007483
 20
140.4999999745809
 30
0.0
 40
2.500000000000003
100
AcDbArc
 50
84.26082836333716
 51
275.7391716366628
1001
GENIUS_GENOBJ-N-FIL_13
1002
{
1000
OWNER
1000
GEN
1002
}
1001
GENIUS_GENODEF_13
1002
{
1000
HIER
1070
     0
1002
}
1002
{
1000
MANEDIT
1070
     0
1002
}
1002
{
1000
NOSEL
1070
     0
1002
}
1002
{
1000
BEHIND
1070
     0
1002
}
1002
{
1000
OTHER
1070
     0
1002
}
1002
{
1000
REACTOR
1002
}
  0
LINE
  5
78D
330
1F
100
AcDbEntity
  8
0
100
AcDbLine
 10
386.2500002510826
 20
140.1249999884511
 30
0.0
 11
384.5406509063083
 21
140.1249999884511
 31
0.0
  0
LINE
  5
78E
330
1F
100
AcDbEntity
  8
0
100
AcDbLine
 10
386.2500002510826
 20
140.8749999884511
 30
0.0
 11
384.5406509123937
 21
140.8749999884511
 31
0.0
  0
ARC
  5
78F
330
1F
100
AcDbEntity
  8
0
100
AcDbCircle
 10
386.2500002007483
 20
140.4999999745809
 30
0.0
 40
1.750000000000003
100
AcDbArc
 50
192.3736246512715
 51
278.2132123667865
  0
ARC
  5
790
330
1F
100
AcDbEntity
  8
0
100
AcDbCircle
 10
382.0246406460956
 20
140.4999999745809
 30
0.0
 40
1.750000000000003
100
AcDbArc
 50
81.7867892982637
 51
278.2132107017363
  0
LINE
  5
791
330
1F
100
AcDbEntity
  8
0
100
AcDbLine
 10
382.2746406460956
 20
138.767949167012
 30
0.0
 11
382.2746406460956
 21
138.0125313818143
 31
0.0
  0
LINE
  5
792
330
1F
100
AcDbEntity
  8
0
100
AcDbLine
 10
386.2500002510826
 20
140.8749999884511
 30
0.0
 11
386.2500002510826
 21
140.1249999884511
 31
0.0
  0
LINE
  5
793
330
1F
100
AcDbEntity
  8
0
100
AcDbLine
 10
386.5000002510825
 20
138.7679491742771
 30
0.0
 11
386.5000002510825
 21
138.0125313868731
 31
0.0
  0
LINE
  5
794
330
1F
100
AcDbEntity
  8
0
100
AcDbLine
 10
350.6055101064148
 20
197.9999999884509
 30
0.0
 11
347.3944903957506
 21
197.999999988451
 31
0.0
  0
ARC
  5
795
330
1F
100
AcDbEntity
  8
0
100
AcDbCircle
 10
347.3944903957506
 20
198.109999988451
 30
0.0
 40
0.11
100
AcDbArc
 50
149.9996481165752
 51
270.0
1001
GENIUS_GENOBJ-N-FIL_13
1002
{
1000
OWNER
1000
GEN
1002
}
1001
GENIUS_GENODEF_13
1002
{
1000
HIER
1070
     0
1002
}
1002
{
1000
MANEDIT
1070
     0
1002
}
1002
{
1000
NOSEL
1070
     0
1002
}
1002
{
1000
BEHIND
1070
     0
1002
}
1002
{
1000
OTHER
1070
     0
1002
}
1002
{
1000
REACTOR
1002
}
  0
ARC
  5
796
330
1F
100
AcDbEntity
  8
0
100
AcDbCircle
 10
350.6055101064149
 20
198.1099999884509
 30
0.0
 40
0.11
100
AcDbArc
 50
270.0
 51
29.9996165948572
1001
GENIUS_GENODEF_13
1002
{
1000
HIER
1070
     0
1002
}
1002
{
1000
MANEDIT
1070
     0
1002
}
1002
{
1000
NOSEL
1070
     0
1002
}
1002
{
1000
BEHIND
1070
     0
1002
}
1002
{
1000
OTHER
1070
     0
1002
}
1002
{
1000
REACTOR
1002
}
1001
GENIUS_GENOBJ-N-FIL_13
1002
{
1000
OWNER
1000
GEN
1002
}
  0
LINE
  5
797
330
1F
100
AcDbEntity
  8
0
100
AcDbLine
 10
347.5895028238234
 20
198.2025896678464
 30
0.0
 11
350.4067656529836
 21
198.2025896678464
 31
0.0
  0
ARC
  5
798
330
1F
100
AcDbEntity
  8
0
100
AcDbCircle
 10
350.4105005681139
 20
198.2225896678464
 30
0.0
 40
0.02
100
AcDbArc
 50
270.0
 51
29.9996165948572
1001
GENIUS_GENODEF_13
1002
{
1000
HIER
1070
     0
1002
}
1002
{
1000
MANEDIT
1070
     0
1002
}
1002
{
1000
NOSEL
1070
     0
1002
}
1002
{
1000
BEHIND
1070
     0
1002
}
1002
{
1000
OTHER
1070
     0
1002
}
1002
{
1000
REACTOR
1002
}
1001
GENIUS_GENOBJ-N-FIL_13
1002
{
1000
OWNER
1000
GEN
1002
}
  0
CIRCLE
  5
799
330
1F
100
AcDbEntity
  8
0
100
AcDbCircle
 10
349.0000014642045
 20
198.5266999948707
 30
0.0
 40
0.1519294443485575
  0
ARC
  5
79A
330
1F
100
AcDbEntity
  8
0
100
AcDbCircle
 10
349.0000014642045
 20
198.9521116305801
 30
0.0
 40
0.1012862577142119
100
AcDbArc
 50
180.0
 51
0.0
  0
ARC
  5
79B
330
1F
100
AcDbEntity
  8
0
100
AcDbCircle
 10
349.0000014642045
 20
199.8434199089784
 30
0.0
 40
0.2025724824128584
100
AcDbArc
 50
347.0338134765627
 51
192.9662017822261
  0
LINE
  5
79C
330
1F
100
AcDbEntity
  8
0
100
AcDbLine
 10
348.89872555687
 20
198.9521116305801
 30
0.0
 11
348.802588456267
 21
199.7979545699816
 31
0.0
  0
LINE
  5
79D
330
1F
100
AcDbEntity
  8
0
100
AcDbLine
 10
349.1974017941648
 20
199.7979545699816
 30
0.0
 11
349.101290049516
 21
198.9521116305801
 31
0.0
  0
LINE
  5
79E
330
1F
100
AcDbEntity
  8
0
100
AcDbLine
 10
350.427821143106
 20
198.2325895519429
 30
0.0
 11
349.0173431724599
 21
200.6756468143766
 31
0.0
  0
ARC
  5
79F
330
1F
100
AcDbEntity
  8
0
100
AcDbCircle
 10
349.0000225974676
 20
200.6656469302802
 30
0.0
 40
0.02
100
AcDbArc
 50
29.9996165948572
 51
149.9996481165621
1001
GENIUS_GENOBJ-N-FIL_13
1002
{
1000
OWNER
1000
GEN
1002
}
1001
GENIUS_GENODEF_13
1002
{
1000
HIER
1070
     0
1002
}
1002
{
1000
MANEDIT
1070
     0
1002
}
1002
{
1000
NOSEL
1070
     0
1002
}
1002
{
1000
BEHIND
1070
     0
1002
}
1002
{
1000
OTHER
1070
     0
1002
}
1002
{
1000
REACTOR
1002
}
  0
LINE
  5
7A0
330
1F
100
AcDbEntity
  8
0
100
AcDbLine
 10
350.7007732688716
 20
198.1649993509813
 30
0.0
 11
349.095287204811
 21
200.9458257588839
 31
0.0
  0
LINE
  5
7A1
330
1F
100
AcDbEntity
  8
0
100
AcDbLine
 10
348.9827021508075
 20
200.6756470366543
 30
0.0
 11
347.5721823771632
 21
198.2325897742206
 31
0.0
  0
ARC
  5
7A2
330
1F
100
AcDbEntity
  8
0
100
AcDbCircle
 10
347.5895028238234
 20
198.2225896678464
 30
0.0
 40
0.02
100
AcDbArc
 50
149.9996481165621
 51
270.0
1001
GENIUS_GENOBJ-N-FIL_13
1002
{
1000
OWNER
1000
GEN
1002
}
1001
GENIUS_GENODEF_13
1002
{
1000
HIER
1070
     0
1002
}
1002
{
1000
MANEDIT
1070
     0
1002
}
1002
{
1000
NOSEL
1070
     0
1002
}
1002
{
1000
BEHIND
1070
     0
1002
}
1002
{
1000
OTHER
1070
     0
1002
}
1002
{
1000
REACTOR
1002
}
  0
LINE
  5
7A3
330
1F
100
AcDbEntity
  8
0
100
AcDbLine
 10
348.9047615857238
 20
200.9458269814111
 30
0.0
 11
347.29922793912
 21
198.1650005735087
 31
0.0
  0
ARC
  5
7A4
330
1F
100
AcDbEntity
  8
0
100
AcDbCircle
 10
349.0000240423544
 20
200.8908263963534
 30
0.0
 40
0.11
100
AcDbArc
 50
29.9996165948572
 51
149.9996481165621
1001
GENIUS_GENODEF_13
1002
{
1000
HIER
1070
     0
1002
}
1002
{
1000
MANEDIT
1070
     0
1002
}
1002
{
1000
NOSEL
1070
     0
1002
}
1002
{
1000
BEHIND
1070
     0
1002
}
1002
{
1000
OTHER
1070
     0
1002
}
1002
{
1000
REACTOR
1002
}
1001
GENIUS_GENOBJ-N-FIL_13
1002
{
1000
OWNER
1000
GEN
1002
}
  0
LINE
  5
7A5
330
1F
100
AcDbEntity
  8
0
100
AcDbLine
 10
32.00000025108261
 20
32.99999998845106
 30
0.0
 11
32.00000025108261
 21
16.99999998845106
 31
0.0
  0
LINE
  5
7A6
330
1F
100
AcDbEntity
  8
0
100
AcDbLine
 10
31.75000025108261
 20
32.74999998845106
 30
0.0
 11
31.75000025108261
 21
17.24999998845106
 31
0.0
  0
LINE
  5
7ED
330
1F
100
AcDbEntity
  8
0
100
AcDbLine
 10
74.17000025108254
 20
76.69999998845113
 30
0.0
 11
40.83000025108261
 21
76.69999998845113
 31
0.0
  0
LINE
  5
893
330
1F
100
AcDbEntity
  8
0
100
AcDbLine
 10
60.00000025108271
 20
14.49999998845112
 30
0.0
 11
89.00000025108273
 21
14.49999998845114
 31
0.0
1001
GENIUS_GENREC_14
1002
{
1000
PYDIR
1011
59.50000025108272
1021
35.49999998845115
1031
0.0
1002
}
1002
{
1000
PXDIR
1011
89.50000025108272
1021
14.49999998845114
1031
0.0
1002
}
1002
{
1000
PORI
1011
59.50000025108272
1021
14.49999998845114
1031
0.0
1002
}
1002
{
1000
PINS
1011
59.50000025108272
1021
14.49999998845114
1031
0.0
1002
}
1002
{
1000
HVAL
1000
21
1002
}
1002
{
1000
H
1070
     2
1002
}
1002
{
1000
WVAL
1000
30
1002
}
1002
{
1000
W
1070
     2
1002
}
1002
{
1000
C
1070
     1
1002
}
1001
GENIUS_GENOBJ-N-REC_13
1002
{
1000
OWNER
1000
GEN
1002
}
1001
GENIUS_GENODEF_13
1002
{
1000
HIER
1070
     0
1002
}
1002
{
1000
MANEDIT
1070
     0
1002
}
1002
{
1000
NOSEL
1070
     0
1002
}
1002
{
1000
BEHIND
1070
     0
1002
}
1002
{
1000
OTHER
1070
     0
1002
}
1002
{
1000
REACTOR
1002
}
  0
ARC
  5
894
330
1F
100
AcDbEntity
  8
0
100
AcDbCircle
 10
89.00000025108273
 20
14.99999998845114
 30
0.0
 40
0.5000000000000036
100
AcDbArc
 50
270.0
 51
0.0000000000006107
1001
GENIUS_GENREC_14
1002
{
1000
PYDIR
1011
59.50000025108272
1021
35.49999998845115
1031
0.0
1002
}
1002
{
1000
PXDIR
1011
89.50000025108272
1021
14.49999998845114
1031
0.0
1002
}
1002
{
1000
PORI
1011
59.50000025108272
1021
14.49999998845114
1031
0.0
1002
}
1002
{
1000
PINS
1011
59.50000025108272
1021
14.49999998845114
1031
0.0
1002
}
1002
{
1000
HVAL
1000
21
1002
}
1002
{
1000
H
1070
     2
1002
}
1002
{
1000
WVAL
1000
30
1002
}
1002
{
1000
W
1070
     2
1002
}
1002
{
1000
C
1070
     1
1002
}
1001
GENIUS_GENOBJ-N-REC_13
1002
{
1000
OWNER
1000
GEN
1002
}
1001
GENIUS_GENODEF_13
1002
{
1000
HIER
1070
     0
1002
}
1002
{
1000
MANEDIT
1070
     0
1002
}
1002
{
1000
NOSEL
1070
     0
1002
}
1002
{
1000
BEHIND
1070
     0
1002
}
1002
{
1000
OTHER
1070
     0
1002
}
1002
{
1000
REACTOR
1002
}
  0
LINE
  5
895
330
1F
100
AcDbEntity
  8
0
100
AcDbLine
 10
89.50000025108272
 20
14.99999998845115
 30
0.0
 11
89.50000025108272
 21
34.99999998845114
 31
0.0
1001
GENIUS_GENREC_14
1002
{
1000
PYDIR
1011
59.50000025108272
1021
35.49999998845115
1031
0.0
1002
}
1002
{
1000
PXDIR
1011
89.50000025108272
1021
14.49999998845114
1031
0.0
1002
}
1002
{
1000
PORI
1011
59.50000025108272
1021
14.49999998845114
1031
0.0
1002
}
1002
{
1000
PINS
1011
59.50000025108272
1021
14.49999998845114
1031
0.0
1002
}
1002
{
1000
HVAL
1000
21
1002
}
1002
{
1000
H
1070
     2
1002
}
1002
{
1000
WVAL
1000
30
1002
}
1002
{
1000
W
1070
     2
1002
}
1002
{
1000
C
1070
     1
1002
}
1001
GENIUS_GENOBJ-N-REC_13
1002
{
1000
OWNER
1000
GEN
1002
}
1001
GENIUS_GENODEF_13
1002
{
1000
HIER
1070
     0
1002
}
1002
{
1000
MANEDIT
1070
     0
1002
}
1002
{
1000
NOSEL
1070
     0
1002
}
1002
{
1000
BEHIND
1070
     0
1002
}
1002
{
1000
OTHER
1070
     0
1002
}
1002
{
1000
REACTOR
1002
}
  0
ARC
  5
896
330
1F
100
AcDbEntity
  8
0
100
AcDbCircle
 10
89.00000025108273
 20
34.99999998845114
 30
0.0
 40
0.5
100
AcDbArc
 50
0.0
 51
90.0
1001
GENIUS_GENREC_14
1002
{
1000
PYDIR
1011
59.50000025108272
1021
35.49999998845115
1031
0.0
1002
}
1002
{
1000
PXDIR
1011
89.50000025108272
1021
14.49999998845114
1031
0.0
1002
}
1002
{
1000
PORI
1011
59.50000025108272
1021
14.49999998845114
1031
0.0
1002
}
1002
{
1000
PINS
1011
59.50000025108272
1021
14.49999998845114
1031
0.0
1002
}
1002
{
1000
HVAL
1000
21
1002
}
1002
{
1000
H
1070
     2
1002
}
1002
{
1000
WVAL
1000
30
1002
}
1002
{
1000
W
1070
     2
1002
}
1002
{
1000
C
1070
     1
1002
}
1001
GENIUS_GENOBJ-N-REC_13
1002
{
1000
OWNER
1000
GEN
1002
}
1001
GENIUS_GENODEF_13
1002
{
1000
HIER
1070
     0
1002
}
1002
{
1000
MANEDIT
1070
     0
1002
}
1002
{
1000
NOSEL
1070
     0
1002
}
1002
{
1000
BEHIND
1070
     0
1002
}
1002
{
1000
OTHER
1070
     0
1002
}
1002
{
1000
REACTOR
1002
}
  0
LINE
  5
897
330
1F
100
AcDbEntity
  8
0
100
AcDbLine
 10
89.00000025108273
 20
35.49999998845115
 30
0.0
 11
60.00000025108271
 21
35.49999998845117
 31
0.0
1001
GENIUS_GENREC_14
1002
{
1000
PYDIR
1011
59.50000025108272
1021
35.49999998845115
1031
0.0
1002
}
1002
{
1000
PXDIR
1011
89.50000025108272
1021
14.49999998845114
1031
0.0
1002
}
1002
{
1000
PORI
1011
59.50000025108272
1021
14.49999998845114
1031
0.0
1002
}
1002
{
1000
PINS
1011
59.50000025108272
1021
14.49999998845114
1031
0.0
1002
}
1002
{
1000
HVAL
1000
21
1002
}
1002
{
1000
H
1070
     2
1002
}
1002
{
1000
WVAL
1000
30
1002
}
1002
{
1000
W
1070
     2
1002
}
1002
{
1000
C
1070
     1
1002
}
1001
GENIUS_GENOBJ-N-REC_13
1002
{
1000
OWNER
1000
GEN
1002
}
1001
GENIUS_GENODEF_13
1002
{
1000
HIER
1070
     0
1002
}
1002
{
1000
MANEDIT
1070
     0
1002
}
1002
{
1000
NOSEL
1070
     0
1002
}
1002
{
1000
BEHIND
1070
     0
1002
}
1002
{
1000
OTHER
1070
     0
1002
}
1002
{
1000
REACTOR
1002
}
  0
ARC
  5
898
330
1F
100
AcDbEntity
  8
0
100
AcDbCircle
 10
60.00000025108271
 20
34.99999998845118
 30
0.0
 40
0.4999999999999929
100
AcDbArc
 50
89.9999999999992
 51
179.9999999999992
1001
GENIUS_GENREC_14
1002
{
1000
PYDIR
1011
59.50000025108272
1021
35.49999998845115
1031
0.0
1002
}
1002
{
1000
PXDIR
1011
89.50000025108272
1021
14.49999998845114
1031
0.0
1002
}
1002
{
1000
PORI
1011
59.50000025108272
1021
14.49999998845114
1031
0.0
1002
}
1002
{
1000
PINS
1011
59.50000025108272
1021
14.49999998845114
1031
0.0
1002
}
1002
{
1000
HVAL
1000
21
1002
}
1002
{
1000
H
1070
     2
1002
}
1002
{
1000
WVAL
1000
30
1002
}
1002
{
1000
W
1070
     2
1002
}
1002
{
1000
C
1070
     1
1002
}
1001
GENIUS_GENOBJ-N-REC_13
1002
{
1000
OWNER
1000
GEN
1002
}
1001
GENIUS_GENODEF_13
1002
{
1000
HIER
1070
     0
1002
}
1002
{
1000
MANEDIT
1070
     0
1002
}
1002
{
1000
NOSEL
1070
     0
1002
}
1002
{
1000
BEHIND
1070
     0
1002
}
1002
{
1000
OTHER
1070
     0
1002
}
1002
{
1000
REACTOR
1002
}
  0
LINE
  5
899
330
1F
100
AcDbEntity
  8
0
100
AcDbLine
 10
59.50000025108272
 20
34.99999998845119
 30
0.0
 11
59.50000025108272
 21
14.99999998845112
 31
0.0
1001
GENIUS_GENREC_14
1002
{
1000
PYDIR
1011
59.50000025108272
1021
35.49999998845115
1031
0.0
1002
}
1002
{
1000
PXDIR
1011
89.50000025108272
1021
14.49999998845114
1031
0.0
1002
}
1002
{
1000
PORI
1011
59.50000025108272
1021
14.49999998845114
1031
0.0
1002
}
1002
{
1000
PINS
1011
59.50000025108272
1021
14.49999998845114
1031
0.0
1002
}
1002
{
1000
HVAL
1000
21
1002
}
1002
{
1000
H
1070
     2
1002
}
1002
{
1000
WVAL
1000
30
1002
}
1002
{
1000
W
1070
     2
1002
}
1002
{
1000
C
1070
     1
1002
}
1001
GENIUS_GENOBJ-N-REC_13
1002
{
1000
OWNER
1000
GEN
1002
}
1001
GENIUS_GENODEF_13
1002
{
1000
HIER
1070
     0
1002
}
1002
{
1000
MANEDIT
1070
     0
1002
}
1002
{
1000
NOSEL
1070
     0
1002
}
1002
{
1000
BEHIND
1070
     0
1002
}
1002
{
1000
OTHER
1070
     0
1002
}
1002
{
1000
REACTOR
1002
}
  0
ARC
  5
89A
330
1F
100
AcDbEntity
  8
0
100
AcDbCircle
 10
60.00000025108271
 20
14.99999998845112
 30
0.0
 40
0.5
100
AcDbArc
 50
180.0
 51
270.0
1001
GENIUS_GENREC_14
1002
{
1000
PYDIR
1011
59.50000025108272
1021
35.49999998845115
1031
0.0
1002
}
1002
{
1000
PXDIR
1011
89.50000025108272
1021
14.49999998845114
1031
0.0
1002
}
1002
{
1000
PORI
1011
59.50000025108272
1021
14.49999998845114
1031
0.0
1002
}
1002
{
1000
PINS
1011
59.50000025108272
1021
14.49999998845114
1031
0.0
1002
}
1002
{
1000
HVAL
1000
21
1002
}
1002
{
1000
H
1070
     2
1002
}
1002
{
1000
WVAL
1000
30
1002
}
1002
{
1000
W
1070
     2
1002
}
1002
{
1000
C
1070
     1
1002
}
1001
GENIUS_GENOBJ-N-REC_13
1002
{
1000
OWNER
1000
GEN
1002
}
1001
GENIUS_GENODEF_13
1002
{
1000
HIER
1070
     0
1002
}
1002
{
1000
MANEDIT
1070
     0
1002
}
1002
{
1000
NOSEL
1070
     0
1002
}
1002
{
1000
BEHIND
1070
     0
1002
}
1002
{
1000
OTHER
1070
     0
1002
}
1002
{
1000
REACTOR
1002
}
  0
LINE
  5
89B
330
1F
100
AcDbEntity
  8
0
100
AcDbLine
 10
60.55000025108274
 20
14.99999998845118
 30
0.0
 11
88.45000025108271
 21
14.99999998845118
 31
0.0
1001
GENIUS_GENREC_14
1002
{
1000
PYDIR
1011
60.65000025108282
1021
34.89999998845112
1031
0.0
1002
}
1002
{
1000
PXDIR
1011
88.3500002510828
1021
15.09999998845116
1031
0.0
1002
}
1002
{
1000
PORI
1011
60.65000025108282
1021
15.09999998845116
1031
0.0
1002
}
1002
{
1000
PINS
1011
60.65000025108282
1021
15.09999998845116
1031
0.0
1002
}
1002
{
1000
PINS2
1011
88.3500002510828
1021
34.89999998845112
1031
0.0
1002
}
1002
{
1000
C
1070
     1
1002
}
1001
GENIUS_GENOBJ-N-REC_13
1002
{
1000
OWNER
1000
GEN
1002
}
1001
GENIUS_GENODEF_13
1002
{
1000
HIER
1070
     0
1002
}
1002
{
1000
MANEDIT
1070
     0
1002
}
1002
{
1000
NOSEL
1070
     0
1002
}
1002
{
1000
BEHIND
1070
     0
1002
}
1002
{
1000
OTHER
1070
     0
1002
}
1002
{
1000
REACTOR
1002
}
  0
LINE
  5
89C
330
1F
100
AcDbEntity
  8
0
100
AcDbLine
 10
88.45000025108271
 20
14.99999998845118
 30
0.0
 11
88.45000025108271
 21
34.99999998845112
 31
0.0
1001
GENIUS_GENREC_14
1002
{
1000
PYDIR
1011
60.65000025108282
1021
34.89999998845112
1031
0.0
1002
}
1002
{
1000
PXDIR
1011
88.3500002510828
1021
15.09999998845116
1031
0.0
1002
}
1002
{
1000
PORI
1011
60.65000025108282
1021
15.09999998845116
1031
0.0
1002
}
1002
{
1000
PINS
1011
60.65000025108282
1021
15.09999998845116
1031
0.0
1002
}
1002
{
1000
PINS2
1011
88.3500002510828
1021
34.89999998845112
1031
0.0
1002
}
1002
{
1000
C
1070
     1
1002
}
1001
GENIUS_GENOBJ-N-REC_13
1002
{
1000
OWNER
1000
GEN
1002
}
1001
GENIUS_GENODEF_13
1002
{
1000
HIER
1070
     0
1002
}
1002
{
1000
MANEDIT
1070
     0
1002
}
1002
{
1000
NOSEL
1070
     0
1002
}
1002
{
1000
BEHIND
1070
     0
1002
}
1002
{
1000
OTHER
1070
     0
1002
}
1002
{
1000
REACTOR
1002
}
  0
LINE
  5
89D
330
1F
100
AcDbEntity
  8
0
100
AcDbLine
 10
88.45000025108271
 20
34.99999998845112
 30
0.0
 11
60.55000025108274
 21
34.99999998845112
 31
0.0
1001
GENIUS_GENREC_14
1002
{
1000
PYDIR
1011
60.65000025108282
1021
34.89999998845112
1031
0.0
1002
}
1002
{
1000
PXDIR
1011
88.3500002510828
1021
15.09999998845116
1031
0.0
1002
}
1002
{
1000
PORI
1011
60.65000025108282
1021
15.09999998845116
1031
0.0
1002
}
1002
{
1000
PINS
1011
60.65000025108282
1021
15.09999998845116
1031
0.0
1002
}
1002
{
1000
PINS2
1011
88.3500002510828
1021
34.89999998845112
1031
0.0
1002
}
1002
{
1000
C
1070
     1
1002
}
1001
GENIUS_GENOBJ-N-REC_13
1002
{
1000
OWNER
1000
GEN
1002
}
1001
GENIUS_GENODEF_13
1002
{
1000
HIER
1070
     0
1002
}
1002
{
1000
MANEDIT
1070
     0
1002
}
1002
{
1000
NOSEL
1070
     0
1002
}
1002
{
1000
BEHIND
1070
     0
1002
}
1002
{
1000
OTHER
1070
     0
1002
}
1002
{
1000
REACTOR
1002
}
  0
LINE
  5
89E
330
1F
100
AcDbEntity
  8
0
100
AcDbLine
 10
60.55000025108274
 20
34.99999998845112
 30
0.0
 11
60.55000025108274
 21
14.99999998845118
 31
0.0
1001
GENIUS_GENREC_14
1002
{
1000
PYDIR
1011
60.65000025108282
1021
34.89999998845112
1031
0.0
1002
}
1002
{
1000
PXDIR
1011
88.3500002510828
1021
15.09999998845116
1031
0.0
1002
}
1002
{
1000
PORI
1011
60.65000025108282
1021
15.09999998845116
1031
0.0
1002
}
1002
{
1000
PINS
1011
60.65000025108282
1021
15.09999998845116
1031
0.0
1002
}
1002
{
1000
PINS2
1011
88.3500002510828
1021
34.89999998845112
1031
0.0
1002
}
1002
{
1000
C
1070
     1
1002
}
1001
GENIUS_GENOBJ-N-REC_13
1002
{
1000
OWNER
1000
GEN
1002
}
1001
GENIUS_GENODEF_13
1002
{
1000
HIER
1070
     0
1002
}
1002
{
1000
MANEDIT
1070
     0
1002
}
1002
{
1000
NOSEL
1070
     0
1002
}
1002
{
1000
BEHIND
1070
     0
1002
}
1002
{
1000
OTHER
1070
     0
1002
}
1002
{
1000
REACTOR
1002
}
  0
ENDSEC
  0
SECTION
  2
OBJECTS
  0
DICTIONARY
  5
C
330
0
100
AcDbDictionary
281
     1
  3
ACAD_COLOR
350
BE
  3
ACAD_GROUP
350
D
  3
ACAD_LAYOUT
350
1A
  3
ACAD_MATERIAL
350
BD
  3
ACAD_MLINESTYLE
350
17
  3
ACAD_PLOTSETTINGS
350
19
  3
ACAD_PLOTSTYLENAME
350
E
  3
ACAD_TABLESTYLE
350
11A
  3
ACDBHEADERROUNDTRIPXREC
350
8A1
  3
AcDbVariableDictionary
350
94
  3
AcmDictionary
350
5B
  3
AMG
350
41
  3
AMGSNAPSETTINGS
350
1B8
  3
DWGPROPS
350
8A0
  0
DICTIONARY
  5
218
330
2
100
AcDbDictionary
280
     1
281
     1
  3
ACAD_LAYERSTATES
360
219
  0
DICTIONARY
  5
8F
330
1F
100
AcDbDictionary
280
     1
281
     1
  3
ACAD_SORTENTS
360
7EE
  0
DICTIONARY
  5
BE
102
{ACAD_REACTORS
330
C
102
}
330
C
100
AcDbDictionary
281
     1
  0
DICTIONARY
  5
D
102
{ACAD_REACTORS
330
C
102
}
330
C
100
AcDbDictionary
281
     1
  0
DICTIONARY
  5
1A
102
{ACAD_REACTORS
330
C
102
}
330
C
100
AcDbDictionary
281
     1
  3
Model
350
22
  3
レイアウト1
350
1E
  3
レイアウト2
350
26
  0
DICTIONARY
  5
BD
102
{ACAD_REACTORS
330
C
102
}
330
C
100
AcDbDictionary
281
     1
  0
DICTIONARY
  5
17
102
{ACAD_REACTORS
330
C
102
}
330
C
100
AcDbDictionary
281
     1
  3
Standard
350
18
  0
DICTIONARY
  5
19
102
{ACAD_REACTORS
330
C
102
}
330
C
100
AcDbDictionary
281
     1
  0
ACDBDICTIONARYWDFLT
  5
E
102
{ACAD_REACTORS
330
C
102
}
330
C
100
AcDbDictionary
281
     1
  3
Normal
350
F
100
AcDbDictionaryWithDefault
340
F
  0
DICTIONARY
  5
11A
102
{ACAD_REACTORS
330
C
102
}
330
C
100
AcDbDictionary
281
     1
  3
Standard
350
11B
  0
DICTIONARY
  5
8A1
102
{ACAD_REACTORS
330
C
102
}
330
C
100
AcDbDictionary
281
     1
  0
DICTIONARY
  5
94
102
{ACAD_REACTORS
330
C
102
}
330
C
100
AcDbDictionary
281
     1
  3
CTABLESTYLE
350
138
  3
DIMASSOC
350
96
  3
INDEXCTL
350
95
  3
PROJECTNAME
350
7F0
  0
DICTIONARY
  5
5B
102
{ACAD_REACTORS
330
C
102
}
330
C
100
AcDbDictionary
281
     1
  3
AcmBOM
350
1B5
  3
AcmStdDictionary
350
61
  3
AMDTSECTSYM_ARROWCOLOR
350
123
  0
DICTIONARY
  5
41
102
{ACAD_REACTORS
330
C
102
}
330
C
100
AcDbDictionary
281
     1
  0
DICTIONARY
  5
1B8
102
{ACAD_REACTORS
330
C
102
}
330
C
100
AcDbDictionary
281
     1
  0
XRECORD
  5
8A0
102
{ACAD_REACTORS
330
C
102
}
330
C
100
AcDbXrecord
280
     1
  1
DWGPROPS COOKIE
  2

  3

  4

  6

  7

  8

  9

300
AmdtFileType=84
301
=
302
=
303
=
304
=
305
=
306
=
307
=
308
=
309
=
 40
0.0031135416666667
 41
2456406.543508843
 42
2456406.646307812
  1

 90
        1
  0
DICTIONARY
  5
219
102
{ACAD_REACTORS
330
218
102
}
330
218
100
AcDbDictionary
281
     1
  0
SORTENTSTABLE
  5
7EE
102
{ACAD_REACTORS
330
8F
102
}
330
8F
100
AcDbSortentsTable
330
1F
331
6C8
  5
6D5
331
689
  5
696
331
652
  5
657
331
613
  5
618
331
77D
  5
78A
331
746
  5
754
331
707
  5
714
331
691
  5
69E
331
65A
  5
65F
331
61B
  5
620
331
6D0
  5
6DD
331
785
  5
792
331
74E
  5
75B
331
70F
  5
71C
331
6D8
  5
6E5
331
662
  5
667
331
623
  5
628
331
699
  5
6A6
331
78D
  5
79A
331
756
  5
763
331
717
  5
724
331
6E0
  5
6ED
331
6A1
  5
6AE
331
66A
  5
670
331
62B
  5
630
331
795
  5
7A2
331
75E
  5
76B
331
71F
  5
72C
331
59B
  5
59B
331
5DA
  5
5DB
331
4F0
  5
4F0
331
525
  5
525
331
564
  5
564
331
56C
  5
56C
331
5A3
  5
5A3
331
4F8
  5
4F8
331
52D
  5
52D
331
5E2
  5
5E3
331
574
  5
574
331
5AB
  5
5AB
331
500
  5
500
331
535
  5
535
331
5EA
  5
5EB
331
5F2
  5
5F3
331
53D
  5
53D
331
57C
  5
57C
331
5B3
  5
5B4
331
896
  5
674
331
89E
  5
608
331
6E8
  5
6F5
331
6A9
  5
6B6
331
672
  5
67F
331
633
  5
638
331
79D
  5
895
331
766
  5
773
331
727
  5
735
331
6B1
  5
6BE
331
67A
  5
687
331
63B
  5
640
331
6F0
  5
6FD
331
7A5
  5
89D
331
76E
  5
77B
331
72F
  5
73D
331
6F8
  5
705
331
682
  5
68F
331
643
  5
648
331
6B9
  5
6C6
331
776
  5
783
331
737
  5
746
331
6C1
  5
6CE
331
7ED
  5
5B2
331
73F
  5
74E
331
508
  5
508
331
5BB
  5
5BC
331
5FA
  5
5FB
331
510
  5
510
331
545
  5
545
331
584
  5
584
331
5C3
  5
5C4
331
518
  5
518
331
54D
  5
54D
331
58C
  5
58C
331
60A
  5
60F
331
594
  5
594
331
5CB
  5
5CC
331
555
  5
555
331
55D
  5
55D
331
5D3
  5
5D4
331
700
  5
70D
331
6C9
  5
6D6
331
68A
  5
697
331
653
  5
658
331
614
  5
619
331
77E
  5
78B
331
747
  5
755
331
708
  5
715
331
6D1
  5
6DE
331
692
  5
69F
331
61C
  5
621
331
65B
  5
660
331
786
  5
793
331
74F
  5
75C
331
710
  5
71D
331
69A
  5
6A7
331
6D9
  5
6E6
331
624
  5
629
331
663
  5
668
331
78E
  5
79B
331
757
  5
764
331
718
  5
725
331
6A2
  5
6AF
331
62C
  5
631
331
6E1
  5
6EE
331
796
  5
7A3
331
75F
  5
76C
331
5DB
  5
5DF
331
565
  5
565
331
59C
  5
59C
331
4F1
  5
4F1
331
526
  5
526
331
5E3
  5
5E4
331
4F9
  5
4F9
331
52E
  5
52E
331
56D
  5
56D
331
5A4
  5
5A4
331
5AC
  5
5AC
331
5EB
  5
5EC
331
501
  5
501
331
536
  5
536
331
575
  5
575
331
57D
  5
57D
331
5B4
  5
5B5
331
53E
  5
53E
331
5F3
  5
5F4
331
897
  5
675
331
720
  5
72D
331
6E9
  5
6F6
331
6AA
  5
6B7
331
673
  5
680
331
634
  5
639
331
79E
  5
896
331
767
  5
774
331
728
  5
736
331
6F1
  5
6FE
331
6B2
  5
6BF
331
63C
  5
641
331
67B
  5
688
331
7A6
  5
89E
331
76F
  5
77C
331
730
  5
73E
331
6F9
  5
706
331
6BA
  5
6C7
331
644
  5
649
331
683
  5
690
331
777
  5
784
331
6C2
  5
6CF
331
509
  5
509
331
585
  5
585
331
5BC
  5
5BD
331
511
  5
511
331
546
  5
546
331
5FB
  5
5FC
331
519
  5
519
331
54E
  5
54E
331
58D
  5
58D
331
5C4
  5
5C5
331
60B
  5
610
331
5CC
  5
5CD
331
556
  5
556
331
595
  5
595
331
5D4
  5
5D5
331
55E
  5
55E
331
740
  5
74F
331
701
  5
70E
331
6CA
  5
6D7
331
68B
  5
698
331
654
  5
659
331
615
  5
61A
331
77F
  5
78C
331
748
  5
756
331
709
  5
716
331
693
  5
6A0
331
65C
  5
661
331
61D
  5
622
331
6D2
  5
6DF
331
787
  5
794
331
750
  5
75D
331
711
  5
71E
331
6DA
  5
6E7
331
664
  5
669
331
625
  5
62A
331
69B
  5
6A8
331
78F
  5
79C
331
758
  5
765
331
719
  5
726
331
6E2
  5
6EF
331
6A3
  5
6B0
331
62D
  5
632
331
66C
  5
679
331
797
  5
7A4
331
59D
  5
59D
331
4F2
  5
4F2
331
527
  5
527
331
566
  5
566
331
56E
  5
56E
331
5A5
  5
5A5
331
4FA
  5
4FA
331
52F
  5
52F
331
5E4
  5
5E5
331
5EC
  5
5ED
331
576
  5
576
331
5AD
  5
5AD
331
502
  5
502
331
537
  5
537
331
5F4
  5
5F5
331
53F
  5
53F
331
57E
  5
57E
331
5B5
  5
5B6
331
898
  5
676
331
760
  5
76D
331
721
  5
72E
331
6EA
  5
6F7
331
6AB
  5
6B8
331
635
  5
63A
331
674
  5
681
331
79F
  5
897
331
768
  5
775
331
729
  5
737
331
6B3
  5
6C0
331
67C
  5
689
331
63D
  5
642
331
6F2
  5
6FF
331
770
  5
77D
331
731
  5
73F
331
6FA
  5
707
331
684
  5
691
331
645
  5
64A
331
6BB
  5
6C8
331
739
  5
747
331
6C3
  5
6D0
331
64D
  5
656
331
50A
  5
50A
331
5BD
  5
5BE
331
5FC
  5
5FD
331
512
  5
512
331
547
  5
547
331
586
  5
586
331
604
  5
609
331
58E
  5
58E
331
5C5
  5
5C6
331
51A
  5
51A
331
54F
  5
54F
331
60C
  5
611
331
596
  5
596
331
5CD
  5
5CE
331
557
  5
557
331
55F
  5
55F
331
5D5
  5
5D6
331
778
  5
785
331
741
  5
750
331
702
  5
70F
331
6CB
  5
6D8
331
655
  5
65A
331
616
  5
61B
331
68C
  5
699
331
780
  5
78D
331
749
  5
757
331
70A
  5
717
331
6D3
  5
6E0
331
694
  5
6A1
331
61E
  5
623
331
65D
  5
662
331
788
  5
795
331
751
  5
75E
331
712
  5
71F
331
69C
  5
6A9
331
665
  5
66A
331
626
  5
62B
331
6DB
  5
6E8
331
790
  5
79D
331
759
  5
766
331
71A
  5
727
331
6A4
  5
6B1
331
66D
  5
67A
331
62E
  5
633
331
6E3
  5
6F0
331
520
  5
520
331
528
  5
528
331
567
  5
567
331
59E
  5
59E
331
4F3
  5
4F3
331
5E5
  5
5E6
331
4FB
  5
4FB
331
530
  5
530
331
56F
  5
56F
331
5A6
  5
5A6
331
5AE
  5
5AE
331
5ED
  5
5EE
331
503
  5
503
331
538
  5
538
331
577
  5
577
331
57F
  5
57F
331
5B6
  5
5B7
331
5F5
  5
5F6
331
899
  5
677
331
798
  5
7A5
331
761
  5
76E
331
722
  5
730
331
6EB
  5
6F8
331
675
  5
682
331
636
  5
63B
331
6AC
  5
6B9
331
7A0
  5
898
331
769
  5
776
331
72A
  5
738
331
6F3
  5
700
331
6B4
  5
6C1
331
63E
  5
643
331
67D
  5
68A
331
771
  5
77E
331
732
  5
740
331
6FB
  5
708
331
6BC
  5
6C9
331
646
  5
64D
331
685
  5
692
331
73A
  5
748
331
6C4
  5
6D1
331
50B
  5
50B
331
540
  5
540
331
5FD
  5
5FE
331
587
  5
587
331
5BE
  5
5BF
331
513
  5
513
331
548
  5
548
331
605
  5
60A
331
51B
  5
51B
331
550
  5
550
331
58F
  5
58F
331
5C6
  5
5C7
331
60D
  5
612
331
5CE
  5
5CF
331
558
  5
558
331
597
  5
597
331
5D6
  5
5D7
331
779
  5
786
331
703
  5
710
331
6CC
  5
6D9
331
656
  5
65B
331
68D
  5
69A
331
617
  5
61C
331
781
  5
78E
331
74A
  5
758
331
70B
  5
718
331
6D4
  5
6E1
331
65E
  5
663
331
695
  5
6A2
331
61F
  5
624
331
789
  5
796
331
752
  5
75F
331
713
  5
720
331
6DC
  5
6E9
331
666
  5
66B
331
627
  5
62C
331
69D
  5
6AA
331
791
  5
79E
331
75A
  5
767
331
71B
  5
728
331
6E4
  5
6F1
331
6A5
  5
6B2
331
62F
  5
634
331
66E
  5
67B
331
521
  5
521
331
560
  5
560
331
59F
  5
59F
331
4F4
  5
4F4
331
529
  5
529
331
568
  5
568
331
570
  5
570
331
4FC
  5
4FC
331
531
  5
531
331
5EE
  5
5EF
331
539
  5
539
331
578
  5
578
331
5AF
  5
5AF
331
504
  5
504
331
5F6
  5
5F7
331
5B7
  5
5B8
331
89A
  5
678
331
799
  5
7A6
331
762
  5
76F
331
723
  5
731
331
6AD
  5
6BA
331
676
  5
683
331
637
  5
63C
331
6EC
  5
6F9
331
7A1
  5
899
331
76A
  5
777
331
72B
  5
73A
331
6B5
  5
6C2
331
67E
  5
68B
331
63F
  5
644
331
6F4
  5
701
331
772
  5
77F
331
733
  5
741
331
6FC
  5
709
331
686
  5
693
331
647
  5
652
331
6BD
  5
6CA
331
73B
  5
749
331
6C5
  5
6D2
331
50C
  5
50C
331
541
  5
541
331
580
  5
580
331
5BF
  5
5C0
331
5FE
  5
5FF
331
514
  5
514
331
549
  5
549
331
588
  5
588
331
606
  5
60B
331
590
  5
590
331
5C7
  5
5C8
331
51C
  5
51C
331
551
  5
551
331
60E
  5
613
331
5CF
  5
5D0
331
559
  5
559
331
5D7
  5
5D8
331
610
  5
615
331
77A
  5
787
331
743
  5
751
331
704
  5
711
331
6CD
  5
6DA
331
657
  5
65C
331
618
  5
61D
331
68E
  5
69B
331
782
  5
78F
331
74B
  5
759
331
70C
  5
719
331
6D5
  5
6E2
331
696
  5
6A3
331
620
  5
625
331
65F
  5
664
331
78A
  5
797
331
753
  5
760
331
714
  5
721
331
69E
  5
6AB
331
667
  5
66D
331
628
  5
62D
331
6DD
  5
6EA
331
792
  5
79F
331
75B
  5
768
331
71C
  5
729
331
6E5
  5
6F2
331
66F
  5
67C
331
6A6
  5
6B3
331
561
  5
561
331
598
  5
598
331
522
  5
522
331
5DF
  5
5E0
331
4F5
  5
4F5
331
52A
  5
52A
331
569
  5
569
331
5A8
  5
5A8
331
5E7
  5
5E8
331
4FD
  5
4FD
331
532
  5
532
331
571
  5
571
331
5B0
  5
5B0
331
505
  5
505
331
53A
  5
53A
331
579
  5
579
331
5F7
  5
5F8
331
893
  5
671
331
89B
  5
605
331
630
  5
635
331
79A
  5
7ED
331
763
  5
770
331
724
  5
732
331
6ED
  5
6FA
331
677
  5
684
331
638
  5
63D
331
6AE
  5
6BB
331
7A2
  5
89A
331
76B
  5
778
331
72C
  5
73B
331
6F5
  5
702
331
6B6
  5
6C3
331
640
  5
645
331
67F
  5
68C
331
773
  5
780
331
734
  5
742
331
6FD
  5
70A
331
6BE
  5
6CB
331
687
  5
694
331
648
  5
653
331
73C
  5
74A
331
6C6
  5
6D3
331
581
  5
581
331
5B8
  5
5B9
331
50D
  5
50D
331
542
  5
542
331
5FF
  5
600
331
54A
  5
54A
331
589
  5
589
331
5C0
  5
5C1
331
515
  5
515
331
607
  5
60C
331
51D
  5
51D
331
552
  5
552
331
591
  5
591
331
5C8
  5
5C9
331
60F
  5
614
331
5D0
  5
5D1
331
55A
  5
55A
331
611
  5
616
331
77B
  5
788
331
744
  5
752
331
705
  5
712
331
68F
  5
69C
331
658
  5
65D
331
619
  5
61E
331
6CE
  5
6DB
331
783
  5
790
331
70D
  5
71A
331
6D6
  5
6E3
331
660
  5
665
331
621
  5
626
331
697
  5
6A4
331
78B
  5
798
331
754
  5
761
331
715
  5
722
331
6DE
  5
6EB
331
668
  5
66E
331
629
  5
62E
331
69F
  5
6AC
331
793
  5
7A0
331
75C
  5
769
331
71D
  5
72A
331
6E6
  5
6F3
331
6A7
  5
6B4
331
599
  5
599
331
5D8
  5
5D9
331
523
  5
523
331
562
  5
562
331
5E0
  5
5E1
331
4F6
  5
4F6
331
52B
  5
52B
331
56A
  5
56A
331
572
  5
572
331
5A9
  5
5A9
331
4FE
  5
4FE
331
533
  5
533
331
5E8
  5
5E9
331
5F0
  5
5F1
331
506
  5
506
331
53B
  5
53B
331
57A
  5
57A
331
5B1
  5
5B1
331
894
  5
672
331
89C
  5
606
331
670
  5
67D
331
631
  5
636
331
79B
  5
893
331
764
  5
771
331
725
  5
733
331
6AF
  5
6BC
331
678
  5
685
331
639
  5
63E
331
6EE
  5
6FB
331
7A3
  5
89B
331
76C
  5
779
331
72D
  5
73C
331
6F6
  5
703
331
680
  5
68D
331
6B7
  5
6C4
331
641
  5
646
331
774
  5
781
331
735
  5
744
331
6FE
  5
70B
331
649
  5
654
331
6BF
  5
6CC
331
73D
  5
74B
331
6C7
  5
6D4
331
5B9
  5
5BA
331
50E
  5
50E
331
543
  5
543
331
582
  5
582
331
5C1
  5
5C2
331
516
  5
516
331
54B
  5
54B
331
58A
  5
58A
331
608
  5
60D
331
592
  5
592
331
5C9
  5
5CA
331
51E
  5
51E
331
553
  5
553
331
55B
  5
55B
331
5D1
  5
5D2
331
688
  5
695
331
612
  5
617
331
77C
  5
789
331
745
  5
753
331
706
  5
713
331
6CF
  5
6DC
331
690
  5
69D
331
659
  5
65E
331
61A
  5
61F
331
784
  5
791
331
74D
  5
75A
331
70E
  5
71B
331
6D7
  5
6E4
331
698
  5
6A5
331
622
  5
627
331
661
  5
666
331
78C
  5
799
331
755
  5
762
331
716
  5
723
331
6A0
  5
6AD
331
669
  5
66F
331
62A
  5
62F
331
6DF
  5
6EC
331
794
  5
7A1
331
75D
  5
76A
331
71E
  5
72B
331
6E7
  5
6F4
331
563
  5
563
331
59A
  5
59A
331
4EF
  5
4EF
331
524
  5
524
331
5D9
  5
5DA
331
5E1
  5
5E2
331
4F7
  5
4F7
331
52C
  5
52C
331
56B
  5
56B
331
5AA
  5
5AA
331
5E9
  5
5EA
331
4FF
  5
4FF
331
534
  5
534
331
573
  5
573
331
5B2
  5
5B3
331
5F1
  5
5F2
331
507
  5
507
331
53C
  5
53C
331
57B
  5
57B
331
895
  5
673
331
89D
  5
607
331
6A8
  5
6B5
331
671
  5
67E
331
632
  5
637
331
79C
  5
894
331
765
  5
772
331
726
  5
734
331
6EF
  5
6FC
331
679
  5
686
331
63A
  5
63F
331
6B0
  5
6BD
331
7A4
  5
89C
331
76D
  5
77A
331
6F7
  5
704
331
6B8
  5
6C5
331
642
  5
647
331
681
  5
68E
331
775
  5
782
331
736
  5
745
331
6FF
  5
70C
331
6C0
  5
6CD
331
64A
  5
655
331
73E
  5
74C
331
583
  5
583
331
5BA
  5
5BB
331
50F
  5
50F
331
544
  5
544
331
5F9
  5
5FA
331
517
  5
517
331
54C
  5
54C
331
58B
  5
58B
331
5C2
  5
5C3
331
609
  5
60E
331
5CA
  5
5CB
331
51F
  5
51F
331
554
  5
554
331
593
  5
593
331
5D2
  5
5D3
331
55C
  5
55C
  0
LAYOUT
  5
22
102
{ACAD_XDICTIONARY
360
8A4
102
}
102
{ACAD_REACTORS
330
1A
102
}
330
1A
100
AcDbPlotSettings
  1

  2

  4

  6

 40
0.0
 41
0.0
 42
0.0
 43
0.0
 44
0.0
 45
0.0
 46
0.0
 47
0.0
 48
0.0
 49
0.0
140
0.0
141
0.0
142
1.0
143
1.0
 70
  1712
 72
     0
 73
     0
 74
     0
  7

 75
     0
147
1.0
148
0.0
149
0.0
100
AcDbLayout
  1
Model
 70
     1
 71
     0
 10
0.0
 20
0.0
 11
12.0
 21
9.0
 12
0.0
 22
0.0
 32
0.0
 14
0.0
 24
0.0
 34
0.0
 15
0.0
 25
0.0
 35
0.0
146
0.0
 13
0.0
 23
0.0
 33
0.0
 16
1.0
 26
0.0
 36
0.0
 17
0.0
 27
1.0
 37
0.0
 76
     0
330
1F
  0
LAYOUT
  5
1E
102
{ACAD_XDICTIONARY
360
8A2
102
}
102
{ACAD_REACTORS
330
1A
102
}
330
1A
100
AcDbPlotSettings
  1

  2

  4

  6

 40
0.0
 41
0.0
 42
0.0
 43
0.0
 44
0.0
 45
0.0
 46
0.0
 47
0.0
 48
0.0
 49
0.0
140
0.0
141
0.0
142
1.0
143
1.0
 70
   688
 72
     0
 73
     0
 74
     5
  7

 75
    16
147
1.0
148
0.0
149
0.0
100
AcDbLayout
  1
レイアウト1
 70
     1
 71
     1
 10
0.0
 20
0.0
 11
420.0
 21
297.0
 12
0.0
 22
0.0
 32
0.0
 14
1.000000000000000E+20
 24
1.000000000000000E+20
 34
1.000000000000000E+20
 15
-1.000000000000000E+20
 25
-1.000000000000000E+20
 35
-1.000000000000000E+20
146
0.0
 13
0.0
 23
0.0
 33
0.0
 16
1.0
 26
0.0
 36
0.0
 17
0.0
 27
1.0
 37
0.0
 76
     0
330
1B
  0
LAYOUT
  5
26
102
{ACAD_XDICTIONARY
360
8A6
102
}
102
{ACAD_REACTORS
330
1A
102
}
330
1A
100
AcDbPlotSettings
  1

  2

  4

  6

 40
0.0
 41
0.0
 42
0.0
 43
0.0
 44
0.0
 45
0.0
 46
0.0
 47
0.0
 48
0.0
 49
0.0
140
0.0
141
0.0
142
1.0
143
1.0
 70
   688
 72
     0
 73
     0
 74
     5
  7

 75
    16
147
1.0
148
0.0
149
0.0
100
AcDbLayout
  1
レイアウト2
 70
     1
 71
     2
 10
0.0
 20
0.0
 11
12.0
 21
9.0
 12
0.0
 22
0.0
 32
0.0
 14
0.0
 24
0.0
 34
0.0
 15
0.0
 25
0.0
 35
0.0
146
0.0
 13
0.0
 23
0.0
 33
0.0
 16
1.0
 26
0.0
 36
0.0
 17
0.0
 27
1.0
 37
0.0
 76
     0
330
23
  0
MLINESTYLE
  5
18
102
{ACAD_REACTORS
330
17
102
}
330
17
100
AcDbMlineStyle
  2
STANDARD
 70
     0
  3

 62
   256
 51
90.0
 52
90.0
 71
     2
 49
0.5
 62
   256
  6
BYLAYER
 49
-0.5
 62
   256
  6
BYLAYER
  0
ACDBPLACEHOLDER
  5
F
102
{ACAD_REACTORS
330
E
102
}
330
E
  0
TABLESTYLE
  5
11B
102
{ACAD_REACTORS
330
11A
102
}
330
11A
100
AcDbTableStyle
  3
Standard
 70
     0
 71
     0
 40
1.5
 41
1.5
280
     0
281
     0
  7
STANDARD
140
4.5
170
     2
 62
     0
 63
     7
283
     0
274
    -2
284
     1
 64
     0
275
    -2
285
     1
 65
     0
276
    -2
286
     1
 66
     0
277
    -2
287
     1
 67
     0
278
    -2
288
     1
 68
     0
279
    -2
289
     1
 69
     0
  7
STANDARD
140
6.0
170
     5
 62
     0
 63
     7
283
     0
274
    -2
284
     1
 64
     0
275
    -2
285
     1
 65
     0
276
    -2
286
     1
 66
     0
277
    -2
287
     1
 67
     0
278
    -2
288
     1
 68
     0
279
    -2
289
     1
 69
     0
  7
STANDARD
140
4.5
170
     5
 62
     0
 63
     7
283
     0
274
    -2
284
     1
 64
     0
275
    -2
285
     1
 65
     0
276
    -2
286
     1
 66
     0
277
    -2
287
     1
 67
     0
278
    -2
288
     1
 68
     0
279
    -2
289
     1
 69
     0
  0
DICTIONARYVAR
  5
138
102
{ACAD_REACTORS
330
94
102
}
330
94
100
DictionaryVariables
280
     0
  1
STANDARD
  0
DICTIONARYVAR
  5
96
102
{ACAD_REACTORS
330
94
102
}
330
94
100
DictionaryVariables
280
     0
  1
2
  0
DICTIONARYVAR
  5
95
102
{ACAD_REACTORS
330
94
102
}
330
94
100
DictionaryVariables
280
     0
  1
0
  0
DICTIONARYVAR
  5
7F0
102
{ACAD_REACTORS
330
94
102
}
330
94
100
DictionaryVariables
280
     0
  1

  0
DICTIONARY
  5
1B5
102
{ACAD_REACTORS
330
5B
102
}
330
5B
100
AcDbDictionary
281
     1
  0
DICTIONARY
  5
61
102
{ACAD_REACTORS
330
5B
102
}
330
5B
100
AcDbDictionary
281
     1
  0
XRECORD
  5
123
102
{ACAD_REACTORS
330
5B
102
}
330
5B
100
AcDbXrecord
280
     1
 90
-1023410169
  0
DICTIONARY
  5
8A4
330
22
100
AcDbDictionary
280
     1
281
     1
  3
ACAD_XREC_ROUNDTRIP
360
8A5
  0
DICTIONARY
  5
8A2
330
1E
100
AcDbDictionary
280
     1
281
     1
  3
ACAD_XREC_ROUNDTRIP
360
8A3
  0
DICTIONARY
  5
8A6
330
26
100
AcDbDictionary
280
     1
281
     1
  3
ACAD_XREC_ROUNDTRIP
360
8A7
  0
XRECORD
  5
8A5
102
{ACAD_REACTORS
330
8A4
102
}
330
8A4
100
AcDbXrecord
280
     1
102
SHADEPLOT
 70
     0
102
SHADEPLOTRESLEVEL
 70
     2
102
SHADEPLOTCUSTOMDPI
 70
   300
  0
XRECORD
  5
8A3
102
{ACAD_REACTORS
330
8A2
102
}
330
8A2
100
AcDbXrecord
280
     1
102
SHADEPLOT
 70
     0
102
SHADEPLOTRESLEVEL
 70
     2
102
SHADEPLOTCUSTOMDPI
 70
   300
  0
XRECORD
  5
8A7
102
{ACAD_REACTORS
330
8A6
102
}
330
8A6
100
AcDbXrecord
280
     1
102
SHADEPLOT
 70
     0
102
SHADEPLOTRESLEVEL
 70
     2
102
SHADEPLOTCUSTOMDPI
 70
   300
  0
ENDSEC
  0
EOF
