  0
SECTION
  2
HEADER
  9
$ACADVER
  1
AC1015
  9
$ACADMAINTVER
 70
    10
  9
$DWGCODEPAGE
  3
ANSI_932
  9
$INSBASE
 10
0.0
 20
0.0
 30
0.0
  9
$EXTMIN
 10
198.7583405532213
 20
65.33377762913449
 30
0.0
  9
$EXTMAX
 10
734.9066167597792
 20
209.3338696291345
 30
0.0
  9
$LIMMIN
 10
0.0
 20
0.0
  9
$LIMMAX
 10
420.0
 20
297.0
  9
$ORTHOMODE
 70
     0
  9
$REGENMODE
 70
     1
  9
$FILLMODE
 70
     1
  9
$QTEXTMODE
 70
     0
  9
$MIRRTEXT
 70
     1
  9
$LTSCALE
 40
1.0
  9
$ATTMODE
 70
     1
  9
$TEXTSIZE
 40
2.5
  9
$TRACEWID
 40
1.0
  9
$TEXTSTYLE
  7
Standard
  9
$CLAYER
  8
0
  9
$CELTYPE
  6
ByLayer
  9
$CECOLOR
 62
   256
  9
$CELTSCALE
 40
1.0
  9
$DISPSILH
 70
     0
  9
$DIMSCALE
 40
1.0
  9
$DIMASZ
 40
2.5
  9
$DIMEXO
 40
0.625
  9
$DIMDLI
 40
3.75
  9
$DIMRND
 40
0.0
  9
$DIMDLE
 40
0.0
  9
$DIMEXE
 40
1.25
  9
$DIMTP
 40
0.0
  9
$DIMTM
 40
0.0
  9
$DIMTXT
 40
2.5
  9
$DIMCEN
 40
2.5
  9
$DIMTSZ
 40
0.0
  9
$DIMTOL
 70
     0
  9
$DIMLIM
 70
     0
  9
$DIMTIH
 70
     0
  9
$DIMTOH
 70
     0
  9
$DIMSE1
 70
     0
  9
$DIMSE2
 70
     0
  9
$DIMTAD
 70
     1
  9
$DIMZIN
 70
     8
  9
$DIMBLK
  1

  9
$DIMASO
 70
     1
  9
$DIMSHO
 70
     1
  9
$DIMPOST
  1

  9
$DIMAPOST
  1

  9
$DIMALT
 70
     0
  9
$DIMALTD
 70
     3
  9
$DIMALTF
 40
0.03937007874016
  9
$DIMLFAC
 40
1.0
  9
$DIMTOFL
 70
     1
  9
$DIMTVP
 40
0.0
  9
$DIMTIX
 70
     0
  9
$DIMSOXD
 70
     0
  9
$DIMSAH
 70
     0
  9
$DIMBLK1
  1

  9
$DIMBLK2
  1

  9
$DIMSTYLE
  2
ISO-25
  9
$DIMCLRD
 70
     0
  9
$DIMCLRE
 70
     0
  9
$DIMCLRT
 70
     0
  9
$DIMTFAC
 40
1.0
  9
$DIMGAP
 40
0.625
  9
$DIMJUST
 70
     0
  9
$DIMSD1
 70
     0
  9
$DIMSD2
 70
     0
  9
$DIMTOLJ
 70
     0
  9
$DIMTZIN
 70
     8
  9
$DIMALTZ
 70
     0
  9
$DIMALTTZ
 70
     0
  9
$DIMUPT
 70
     0
  9
$DIMDEC
 70
     2
  9
$DIMTDEC
 70
     2
  9
$DIMALTU
 70
     2
  9
$DIMALTTD
 70
     3
  9
$DIMTXSTY
  7
Standard
  9
$DIMAUNIT
 70
     0
  9
$DIMADEC
 70
     0
  9
$DIMALTRND
 40
0.0
  9
$DIMAZIN
 70
     0
  9
$DIMDSEP
 70
    46
  9
$DIMATFIT
 70
     3
  9
$DIMFRAC
 70
     0
  9
$DIMLDRBLK
  1

  9
$DIMLUNIT
 70
     2
  9
$DIMLWD
 70
    -2
  9
$DIMLWE
 70
    -2
  9
$DIMTMOVE
 70
     0
  9
$LUNITS
 70
     2
  9
$LUPREC
 70
     4
  9
$SKETCHINC
 40
1.0
  9
$FILLETRAD
 40
10.0
  9
$AUNITS
 70
     0
  9
$AUPREC
 70
     0
  9
$MENU
  1
.
  9
$ELEVATION
 40
0.0
  9
$PELEVATION
 40
0.0
  9
$THICKNESS
 40
0.0
  9
$LIMCHECK
 70
     0
  9
$CHAMFERA
 40
10.0
  9
$CHAMFERB
 40
10.0
  9
$CHAMFERC
 40
20.0
  9
$CHAMFERD
 40
0.0
  9
$SKPOLY
 70
     0
  9
$TDCREATE
 40
2456479.441465972
  9
$TDUCREATE
 40
2456479.066465972
  9
$TDUPDATE
 40
2456486.439003680
  9
$TDUUPDATE
 40
2456486.064003680
  9
$TDINDWG
 40
0.2364214931
  9
$TDUSRTIMER
 40
0.2364200347
  9
$USRTIMER
 70
     1
  9
$ANGBASE
 50
0.0
  9
$ANGDIR
 70
     0
  9
$PDMODE
 70
     0
  9
$PDSIZE
 40
0.0
  9
$PLINEWID
 40
0.0
  9
$SPLFRAME
 70
     0
  9
$SPLINETYPE
 70
     6
  9
$SPLINESEGS
 70
     8
  9
$HANDSEED
  5
1144
  9
$SURFTAB1
 70
     6
  9
$SURFTAB2
 70
     6
  9
$SURFTYPE
 70
     6
  9
$SURFU
 70
     6
  9
$SURFV
 70
     6
  9
$UCSBASE
  2

  9
$UCSNAME
  2

  9
$UCSORG
 10
0.0
 20
0.0
 30
0.0
  9
$UCSXDIR
 10
1.0
 20
0.0
 30
0.0
  9
$UCSYDIR
 10
0.0
 20
1.0
 30
0.0
  9
$UCSORTHOREF
  2

  9
$UCSORTHOVIEW
 70
     0
  9
$UCSORGTOP
 10
0.0
 20
0.0
 30
0.0
  9
$UCSORGBOTTOM
 10
0.0
 20
0.0
 30
0.0
  9
$UCSORGLEFT
 10
0.0
 20
0.0
 30
0.0
  9
$UCSORGRIGHT
 10
0.0
 20
0.0
 30
0.0
  9
$UCSORGFRONT
 10
0.0
 20
0.0
 30
0.0
  9
$UCSORGBACK
 10
0.0
 20
0.0
 30
0.0
  9
$PUCSBASE
  2

  9
$PUCSNAME
  2

  9
$PUCSORG
 10
0.0
 20
0.0
 30
0.0
  9
$PUCSXDIR
 10
1.0
 20
0.0
 30
0.0
  9
$PUCSYDIR
 10
0.0
 20
1.0
 30
0.0
  9
$PUCSORTHOREF
  2

  9
$PUCSORTHOVIEW
 70
     0
  9
$PUCSORGTOP
 10
0.0
 20
0.0
 30
0.0
  9
$PUCSORGBOTTOM
 10
0.0
 20
0.0
 30
0.0
  9
$PUCSORGLEFT
 10
0.0
 20
0.0
 30
0.0
  9
$PUCSORGRIGHT
 10
0.0
 20
0.0
 30
0.0
  9
$PUCSORGFRONT
 10
0.0
 20
0.0
 30
0.0
  9
$PUCSORGBACK
 10
0.0
 20
0.0
 30
0.0
  9
$USERI1
 70
     0
  9
$USERI2
 70
     0
  9
$USERI3
 70
     0
  9
$USERI4
 70
     0
  9
$USERI5
 70
     0
  9
$USERR1
 40
0.0
  9
$USERR2
 40
0.0
  9
$USERR3
 40
0.0
  9
$USERR4
 40
0.0
  9
$USERR5
 40
0.0
  9
$WORLDVIEW
 70
     1
  9
$SHADEDGE
 70
     3
  9
$SHADEDIF
 70
    70
  9
$TILEMODE
 70
     1
  9
$MAXACTVP
 70
    64
  9
$PINSBASE
 10
0.0
 20
0.0
 30
0.0
  9
$PLIMCHECK
 70
     0
  9
$PEXTMIN
 10
0.0
 20
0.0
 30
0.0
  9
$PEXTMAX
 10
0.0
 20
0.0
 30
0.0
  9
$PLIMMIN
 10
0.0
 20
0.0
  9
$PLIMMAX
 10
12.0
 20
9.0
  9
$UNITMODE
 70
     0
  9
$VISRETAIN
 70
     1
  9
$PLINEGEN
 70
     0
  9
$PSLTSCALE
 70
     1
  9
$TREEDEPTH
 70
  3020
  9
$CMLSTYLE
  2
Standard
  9
$CMLJUST
 70
     0
  9
$CMLSCALE
 40
20.0
  9
$PROXYGRAPHICS
 70
     1
  9
$MEASUREMENT
 70
     1
  9
$CELWEIGHT
370
    -1
  9
$ENDCAPS
280
     0
  9
$JOINSTYLE
280
     0
  9
$LWDISPLAY
290
     0
  9
$INSUNITS
 70
     4
  9
$HYPERLINKBASE
  1

  9
$STYLESHEET
  1

  9
$XEDIT
290
     1
  9
$CEPSNTYPE
380
     0
  9
$PSTYLEMODE
290
     1
  9
$FINGERPRINTGUID
  2
{A6848DE9-940C-4D52-BF01-B989AB06D38A}
  9
$VERSIONGUID
  2
{7A074256-695D-4647-A75C-58FB6DEBFD58}
  9
$EXTNAMES
290
     1
  9
$PSVPSCALE
 40
0.0
  9
$OLESTARTUP
290
     0
  0
ENDSEC
  0
SECTION
  2
CLASSES
  0
CLASS
  1
ACDBDICTIONARYWDFLT
  2
AcDbDictionaryWithDefault
  3
AutoCAD 2000
 90
        0
280
     0
281
     0
  0
CLASS
  1
ACDBPLACEHOLDER
  2
AcDbPlaceHolder
  3
AutoCAD 2000
 90
        0
280
     0
281
     0
  0
CLASS
  1
LAYOUT
  2
AcDbLayout
  3
AutoCAD 2000
 90
        0
280
     0
281
     0
  0
ENDSEC
  0
SECTION
  2
TABLES
  0
TABLE
  2
VPORT
  5
8
330
0
100
AcDbSymbolTable
 70
     6
  0
VPORT
  5
1143
330
8
100
AcDbSymbolTableRecord
100
AcDbViewportTableRecord
  2
*Active
 70
     0
 10
0.0
 20
0.0
 11
1.0
 21
1.0
 12
459.7950202621409
 22
145.462458272164
 13
0.0
 23
0.0
 14
10.0
 24
10.0
 15
10.0
 25
10.0
 16
0.0
 26
0.0
 36
1.0
 17
0.0
 27
0.0
 37
0.0
 40
339.9398987199765
 41
1.781954887218045
 42
50.0
 43
0.0
 44
0.0
 50
0.0
 51
0.0
 71
     0
 72
   100
 73
     1
 74
     3
 75
     0
 76
     0
 77
     0
 78
     0
281
     0
 65
     1
110
0.0
120
0.0
130
0.0
111
1.0
121
0.0
131
0.0
112
0.0
122
1.0
132
0.0
 79
     0
146
0.0
  0
ENDTAB
  0
TABLE
  2
LTYPE
  5
5
330
0
100
AcDbSymbolTable
 70
     2
  0
LTYPE
  5
14
330
5
100
AcDbSymbolTableRecord
100
AcDbLinetypeTableRecord
  2
ByBlock
 70
     0
  3

 72
    65
 73
     0
 40
0.0
  0
LTYPE
  5
15
330
5
100
AcDbSymbolTableRecord
100
AcDbLinetypeTableRecord
  2
ByLayer
 70
     0
  3

 72
    65
 73
     0
 40
0.0
  0
LTYPE
  5
16
330
5
100
AcDbSymbolTableRecord
100
AcDbLinetypeTableRecord
  2
Continuous
 70
     0
  3
Solid line
 72
    65
 73
     0
 40
0.0
  0
LTYPE
  5
113E
330
5
100
AcDbSymbolTableRecord
100
AcDbLinetypeTableRecord
  2
DASHED
 70
     0
  3
Dashed __ __ __ __ __ __ __ __ __ __ __ __ __ _
 72
    65
 73
     2
 40
19.04999999999999
 49
12.7
 74
     0
 49
-6.349999999999999
 74
     0
  0
ENDTAB
  0
TABLE
  2
LAYER
  5
2
330
0
100
AcDbSymbolTable
 70
     1
  0
LAYER
  5
10
330
2
100
AcDbSymbolTableRecord
100
AcDbLayerTableRecord
  2
0
 70
     0
 62
     7
  6
Continuous
370
    -3
390
F
  0
ENDTAB
  0
TABLE
  2
STYLE
  5
3
330
0
100
AcDbSymbolTable
 70
     2
  0
STYLE
  5
11
330
3
100
AcDbSymbolTableRecord
100
AcDbTextStyleTableRecord
  2
Standard
 70
     0
 40
0.0
 41
1.0
 50
0.0
 71
     0
 42
2.5
  3
txt
  4

  0
STYLE
  5
113D
330
3
100
AcDbSymbolTableRecord
100
AcDbTextStyleTableRecord
  2

 70
     1
 40
0.0
 41
1.0
 50
0.0
 71
     0
 42
2.5
  3
ltypeshp.shx
  4

  0
ENDTAB
  0
TABLE
  2
VIEW
  5
6
330
0
100
AcDbSymbolTable
 70
     0
  0
ENDTAB
  0
TABLE
  2
UCS
  5
7
330
0
100
AcDbSymbolTable
 70
     0
  0
ENDTAB
  0
TABLE
  2
APPID
  5
9
330
0
100
AcDbSymbolTable
 70
     1
  0
APPID
  5
12
330
9
100
AcDbSymbolTableRecord
100
AcDbRegAppTableRecord
  2
ACAD
 70
     0
  0
ENDTAB
  0
TABLE
  2
DIMSTYLE
  5
A
330
0
100
AcDbSymbolTable
 70
     2
100
AcDbDimStyleTable
 71
     1
340
27
  0
DIMSTYLE
105
27
330
A
100
AcDbSymbolTableRecord
100
AcDbDimStyleTableRecord
  2
ISO-25
 70
     0
 41
2.5
 42
0.625
 43
3.75
 44
1.25
 73
     0
 74
     0
 77
     1
 78
     8
140
2.5
141
2.5
143
0.03937007874016
147
0.625
171
     3
172
     1
271
     2
272
     2
274
     3
283
     0
284
     8
340
11
  0
DIMSTYLE
105
2B
330
A
100
AcDbSymbolTableRecord
100
AcDbDimStyleTableRecord
  2
STANDARD
 70
     0
340
11
  0
ENDTAB
  0
TABLE
  2
BLOCK_RECORD
  5
1
330
0
100
AcDbSymbolTable
 70
     0
  0
BLOCK_RECORD
  5
1F
330
1
100
AcDbSymbolTableRecord
100
AcDbBlockTableRecord
  2
*Model_Space
340
22
  0
BLOCK_RECORD
  5
10C5
330
1
100
AcDbSymbolTableRecord
100
AcDbBlockTableRecord
  2
*Paper_Space
340
10C6
  0
ENDTAB
  0
ENDSEC
  0
SECTION
  2
BLOCKS
  0
BLOCK
  5
20
330
1F
100
AcDbEntity
  8
0
100
AcDbBlockBegin
  2
*Model_Space
 70
     0
 10
0.0
 20
0.0
 30
0.0
  3
*Model_Space
  1

  0
ENDBLK
  5
21
330
1F
100
AcDbEntity
  8
0
100
AcDbBlockEnd
  0
BLOCK
  5
10C7
330
10C5
100
AcDbEntity
 67
     1
  8
0
100
AcDbBlockBegin
  2
*Paper_Space
 70
     0
 10
0.0
 20
0.0
 30
0.0
  3
*Paper_Space
  1

  0
ENDBLK
  5
10C8
330
10C5
100
AcDbEntity
 67
     1
  8
0
100
AcDbBlockEnd
  0
ENDSEC
  0
SECTION
  2
ENTITIES
  0
LINE
  5
87A
330
1F
100
AcDbEntity
  8
0
  6
Continuous
 62
     7
100
AcDbLine
 10
340.0690007597793
 20
65.33377762913449
 30
0.0
 11
202.0690007597793
 21
65.33377762913449
 31
0.0
  0
LINE
  5
87B
330
1F
100
AcDbEntity
  8
0
  6
Continuous
 62
     7
100
AcDbLine
 10
340.0690007597793
 20
209.3338696291345
 30
0.0
 11
202.0690007597793
 21
209.3338696291345
 31
0.0
  0
LINE
  5
87D
330
1F
100
AcDbEntity
  8
0
  6
Continuous
 62
     7
100
AcDbLine
 10
199.0690007597796
 20
206.3338696291345
 30
0.0
 11
199.0690007597796
 21
68.33386962913448
 31
0.0
  0
ARC
  5
87E
330
1F
100
AcDbEntity
  8
0
  6
Continuous
 62
     7
100
AcDbCircle
 10
202.0690007597793
 20
68.33377762913449
 30
0.0
 40
3.0
100
AcDbArc
 50
180.0000050000005
 51
270.0000009999997
  0
ARC
  5
87F
330
1F
100
AcDbEntity
  8
0
  6
Continuous
 62
     7
100
AcDbCircle
 10
202.0690007597793
 20
68.33386962913448
 30
0.0
 40
3.0
100
AcDbArc
 50
180.0000050000005
 51
270.0000009999997
  0
ARC
  5
880
330
1F
100
AcDbEntity
  8
0
  6
Continuous
 62
     7
100
AcDbCircle
 10
202.0690007597793
 20
206.3338696291345
 30
0.0
 40
3.0
100
AcDbArc
 50
90.00000300000095
 51
180.0000050000005
  0
LINE
  5
883
330
1F
100
AcDbEntity
  8
0
  6
Continuous
 62
     7
100
AcDbLine
 10
206.3689887597797
 20
200.1337956291342
 30
0.0
 11
206.3689887597797
 21
106.1337956291345
 31
0.0
  0
LINE
  5
884
330
1F
100
AcDbEntity
  8
0
  6
Continuous
 62
     7
100
AcDbLine
 10
335.7689807597793
 20
106.1337956291345
 30
0.0
 11
335.7689807597793
 21
200.1337956291342
 31
0.0
  0
LINE
  5
885
330
1F
100
AcDbEntity
  8
0
  6
Continuous
 62
     7
100
AcDbLine
 10
326.5690007597794
 20
111.1337956291345
 30
0.0
 11
326.5690007597794
 21
196.243781629134
 31
0.0
  0
LINE
  5
886
330
1F
100
AcDbEntity
  8
0
  6
Continuous
 62
     7
100
AcDbLine
 10
214.2890007597794
 20
196.243781629134
 30
0.0
 11
214.2890007597794
 21
111.1337956291345
 31
0.0
  0
LINE
  5
887
330
1F
100
AcDbEntity
  8
0
  6
Continuous
 62
     7
100
AcDbLine
 10
335.7689807597793
 20
106.1338576291344
 30
0.0
 11
335.7689807597793
 21
200.133857629134
 31
0.0
  0
LINE
  5
888
330
1F
100
AcDbEntity
  8
0
  6
Continuous
 62
     7
100
AcDbLine
 10
206.3689887597797
 20
200.133857629134
 30
0.0
 11
206.3689887597797
 21
106.1338576291344
 31
0.0
  0
LINE
  5
889
330
1F
100
AcDbEntity
  8
0
  6
Continuous
 62
     7
 48
0.125
100
AcDbLine
 10
274.8689887597797
 20
75.14752962913451
 30
0.0
 11
264.8689887597793
 21
75.14752962913451
 31
0.0
  0
LINE
  5
88A
330
1F
100
AcDbEntity
  8
0
  6
Continuous
 62
     7
 48
0.125
100
AcDbLine
 10
264.8689887597793
 20
82.14752962913451
 30
0.0
 11
274.8689887597797
 21
82.14752962913451
 31
0.0
  0
LINE
  5
88B
330
1F
100
AcDbEntity
  8
0
  6
Continuous
 62
     7
 48
0.125
100
AcDbLine
 10
274.8689887597797
 20
85.14752962913451
 30
0.0
 11
264.8689887597793
 21
85.14752962913451
 31
0.0
  0
LINE
  5
88C
330
1F
100
AcDbEntity
  8
0
  6
Continuous
 62
     7
 48
0.125
100
AcDbLine
 10
264.8689887597793
 20
92.14752962913451
 30
0.0
 11
274.8689887597797
 21
92.14752962913451
 31
0.0
  0
LINE
  5
88D
330
1F
100
AcDbEntity
  8
0
  6
Continuous
 62
     7
 48
0.1275
100
AcDbLine
 10
264.7689967597794
 20
92.24753562913424
 30
0.0
 11
274.9689947597794
 21
92.24753562913424
 31
0.0
  0
LINE
  5
88E
330
1F
100
AcDbEntity
  8
0
  6
Continuous
 62
     7
 48
0.1275
100
AcDbLine
 10
274.9689947597794
 20
85.0475236291345
 30
0.0
 11
264.7689967597794
 21
85.0475236291345
 31
0.0
  0
LINE
  5
88F
330
1F
100
AcDbEntity
  8
0
  6
Continuous
 62
     7
 48
0.1275
100
AcDbLine
 10
264.7689967597794
 20
82.24753562913424
 30
0.0
 11
274.9689947597794
 21
82.24753562913424
 31
0.0
  0
LINE
  5
890
330
1F
100
AcDbEntity
  8
0
  6
Continuous
 62
     7
 48
0.1275
100
AcDbLine
 10
274.9689947597794
 20
75.0475236291345
 30
0.0
 11
264.7689967597794
 21
75.0475236291345
 31
0.0
  0
LINE
  5
892
330
1F
100
AcDbEntity
  8
0
  6
Continuous
 62
     7
 48
0.281981
100
AcDbLine
 10
282.3482367597796
 20
93.61499762913451
 30
0.0
 11
259.7897487597794
 21
93.61499762913451
 31
0.0
  0
ARC
  5
894
330
1F
100
AcDbEntity
  8
0
  6
Continuous
 62
     7
100
AcDbCircle
 10
271.0690007597794
 20
352.9334496291342
 30
0.0
 40
257.139496
100
AcDbArc
 50
269.4402699999995
 51
270.5597250000006
  0
LINE
  5
896
330
1F
100
AcDbEntity
  8
0
  6
Continuous
 62
     7
100
AcDbLine
 10
214.2890007597794
 20
111.1337956291345
 30
0.0
 11
326.5690007597794
 21
111.1337956291345
 31
0.0
  0
LINE
  5
897
330
1F
100
AcDbEntity
  8
0
  6
Continuous
 62
     7
100
AcDbLine
 10
333.7689807597796
 20
104.1337956291345
 30
0.0
 11
208.3689887597797
 21
104.1337956291345
 31
0.0
  0
LINE
  5
898
330
1F
100
AcDbEntity
  8
0
  6
Continuous
 62
     7
100
AcDbLine
 10
333.7689807597796
 20
104.1338576291344
 30
0.0
 11
208.3689887597797
 21
104.1338576291344
 31
0.0
  0
LINE
  5
899
330
1F
100
AcDbEntity
  8
0
  6
Continuous
 62
     7
100
AcDbLine
 10
208.3689887597797
 20
98.33386962913426
 30
0.0
 11
333.7689807597796
 21
98.33386962913426
 31
0.0
  0
LINE
  5
89B
330
1F
100
AcDbEntity
  8
0
  6
Continuous
 62
     7
 48
0.0625
100
AcDbLine
 10
263.8689887597793
 20
91.14752962913451
 30
0.0
 11
263.8689887597793
 21
86.14752962913451
 31
0.0
  0
LINE
  5
89C
330
1F
100
AcDbEntity
  8
0
  6
Continuous
 62
     7
 48
0.0625
100
AcDbLine
 10
246.6689907597797
 20
91.14752962913451
 30
0.0
 11
246.6689907597797
 21
86.14752962913451
 31
0.0
  0
LINE
  5
89D
330
1F
100
AcDbEntity
  8
0
  6
Continuous
 62
     7
 48
0.0625
100
AcDbLine
 10
258.6689907597794
 20
86.14752962913451
 30
0.0
 11
258.6689907597794
 21
91.14752962913451
 31
0.0
  0
LINE
  5
89E
330
1F
100
AcDbEntity
  8
0
  6
Continuous
 62
     7
 48
0.0625
100
AcDbLine
 10
231.9689947597797
 20
91.14752962913451
 30
0.0
 11
231.9689947597797
 21
86.14752962913451
 31
0.0
  0
LINE
  5
89F
330
1F
100
AcDbEntity
  8
0
  6
Continuous
 62
     7
 48
0.0625
100
AcDbLine
 10
243.9689947597797
 20
86.14752962913451
 30
0.0
 11
243.9689947597797
 21
91.14752962913451
 31
0.0
  0
LINE
  5
8A0
330
1F
100
AcDbEntity
  8
0
  6
Continuous
 62
     7
 48
0.0625
100
AcDbLine
 10
217.2689967597794
 20
91.14752962913451
 30
0.0
 11
217.2689967597794
 21
86.14752962913451
 31
0.0
  0
LINE
  5
8A1
330
1F
100
AcDbEntity
  8
0
  6
Continuous
 62
     7
 48
0.0625
100
AcDbLine
 10
229.2689967597796
 20
86.14752962913451
 30
0.0
 11
229.2689967597796
 21
91.14752962913451
 31
0.0
  0
LINE
  5
8A2
330
1F
100
AcDbEntity
  8
0
  6
Continuous
 62
     7
 48
0.087281
100
AcDbLine
 10
214.1689907597797
 20
92.13877162913451
 30
0.0
 11
214.1689907597797
 21
85.15625762913407
 31
0.0
  0
LINE
  5
8A3
330
1F
100
AcDbEntity
  8
0
  6
Continuous
 62
     7
 48
0.09
100
AcDbLine
 10
217.1689907597797
 20
85.0475236291345
 30
0.0
 11
217.1689907597797
 21
92.24753562913424
 31
0.0
  0
LINE
  5
8A4
330
1F
100
AcDbEntity
  8
0
  6
Continuous
 62
     7
 48
0.09
100
AcDbLine
 10
229.3689887597797
 20
92.24753562913424
 30
0.0
 11
229.3689887597797
 21
85.0475236291345
 31
0.0
  0
LINE
  5
8A5
330
1F
100
AcDbEntity
  8
0
  6
Continuous
 62
     7
 48
0.09
100
AcDbLine
 10
231.8689887597797
 20
85.0475236291345
 30
0.0
 11
231.8689887597797
 21
92.24753562913424
 31
0.0
  0
LINE
  5
8A6
330
1F
100
AcDbEntity
  8
0
  6
Continuous
 62
     7
 48
0.09
100
AcDbLine
 10
244.0690007597796
 20
92.24753562913424
 30
0.0
 11
244.0690007597796
 21
85.0475236291345
 31
0.0
  0
LINE
  5
8A7
330
1F
100
AcDbEntity
  8
0
  6
Continuous
 62
     7
 48
0.09
100
AcDbLine
 10
246.5690007597794
 20
85.0475236291345
 30
0.0
 11
246.5690007597794
 21
92.24753562913424
 31
0.0
  0
LINE
  5
8A8
330
1F
100
AcDbEntity
  8
0
  6
Continuous
 62
     7
 48
0.09
100
AcDbLine
 10
258.7689967597793
 20
92.24753562913424
 30
0.0
 11
258.7689967597793
 21
85.0475236291345
 31
0.0
  0
LINE
  5
8A9
330
1F
100
AcDbEntity
  8
0
  6
Continuous
 62
     7
 48
0.09
100
AcDbLine
 10
263.7689967597794
 20
85.0475236291345
 30
0.0
 11
263.7689967597794
 21
92.24753562913424
 31
0.0
  0
LINE
  5
8AA
330
1F
100
AcDbEntity
  8
0
  6
Continuous
 62
     7
 48
0.30625
100
AcDbLine
 10
206.4689947597794
 20
96.10507962913448
 30
0.0
 11
206.4689947597794
 21
71.60507962913448
 31
0.0
  0
LINE
  5
8AB
330
1F
100
AcDbEntity
  8
0
  6
Continuous
 62
     7
 48
0.3125
100
AcDbLine
 10
206.3689887597797
 20
96.33386962913409
 30
0.0
 11
206.3689887597797
 21
71.33386962913431
 31
0.0
  0
LINE
  5
8AC
330
1F
100
AcDbEntity
  8
0
  6
Continuous
 62
     7
 48
0.125
100
AcDbLine
 10
242.9689947597797
 20
75.14752962913451
 30
0.0
 11
232.9689947597797
 21
75.14752962913451
 31
0.0
  0
LINE
  5
8AD
330
1F
100
AcDbEntity
  8
0
  6
Continuous
 62
     7
 48
0.125
100
AcDbLine
 10
232.9689947597797
 20
82.14752962913451
 30
0.0
 11
242.9689947597797
 21
82.14752962913451
 31
0.0
  0
LINE
  5
8AE
330
1F
100
AcDbEntity
  8
0
  6
Continuous
 62
     7
 48
0.125
100
AcDbLine
 10
242.9689947597797
 20
85.14752962913451
 30
0.0
 11
232.9689947597797
 21
85.14752962913451
 31
0.0
  0
LINE
  5
8AF
330
1F
100
AcDbEntity
  8
0
  6
Continuous
 62
     7
 48
0.1275
100
AcDbLine
 10
243.0690007597794
 20
85.0475236291345
 30
0.0
 11
232.8689887597797
 21
85.0475236291345
 31
0.0
  0
LINE
  5
8B0
330
1F
100
AcDbEntity
  8
0
  6
Continuous
 62
     7
 48
0.1275
100
AcDbLine
 10
232.8689887597797
 20
82.24753562913424
 30
0.0
 11
243.0690007597794
 21
82.24753562913424
 31
0.0
  0
LINE
  5
8B1
330
1F
100
AcDbEntity
  8
0
  6
Continuous
 62
     7
 48
0.1275
100
AcDbLine
 10
243.0690007597794
 20
75.0475236291345
 30
0.0
 11
232.8689887597797
 21
75.0475236291345
 31
0.0
  0
LINE
  5
8B5
330
1F
100
AcDbEntity
  8
0
  6
Continuous
 62
     7
 48
0.125
100
AcDbLine
 10
228.2689967597796
 20
75.14752962913451
 30
0.0
 11
218.2689967597794
 21
75.14752962913451
 31
0.0
  0
LINE
  5
8B6
330
1F
100
AcDbEntity
  8
0
  6
Continuous
 62
     7
 48
0.125
100
AcDbLine
 10
218.2689967597794
 20
82.14752962913451
 30
0.0
 11
228.2689967597796
 21
82.14752962913451
 31
0.0
  0
LINE
  5
8B7
330
1F
100
AcDbEntity
  8
0
  6
Continuous
 62
     7
 48
0.125
100
AcDbLine
 10
228.2689967597796
 20
85.14752962913451
 30
0.0
 11
218.2689967597794
 21
85.14752962913451
 31
0.0
  0
LINE
  5
8B8
330
1F
100
AcDbEntity
  8
0
  6
Continuous
 62
     7
 48
0.1275
100
AcDbLine
 10
228.3689887597797
 20
85.0475236291345
 30
0.0
 11
218.1689907597797
 21
85.0475236291345
 31
0.0
  0
LINE
  5
8B9
330
1F
100
AcDbEntity
  8
0
  6
Continuous
 62
     7
 48
0.1275
100
AcDbLine
 10
218.1689907597797
 20
82.24753562913424
 30
0.0
 11
228.3689887597797
 21
82.24753562913424
 31
0.0
  0
LINE
  5
8BA
330
1F
100
AcDbEntity
  8
0
  6
Continuous
 62
     7
 48
0.1275
100
AcDbLine
 10
228.3689887597797
 20
75.0475236291345
 30
0.0
 11
218.1689907597797
 21
75.0475236291345
 31
0.0
  0
LINE
  5
8BB
330
1F
100
AcDbEntity
  8
0
  6
Continuous
 62
     7
 48
0.0625
100
AcDbLine
 10
217.2689967597794
 20
81.14752962913451
 30
0.0
 11
217.2689967597794
 21
76.14752962913451
 31
0.0
  0
LINE
  5
8BC
330
1F
100
AcDbEntity
  8
0
  6
Continuous
 62
     7
 48
0.087281
100
AcDbLine
 10
214.1689907597797
 20
82.13877162913451
 30
0.0
 11
214.1689907597797
 21
75.15625762913408
 31
0.0
  0
LINE
  5
8BD
330
1F
100
AcDbEntity
  8
0
  6
Continuous
 62
     7
 48
0.09
100
AcDbLine
 10
217.1689907597797
 20
75.0475236291345
 30
0.0
 11
217.1689907597797
 21
82.24753562913424
 31
0.0
  0
LINE
  5
8C0
330
1F
100
AcDbEntity
  8
0
  6
Continuous
 62
     7
 48
0.01625
100
AcDbLine
 10
207.7689967597796
 20
71.60507962913448
 30
0.0
 11
206.4689947597794
 21
71.60507962913448
 31
0.0
  0
LINE
  5
8C1
330
1F
100
AcDbEntity
  8
0
  6
Continuous
 62
     7
 48
0.040887
100
AcDbLine
 10
207.7689967597796
 20
65.33377762913449
 30
0.0
 11
207.7689967597796
 21
71.60507962913448
 31
0.0
  0
LINE
  5
8C3
330
1F
100
AcDbEntity
  8
0
  6
Continuous
 62
     7
 48
0.015
100
AcDbLine
 10
207.5690007597796
 20
71.33386962913431
 30
0.0
 11
206.3689887597797
 21
71.33386962913431
 31
0.0
  0
LINE
  5
8C6
330
1F
100
AcDbEntity
  8
0
  6
Continuous
 62
     7
 48
0.0375
100
AcDbLine
 10
207.5690007597796
 20
65.33377762913449
 30
0.0
 11
207.5690007597796
 21
71.33386962913431
 31
0.0
  0
ARC
  5
8C7
330
1F
100
AcDbEntity
  8
0
  6
Continuous
 62
     7
100
AcDbCircle
 10
218.2689967597794
 20
76.14752962913451
 30
0.0
 40
1.0
100
AcDbArc
 50
180.0000050000005
 51
270.0000009999997
  0
LWPOLYLINE
  5
8C8
330
1F
100
AcDbEntity
  8
0
  6
Continuous
 62
     7
100
AcDbPolyline
 90
        5
 70
     0
 43
0.0
 10
214.3807367597794
 20
75.0475236291345
 10
214.2944327597796
 20
75.05792962913449
 10
214.2305607597794
 20
75.08380962913406
 10
214.1829227597796
 20
75.12531362913449
 10
214.1689907597797
 20
75.15625762913408
  0
LINE
  5
8C9
330
1F
100
AcDbEntity
  8
0
  6
Continuous
 62
     7
 48
0.034853
100
AcDbLine
 10
214.3807367597794
 20
75.0475236291345
 30
0.0
 11
217.1689907597797
 21
75.0475236291345
 31
0.0
  0
ARC
  5
8CA
330
1F
100
AcDbEntity
  8
0
  6
Continuous
 62
     7
100
AcDbCircle
 10
218.1689907597797
 20
76.0475236291345
 30
0.0
 40
1.0
100
AcDbArc
 50
180.0000050000005
 51
270.0000009999997
  0
ARC
  5
8CB
330
1F
100
AcDbEntity
  8
0
  6
Continuous
 62
     7
100
AcDbCircle
 10
218.2689967597794
 20
81.14752962913451
 30
0.0
 40
1.0
100
AcDbArc
 50
90.00000300000095
 51
180.0000050000005
  0
ARC
  5
8CC
330
1F
100
AcDbEntity
  8
0
  6
Continuous
 62
     7
100
AcDbCircle
 10
218.2689967597794
 20
86.14752962913451
 30
0.0
 40
1.0
100
AcDbArc
 50
180.0000050000005
 51
270.0000009999997
  0
LWPOLYLINE
  5
8CD
330
1F
100
AcDbEntity
  8
0
  6
Continuous
 62
     7
100
AcDbPolyline
 90
        5
 70
     0
 43
0.0
 10
214.3807367597794
 20
85.0475236291345
 10
214.2944327597796
 20
85.05792962913449
 10
214.2305607597794
 20
85.08380962913406
 10
214.1829227597796
 20
85.12531362913449
 10
214.1689907597797
 20
85.15625762913407
  0
LINE
  5
8CE
330
1F
100
AcDbEntity
  8
0
  6
Continuous
 62
     7
 48
0.034853
100
AcDbLine
 10
217.1689907597797
 20
85.0475236291345
 30
0.0
 11
214.3807367597794
 21
85.0475236291345
 31
0.0
  0
ARC
  5
8CF
330
1F
100
AcDbEntity
  8
0
  6
Continuous
 62
     7
100
AcDbCircle
 10
218.1689907597797
 20
86.04752362913387
 30
0.0
 40
1.0
100
AcDbArc
 50
180.0000050000005
 51
270.0000009999997
  0
ARC
  5
8D0
330
1F
100
AcDbEntity
  8
0
  6
Continuous
 62
     7
100
AcDbCircle
 10
218.1689907597797
 20
81.24753562913424
 30
0.0
 40
1.0
100
AcDbArc
 50
90.00000300000095
 51
180.0000050000005
  0
LWPOLYLINE
  5
8D1
330
1F
100
AcDbEntity
  8
0
  6
Continuous
 62
     7
100
AcDbPolyline
 90
        4
 70
     0
 43
0.0
 10
214.3807367597794
 20
82.24753562913424
 10
214.2662807597797
 20
82.22821762913406
 10
214.2115627597794
 20
82.19843362913451
 10
214.1689907597797
 20
82.13877162913451
  0
LINE
  5
8D2
330
1F
100
AcDbEntity
  8
0
  6
Continuous
 62
     7
 48
0.034853
100
AcDbLine
 10
214.3807367597794
 20
82.24753562913424
 30
0.0
 11
217.1689907597797
 21
82.24753562913424
 31
0.0
  0
LINE
  5
8D3
330
1F
100
AcDbEntity
  8
0
  6
Continuous
 62
     7
 48
0.0625
100
AcDbLine
 10
231.9689947597797
 20
81.14752962913451
 30
0.0
 11
231.9689947597797
 21
76.14752962913451
 31
0.0
  0
LINE
  5
8D4
330
1F
100
AcDbEntity
  8
0
  6
Continuous
 62
     7
 48
0.0625
100
AcDbLine
 10
229.2689967597796
 20
76.14752962913451
 30
0.0
 11
229.2689967597796
 21
81.14752962913451
 31
0.0
  0
LINE
  5
8D5
330
1F
100
AcDbEntity
  8
0
  6
Continuous
 62
     7
 48
0.09
100
AcDbLine
 10
229.3689887597797
 20
82.24753562913424
 30
0.0
 11
229.3689887597797
 21
75.0475236291345
 31
0.0
  0
LINE
  5
8D6
330
1F
100
AcDbEntity
  8
0
  6
Continuous
 62
     7
 48
0.09
100
AcDbLine
 10
231.8689887597797
 20
75.0475236291345
 30
0.0
 11
231.8689887597797
 21
82.24753562913424
 31
0.0
  0
LINE
  5
8D7
330
1F
100
AcDbEntity
  8
0
  6
Continuous
 62
     7
 48
0.03125
100
AcDbLine
 10
229.3689887597797
 20
75.0475236291345
 30
0.0
 11
231.8689887597797
 21
75.0475236291345
 31
0.0
  0
ARC
  5
8D8
330
1F
100
AcDbEntity
  8
0
  6
Continuous
 62
     7
100
AcDbCircle
 10
228.2689967597796
 20
76.14752962913451
 30
0.0
 40
1.0
100
AcDbArc
 50
269.9999969999988
 51
0.0
  0
ARC
  5
8D9
330
1F
100
AcDbEntity
  8
0
  6
Continuous
 62
     7
100
AcDbCircle
 10
228.3689887597797
 20
76.0475236291345
 30
0.0
 40
1.0
100
AcDbArc
 50
270.0000009999997
 51
0.000009999999378
  0
ARC
  5
8DA
330
1F
100
AcDbEntity
  8
0
  6
Continuous
 62
     7
100
AcDbCircle
 10
232.9689947597797
 20
76.14752962913451
 30
0.0
 40
1.0
100
AcDbArc
 50
180.0000050000005
 51
270.0000009999997
  0
ARC
  5
8DB
330
1F
100
AcDbEntity
  8
0
  6
Continuous
 62
     7
100
AcDbCircle
 10
232.8689887597797
 20
76.0475236291345
 30
0.0
 40
1.0
100
AcDbArc
 50
180.0000050000005
 51
270.0000009999997
  0
LINE
  5
8DC
330
1F
100
AcDbEntity
  8
0
  6
Continuous
 62
     7
 48
0.03125
100
AcDbLine
 10
231.8689887597797
 20
85.0475236291345
 30
0.0
 11
229.3689887597797
 21
85.0475236291345
 31
0.0
  0
LINE
  5
8DD
330
1F
100
AcDbEntity
  8
0
  6
Continuous
 62
     7
 48
0.03125
100
AcDbLine
 10
229.3689887597797
 20
82.24753562913424
 30
0.0
 11
231.8689887597797
 21
82.24753562913424
 31
0.0
  0
ARC
  5
8DE
330
1F
100
AcDbEntity
  8
0
  6
Continuous
 62
     7
100
AcDbCircle
 10
228.2689967597796
 20
81.14752962913451
 30
0.0
 40
1.0
100
AcDbArc
 50
0.0
 51
90.00000300000095
  0
ARC
  5
8DF
330
1F
100
AcDbEntity
  8
0
  6
Continuous
 62
     7
100
AcDbCircle
 10
228.2689967597796
 20
86.14752962913451
 30
0.0
 40
1.0
100
AcDbArc
 50
269.9999969999988
 51
0.0
  0
ARC
  5
8E0
330
1F
100
AcDbEntity
  8
0
  6
Continuous
 62
     7
100
AcDbCircle
 10
228.3689887597797
 20
86.04752362913387
 30
0.0
 40
1.0
100
AcDbArc
 50
270.0000009999997
 51
0.000009999999378
  0
ARC
  5
8E1
330
1F
100
AcDbEntity
  8
0
  6
Continuous
 62
     7
100
AcDbCircle
 10
228.3689887597797
 20
81.24753562913424
 30
0.0
 40
1.0
100
AcDbArc
 50
0.0
 51
90.00000300000095
  0
ARC
  5
8E2
330
1F
100
AcDbEntity
  8
0
  6
Continuous
 62
     7
100
AcDbCircle
 10
232.9689947597797
 20
81.14752962913451
 30
0.0
 40
1.0
100
AcDbArc
 50
90.00000300000095
 51
180.0000050000005
  0
ARC
  5
8E3
330
1F
100
AcDbEntity
  8
0
  6
Continuous
 62
     7
100
AcDbCircle
 10
232.9689947597797
 20
86.14752962913451
 30
0.0
 40
1.0
100
AcDbArc
 50
180.0000050000005
 51
270.0000009999997
  0
ARC
  5
8E4
330
1F
100
AcDbEntity
  8
0
  6
Continuous
 62
     7
100
AcDbCircle
 10
232.8689887597797
 20
86.04752362913387
 30
0.0
 40
1.0
100
AcDbArc
 50
180.0000050000005
 51
270.0000009999997
  0
ARC
  5
8E5
330
1F
100
AcDbEntity
  8
0
  6
Continuous
 62
     7
100
AcDbCircle
 10
232.8689887597797
 20
81.24753562913424
 30
0.0
 40
1.0
100
AcDbArc
 50
90.00000300000095
 51
180.0000050000005
  0
LINE
  5
8E6
330
1F
100
AcDbEntity
  8
0
  6
Continuous
 62
     7
 48
0.125
100
AcDbLine
 10
257.6689907597793
 20
75.14752962913451
 30
0.0
 11
247.6689907597797
 21
75.14752962913451
 31
0.0
  0
LINE
  5
8E7
330
1F
100
AcDbEntity
  8
0
  6
Continuous
 62
     7
 48
0.125
100
AcDbLine
 10
247.6689907597797
 20
82.14752962913451
 30
0.0
 11
257.6689907597793
 21
82.14752962913451
 31
0.0
  0
LINE
  5
8E8
330
1F
100
AcDbEntity
  8
0
  6
Continuous
 62
     7
 48
0.125
100
AcDbLine
 10
257.6689907597793
 20
85.14752962913451
 30
0.0
 11
247.6689907597797
 21
85.14752962913451
 31
0.0
  0
LINE
  5
8E9
330
1F
100
AcDbEntity
  8
0
  6
Continuous
 62
     7
 48
0.1275
100
AcDbLine
 10
257.7689967597796
 20
85.0475236291345
 30
0.0
 11
247.5690007597794
 21
85.0475236291345
 31
0.0
  0
LINE
  5
8EA
330
1F
100
AcDbEntity
  8
0
  6
Continuous
 62
     7
 48
0.1275
100
AcDbLine
 10
247.5690007597794
 20
82.24753562913424
 30
0.0
 11
257.7689967597796
 21
82.24753562913424
 31
0.0
  0
LINE
  5
8EB
330
1F
100
AcDbEntity
  8
0
  6
Continuous
 62
     7
 48
0.1275
100
AcDbLine
 10
257.7689967597796
 20
75.0475236291345
 30
0.0
 11
247.5690007597794
 21
75.0475236291345
 31
0.0
  0
LINE
  5
8EC
330
1F
100
AcDbEntity
  8
0
  6
Continuous
 62
     7
 48
0.0625
100
AcDbLine
 10
246.6689907597797
 20
81.14752962913451
 30
0.0
 11
246.6689907597797
 21
76.14752962913451
 31
0.0
  0
LINE
  5
8ED
330
1F
100
AcDbEntity
  8
0
  6
Continuous
 62
     7
 48
0.0625
100
AcDbLine
 10
243.9689947597797
 20
76.14752962913451
 30
0.0
 11
243.9689947597797
 21
81.14752962913451
 31
0.0
  0
LINE
  5
8EE
330
1F
100
AcDbEntity
  8
0
  6
Continuous
 62
     7
 48
0.09
100
AcDbLine
 10
244.0690007597796
 20
82.24753562913424
 30
0.0
 11
244.0690007597796
 21
75.0475236291345
 31
0.0
  0
LINE
  5
8EF
330
1F
100
AcDbEntity
  8
0
  6
Continuous
 62
     7
 48
0.09
100
AcDbLine
 10
246.5690007597794
 20
75.0475236291345
 30
0.0
 11
246.5690007597794
 21
82.24753562913424
 31
0.0
  0
LINE
  5
8F0
330
1F
100
AcDbEntity
  8
0
  6
Continuous
 62
     7
 48
0.03125
100
AcDbLine
 10
244.0690007597796
 20
75.0475236291345
 30
0.0
 11
246.5690007597794
 21
75.0475236291345
 31
0.0
  0
ARC
  5
8F1
330
1F
100
AcDbEntity
  8
0
  6
Continuous
 62
     7
100
AcDbCircle
 10
247.5690007597794
 20
76.0475236291345
 30
0.0
 40
1.0
100
AcDbArc
 50
180.0000050000005
 51
270.0000009999997
  0
ARC
  5
8F2
330
1F
100
AcDbEntity
  8
0
  6
Continuous
 62
     7
100
AcDbCircle
 10
242.9689947597797
 20
76.14752962913451
 30
0.0
 40
1.0
100
AcDbArc
 50
269.9999969999988
 51
0.0
  0
ARC
  5
8F3
330
1F
100
AcDbEntity
  8
0
  6
Continuous
 62
     7
100
AcDbCircle
 10
243.0690007597794
 20
76.0475236291345
 30
0.0
 40
1.0
100
AcDbArc
 50
270.0000009999997
 51
0.000009999999378
  0
ARC
  5
8F4
330
1F
100
AcDbEntity
  8
0
  6
Continuous
 62
     7
100
AcDbCircle
 10
247.6689907597797
 20
76.14752962913451
 30
0.0
 40
1.0
100
AcDbArc
 50
180.0000050000005
 51
270.0000009999997
  0
LINE
  5
8F5
330
1F
100
AcDbEntity
  8
0
  6
Continuous
 62
     7
 48
0.03125
100
AcDbLine
 10
246.5690007597794
 20
85.0475236291345
 30
0.0
 11
244.0690007597796
 21
85.0475236291345
 31
0.0
  0
ARC
  5
8F6
330
1F
100
AcDbEntity
  8
0
  6
Continuous
 62
     7
100
AcDbCircle
 10
247.5690007597794
 20
86.04752362913387
 30
0.0
 40
1.0
100
AcDbArc
 50
180.0000050000005
 51
270.0000009999997
  0
ARC
  5
8F7
330
1F
100
AcDbEntity
  8
0
  6
Continuous
 62
     7
100
AcDbCircle
 10
247.5690007597794
 20
81.24753562913424
 30
0.0
 40
1.0
100
AcDbArc
 50
90.00000300000095
 51
180.0000050000005
  0
LINE
  5
8F8
330
1F
100
AcDbEntity
  8
0
  6
Continuous
 62
     7
 48
0.03125
100
AcDbLine
 10
244.0690007597796
 20
82.24753562913424
 30
0.0
 11
246.5690007597794
 21
82.24753562913424
 31
0.0
  0
ARC
  5
8F9
330
1F
100
AcDbEntity
  8
0
  6
Continuous
 62
     7
100
AcDbCircle
 10
242.9689947597797
 20
81.14752962913451
 30
0.0
 40
1.0
100
AcDbArc
 50
0.0
 51
90.00000300000095
  0
ARC
  5
8FA
330
1F
100
AcDbEntity
  8
0
  6
Continuous
 62
     7
100
AcDbCircle
 10
242.9689947597797
 20
86.14752962913451
 30
0.0
 40
1.0
100
AcDbArc
 50
269.9999969999988
 51
0.0
  0
ARC
  5
8FB
330
1F
100
AcDbEntity
  8
0
  6
Continuous
 62
     7
100
AcDbCircle
 10
243.0690007597794
 20
86.04752362913387
 30
0.0
 40
1.0
100
AcDbArc
 50
270.0000009999997
 51
0.000009999999378
  0
ARC
  5
8FC
330
1F
100
AcDbEntity
  8
0
  6
Continuous
 62
     7
100
AcDbCircle
 10
243.0690007597794
 20
81.24753562913424
 30
0.0
 40
1.0
100
AcDbArc
 50
0.0
 51
90.00000300000095
  0
ARC
  5
8FD
330
1F
100
AcDbEntity
  8
0
  6
Continuous
 62
     7
100
AcDbCircle
 10
247.6689907597797
 20
81.14752962913451
 30
0.0
 40
1.0
100
AcDbArc
 50
90.00000300000095
 51
180.0000050000005
  0
ARC
  5
8FE
330
1F
100
AcDbEntity
  8
0
  6
Continuous
 62
     7
100
AcDbCircle
 10
247.6689907597797
 20
86.14752962913451
 30
0.0
 40
1.0
100
AcDbArc
 50
180.0000050000005
 51
270.0000009999997
  0
LINE
  5
8FF
330
1F
100
AcDbEntity
  8
0
  6
Continuous
 62
     7
 48
0.0625
100
AcDbLine
 10
263.8689887597793
 20
81.14752962913451
 30
0.0
 11
263.8689887597793
 21
76.14752962913451
 31
0.0
  0
LINE
  5
900
330
1F
100
AcDbEntity
  8
0
  6
Continuous
 62
     7
 48
0.0625
100
AcDbLine
 10
258.6689907597794
 20
76.14752962913451
 30
0.0
 11
258.6689907597794
 21
81.14752962913451
 31
0.0
  0
LINE
  5
901
330
1F
100
AcDbEntity
  8
0
  6
Continuous
 62
     7
 48
0.09
100
AcDbLine
 10
258.7689967597793
 20
82.24753562913424
 30
0.0
 11
258.7689967597793
 21
75.0475236291345
 31
0.0
  0
LINE
  5
902
330
1F
100
AcDbEntity
  8
0
  6
Continuous
 62
     7
 48
0.09
100
AcDbLine
 10
263.7689967597794
 20
75.0475236291345
 30
0.0
 11
263.7689967597794
 21
82.24753562913424
 31
0.0
  0
LINE
  5
903
330
1F
100
AcDbEntity
  8
0
  6
Continuous
 62
     7
 48
0.0625
100
AcDbLine
 10
258.7689967597793
 20
75.0475236291345
 30
0.0
 11
263.7689967597794
 21
75.0475236291345
 31
0.0
  0
ARC
  5
904
330
1F
100
AcDbEntity
  8
0
  6
Continuous
 62
     7
100
AcDbCircle
 10
257.6689907597793
 20
76.14752962913451
 30
0.0
 40
1.0
100
AcDbArc
 50
269.9999969999988
 51
0.0
  0
ARC
  5
905
330
1F
100
AcDbEntity
  8
0
  6
Continuous
 62
     7
100
AcDbCircle
 10
257.7689967597796
 20
76.0475236291345
 30
0.0
 40
1.0
100
AcDbArc
 50
270.0000009999997
 51
0.000009999999378
  0
ARC
  5
906
330
1F
100
AcDbEntity
  8
0
  6
Continuous
 62
     7
100
AcDbCircle
 10
264.8689887597793
 20
76.14752962913451
 30
0.0
 40
1.0
100
AcDbArc
 50
180.0000050000005
 51
270.0000009999997
  0
ARC
  5
907
330
1F
100
AcDbEntity
  8
0
  6
Continuous
 62
     7
100
AcDbCircle
 10
264.7689967597794
 20
76.0475236291345
 30
0.0
 40
1.0
100
AcDbArc
 50
180.0000050000005
 51
270.0000009999997
  0
LINE
  5
908
330
1F
100
AcDbEntity
  8
0
  6
Continuous
 62
     7
 48
0.0625
100
AcDbLine
 10
263.7689967597794
 20
85.0475236291345
 30
0.0
 11
258.7689967597793
 21
85.0475236291345
 31
0.0
  0
LINE
  5
909
330
1F
100
AcDbEntity
  8
0
  6
Continuous
 62
     7
 48
0.0625
100
AcDbLine
 10
258.7689967597793
 20
82.24753562913424
 30
0.0
 11
263.7689967597794
 21
82.24753562913424
 31
0.0
  0
ARC
  5
90A
330
1F
100
AcDbEntity
  8
0
  6
Continuous
 62
     7
100
AcDbCircle
 10
257.6689907597793
 20
81.14752962913451
 30
0.0
 40
1.0
100
AcDbArc
 50
0.0
 51
90.00000300000095
  0
ARC
  5
90B
330
1F
100
AcDbEntity
  8
0
  6
Continuous
 62
     7
100
AcDbCircle
 10
257.6689907597793
 20
86.14752962913451
 30
0.0
 40
1.0
100
AcDbArc
 50
269.9999969999988
 51
0.0
  0
ARC
  5
90C
330
1F
100
AcDbEntity
  8
0
  6
Continuous
 62
     7
100
AcDbCircle
 10
257.7689967597796
 20
86.04752362913387
 30
0.0
 40
1.0
100
AcDbArc
 50
270.0000009999997
 51
0.000009999999378
  0
ARC
  5
90D
330
1F
100
AcDbEntity
  8
0
  6
Continuous
 62
     7
100
AcDbCircle
 10
257.7689967597796
 20
81.24753562913424
 30
0.0
 40
1.0
100
AcDbArc
 50
0.0
 51
90.00000300000095
  0
ARC
  5
90E
330
1F
100
AcDbEntity
  8
0
  6
Continuous
 62
     7
100
AcDbCircle
 10
264.8689887597793
 20
81.14752962913451
 30
0.0
 40
1.0
100
AcDbArc
 50
90.00000300000095
 51
180.0000050000005
  0
ARC
  5
90F
330
1F
100
AcDbEntity
  8
0
  6
Continuous
 62
     7
100
AcDbCircle
 10
264.8689887597793
 20
86.14752962913451
 30
0.0
 40
1.0
100
AcDbArc
 50
180.0000050000005
 51
270.0000009999997
  0
ARC
  5
910
330
1F
100
AcDbEntity
  8
0
  6
Continuous
 62
     7
100
AcDbCircle
 10
264.7689967597794
 20
86.04752362913387
 30
0.0
 40
1.0
100
AcDbArc
 50
180.0000050000005
 51
270.0000009999997
  0
ARC
  5
911
330
1F
100
AcDbEntity
  8
0
  6
Continuous
 62
     7
100
AcDbCircle
 10
264.7689967597794
 20
81.24753562913424
 30
0.0
 40
1.0
100
AcDbArc
 50
90.00000300000095
 51
180.0000050000005
  0
LINE
  5
912
330
1F
100
AcDbEntity
  8
0
  6
Continuous
 62
     7
 48
0.125
100
AcDbLine
 10
232.9689947597797
 20
92.14752962913451
 30
0.0
 11
242.9689947597797
 21
92.14752962913451
 31
0.0
  0
LINE
  5
913
330
1F
100
AcDbEntity
  8
0
  6
Continuous
 62
     7
100
AcDbLine
 10
208.4689947597797
 20
98.10507962913447
 30
0.0
 11
333.6690066550596
 21
98.10507962913447
 31
0.0
  0
LINE
  5
914
330
1F
100
AcDbEntity
  8
0
  6
Continuous
 62
     7
 48
0.1275
100
AcDbLine
 10
232.8689887597797
 20
92.24753562913424
 30
0.0
 11
243.0690007597794
 21
92.24753562913424
 31
0.0
  0
LINE
  5
915
330
1F
100
AcDbEntity
  8
0
  6
Continuous
 62
     7
 48
0.125
100
AcDbLine
 10
218.2689967597794
 20
92.14752962913451
 30
0.0
 11
228.2689967597796
 21
92.14752962913451
 31
0.0
  0
LINE
  5
916
330
1F
100
AcDbEntity
  8
0
  6
Continuous
 62
     7
 48
0.1275
100
AcDbLine
 10
218.1689907597797
 20
92.24753562913424
 30
0.0
 11
228.3689887597797
 21
92.24753562913424
 31
0.0
  0
ARC
  5
917
330
1F
100
AcDbEntity
  8
0
  6
Continuous
 62
     7
100
AcDbCircle
 10
208.4689947597797
 20
96.10507962913448
 30
0.0
 40
2.0
100
AcDbArc
 50
90.00000300000095
 51
180.0000050000005
  0
ARC
  5
918
330
1F
100
AcDbEntity
  8
0
  6
Continuous
 62
     7
100
AcDbCircle
 10
208.3689887597797
 20
96.33386962913409
 30
0.0
 40
2.0
100
AcDbArc
 50
90.00000300000095
 51
180.0000050000005
  0
ARC
  5
919
330
1F
100
AcDbEntity
  8
0
  6
Continuous
 62
     7
100
AcDbCircle
 10
218.2689967597794
 20
91.14752962913451
 30
0.0
 40
1.0
100
AcDbArc
 50
90.00000300000095
 51
180.0000050000005
  0
ARC
  5
91A
330
1F
100
AcDbEntity
  8
0
  6
Continuous
 62
     7
100
AcDbCircle
 10
218.1689907597797
 20
91.24753562913445
 30
0.0
 40
1.0
100
AcDbArc
 50
90.00000300000095
 51
180.0000050000005
  0
LWPOLYLINE
  5
91B
330
1F
100
AcDbEntity
  8
0
  6
Continuous
 62
     7
100
AcDbPolyline
 90
        4
 70
     0
 43
0.0
 10
214.3807367597794
 20
92.24753562913424
 10
214.2662807597797
 20
92.22821762913406
 10
214.2115627597794
 20
92.19843362913451
 10
214.1689907597797
 20
92.13877162913451
  0
LINE
  5
91C
330
1F
100
AcDbEntity
  8
0
  6
Continuous
 62
     7
 48
0.034853
100
AcDbLine
 10
214.3807367597794
 20
92.24753562913424
 30
0.0
 11
217.1689907597797
 21
92.24753562913424
 31
0.0
  0
ARC
  5
91D
330
1F
100
AcDbEntity
  8
0
  6
Continuous
 62
     7
100
AcDbCircle
 10
208.3689887597797
 20
106.1337956291345
 30
0.0
 40
2.0
100
AcDbArc
 50
180.0000050000005
 51
270.0000009999997
  0
ARC
  5
91E
330
1F
100
AcDbEntity
  8
0
  6
Continuous
 62
     7
100
AcDbCircle
 10
208.3689887597797
 20
106.1338576291344
 30
0.0
 40
2.0
100
AcDbArc
 50
180.0000050000005
 51
270.0000009999997
  0
LINE
  5
91F
330
1F
100
AcDbEntity
  8
0
  6
Continuous
 62
     7
 48
0.03125
100
AcDbLine
 10
229.3689887597797
 20
92.24753562913424
 30
0.0
 11
231.8689887597797
 21
92.24753562913424
 31
0.0
  0
ARC
  5
920
330
1F
100
AcDbEntity
  8
0
  6
Continuous
 62
     7
100
AcDbCircle
 10
228.2689967597796
 20
91.14752962913451
 30
0.0
 40
1.0
100
AcDbArc
 50
0.0
 51
90.00000300000095
  0
ARC
  5
921
330
1F
100
AcDbEntity
  8
0
  6
Continuous
 62
     7
100
AcDbCircle
 10
228.3689887597797
 20
91.24753562913445
 30
0.0
 40
1.0
100
AcDbArc
 50
0.0
 51
90.00000300000095
  0
ARC
  5
922
330
1F
100
AcDbEntity
  8
0
  6
Continuous
 62
     7
100
AcDbCircle
 10
232.9689947597797
 20
91.14752962913451
 30
0.0
 40
1.0
100
AcDbArc
 50
90.00000300000095
 51
180.0000050000005
  0
ARC
  5
923
330
1F
100
AcDbEntity
  8
0
  6
Continuous
 62
     7
100
AcDbCircle
 10
232.8689887597797
 20
91.24753562913445
 30
0.0
 40
1.0
100
AcDbArc
 50
90.00000300000095
 51
180.0000050000005
  0
LINE
  5
924
330
1F
100
AcDbEntity
  8
0
  6
Continuous
 62
     7
 48
0.125
100
AcDbLine
 10
247.6689907597797
 20
92.14752962913451
 30
0.0
 11
257.6689907597793
 21
92.14752962913451
 31
0.0
  0
LINE
  5
925
330
1F
100
AcDbEntity
  8
0
  6
Continuous
 62
     7
 48
0.1275
100
AcDbLine
 10
247.5690007597794
 20
92.24753562913424
 30
0.0
 11
257.7689967597796
 21
92.24753562913424
 31
0.0
  0
ARC
  5
926
330
1F
100
AcDbEntity
  8
0
  6
Continuous
 62
     7
100
AcDbCircle
 10
247.5690007597794
 20
91.24753562913445
 30
0.0
 40
1.0
100
AcDbArc
 50
90.00000300000095
 51
180.0000050000005
  0
LINE
  5
927
330
1F
100
AcDbEntity
  8
0
  6
Continuous
 62
     7
 48
0.03125
100
AcDbLine
 10
244.0690007597796
 20
92.24753562913424
 30
0.0
 11
246.5690007597794
 21
92.24753562913424
 31
0.0
  0
ARC
  5
928
330
1F
100
AcDbEntity
  8
0
  6
Continuous
 62
     7
100
AcDbCircle
 10
242.9689947597797
 20
91.14752962913451
 30
0.0
 40
1.0
100
AcDbArc
 50
0.0
 51
90.00000300000095
  0
ARC
  5
929
330
1F
100
AcDbEntity
  8
0
  6
Continuous
 62
     7
100
AcDbCircle
 10
243.0690007597794
 20
91.24753562913445
 30
0.0
 40
1.0
100
AcDbArc
 50
0.0
 51
90.00000300000095
  0
ARC
  5
92C
330
1F
100
AcDbEntity
  8
0
  6
Continuous
 62
     7
100
AcDbCircle
 10
247.6689907597797
 20
91.14752962913451
 30
0.0
 40
1.0
100
AcDbArc
 50
90.00000300000095
 51
180.0000050000005
  0
LINE
  5
930
330
1F
100
AcDbEntity
  8
0
  6
Continuous
 62
     7
 48
0.090841
100
AcDbLine
 10
261.2897487597797
 20
95.80625162913424
 30
0.0
 11
268.5570227597796
 21
95.80625162913424
 31
0.0
  0
LINE
  5
931
330
1F
100
AcDbEntity
  8
0
  6
Continuous
 62
     7
 48
0.0625
100
AcDbLine
 10
258.7689967597793
 20
92.24753562913424
 30
0.0
 11
263.7689967597794
 21
92.24753562913424
 31
0.0
  0
ARC
  5
934
330
1F
100
AcDbEntity
  8
0
  6
Continuous
 62
     7
100
AcDbCircle
 10
257.6689907597793
 20
91.14752962913451
 30
0.0
 40
1.0
100
AcDbArc
 50
0.0
 51
90.00000300000095
  0
LWPOLYLINE
  5
935
330
1F
100
AcDbEntity
  8
0
  6
Continuous
 62
     7
100
AcDbPolyline
 90
        7
 70
     0
 43
0.0
 10
259.0689847597794
 20
95.5215836291345
 10
259.0792547597796
 20
95.3061896291345
 10
259.1078947597793
 20
95.09802962913425
 10
259.2087547597794
 20
94.70719162913452
 10
259.3515467597792
 20
94.35190562913447
 10
259.4960167597796
 20
94.0732796291345
 10
259.7897487597794
 20
93.61499762913451
  0
LINE
  5
938
330
1F
100
AcDbEntity
  8
0
  6
Continuous
 62
     7
 48
0.032294
100
AcDbLine
 10
259.0689847597794
 20
98.10507962913447
 30
0.0
 11
259.0689847597794
 21
95.5215836291345
 31
0.0
  0
ELLIPSE
  5
93F
330
1F
100
AcDbEntity
  8
0
  6
Continuous
 62
     7
100
AcDbEllipse
 10
261.2897487597797
 20
96.80014762913447
 30
0.0
 11
-0.31622314453125
 21
0.9486694335937498
 31
0.0
210
0.0
220
0.0
230
1.0
 40
0.9434559999999999
 41
1.266103625297543
 42
2.801971435546875
  0
LINE
  5
940
330
1F
100
AcDbEntity
  8
0
  6
Continuous
 62
     7
 48
0.008043
100
AcDbLine
 10
261.2897487597797
 20
95.80625162913424
 30
0.0
 11
260.6793207597794
 21
95.60275962913426
 31
0.0
  0
ARC
  5
942
330
1F
100
AcDbEntity
  8
0
  6
Continuous
 62
     7
100
AcDbCircle
 10
257.7689967597796
 20
91.24753562913445
 30
0.0
 40
1.0
100
AcDbArc
 50
0.0
 51
90.00000300000095
  0
ELLIPSE
  5
943
330
1F
100
AcDbEntity
  8
0
  6
Continuous
 62
     7
100
AcDbEllipse
 10
260.7897487597792
 20
93.61499762913451
 30
0.0
 11
0.0
 21
-2.0
 31
0.0
210
0.0
220
0.0
230
1.0
 40
0.5
 41
3.252251148223876
 42
4.71239137649536
  0
LINE
  5
945
330
1F
100
AcDbEntity
  8
0
  6
Continuous
 62
     7
 48
0.016312
100
AcDbLine
 10
260.3410647597796
 20
96.80014762913447
 30
0.0
 11
260.3410647597796
 21
98.10507962913447
 31
0.0
  0
ARC
  5
948
330
1F
100
AcDbEntity
  8
0
  6
Continuous
 62
     7
100
AcDbCircle
 10
264.8689887597793
 20
91.14752962913451
 30
0.0
 40
1.0
100
AcDbArc
 50
90.00000300000095
 51
180.0000050000005
  0
ARC
  5
949
330
1F
100
AcDbEntity
  8
0
  6
Continuous
 62
     7
100
AcDbCircle
 10
264.7689967597794
 20
91.24753562913445
 30
0.0
 40
1.0
100
AcDbArc
 50
90.00000300000095
 51
180.0000050000005
  0
LWPOLYLINE
  5
94A
330
1F
100
AcDbEntity
  8
0
  6
Continuous
 62
     7
100
AcDbPolyline
 90
       14
 70
     0
 43
0.0
 10
263.5690007597794
 20
96.80014762913447
 10
263.5798327597797
 20
96.72348762913424
 10
263.6311947597797
 20
96.61753162913448
 10
263.6957087597796
 20
96.54126762913449
 10
263.7710107597794
 20
96.47580762913447
 10
263.8813787597794
 20
96.40143562913449
 10
264.1190947597794
 20
96.2839736291345
 10
264.3653107597796
 20
96.1948616291345
 10
264.6179967597794
 20
96.12357362913451
 10
265.1312707597792
 20
96.01758562913449
 10
265.6512907597793
 20
95.94437362913447
 10
266.1759487597797
 20
95.89322562913446
 10
267.3199147597794
 20
95.83100162913428
 10
268.5570227597796
 20
95.80625162913424
  0
LINE
  5
94B
330
1F
100
AcDbEntity
  8
0
  6
Continuous
 62
     7
 48
0.016312
100
AcDbLine
 10
263.5690007597794
 20
98.10507962913447
 30
0.0
 11
263.5690007597794
 21
96.80014762913447
 31
0.0
  0
LINE
  5
94C
330
1F
100
AcDbEntity
  8
0
  6
Continuous
 62
     7
 48
0.0625
100
AcDbLine
 10
278.5690007597796
 20
91.14752962913451
 30
0.0
 11
278.5690007597796
 21
86.14752962913451
 31
0.0
  0
LINE
  5
94D
330
1F
100
AcDbEntity
  8
0
  6
Continuous
 62
     7
 48
0.0625
100
AcDbLine
 10
290.5690007597796
 20
86.14752962913451
 30
0.0
 11
290.5690007597796
 21
91.14752962913451
 31
0.0
  0
LINE
  5
94E
330
1F
100
AcDbEntity
  8
0
  6
Continuous
 62
     7
 48
0.0625
100
AcDbLine
 10
275.8689887597794
 20
86.14752962913451
 30
0.0
 11
275.8689887597794
 21
91.14752962913451
 31
0.0
  0
LINE
  5
94F
330
1F
100
AcDbEntity
  8
0
  6
Continuous
 62
     7
 48
0.09
100
AcDbLine
 10
275.9689947597795
 20
92.24753562913424
 30
0.0
 11
275.9689947597795
 21
85.0475236291345
 31
0.0
  0
LINE
  5
950
330
1F
100
AcDbEntity
  8
0
  6
Continuous
 62
     7
 48
0.09
100
AcDbLine
 10
278.4689947597797
 20
85.0475236291345
 30
0.0
 11
278.4689947597797
 21
92.24753562913424
 31
0.0
  0
LINE
  5
951
330
1F
100
AcDbEntity
  8
0
  6
Continuous
 62
     7
 48
0.087281
100
AcDbLine
 10
293.6689907597797
 20
85.15625762913407
 30
0.0
 11
293.6689907597797
 21
92.13877162913451
 31
0.0
  0
LINE
  5
952
330
1F
100
AcDbEntity
  8
0
  6
Continuous
 62
     7
 48
0.09
100
AcDbLine
 10
290.6689907597794
 20
92.24753562913424
 30
0.0
 11
290.6689907597794
 21
85.0475236291345
 31
0.0
  0
ELLIPSE
  5
953
330
1F
100
AcDbEntity
  8
0
  6
Continuous
 62
     7
100
AcDbEllipse
 10
311.4255367597794
 20
83.60825362913407
 30
0.0
 11
16.64309692382812
 21
0.05780029296875
 31
0.0
210
0.0
220
0.0
230
1.0
 40
0.578749
 41
6.281217575073241
 42
6.904955387115477
  0
LINE
  5
954
330
1F
100
AcDbEntity
  8
0
  6
Continuous
 62
     7
 48
0.119259
100
AcDbLine
 10
323.6973267597793
 20
89.36084762913447
 30
0.0
 11
315.4291387597793
 21
84.60037962913446
 31
0.0
  0
LINE
  5
955
330
1F
100
AcDbEntity
  8
0
  6
Continuous
 62
     7
 48
0.116245
100
AcDbLine
 10
320.0767207597797
 20
89.9302436291345
 30
0.0
 11
312.0175167597797
 21
85.29007762913426
 31
0.0
  0
LINE
  5
956
330
1F
100
AcDbEntity
  8
0
  6
Continuous
 62
     7
 48
0.116245
100
AcDbLine
 10
302.8605947597796
 20
89.9302436291345
 30
0.0
 11
310.9197987597794
 21
85.29007762913426
 31
0.0
  0
LINE
  5
957
330
1F
100
AcDbEntity
  8
0
  6
Continuous
 62
     7
 48
0.119259
100
AcDbLine
 10
299.2399747597796
 20
89.36084762913447
 30
0.0
 11
307.5081787597794
 21
84.60037962913446
 31
0.0
  0
LWPOLYLINE
  5
958
330
1F
100
AcDbEntity
  8
0
  6
Continuous
 62
     7
100
AcDbPolyline
 90
       12
 70
     0
 43
0.0
 10
298.0029447597793
 20
89.26572362913447
 10
297.3581687597796
 20
88.70853362913425
 10
296.7727207597797
 20
88.11600562913406
 10
296.2534487597794
 20
87.4900896291345
 10
296.0208287597793
 20
87.1654736291345
 10
295.8073887597797
 20
86.83365562913428
 10
295.5540767597797
 20
86.38089762913427
 10
295.3382267597796
 20
85.91751762913407
 10
295.1614987597794
 20
85.44504562913449
 10
294.9996027597794
 20
84.85236362913406
 10
294.9015047597793
 20
84.25171562913424
 10
294.8686527597796
 20
83.64710162913388
  0
LINE
  5
959
330
1F
100
AcDbEntity
  8
0
  6
Continuous
 62
     7
 48
0.30625
100
AcDbLine
 10
335.6690067597793
 20
96.10507962913448
 30
0.0
 11
335.6690067597793
 21
71.60507962913448
 31
0.0
  0
LINE
  5
95A
330
1F
100
AcDbEntity
  8
0
  6
Continuous
 62
     7
 48
0.3125
100
AcDbLine
 10
335.7689807597793
 20
71.33386962913431
 30
0.0
 11
335.7689807597793
 21
96.33386962913409
 31
0.0
  0
ELLIPSE
  5
95B
330
1F
100
AcDbEntity
  8
0
  6
Continuous
 62
     7
100
AcDbEllipse
 10
311.4686587597793
 20
83.64710162913388
 30
0.0
 11
16.5
 21
0.0
 31
0.0
210
0.0
220
0.0
230
1.0
 40
0.575758
 41
5.660494327545166
 42
6.905876159667967
  0
LINE
  5
95C
330
1F
100
AcDbEntity
  8
0
  6
Continuous
 62
     7
 48
0.119259
100
AcDbLine
 10
323.7472227597796
 20
89.27420762913447
 30
0.0
 11
315.4790347597793
 21
84.51370962913449
 31
0.0
  0
LINE
  5
95D
330
1F
100
AcDbEntity
  8
0
  6
Continuous
 62
     7
 48
0.116244
100
AcDbLine
 10
320.0267947597791
 20
90.0168836291345
 30
0.0
 11
311.9676207597797
 21
85.37674762913452
 31
0.0
  0
LINE
  5
95E
330
1F
100
AcDbEntity
  8
0
  6
Continuous
 62
     7
 48
0.116244
100
AcDbLine
 10
310.9696967597794
 20
85.37674762913452
 30
0.0
 11
302.9104907597793
 21
90.0168836291345
 31
0.0
  0
ELLIPSE
  5
95F
330
1F
100
AcDbEntity
  8
0
  6
Continuous
 62
     7
100
AcDbEllipse
 10
311.4686587597793
 20
83.64710162913388
 30
0.0
 11
16.5
 21
0.0
 31
0.0
210
0.0
220
0.0
230
1.0
 40
0.575758
 41
2.518901586532588
 42
3.764283657073975
  0
LINE
  5
960
330
1F
100
AcDbEntity
  8
0
  6
Continuous
 62
     7
 48
0.119259
100
AcDbLine
 10
307.4582827597793
 20
84.51370962913449
 30
0.0
 11
299.1900787597793
 21
89.27420762913447
 31
0.0
  0
LWPOLYLINE
  5
961
330
1F
100
AcDbEntity
  8
0
  6
Continuous
 62
     7
100
AcDbPolyline
 90
       14
 70
     0
 43
0.0
 10
303.0558467597793
 20
75.36905762913448
 10
304.3185727597794
 20
74.98166562913451
 10
305.6164547597796
 20
74.66236162913407
 10
306.9420167597797
 20
74.4102856291343
 10
308.2882687597793
 20
74.22464762913449
 10
309.6486207597797
 20
74.10492762913429
 10
311.0168447597793
 20
74.05072762913448
 10
312.3869007597793
 20
74.0618356291343
 10
313.7527467597792
 20
74.13828362913432
 10
315.1083667597794
 20
74.28031162913431
 10
316.4475407597797
 20
74.4882896291345
 10
317.7638247597797
 20
74.76291562913451
 10
318.8351127597797
 20
75.04239562913432
 10
319.8814687597794
 20
75.36905762913448
  0
LINE
  5
962
330
1F
100
AcDbEntity
  8
0
  6
Continuous
 62
     7
 48
0.119259
100
AcDbLine
 10
299.2399747597796
 20
77.93332762913451
 30
0.0
 11
307.5081787597794
 21
82.69379362913424
 31
0.0
  0
LINE
  5
963
330
1F
100
AcDbEntity
  8
0
  6
Continuous
 62
     7
 48
0.116244
100
AcDbLine
 10
302.8605947597796
 20
77.36395962913405
 30
0.0
 11
310.9197987597794
 21
82.00409762913427
 31
0.0
  0
LINE
  5
964
330
1F
100
AcDbEntity
  8
0
  6
Continuous
 62
     7
 48
0.119259
100
AcDbLine
 10
299.1900787597793
 20
78.01999562913426
 30
0.0
 11
307.4582827597793
 21
82.78046362913448
 31
0.0
  0
ELLIPSE
  5
965
330
1F
100
AcDbEntity
  8
0
  6
Continuous
 62
     7
100
AcDbEllipse
 10
311.4686587597793
 20
83.64710162913388
 30
0.0
 11
16.5
 21
0.0
 31
0.0
210
0.0
220
0.0
230
1.0
 40
0.575758
 41
4.179621696472167
 42
5.245156288146971
  0
LINE
  5
966
330
1F
100
AcDbEntity
  8
0
  6
Continuous
 62
     7
 48
0.116244
100
AcDbLine
 10
302.9104907597793
 20
77.27728962913449
 30
0.0
 11
310.9696967597794
 21
81.91742762913424
 31
0.0
  0
LINE
  5
967
330
1F
100
AcDbEntity
  8
0
  6
Continuous
 62
     7
 48
0.125
100
AcDbLine
 10
289.5690007597793
 20
75.14752962913451
 30
0.0
 11
279.5690007597794
 21
75.14752962913451
 31
0.0
  0
LINE
  5
968
330
1F
100
AcDbEntity
  8
0
  6
Continuous
 62
     7
 48
0.125
100
AcDbLine
 10
279.5690007597794
 20
82.14752962913451
 30
0.0
 11
289.5690007597793
 21
82.14752962913451
 31
0.0
  0
LINE
  5
969
330
1F
100
AcDbEntity
  8
0
  6
Continuous
 62
     7
 48
0.125
100
AcDbLine
 10
289.5690007597793
 20
85.14752962913451
 30
0.0
 11
279.5690007597794
 21
85.14752962913451
 31
0.0
  0
LINE
  5
96A
330
1F
100
AcDbEntity
  8
0
  6
Continuous
 62
     7
 48
0.1275
100
AcDbLine
 10
289.6689907597797
 20
85.0475236291345
 30
0.0
 11
279.4689947597794
 21
85.0475236291345
 31
0.0
  0
LINE
  5
96B
330
1F
100
AcDbEntity
  8
0
  6
Continuous
 62
     7
 48
0.1275
100
AcDbLine
 10
279.4689947597794
 20
82.24753562913424
 30
0.0
 11
289.6689907597797
 21
82.24753562913424
 31
0.0
  0
LINE
  5
96C
330
1F
100
AcDbEntity
  8
0
  6
Continuous
 62
     7
 48
0.1275
100
AcDbLine
 10
289.6689907597797
 20
75.0475236291345
 30
0.0
 11
279.4689947597794
 21
75.0475236291345
 31
0.0
  0
LINE
  5
96D
330
1F
100
AcDbEntity
  8
0
  6
Continuous
 62
     7
 48
0.0625
100
AcDbLine
 10
278.5690007597796
 20
81.14752962913451
 30
0.0
 11
278.5690007597796
 21
76.14752962913451
 31
0.0
  0
LINE
  5
96E
330
1F
100
AcDbEntity
  8
0
  6
Continuous
 62
     7
 48
0.0625
100
AcDbLine
 10
275.8689887597794
 20
76.14752962913451
 30
0.0
 11
275.8689887597794
 21
81.14752962913451
 31
0.0
  0
LINE
  5
96F
330
1F
100
AcDbEntity
  8
0
  6
Continuous
 62
     7
 48
0.09
100
AcDbLine
 10
275.9689947597795
 20
82.24753562913424
 30
0.0
 11
275.9689947597795
 21
75.0475236291345
 31
0.0
  0
LINE
  5
970
330
1F
100
AcDbEntity
  8
0
  6
Continuous
 62
     7
 48
0.09
100
AcDbLine
 10
278.4689947597797
 20
75.0475236291345
 30
0.0
 11
278.4689947597797
 21
82.24753562913424
 31
0.0
  0
ARC
  5
971
330
1F
100
AcDbEntity
  8
0
  6
Continuous
 62
     7
100
AcDbCircle
 10
279.5690007597794
 20
76.14752962913451
 30
0.0
 40
1.0
100
AcDbArc
 50
180.0000050000005
 51
270.0000009999997
  0
ARC
  5
972
330
1F
100
AcDbEntity
  8
0
  6
Continuous
 62
     7
100
AcDbCircle
 10
279.4689947597794
 20
76.0475236291345
 30
0.0
 40
1.0
100
AcDbArc
 50
180.0000050000005
 51
270.0000009999997
  0
ARC
  5
973
330
1F
100
AcDbEntity
  8
0
  6
Continuous
 62
     7
100
AcDbCircle
 10
274.8689887597797
 20
76.14752962913451
 30
0.0
 40
1.0
100
AcDbArc
 50
269.9999969999988
 51
0.0
  0
ARC
  5
974
330
1F
100
AcDbEntity
  8
0
  6
Continuous
 62
     7
100
AcDbCircle
 10
274.9689947597794
 20
76.0475236291345
 30
0.0
 40
1.0
100
AcDbArc
 50
270.0000009999997
 51
0.000009999999378
  0
LINE
  5
975
330
1F
100
AcDbEntity
  8
0
  6
Continuous
 62
     7
 48
0.03125
100
AcDbLine
 10
278.4689947597797
 20
75.0475236291345
 30
0.0
 11
275.9689947597795
 21
75.0475236291345
 31
0.0
  0
ARC
  5
976
330
1F
100
AcDbEntity
  8
0
  6
Continuous
 62
     7
100
AcDbCircle
 10
279.5690007597794
 20
81.14752962913451
 30
0.0
 40
1.0
100
AcDbArc
 50
90.00000300000095
 51
180.0000050000005
  0
ARC
  5
977
330
1F
100
AcDbEntity
  8
0
  6
Continuous
 62
     7
100
AcDbCircle
 10
279.5690007597794
 20
86.14752962913451
 30
0.0
 40
1.0
100
AcDbArc
 50
180.0000050000005
 51
270.0000009999997
  0
ARC
  5
978
330
1F
100
AcDbEntity
  8
0
  6
Continuous
 62
     7
100
AcDbCircle
 10
279.4689947597794
 20
86.04752362913387
 30
0.0
 40
1.0
100
AcDbArc
 50
180.0000050000005
 51
270.0000009999997
  0
ARC
  5
979
330
1F
100
AcDbEntity
  8
0
  6
Continuous
 62
     7
100
AcDbCircle
 10
279.4689947597794
 20
81.24753562913424
 30
0.0
 40
1.0
100
AcDbArc
 50
90.00000300000095
 51
180.0000050000005
  0
ARC
  5
97A
330
1F
100
AcDbEntity
  8
0
  6
Continuous
 62
     7
100
AcDbCircle
 10
274.8689887597797
 20
81.14752962913451
 30
0.0
 40
1.0
100
AcDbArc
 50
0.0
 51
90.00000300000095
  0
ARC
  5
97B
330
1F
100
AcDbEntity
  8
0
  6
Continuous
 62
     7
100
AcDbCircle
 10
274.8689887597797
 20
86.14752962913451
 30
0.0
 40
1.0
100
AcDbArc
 50
269.9999969999988
 51
0.0
  0
ARC
  5
97C
330
1F
100
AcDbEntity
  8
0
  6
Continuous
 62
     7
100
AcDbCircle
 10
274.9689947597794
 20
86.04752362913387
 30
0.0
 40
1.0
100
AcDbArc
 50
270.0000009999997
 51
0.000009999999378
  0
LINE
  5
97D
330
1F
100
AcDbEntity
  8
0
  6
Continuous
 62
     7
 48
0.03125
100
AcDbLine
 10
278.4689947597797
 20
85.0475236291345
 30
0.0
 11
275.9689947597795
 21
85.0475236291345
 31
0.0
  0
ARC
  5
97E
330
1F
100
AcDbEntity
  8
0
  6
Continuous
 62
     7
100
AcDbCircle
 10
274.9689947597794
 20
81.24753562913424
 30
0.0
 40
1.0
100
AcDbArc
 50
0.0
 51
90.00000300000095
  0
LINE
  5
97F
330
1F
100
AcDbEntity
  8
0
  6
Continuous
 62
     7
 48
0.03125
100
AcDbLine
 10
275.9689947597795
 20
82.24753562913424
 30
0.0
 11
278.4689947597797
 21
82.24753562913424
 31
0.0
  0
ARC
  5
980
330
1F
100
AcDbEntity
  8
0
  6
Continuous
 62
     7
100
AcDbCircle
 10
303.4094547597792
 20
76.41065162913406
 30
0.0
 40
1.0
100
AcDbArc
 50
119.9315109999996
 51
251.2481800000004
  0
LINE
  5
981
330
1F
100
AcDbEntity
  8
0
  6
Continuous
 62
     7
 48
0.0625
100
AcDbLine
 10
290.5690007597796
 20
76.14752962913451
 30
0.0
 11
290.5690007597796
 21
81.14752962913451
 31
0.0
  0
ELLIPSE
  5
982
330
1F
100
AcDbEntity
  8
0
  6
Continuous
 62
     7
100
AcDbEllipse
 10
311.3286427597794
 20
83.56485762913406
 30
0.0
 11
16.35182189941406
 21
-0.08807373046875
 31
0.0
210
0.0
220
0.0
230
1.0
 40
0.575645
 41
3.808128356933593
 42
4.155612945556636
  0
ARC
  5
983
330
1F
100
AcDbEntity
  8
0
  6
Continuous
 62
     7
100
AcDbCircle
 10
303.4094547597792
 20
76.41065162913406
 30
0.0
 40
1.1
100
AcDbArc
 50
119.9315109999996
 51
251.2481800000004
  0
LINE
  5
984
330
1F
100
AcDbEntity
  8
0
  6
Continuous
 62
     7
 48
0.09
100
AcDbLine
 10
290.6689907597794
 20
82.24753562913424
 30
0.0
 11
290.6689907597794
 21
75.0475236291345
 31
0.0
  0
LINE
  5
985
330
1F
100
AcDbEntity
  8
0
  6
Continuous
 62
     7
 48
0.087281
100
AcDbLine
 10
293.6689907597797
 20
75.15625762913408
 30
0.0
 11
293.6689907597797
 21
82.13877162913451
 31
0.0
  0
ARC
  5
986
330
1F
100
AcDbEntity
  8
0
  6
Continuous
 62
     7
100
AcDbCircle
 10
289.5690007597793
 20
76.14752962913451
 30
0.0
 40
1.0
100
AcDbArc
 50
269.9999969999988
 51
0.0
  0
ARC
  5
987
330
1F
100
AcDbEntity
  8
0
  6
Continuous
 62
     7
100
AcDbCircle
 10
289.6689907597797
 20
76.0475236291345
 30
0.0
 40
1.0
100
AcDbArc
 50
270.0000009999997
 51
0.000009999999378
  0
LINE
  5
988
330
1F
100
AcDbEntity
  8
0
  6
Continuous
 62
     7
 48
0.034853
100
AcDbLine
 10
293.4572287597794
 20
75.0475236291345
 30
0.0
 11
290.6689907597794
 21
75.0475236291345
 31
0.0
  0
LWPOLYLINE
  5
989
330
1F
100
AcDbEntity
  8
0
  6
Continuous
 62
     7
100
AcDbPolyline
 90
        4
 70
     0
 43
0.0
 10
293.4572287597794
 20
75.0475236291345
 10
293.5851747597796
 20
75.07236562913431
 10
293.6423187597796
 20
75.11051162913429
 10
293.6689907597797
 20
75.15625762913408
  0
ELLIPSE
  5
98A
330
1F
100
AcDbEntity
  8
0
  6
Continuous
 62
     7
100
AcDbEllipse
 10
311.5117787597792
 20
83.68595162913408
 30
0.0
 11
16.64309692382812
 21
0.05780029296875
 31
0.0
210
0.0
220
0.0
230
1.0
 40
0.578749
 41
3.139625072479248
 42
3.763362884521483
  0
ARC
  5
98B
330
1F
100
AcDbEntity
  8
0
  6
Continuous
 62
     7
100
AcDbCircle
 10
289.5690007597793
 20
81.14752962913451
 30
0.0
 40
1.0
100
AcDbArc
 50
0.0
 51
90.00000300000095
  0
ARC
  5
98C
330
1F
100
AcDbEntity
  8
0
  6
Continuous
 62
     7
100
AcDbCircle
 10
289.5690007597793
 20
86.14752962913451
 30
0.0
 40
1.0
100
AcDbArc
 50
269.9999969999988
 51
0.0
  0
ARC
  5
98D
330
1F
100
AcDbEntity
  8
0
  6
Continuous
 62
     7
100
AcDbCircle
 10
289.6689907597797
 20
86.04752362913387
 30
0.0
 40
1.0
100
AcDbArc
 50
270.0000009999997
 51
0.000009999999378
  0
LWPOLYLINE
  5
98E
330
1F
100
AcDbEntity
  8
0
  6
Continuous
 62
     7
100
AcDbPolyline
 90
        4
 70
     0
 43
0.0
 10
293.4572287597794
 20
85.0475236291345
 10
293.5298907597794
 20
85.05472562913451
 10
293.6264347597794
 20
85.09659562913425
 10
293.6689907597797
 20
85.15625762913407
  0
LINE
  5
98F
330
1F
100
AcDbEntity
  8
0
  6
Continuous
 62
     7
 48
0.034853
100
AcDbLine
 10
293.4572287597794
 20
85.0475236291345
 30
0.0
 11
290.6689907597794
 21
85.0475236291345
 31
0.0
  0
ARC
  5
990
330
1F
100
AcDbEntity
  8
0
  6
Continuous
 62
     7
100
AcDbCircle
 10
289.6689907597797
 20
81.24753562913424
 30
0.0
 40
1.0
100
AcDbArc
 50
0.0
 51
90.00000300000095
  0
LINE
  5
991
330
1F
100
AcDbEntity
  8
0
  6
Continuous
 62
     7
 48
0.034853
100
AcDbLine
 10
290.6689907597794
 20
82.24753562913424
 30
0.0
 11
293.4572447597797
 21
82.24753562913424
 31
0.0
  0
LWPOLYLINE
  5
992
330
1F
100
AcDbEntity
  8
0
  6
Continuous
 62
     7
100
AcDbPolyline
 90
        5
 70
     0
 43
0.0
 10
293.4572447597797
 20
82.24753562913424
 10
293.5717007597794
 20
82.22821762913406
 10
293.6264347597794
 20
82.19843362913451
 10
293.6550447597794
 20
82.16974562913447
 10
293.6689907597797
 20
82.13877162913451
  0
ARC
  5
993
330
1F
100
AcDbEntity
  8
0
  6
Continuous
 62
     7
100
AcDbCircle
 10
298.6911167597793
 20
78.88660362913407
 30
0.0
 40
1.1
100
AcDbArc
 50
231.2740299999995
 51
299.9304099999997
  0
ARC
  5
994
330
1F
100
AcDbEntity
  8
0
  6
Continuous
 62
     7
100
AcDbCircle
 10
298.6911167597793
 20
78.88660362913407
 30
0.0
 40
1.0
100
AcDbArc
 50
231.2733910000004
 51
299.9315129999986
  0
ARC
  5
998
330
1F
100
AcDbEntity
  8
0
  6
Continuous
 62
     7
100
AcDbCircle
 10
319.5278327597794
 20
76.41065162913406
 30
0.0
 40
1.0
100
AcDbArc
 50
288.7518229999999
 51
60.06848700000127
  0
LINE
  5
999
330
1F
100
AcDbEntity
  8
0
  6
Continuous
 62
     7
 48
0.119259
100
AcDbLine
 10
323.6973267597793
 20
77.93332762913451
 30
0.0
 11
315.4291387597793
 21
82.69379362913424
 31
0.0
  0
ARC
  5
99A
330
1F
100
AcDbEntity
  8
0
  6
Continuous
 62
     7
100
AcDbCircle
 10
319.5278327597794
 20
76.41065162913406
 30
0.0
 40
1.1
100
AcDbArc
 50
288.7520669999993
 51
60.07081399999938
  0
LINE
  5
99B
330
1F
100
AcDbEntity
  8
0
  6
Continuous
 62
     7
 48
0.119259
100
AcDbLine
 10
315.4790347597793
 20
82.78046362913448
 30
0.0
 11
323.7472227597796
 21
78.01999562913426
 31
0.0
  0
LINE
  5
99C
330
1F
100
AcDbEntity
  8
0
  6
Continuous
 62
     7
 48
0.116244
100
AcDbLine
 10
311.9676207597797
 20
81.91742762913424
 30
0.0
 11
320.0267947597791
 21
77.27728962913449
 31
0.0
  0
LINE
  5
99D
330
1F
100
AcDbEntity
  8
0
  6
Continuous
 62
     7
 48
0.116244
100
AcDbLine
 10
320.0767207597797
 20
77.36395962913405
 30
0.0
 11
312.0175167597797
 21
82.00409762913427
 31
0.0
  0
ARC
  5
99E
330
1F
100
AcDbEntity
  8
0
  6
Continuous
 62
     7
100
AcDbCircle
 10
311.4686587597793
 20
86.24338562913425
 30
0.0
 40
1.1
100
AcDbArc
 50
240.0684890000003
 51
299.9315129999986
  0
ARC
  5
99F
330
1F
100
AcDbEntity
  8
0
  6
Continuous
 62
     7
100
AcDbCircle
 10
306.9593207597796
 20
83.64710162913388
 30
0.0
 40
1.1
100
AcDbArc
 50
299.9315129999986
 51
60.06848700000127
  0
ARC
  5
9A0
330
1F
100
AcDbEntity
  8
0
  6
Continuous
 62
     7
100
AcDbCircle
 10
311.4686587597793
 20
81.05081962913448
 30
0.0
 40
1.1
100
AcDbArc
 50
60.06848700000127
 51
119.9315109999996
  0
ARC
  5
9A1
330
1F
100
AcDbEntity
  8
0
  6
Continuous
 62
     7
100
AcDbCircle
 10
311.4686587597793
 20
86.24338562913425
 30
0.0
 40
1.0
100
AcDbArc
 50
240.0684890000003
 51
299.9315129999986
  0
ARC
  5
9A2
330
1F
100
AcDbEntity
  8
0
  6
Continuous
 62
     7
100
AcDbCircle
 10
306.9593207597796
 20
83.64710162913388
 30
0.0
 40
1.0
100
AcDbArc
 50
299.9315129999986
 51
60.06848700000127
  0
ARC
  5
9A3
330
1F
100
AcDbEntity
  8
0
  6
Continuous
 62
     7
100
AcDbCircle
 10
311.4686587597793
 20
81.05081962913448
 30
0.0
 40
1.0
100
AcDbArc
 50
60.06848700000127
 51
119.9315109999996
  0
ARC
  5
9A4
330
1F
100
AcDbEntity
  8
0
  6
Continuous
 62
     7
100
AcDbCircle
 10
315.9779967597796
 20
83.64710162913388
 30
0.0
 40
1.1
100
AcDbArc
 50
119.9315109999996
 51
240.0684999999997
  0
ARC
  5
9A5
330
1F
100
AcDbEntity
  8
0
  6
Continuous
 62
     7
100
AcDbCircle
 10
315.9779967597796
 20
83.64710162913388
 30
0.0
 40
1.0
100
AcDbArc
 50
119.9315109999996
 51
240.0684999999997
  0
ELLIPSE
  5
9A6
330
1F
100
AcDbEntity
  8
0
  6
Continuous
 62
     7
100
AcDbEllipse
 10
311.5637207597797
 20
83.58035962913408
 30
0.0
 11
16.39604187011719
 21
0.065338134765625
 31
0.0
210
0.0
220
0.0
230
1.0
 40
0.5751970000000001
 41
5.271516799926756
 42
5.618472576141356
  0
LINE
  5
9A9
330
1F
100
AcDbEntity
  8
0
  6
Continuous
 62
     7
 48
0.01625
100
AcDbLine
 10
335.6690067597793
 20
71.60507962913448
 30
0.0
 11
334.3689887597794
 21
71.60507962913448
 31
0.0
  0
LINE
  5
9AA
330
1F
100
AcDbEntity
  8
0
  6
Continuous
 62
     7
 48
0.040887
100
AcDbLine
 10
334.3689887597794
 20
65.33408362913451
 30
0.0
 11
334.3689887597794
 21
71.60507962913448
 31
0.0
  0
LINE
  5
9AC
330
1F
100
AcDbEntity
  8
0
  6
Continuous
 62
     7
 48
0.015
100
AcDbLine
 10
335.7689807597793
 20
71.33386962913431
 30
0.0
 11
334.5690007597794
 21
71.33386962913431
 31
0.0
  0
LINE
  5
9AE
330
1F
100
AcDbEntity
  8
0
  6
Continuous
 62
     7
 48
0.0375
100
AcDbLine
 10
334.5690007597794
 20
65.33386962913431
 30
0.0
 11
334.5690007597794
 21
71.33386962913431
 31
0.0
  0
LWPOLYLINE
  5
9B0
330
1F
100
AcDbEntity
  8
0
  6
Continuous
 62
     7
100
AcDbPolyline
 90
       12
 70
     0
 43
0.0
 10
324.9343567597796
 20
78.02844962913389
 10
325.5791327597793
 20
78.5856396291345
 10
326.1645807597797
 20
79.17816962913446
 10
326.6838687597793
 20
79.80408562913424
 10
326.9164727597797
 20
80.12869962913407
 10
327.1299127597797
 20
80.46054762913451
 10
327.3832387597794
 20
80.91330762913406
 10
327.5990907597793
 20
81.37665562913406
 10
327.7758167597794
 20
81.84915962913407
 10
327.9377127597797
 20
82.44180962913407
 10
328.0357967597794
 20
83.04245762913451
 10
328.0686647597795
 20
83.64710162913388
  0
ARC
  5
9B1
330
1F
100
AcDbEntity
  8
0
  6
Continuous
 62
     7
100
AcDbCircle
 10
324.2461847597796
 20
78.88660362913407
 30
0.0
 40
1.1
100
AcDbArc
 50
240.0684890000003
 51
308.7256339999999
  0
ARC
  5
9B2
330
1F
100
AcDbEntity
  8
0
  6
Continuous
 62
     7
100
AcDbCircle
 10
324.2461847597796
 20
78.88660362913407
 30
0.0
 40
1.0
100
AcDbArc
 50
240.0684890000003
 51
308.7266109999986
  0
LWPOLYLINE
  5
9B4
330
1F
100
AcDbEntity
  8
0
  6
Continuous
 62
     7
100
AcDbPolyline
 90
       14
 70
     0
 43
0.0
 10
319.8814687597794
 20
91.9251176291341
 10
318.6187427597794
 20
92.31253762913452
 10
317.3208607597797
 20
92.63181362913428
 10
315.9953007597796
 20
92.8838876291345
 10
314.6490467597793
 20
93.06952562913449
 10
313.2886647597797
 20
93.18924762913452
 10
311.9204407597793
 20
93.24344562913427
 10
310.5504147597796
 20
93.23233762913446
 10
309.1845707597797
 20
93.15589162913425
 10
307.8289487597794
 20
93.01389362913425
 10
306.4897467597793
 20
92.80588562913449
 10
305.1734607597793
 20
92.53125762913407
 10
304.1022027597796
 20
92.25180762913447
 10
303.0558467597793
 20
91.9251176291341
  0
ELLIPSE
  5
9B5
330
1F
100
AcDbEntity
  8
0
  6
Continuous
 62
     7
100
AcDbEllipse
 10
311.4686587597793
 20
83.64710162913388
 30
0.0
 11
16.5
 21
0.0
 31
0.0
210
0.0
220
0.0
230
1.0
 40
0.575758
 41
1.038029193878172
 42
2.103563308715818
  0
LINE
  5
9B6
330
1F
100
AcDbEntity
  8
0
  6
Continuous
 62
     7
 48
0.125
100
AcDbLine
 10
279.5690007597794
 20
92.14752962913451
 30
0.0
 11
289.5690007597793
 21
92.14752962913451
 31
0.0
  0
LINE
  5
9B7
330
1F
100
AcDbEntity
  8
0
  6
Continuous
 62
     7
 48
0.1275
100
AcDbLine
 10
279.4689947597794
 20
92.24753562913424
 30
0.0
 11
289.6689907597797
 21
92.24753562913424
 31
0.0
  0
ARC
  5
9B8
330
1F
100
AcDbEntity
  8
0
  6
Continuous
 62
     7
100
AcDbCircle
 10
279.5690007597794
 20
91.14752962913451
 30
0.0
 40
1.0
100
AcDbArc
 50
90.00000300000095
 51
180.0000050000005
  0
LINE
  5
9B9
330
1F
100
AcDbEntity
  8
0
  6
Continuous
 62
     7
 48
0.090841
100
AcDbLine
 10
273.5809627597797
 20
95.80625162913424
 30
0.0
 11
280.8482367597796
 21
95.80625162913424
 31
0.0
  0
ARC
  5
9BA
330
1F
100
AcDbEntity
  8
0
  6
Continuous
 62
     7
100
AcDbCircle
 10
279.4689947597794
 20
91.24753562913445
 30
0.0
 40
1.0
100
AcDbArc
 50
90.00000300000095
 51
180.0000050000005
  0
ARC
  5
9BD
330
1F
100
AcDbEntity
  8
0
  6
Continuous
 62
     7
100
AcDbCircle
 10
274.8689887597797
 20
91.14752962913451
 30
0.0
 40
1.0
100
AcDbArc
 50
0.0
 51
90.00000300000095
  0
ARC
  5
9BE
330
1F
100
AcDbEntity
  8
0
  6
Continuous
 62
     7
100
AcDbCircle
 10
274.9689947597794
 20
91.24753562913445
 30
0.0
 40
1.0
100
AcDbArc
 50
0.0
 51
90.00000300000095
  0
LINE
  5
9BF
330
1F
100
AcDbEntity
  8
0
  6
Continuous
 62
     7
 48
0.03125
100
AcDbLine
 10
275.9689947597795
 20
92.24753562913424
 30
0.0
 11
278.4689947597797
 21
92.24753562913424
 31
0.0
  0
LINE
  5
9C0
330
1F
100
AcDbEntity
  8
0
  6
Continuous
 62
     7
 48
0.016312
100
AcDbLine
 10
278.5690007597796
 20
98.10507962913447
 30
0.0
 11
278.5690007597796
 21
96.80014762913447
 31
0.0
  0
LWPOLYLINE
  5
9C1
330
1F
100
AcDbEntity
  8
0
  6
Continuous
 62
     7
100
AcDbPolyline
 90
       14
 70
     0
 43
0.0
 10
278.5690007597796
 20
96.80014762913447
 10
278.5581507597794
 20
96.72348762913424
 10
278.5067747597797
 20
96.61753162913448
 10
278.4422907597793
 20
96.54126762913449
 10
278.3669727597796
 20
96.47580762913447
 10
278.2566067597796
 20
96.40143562913449
 10
278.0188907597795
 20
96.2839736291345
 10
277.7726747597796
 20
96.1948616291345
 10
277.5199887597796
 20
96.12357362913451
 10
277.0067127597797
 20
96.01758562913449
 10
276.4866947597793
 20
95.94437362913447
 10
275.9620367597794
 20
95.89322562913446
 10
274.8180687597796
 20
95.83100162913428
 10
273.5809627597797
 20
95.80625162913424
  0
LWPOLYLINE
  5
9C2
330
1F
100
AcDbEntity
  8
0
  6
Continuous
 62
     7
100
AcDbPolyline
 90
        8
 70
     0
 43
0.0
 10
283.0690007597796
 20
95.5215836291345
 10
283.0587467597796
 20
95.30622162913408
 10
283.0300907597796
 20
95.09802962913425
 10
282.9292147597797
 20
94.70719162913452
 10
282.7864367597794
 20
94.35190562913447
 10
282.6566467597794
 20
94.09934162913447
 10
282.3659967597794
 20
93.6402356291345
 10
282.3482367597796
 20
93.61499762913451
  0
LINE
  5
9C6
330
1F
100
AcDbEntity
  8
0
  6
Continuous
 62
     7
 48
0.032294
100
AcDbLine
 10
283.0690007597796
 20
98.10507962913447
 30
0.0
 11
283.0690007597796
 21
95.5215836291345
 31
0.0
  0
ELLIPSE
  5
9CC
330
1F
100
AcDbEntity
  8
0
  6
Continuous
 62
     7
100
AcDbEllipse
 10
280.8482367597796
 20
96.80014762913447
 30
0.0
 11
0.31622314453125
 21
0.9486694335937498
 31
0.0
210
0.0
220
0.0
230
1.0
 40
0.9434559999999999
 41
3.481213808059691
 42
5.017081737518311
  0
LINE
  5
9CD
330
1F
100
AcDbEntity
  8
0
  6
Continuous
 62
     7
 48
0.008043
100
AcDbLine
 10
280.8482367597796
 20
95.80625162913424
 30
0.0
 11
281.4586627597797
 21
95.60275962913426
 31
0.0
  0
ELLIPSE
  5
9CF
330
1F
100
AcDbEntity
  8
0
  6
Continuous
 62
     7
100
AcDbEllipse
 10
281.3482507597793
 20
93.61502762913449
 30
0.0
 11
0.0000152587890626
 21
-1.999969482421875
 31
0.0
210
0.0
220
0.0
230
1.0
 40
0.4999979999999999
 41
1.570774435997009
 42
3.030934333801268
  0
LINE
  5
9D2
330
1F
100
AcDbEntity
  8
0
  6
Continuous
 62
     7
 48
0.016312
100
AcDbLine
 10
281.7969207597797
 20
98.10507962913447
 30
0.0
 11
281.7969207597797
 21
96.80014762913447
 31
0.0
  0
ARC
  5
9D4
330
1F
100
AcDbEntity
  8
0
  6
Continuous
 62
     7
100
AcDbCircle
 10
289.5690007597793
 20
91.14752962913451
 30
0.0
 40
1.0
100
AcDbArc
 50
0.0
 51
90.00000300000095
  0
LWPOLYLINE
  5
9D5
330
1F
100
AcDbEntity
  8
0
  6
Continuous
 62
     7
100
AcDbPolyline
 90
        5
 70
     0
 43
0.0
 10
293.4572447597797
 20
92.24753562913424
 10
293.5717007597794
 20
92.22821762913406
 10
293.6264347597794
 20
92.19843362913451
 10
293.6550447597794
 20
92.16974562913424
 10
293.6689907597797
 20
92.13877162913451
  0
LINE
  5
9D6
330
1F
100
AcDbEntity
  8
0
  6
Continuous
 62
     7
 48
0.034853
100
AcDbLine
 10
290.6689907597794
 20
92.24753562913424
 30
0.0
 11
293.4572447597797
 21
92.24753562913424
 31
0.0
  0
ARC
  5
9D7
330
1F
100
AcDbEntity
  8
0
  6
Continuous
 62
     7
100
AcDbCircle
 10
289.6689907597797
 20
91.24753562913445
 30
0.0
 40
1.0
100
AcDbArc
 50
0.0
 51
90.00000300000095
  0
ARC
  5
9DB
330
1F
100
AcDbEntity
  8
0
  6
Continuous
 62
     7
100
AcDbCircle
 10
303.4094547597792
 20
90.88352162913407
 30
0.0
 40
1.1
100
AcDbArc
 50
108.7520620000006
 51
240.0708219999998
  0
ELLIPSE
  5
9DC
330
1F
100
AcDbEntity
  8
0
  6
Continuous
 62
     7
100
AcDbEllipse
 10
311.3736267597797
 20
83.71463762913448
 30
0.0
 11
16.39610290527344
 21
0.0653076171875
 31
0.0
210
0.0
220
0.0
230
1.0
 40
0.575198
 41
2.12982439994812
 42
2.477049589157104
  0
ARC
  5
9DD
330
1F
100
AcDbEntity
  8
0
  6
Continuous
 62
     7
100
AcDbCircle
 10
298.6911167597793
 20
88.40753962913424
 30
0.0
 40
1.100018
100
AcDbArc
 50
60.06848700000127
 51
128.7256390000006
  0
ARC
  5
9E0
330
1F
100
AcDbEntity
  8
0
  6
Continuous
 62
     7
100
AcDbCircle
 10
303.4094547597792
 20
90.88352162913407
 30
0.0
 40
1.0
100
AcDbArc
 50
108.7518219999991
 51
240.0684999999997
  0
ARC
  5
9E1
330
1F
100
AcDbEntity
  8
0
  6
Continuous
 62
     7
100
AcDbCircle
 10
298.6911167597793
 20
88.40756962913451
 30
0.0
 40
1.0
100
AcDbArc
 50
60.06848700000127
 51
128.7266089999995
  0
ARC
  5
9E2
330
1F
100
AcDbEntity
  8
0
  6
Continuous
 62
     7
100
AcDbCircle
 10
319.5278327597794
 20
90.88352162913407
 30
0.0
 40
1.1
100
AcDbArc
 50
299.9315129999986
 51
71.24816900000022
  0
ARC
  5
9E3
330
1F
100
AcDbEntity
  8
0
  6
Continuous
 62
     7
100
AcDbCircle
 10
319.5278327597794
 20
90.88352162913407
 30
0.0
 40
1.0
100
AcDbArc
 50
299.9315129999986
 51
71.24817699999995
  0
ARC
  5
9E4
330
1F
100
AcDbEntity
  8
0
  6
Continuous
 62
     7
100
AcDbCircle
 10
324.2461847597796
 20
88.40756962913451
 30
0.0
 40
1.1
100
AcDbArc
 50
51.27399899999954
 51
119.9304170000007
  0
ELLIPSE
  5
9E5
330
1F
100
AcDbEntity
  8
0
  6
Continuous
 62
     7
100
AcDbEllipse
 10
311.6085807597794
 20
83.7301396291345
 30
0.0
 11
16.3518829345703
 21
-0.088043212890625
 31
0.0
210
0.0
220
0.0
230
1.0
 40
0.575645
 41
0.6663656830787659
 42
1.014120578765868
  0
ARC
  5
9E6
330
1F
100
AcDbEntity
  8
0
  6
Continuous
 62
     7
100
AcDbCircle
 10
324.2461847597796
 20
88.40756962913451
 30
0.0
 40
1.0
100
AcDbArc
 50
51.27338900000117
 51
119.9315109999996
  0
ARC
  5
9E7
330
1F
100
AcDbEntity
  8
0
  6
Continuous
 62
     7
100
AcDbCircle
 10
333.6690067597794
 20
96.10507962913448
 30
0.0
 40
2.0
100
AcDbArc
 50
0.0
 51
90.00000300000095
  0
ARC
  5
9E8
330
1F
100
AcDbEntity
  8
0
  6
Continuous
 62
     7
100
AcDbCircle
 10
333.7689807597796
 20
96.33386962913409
 30
0.0
 40
2.0
100
AcDbArc
 50
0.0
 51
90.00000300000095
  0
ARC
  5
9E9
330
1F
100
AcDbEntity
  8
0
  6
Continuous
 62
     7
100
AcDbCircle
 10
333.7689807597796
 20
106.1337956291345
 30
0.0
 40
2.0
100
AcDbArc
 50
270.0000009999997
 51
0.000009999999378
  0
ARC
  5
9EA
330
1F
100
AcDbEntity
  8
0
  6
Continuous
 62
     7
100
AcDbCircle
 10
333.7689807597796
 20
106.1338576291344
 30
0.0
 40
2.0
100
AcDbArc
 50
270.0000009999997
 51
0.000009999999378
  0
LINE
  5
9EB
330
1F
100
AcDbEntity
  8
0
  6
Continuous
 62
     7
100
AcDbLine
 10
208.3689887597797
 20
202.1337956291345
 30
0.0
 11
333.7689807597796
 21
202.1337956291345
 31
0.0
  0
LINE
  5
9EC
330
1F
100
AcDbEntity
  8
0
  6
Continuous
 62
     7
100
AcDbLine
 10
326.5690007597794
 20
196.243781629134
 30
0.0
 11
214.2890007597794
 21
196.243781629134
 31
0.0
  0
LINE
  5
9ED
330
1F
100
AcDbEntity
  8
0
  6
Continuous
 62
     7
100
AcDbLine
 10
208.3689887597797
 20
202.1338576291345
 30
0.0
 11
333.7689807597796
 21
202.1338576291345
 31
0.0
  0
ARC
  5
9EE
330
1F
100
AcDbEntity
  8
0
  6
Continuous
 62
     7
100
AcDbCircle
 10
208.3689887597797
 20
200.1337956291342
 30
0.0
 40
2.0
100
AcDbArc
 50
90.00000300000095
 51
180.0000050000005
  0
ARC
  5
9EF
330
1F
100
AcDbEntity
  8
0
  6
Continuous
 62
     7
100
AcDbCircle
 10
208.3689887597797
 20
200.133857629134
 30
0.0
 40
2.0
100
AcDbArc
 50
90.00000300000095
 51
180.0000050000005
  0
ARC
  5
9F0
330
1F
100
AcDbEntity
  8
0
  6
Continuous
 62
     7
100
AcDbCircle
 10
333.7689807597796
 20
200.1337956291342
 30
0.0
 40
2.0
100
AcDbArc
 50
0.0
 51
90.00000300000095
  0
ARC
  5
9F1
330
1F
100
AcDbEntity
  8
0
  6
Continuous
 62
     7
100
AcDbCircle
 10
333.7689807597796
 20
200.133857629134
 30
0.0
 40
2.0
100
AcDbArc
 50
0.000009999999378
 51
89.99999200000019
  0
LINE
  5
9F2
330
1F
100
AcDbEntity
  8
0
  6
Continuous
 62
     7
100
AcDbLine
 10
343.0690007597794
 20
68.33377762913449
 30
0.0
 11
343.0690007597794
 21
206.3337776291345
 31
0.0
  0
LINE
  5
9F3
330
1F
100
AcDbEntity
  8
0
  6
Continuous
 62
     7
100
AcDbLine
 10
343.0690007597794
 20
206.3338696291345
 30
0.0
 11
343.0690007597794
 21
68.33386962913448
 31
0.0
  0
ARC
  5
9F4
330
1F
100
AcDbEntity
  8
0
  6
Continuous
 62
     7
100
AcDbCircle
 10
340.0690007597793
 20
68.33377762913449
 30
0.0
 40
3.0
100
AcDbArc
 50
270.0000009999997
 51
0.000009999999378
  0
ARC
  5
9F5
330
1F
100
AcDbEntity
  8
0
  6
Continuous
 62
     7
100
AcDbCircle
 10
340.0690007597793
 20
68.33386962913448
 30
0.0
 40
3.0
100
AcDbArc
 50
270.0000009999997
 51
0.000009999999378
  0
ARC
  5
9F6
330
1F
100
AcDbEntity
  8
0
  6
Continuous
 62
     7
100
AcDbCircle
 10
340.0690007597793
 20
206.3338696291345
 30
0.0
 40
3.0
100
AcDbArc
 50
0.000009999999378
 51
89.99999200000019
  0
ARC
  5
9F7
330
1F
100
AcDbEntity
  8
0
  6
DASHED
 62
     4
100
AcDbCircle
 10
729.9066167597792
 20
76.33396162913408
 30
0.0
 40
5.0
100
AcDbArc
 50
269.9999969999988
 51
0.0
  0
LWPOLYLINE
  5
9F8
330
1F
100
AcDbEntity
  8
0
  6
DASHED
 62
     4
100
AcDbPolyline
 90
       14
 70
     0
 43
0.0
 10
729.9066167597792
 20
72.8339616291343
 10
730.555968759779
 20
72.8636236291345
 10
731.1928107597797
 20
72.9517596291343
 10
731.8049307597797
 20
73.09601562913451
 10
732.3815307597791
 20
73.2927936291345
 10
732.9160767597796
 20
73.5389476291345
 10
733.3973987597796
 20
73.82816362913451
 10
733.8189087597791
 20
74.15451762913448
 10
734.1757807597797
 20
74.5120616291345
 10
734.4642947597791
 20
74.89469162913451
 10
734.6570427597796
 20
75.2419516291339
 10
734.7954707597793
 20
75.60001362913425
 10
734.8787847597791
 20
75.96521762913408
 10
734.9066167597791
 20
76.33396162913408
  0
LWPOLYLINE
  5
9F9
330
1F
100
AcDbEntity
  8
0
  6
DASHED
 62
     4
100
AcDbPolyline
 90
       14
 70
     0
 43
0.0
 10
729.9066167597792
 20
201.833961629134
 10
730.555968759779
 20
201.8042976291344
 10
731.1928107597797
 20
201.7161636291346
 10
731.8049307597797
 20
201.5718756291345
 10
732.3815307597791
 20
201.3751296291342
 10
732.9160767597796
 20
201.1289436291346
 10
733.3973987597796
 20
200.8397596291345
 10
733.8189087597791
 20
200.5134056291345
 10
734.1757807597797
 20
200.155861629134
 10
734.4642947597791
 20
199.773231629134
 10
734.6570427597796
 20
199.4259716291346
 10
734.7954707597793
 20
199.0679096291346
 10
734.8787847597791
 20
198.7027056291345
 10
734.9066167597791
 20
198.333961629134
  0
ARC
  5
9FA
330
1F
100
AcDbEntity
  8
0
  6
DASHED
 62
     4
100
AcDbCircle
 10
729.9066167597792
 20
198.333961629134
 30
0.0
 40
5.0
100
AcDbArc
 50
0.0
 51
90.00000300000095
  0
LINE
  5
9FB
330
1F
100
AcDbEntity
  8
0
  6
Continuous
 62
     7
 48
0.129502
100
AcDbLine
 10
591.1264027597792
 20
176.1536936291345
 30
0.0
 11
601.4865727597797
 21
176.1536936291345
 31
0.0
  0
LINE
  5
9FC
330
1F
100
AcDbEntity
  8
0
  6
Continuous
 62
     7
 48
0.129502
100
AcDbLine
 10
591.1264027597792
 20
178.5138936291345
 30
0.0
 11
601.4865727597797
 21
178.5138936291345
 31
0.0
  0
LINE
  5
9FD
330
1F
100
AcDbEntity
  8
0
  6
Continuous
 62
     7
 48
0.129502
100
AcDbLine
 10
591.1264027597792
 20
94.51389362913408
 30
0.0
 11
601.4865727597797
 21
94.51389362913408
 31
0.0
  0
LINE
  5
9FE
330
1F
100
AcDbEntity
  8
0
  6
Continuous
 62
     7
 48
0.129502
100
AcDbLine
 10
591.1264027597792
 20
92.15369362913447
 30
0.0
 11
601.4865727597797
 21
92.15369362913447
 31
0.0
  0
LINE
  5
9FF
330
1F
100
AcDbEntity
  8
0
  6
Continuous
 62
     7
 48
0.129502
100
AcDbLine
 10
591.1264027597792
 20
172.1536936291345
 30
0.0
 11
601.4865727597797
 21
172.1536936291345
 31
0.0
  0
LINE
  5
A00
330
1F
100
AcDbEntity
  8
0
  6
Continuous
 62
     7
 48
0.129502
100
AcDbLine
 10
591.1264027597792
 20
174.5138936291345
 30
0.0
 11
601.4865727597797
 21
174.5138936291345
 31
0.0
  0
LINE
  5
A01
330
1F
100
AcDbEntity
  8
0
  6
Continuous
 62
     7
 48
0.129502
100
AcDbLine
 10
591.1264027597792
 20
90.51389362913425
 30
0.0
 11
601.4865727597797
 21
90.51389362913425
 31
0.0
  0
LINE
  5
A02
330
1F
100
AcDbEntity
  8
0
  6
Continuous
 62
     7
 48
0.129502
100
AcDbLine
 10
591.1264027597792
 20
88.15369362913447
 30
0.0
 11
601.4865727597797
 21
88.15369362913447
 31
0.0
  0
LINE
  5
A03
330
1F
100
AcDbEntity
  8
0
  6
Continuous
 62
     7
 48
0.129502
100
AcDbLine
 10
591.1264027597792
 20
168.153693629134
 30
0.0
 11
601.4865727597797
 21
168.153693629134
 31
0.0
  0
LINE
  5
A04
330
1F
100
AcDbEntity
  8
0
  6
Continuous
 62
     7
 48
0.129502
100
AcDbLine
 10
591.1264027597792
 20
170.5138936291345
 30
0.0
 11
601.4865727597797
 21
170.5138936291345
 31
0.0
  0
LINE
  5
A05
330
1F
100
AcDbEntity
  8
0
  6
Continuous
 62
     7
 48
0.129502
100
AcDbLine
 10
591.1264027597792
 20
86.51389362913409
 30
0.0
 11
601.4865727597797
 21
86.51389362913409
 31
0.0
  0
LINE
  5
A06
330
1F
100
AcDbEntity
  8
0
  6
Continuous
 62
     7
 48
0.129502
100
AcDbLine
 10
591.1264027597792
 20
84.15369362913446
 30
0.0
 11
601.4865727597797
 21
84.15369362913446
 31
0.0
  0
LINE
  5
A07
330
1F
100
AcDbEntity
  8
0
  6
Continuous
 62
     7
 48
0.129502
100
AcDbLine
 10
591.1264027597792
 20
164.1536936291345
 30
0.0
 11
601.4865727597797
 21
164.1536936291345
 31
0.0
  0
LINE
  5
A08
330
1F
100
AcDbEntity
  8
0
  6
Continuous
 62
     7
 48
0.129502
100
AcDbLine
 10
591.1264027597792
 20
166.5138936291345
 30
0.0
 11
601.4865727597797
 21
166.5138936291345
 31
0.0
  0
LINE
  5
A09
330
1F
100
AcDbEntity
  8
0
  6
Continuous
 62
     7
 48
0.129502
100
AcDbLine
 10
591.1264027597792
 20
82.51389362913448
 30
0.0
 11
601.4865727597797
 21
82.51389362913448
 31
0.0
  0
LINE
  5
A0A
330
1F
100
AcDbEntity
  8
0
  6
Continuous
 62
     7
 48
0.129502
100
AcDbLine
 10
591.1264027597792
 20
80.15369362913446
 30
0.0
 11
601.4865727597797
 21
80.15369362913446
 31
0.0
  0
LINE
  5
A0B
330
1F
100
AcDbEntity
  8
0
  6
Continuous
 62
     7
100
AcDbLine
 10
618.0840447597796
 20
204.7771676291345
 30
0.0
 11
500.2066027597792
 21
205.8058556291344
 31
0.0
  0
LINE
  5
A18
330
1F
100
AcDbEntity
  8
0
  6
Continuous
 62
     7
100
AcDbLine
 10
618.0840447597796
 20
69.8904196291345
 30
0.0
 11
500.2066027597792
 21
68.86173162913451
 31
0.0
  0
LINE
  5
A19
330
1F
100
AcDbEntity
  8
0
  6
Continuous
 62
     7
 48
0.129502
100
AcDbLine
 10
591.1264027597792
 20
192.1536936291345
 30
0.0
 11
601.4865727597797
 21
192.1536936291345
 31
0.0
  0
LINE
  5
A1A
330
1F
100
AcDbEntity
  8
0
  6
Continuous
 62
     7
 48
0.129502
100
AcDbLine
 10
591.1264027597792
 20
194.5138936291341
 30
0.0
 11
601.4865727597797
 21
194.5138936291341
 31
0.0
  0
LINE
  5
A1B
330
1F
100
AcDbEntity
  8
0
  6
Continuous
 62
     7
 48
0.129502
100
AcDbLine
 10
591.1264027597792
 20
110.513893629134
 30
0.0
 11
601.4865727597797
 21
110.513893629134
 31
0.0
  0
LINE
  5
A1C
330
1F
100
AcDbEntity
  8
0
  6
Continuous
 62
     7
 48
0.129502
100
AcDbLine
 10
591.1264027597792
 20
108.1536936291342
 30
0.0
 11
601.4865727597797
 21
108.1536936291342
 31
0.0
  0
LINE
  5
A1D
330
1F
100
AcDbEntity
  8
0
  6
Continuous
 62
     7
 48
0.129502
100
AcDbLine
 10
591.1264027597792
 20
188.1536936291347
 30
0.0
 11
601.4865727597797
 21
188.1536936291347
 31
0.0
  0
LINE
  5
A1E
330
1F
100
AcDbEntity
  8
0
  6
Continuous
 62
     7
 48
0.129502
100
AcDbLine
 10
591.1264027597792
 20
190.513893629134
 30
0.0
 11
601.4865727597797
 21
190.513893629134
 31
0.0
  0
LINE
  5
A1F
330
1F
100
AcDbEntity
  8
0
  6
Continuous
 62
     7
 48
0.129502
100
AcDbLine
 10
591.1264027597792
 20
106.5138936291344
 30
0.0
 11
601.4865727597797
 21
106.5138936291344
 31
0.0
  0
LINE
  5
A20
330
1F
100
AcDbEntity
  8
0
  6
Continuous
 62
     7
 48
0.129502
100
AcDbLine
 10
591.1264027597792
 20
104.1536936291342
 30
0.0
 11
601.4865727597797
 21
104.1536936291342
 31
0.0
  0
LINE
  5
A21
330
1F
100
AcDbEntity
  8
0
  6
Continuous
 62
     7
 48
0.129502
100
AcDbLine
 10
591.1264027597792
 20
184.1536936291345
 30
0.0
 11
601.4865727597797
 21
184.1536936291345
 31
0.0
  0
LINE
  5
A22
330
1F
100
AcDbEntity
  8
0
  6
Continuous
 62
     7
 48
0.129502
100
AcDbLine
 10
591.1264027597792
 20
186.5138936291345
 30
0.0
 11
601.4865727597797
 21
186.5138936291345
 31
0.0
  0
LINE
  5
A23
330
1F
100
AcDbEntity
  8
0
  6
Continuous
 62
     7
 48
0.129502
100
AcDbLine
 10
591.1264027597792
 20
102.5138936291344
 30
0.0
 11
601.4865727597797
 21
102.5138936291344
 31
0.0
  0
LINE
  5
A24
330
1F
100
AcDbEntity
  8
0
  6
Continuous
 62
     7
 48
0.129502
100
AcDbLine
 10
591.1264027597792
 20
100.1536936291344
 30
0.0
 11
601.4865727597797
 21
100.1536936291344
 31
0.0
  0
LINE
  5
A25
330
1F
100
AcDbEntity
  8
0
  6
Continuous
 62
     7
 48
0.129502
100
AcDbLine
 10
591.1264027597792
 20
180.1536936291345
 30
0.0
 11
601.4865727597797
 21
180.1536936291345
 31
0.0
  0
LINE
  5
A26
330
1F
100
AcDbEntity
  8
0
  6
Continuous
 62
     7
 48
0.129502
100
AcDbLine
 10
591.1264027597792
 20
182.5138936291345
 30
0.0
 11
601.4865727597797
 21
182.5138936291345
 31
0.0
  0
LINE
  5
A27
330
1F
100
AcDbEntity
  8
0
  6
Continuous
 62
     7
 48
0.129502
100
AcDbLine
 10
591.1264027597792
 20
98.51389362913426
 30
0.0
 11
601.4865727597797
 21
98.51389362913426
 31
0.0
  0
LINE
  5
A28
330
1F
100
AcDbEntity
  8
0
  6
Continuous
 62
     7
 48
0.129502
100
AcDbLine
 10
591.1264027597792
 20
96.15369362913448
 30
0.0
 11
601.4865727597797
 21
96.15369362913448
 31
0.0
  0
LINE
  5
A3D
330
1F
100
AcDbEntity
  8
0
  6
Continuous
 62
     7
100
AcDbLine
 10
487.3066407597792
 20
206.3338696291345
 30
0.0
 11
487.3066407597792
 21
68.33386962913448
 31
0.0
  0
LINE
  5
A3E
330
1F
100
AcDbEntity
  8
0
  6
Continuous
 62
     7
100
AcDbLine
 10
495.806640759779
 20
209.333777629134
 30
0.0
 11
495.806640759779
 21
65.33386962913431
 31
0.0
  0
LINE
  5
A3F
330
1F
100
AcDbEntity
  8
0
  6
Continuous
 62
     7
100
AcDbLine
 10
500.2066167597791
 20
66.63379568149441
 30
0.0
 11
500.2066167597791
 21
208.033789629134
 31
0.0
  0
LINE
  5
A40
330
1F
100
AcDbEntity
  8
0
  6
Continuous
 62
     7
100
AcDbLine
 10
499.8066407597792
 20
209.333777629134
 30
0.0
 11
499.8066407597794
 21
65.33377762913449
 31
0.0
  0
ARC
  5
A47
330
1F
100
AcDbEntity
  8
0
  6
Continuous
 62
     7
100
AcDbCircle
 10
598.0034167597793
 20
84.58240562913408
 30
0.0
 40
111.3651659999999
100
AcDbArc
 50
176.4900659999999
 51
178.2705600000006
  0
ARC
  5
A48
330
1F
100
AcDbEntity
  8
0
  6
Continuous
 62
     7
100
AcDbCircle
 10
598.0021967597797
 20
84.41031562913407
 30
0.0
 40
111.374512
100
AcDbArc
 50
176.834908999999
 51
178.1821360000004
  0
ARC
  5
A49
330
1F
100
AcDbEntity
  8
0
  6
Continuous
 62
     7
100
AcDbCircle
 10
548.1173707597794
 20
84.4954916291345
 30
0.0
 40
61.505142
100
AcDbArc
 50
174.6776210000006
 51
179.0147089999992
  0
ARC
  5
A4A
330
1F
100
AcDbEntity
  8
0
  6
Continuous
 62
     7
100
AcDbCircle
 10
503.6066287597792
 20
88.64752962913451
 30
0.0
 40
17.0
100
AcDbArc
 50
170.1582349999996
 51
184.6623460000004
  0
ARC
  5
A4B
330
1F
100
AcDbEntity
  8
0
  6
Continuous
 62
     7
100
AcDbCircle
 10
490.3066407597797
 20
68.33386962913448
 30
0.0
 40
3.0
100
AcDbArc
 50
180.0000050000005
 51
270.0000009999997
  0
LINE
  5
A4F
330
1F
100
AcDbEntity
  8
0
  6
Continuous
 62
     7
 48
0.06875
100
AcDbLine
 10
495.806640759779
 20
65.33386962913431
 30
0.0
 11
490.3066407597797
 21
65.33386962913431
 31
0.0
  0
LINE
  5
A50
330
1F
100
AcDbEntity
  8
0
  6
Continuous
 62
     7
 48
0.05
100
AcDbLine
 10
495.806640759779
 20
65.33377762913449
 30
0.0
 11
499.8066407597792
 21
65.33377762913449
 31
0.0
  0
ARC
  5
A51
330
1F
100
AcDbEntity
  8
0
  6
Continuous
 62
     7
100
AcDbCircle
 10
611.8066407597797
 20
83.64710162913388
 30
0.0
 40
125.199996
100
AcDbArc
 50
180.8233879999993
 51
183.1650229999994
  0
ARC
  5
A52
330
1F
100
AcDbEntity
  8
0
  6
Continuous
 62
     7
100
AcDbCircle
 10
598.0034167597793
 20
82.71176962913449
 30
0.0
 40
111.3651659999999
100
AcDbArc
 50
181.7294399999992
 51
183.509934
  0
ARC
  5
A53
330
1F
100
AcDbEntity
  8
0
  6
Continuous
 62
     7
100
AcDbCircle
 10
598.0021967597797
 20
82.8838876291345
 30
0.0
 40
111.374512
100
AcDbArc
 50
181.8178639999995
 51
183.1650910000007
  0
LINE
  5
A59
330
1F
100
AcDbEntity
  8
0
  6
Continuous
 62
     7
 48
0.001919
100
AcDbLine
 10
487.3066107597793
 20
74.14710162913405
 30
0.0
 11
487.1530767597796
 21
74.14710162913405
 31
0.0
  0
ARC
  5
A5A
330
1F
100
AcDbEntity
  8
0
  6
Continuous
 62
     7
100
AcDbCircle
 10
611.8066407597797
 20
83.64710162913388
 30
0.0
 40
125.199996
100
AcDbArc
 50
183.6618639999996
 51
184.2667459999993
  0
ARC
  5
A5B
330
1F
100
AcDbEntity
  8
0
  6
Continuous
 62
     7
100
AcDbCircle
 10
487.1531667597796
 20
74.3472056291343
 30
0.0
 40
0.20009
100
AcDbArc
 50
184.2965390000006
 51
269.9711330000006
  0
LINE
  5
A5C
330
1F
100
AcDbEntity
  8
0
  6
Continuous
 62
     7
 48
0.003044
100
AcDbLine
 10
486.8471667597792
 20
75.89383762913451
 30
0.0
 11
486.8622427597797
 21
75.6507956291345
 31
0.0
  0
ARC
  5
A65
330
1F
100
AcDbEntity
  8
0
  6
Continuous
 62
     7
100
AcDbCircle
 10
499.9066167597792
 20
66.63379562913451
 30
0.0
 40
0.3
100
AcDbArc
 50
270.0000009999997
 51
0.000009999999378
  0
LINE
  5
A66
330
1F
100
AcDbEntity
  8
0
  6
Continuous
 62
     7
 48
0.00125
100
AcDbLine
 10
499.8066407597792
 20
66.33377762913432
 30
0.0
 11
499.9066167597792
 21
66.33377762913432
 31
0.0
  0
ARC
  5
A68
330
1F
100
AcDbEntity
  8
0
  6
Continuous
 62
     7
100
AcDbCircle
 10
526.2053227597797
 20
83.64710162913388
 30
0.0
 40
39.57980399999996
100
AcDbArc
 50
178.9889999999994
 51
181.0110099999995
  0
ARC
  5
A74
330
1F
100
AcDbEntity
  8
0
  6
Continuous
 62
     7
100
AcDbCircle
 10
526.1110827597792
 20
83.64710162913388
 30
0.0
 40
39.485558
100
AcDbArc
 50
178.99232
 51
181.0076900000005
  0
ARC
  5
A7E
330
1F
100
AcDbEntity
  8
0
  6
Continuous
 62
     7
100
AcDbCircle
 10
486.8200987597797
 20
85.44361162913407
 30
0.0
 40
0.200546
100
AcDbArc
 50
179.2445039999992
 51
219.002788999999
  0
LINE
  5
A7F
330
1F
100
AcDbEntity
  8
0
  6
Continuous
 62
     7
 48
0.000066
100
AcDbLine
 10
486.6889947597793
 20
87.94336762913451
 30
0.0
 11
486.6837467597794
 21
87.94336762913451
 31
0.0
  0
LINE
  5
A80
330
1F
100
AcDbEntity
  8
0
  6
Continuous
 62
     7
 48
0.001336
100
AcDbLine
 10
486.6195667597793
 20
85.44626562913425
 30
0.0
 11
486.6213367597793
 21
85.55313962913448
 31
0.0
  0
ARC
  5
A82
330
1F
100
AcDbEntity
  8
0
  6
Continuous
 62
     7
100
AcDbCircle
 10
548.0431207597791
 20
84.50311962913422
 30
0.0
 40
61.43080600000001
100
AcDbArc
 50
181.4499209999995
 51
182.3562459999996
  0
ARC
  5
A83
330
1F
100
AcDbEntity
  8
0
  6
Continuous
 62
     7
100
AcDbCircle
 10
548.0590507597796
 20
82.79041362913449
 30
0.0
 40
61.44673199999998
100
AcDbArc
 50
177.6430570000003
 51
178.5498739999995
  0
ARC
  5
A84
330
1F
100
AcDbEntity
  8
0
  6
Continuous
 62
     7
100
AcDbCircle
 10
486.8200987597797
 20
81.85056362913405
 30
0.0
 40
0.200546
100
AcDbArc
 50
140.9978469999996
 51
180.7554920000008
  0
LINE
  5
A85
330
1F
100
AcDbEntity
  8
0
  6
Continuous
 62
     7
 48
0.000066
100
AcDbLine
 10
486.6837467597794
 20
79.35080762913407
 30
0.0
 11
486.6889947597793
 21
79.35080762913407
 31
0.0
  0
LINE
  5
A86
330
1F
100
AcDbEntity
  8
0
  6
Continuous
 62
     7
 48
0.001336
100
AcDbLine
 10
486.6213367597793
 20
81.74106562913449
 30
0.0
 11
486.6195667597793
 21
81.84793762913427
 31
0.0
  0
LINE
  5
A8D
330
1F
100
AcDbEntity
  8
0
  6
Continuous
 62
     7
 48
0.02875
100
AcDbLine
 10
484.3066407597797
 20
97.4050976291345
 30
0.0
 11
486.6066287597792
 21
97.4050976291345
 31
0.0
  0
LINE
  5
A8F
330
1F
100
AcDbEntity
  8
0
  6
Continuous
 62
     7
 48
0.023032
100
AcDbLine
 10
483.6961967597793
 20
95.80625162913424
 30
0.0
 11
485.5274967597792
 21
95.60275962913426
 31
0.0
  0
LINE
  5
A90
330
1F
100
AcDbEntity
  8
0
  6
Continuous
 62
     7
 48
0.00875
100
AcDbLine
 10
484.3066407597797
 20
98.10507962913447
 30
0.0
 11
484.3066407597797
 21
97.4050976291345
 31
0.0
  0
LINE
  5
A91
330
1F
100
AcDbEntity
  8
0
  6
Continuous
 62
     7
 48
0.010203
100
AcDbLine
 10
484.3066407597797
 20
98.10507962913447
 30
0.0
 11
483.4903867597793
 21
98.10507962913447
 31
0.0
  0
ARC
  5
A93
330
1F
100
AcDbEntity
  8
0
  6
Continuous
 62
     7
100
AcDbCircle
 10
483.8066407597792
 20
96.80014762913447
 30
0.0
 40
1.0
100
AcDbArc
 50
180.0000050000005
 51
263.6598089999997
  0
LINE
  5
A95
330
1F
100
AcDbEntity
  8
0
  6
Continuous
 62
     7
 48
0.008547
100
AcDbLine
 10
483.4903867597793
 20
98.10507962913447
 30
0.0
 11
482.8066407597792
 21
98.10507962913447
 31
0.0
  0
LINE
  5
A97
330
1F
100
AcDbEntity
  8
0
  6
Continuous
 62
     7
 48
0.016312
100
AcDbLine
 10
482.8066407597792
 20
98.10507962913447
 30
0.0
 11
482.8066407597792
 21
96.80014762913447
 31
0.0
  0
LINE
  5
A9F
330
1F
100
AcDbEntity
  8
0
  6
Continuous
 62
     7
 48
0.001919
100
AcDbLine
 10
487.3066107597793
 20
93.14710162913428
 30
0.0
 11
487.1530767597796
 21
93.14710162913428
 31
0.0
  0
ARC
  5
AA0
330
1F
100
AcDbEntity
  8
0
  6
Continuous
 62
     7
100
AcDbCircle
 10
611.8066407597797
 20
83.64710162913388
 30
0.0
 40
125.199996
100
AcDbArc
 50
175.7332540000007
 51
176.338136
  0
ARC
  5
AA1
330
1F
100
AcDbEntity
  8
0
  6
Continuous
 62
     7
100
AcDbCircle
 10
487.1531667597796
 20
92.94696762913423
 30
0.0
 40
0.20009
100
AcDbArc
 50
90.02886699999937
 51
175.7034609999993
  0
LINE
  5
AA2
330
1F
100
AcDbEntity
  8
0
  6
Continuous
 62
     7
 48
0.003044
100
AcDbLine
 10
486.8622427597797
 20
91.64337962913448
 30
0.0
 11
486.8471667597792
 21
91.40033762913423
 31
0.0
  0
LINE
  5
AA4
330
1F
100
AcDbEntity
  8
0
  6
Continuous
 62
     7
 48
0.016352
100
AcDbLine
 10
486.9587707597794
 20
91.6538476291347
 30
0.0
 11
486.9536127597792
 21
92.96198362913424
 31
0.0
  0
LWPOLYLINE
  5
AA6
330
1F
100
AcDbEntity
  8
0
  6
Continuous
 62
     7
100
AcDbPolyline
 90
        4
 70
     0
 43
0.0
 10
486.8774107597793
 20
90.20069162913449
 10
486.9018847597796
 20
90.51962962913449
 10
486.9466847597797
 20
91.29663762913423
 10
486.9587707597794
 20
91.6538476291347
  0
ARC
  5
AAE
330
1F
100
AcDbEntity
  8
0
  6
Continuous
 62
     7
100
AcDbCircle
 10
486.6066287597792
 20
98.10507962913447
 30
0.0
 40
0.7
100
AcDbArc
 50
269.9999969999988
 51
0.0
  0
ARC
  5
AB4
330
1F
100
AcDbEntity
  8
0
  6
Continuous
 62
     7
100
AcDbCircle
 10
485.3066407597797
 20
93.61499762913451
 30
0.0
 40
2.0
100
AcDbArc
 50
0.347016000000469
 51
83.6598109999989
  0
LINE
  5
AB5
330
1F
100
AcDbEntity
  8
0
  6
Continuous
 62
     7
 48
0.029502
100
AcDbLine
 10
543.1264027597792
 20
90.51389362913425
 30
0.0
 11
543.1264027597792
 21
88.15369362913447
 31
0.0
  0
LINE
  5
AB6
330
1F
100
AcDbEntity
  8
0
  6
Continuous
 62
     7
 48
0.029502
100
AcDbLine
 10
553.4865727597792
 20
90.51389362913425
 30
0.0
 11
553.4865727597792
 21
88.15369362913447
 31
0.0
  0
LINE
  5
AB7
330
1F
100
AcDbEntity
  8
0
  6
Continuous
 62
     7
 48
0.029502
100
AcDbLine
 10
565.4865727597792
 20
90.51389362913425
 30
0.0
 11
565.4865727597792
 21
88.15369362913447
 31
0.0
  0
LINE
  5
AB8
330
1F
100
AcDbEntity
  8
0
  6
Continuous
 62
     7
 48
0.029502
100
AcDbLine
 10
555.1264027597796
 20
90.51389362913425
 30
0.0
 11
555.1264027597796
 21
88.15369362913447
 31
0.0
  0
LINE
  5
AB9
330
1F
100
AcDbEntity
  8
0
  6
Continuous
 62
     7
 48
0.029502
100
AcDbLine
 10
567.1264027597792
 20
90.51389362913425
 30
0.0
 11
567.1264027597792
 21
88.15369362913447
 31
0.0
  0
LINE
  5
ABA
330
1F
100
AcDbEntity
  8
0
  6
Continuous
 62
     7
 48
0.029502
100
AcDbLine
 10
577.4865727597797
 20
90.51389362913425
 30
0.0
 11
577.4865727597797
 21
88.15369362913447
 31
0.0
  0
LINE
  5
ABB
330
1F
100
AcDbEntity
  8
0
  6
Continuous
 62
     7
 48
0.029502
100
AcDbLine
 10
589.4865727597797
 20
90.51389362913425
 30
0.0
 11
589.4865727597797
 21
88.15369362913447
 31
0.0
  0
LINE
  5
ABC
330
1F
100
AcDbEntity
  8
0
  6
Continuous
 62
     7
 48
0.029502
100
AcDbLine
 10
579.1264027597792
 20
90.51389362913425
 30
0.0
 11
579.1264027597792
 21
88.15369362913447
 31
0.0
  0
LINE
  5
ABD
330
1F
100
AcDbEntity
  8
0
  6
Continuous
 62
     7
 48
0.029502
100
AcDbLine
 10
591.1264027597792
 20
90.51389362913425
 30
0.0
 11
591.1264027597792
 21
88.15369362913447
 31
0.0
  0
LINE
  5
AC7
330
1F
100
AcDbEntity
  8
0
  6
Continuous
 62
     7
 48
0.129502
100
AcDbLine
 10
543.1264027597792
 20
88.15369362913447
 30
0.0
 11
553.4865727597792
 21
88.15369362913447
 31
0.0
  0
LINE
  5
AC8
330
1F
100
AcDbEntity
  8
0
  6
Continuous
 62
     7
 48
0.129502
100
AcDbLine
 10
543.1264027597792
 20
86.51389362913409
 30
0.0
 11
553.4865727597792
 21
86.51389362913409
 31
0.0
  0
LINE
  5
AC9
330
1F
100
AcDbEntity
  8
0
  6
Continuous
 62
     7
 48
0.129502
100
AcDbLine
 10
543.1264027597792
 20
84.15369362913446
 30
0.0
 11
553.4865727597792
 21
84.15369362913446
 31
0.0
  0
LINE
  5
ACA
330
1F
100
AcDbEntity
  8
0
  6
Continuous
 62
     7
 48
0.129502
100
AcDbLine
 10
543.1264027597792
 20
82.51389362913448
 30
0.0
 11
553.4865727597792
 21
82.51389362913448
 31
0.0
  0
LINE
  5
ACB
330
1F
100
AcDbEntity
  8
0
  6
Continuous
 62
     7
 48
0.129502
100
AcDbLine
 10
543.1264027597792
 20
80.15369362913446
 30
0.0
 11
553.4865727597792
 21
80.15369362913446
 31
0.0
  0
LINE
  5
AD1
330
1F
100
AcDbEntity
  8
0
  6
Continuous
 62
     7
 48
0.029502
100
AcDbLine
 10
543.1264027597792
 20
86.51389362913409
 30
0.0
 11
543.1264027597792
 21
84.15369362913446
 31
0.0
  0
LINE
  5
AD2
330
1F
100
AcDbEntity
  8
0
  6
Continuous
 62
     7
 48
0.029502
100
AcDbLine
 10
543.1264027597792
 20
82.51389362913448
 30
0.0
 11
543.1264027597792
 21
80.15369362913446
 31
0.0
  0
LINE
  5
ADA
330
1F
100
AcDbEntity
  8
0
  6
Continuous
 62
     7
 48
0.129502
100
AcDbLine
 10
555.1264027597796
 20
88.15369362913447
 30
0.0
 11
565.4865727597792
 21
88.15369362913447
 31
0.0
  0
LINE
  5
ADB
330
1F
100
AcDbEntity
  8
0
  6
Continuous
 62
     7
 48
0.129502
100
AcDbLine
 10
555.1264027597796
 20
86.51389362913409
 30
0.0
 11
565.4865727597792
 21
86.51389362913409
 31
0.0
  0
LINE
  5
ADC
330
1F
100
AcDbEntity
  8
0
  6
Continuous
 62
     7
 48
0.129502
100
AcDbLine
 10
555.1264027597796
 20
84.15369362913446
 30
0.0
 11
565.4865727597792
 21
84.15369362913446
 31
0.0
  0
LINE
  5
ADD
330
1F
100
AcDbEntity
  8
0
  6
Continuous
 62
     7
 48
0.129502
100
AcDbLine
 10
555.1264027597796
 20
82.51389362913448
 30
0.0
 11
565.4865727597792
 21
82.51389362913448
 31
0.0
  0
LINE
  5
ADE
330
1F
100
AcDbEntity
  8
0
  6
Continuous
 62
     7
 48
0.129502
100
AcDbLine
 10
555.1264027597796
 20
80.15369362913446
 30
0.0
 11
565.4865727597792
 21
80.15369362913446
 31
0.0
  0
LINE
  5
AE4
330
1F
100
AcDbEntity
  8
0
  6
Continuous
 62
     7
 48
0.029502
100
AcDbLine
 10
553.4865727597792
 20
86.51389362913409
 30
0.0
 11
553.4865727597792
 21
84.15369362913446
 31
0.0
  0
LINE
  5
AE5
330
1F
100
AcDbEntity
  8
0
  6
Continuous
 62
     7
 48
0.029502
100
AcDbLine
 10
555.1264027597796
 20
86.51389362913409
 30
0.0
 11
555.1264027597796
 21
84.15369362913446
 31
0.0
  0
LINE
  5
AE6
330
1F
100
AcDbEntity
  8
0
  6
Continuous
 62
     7
 48
0.029502
100
AcDbLine
 10
553.4865727597792
 20
82.51389362913448
 30
0.0
 11
553.4865727597792
 21
80.15369362913446
 31
0.0
  0
LINE
  5
AE7
330
1F
100
AcDbEntity
  8
0
  6
Continuous
 62
     7
 48
0.029502
100
AcDbLine
 10
555.1264027597796
 20
82.51389362913448
 30
0.0
 11
555.1264027597796
 21
80.15369362913446
 31
0.0
  0
LINE
  5
AF6
330
1F
100
AcDbEntity
  8
0
  6
Continuous
 62
     7
 48
0.029502
100
AcDbLine
 10
565.4865727597792
 20
86.51389362913409
 30
0.0
 11
565.4865727597792
 21
84.15369362913446
 31
0.0
  0
LINE
  5
AF7
330
1F
100
AcDbEntity
  8
0
  6
Continuous
 62
     7
 48
0.029502
100
AcDbLine
 10
565.4865727597792
 20
82.51389362913448
 30
0.0
 11
565.4865727597792
 21
80.15369362913446
 31
0.0
  0
LINE
  5
AFF
330
1F
100
AcDbEntity
  8
0
  6
Continuous
 62
     7
 48
0.129502
100
AcDbLine
 10
579.1264027597792
 20
88.15369362913447
 30
0.0
 11
589.4865727597797
 21
88.15369362913447
 31
0.0
  0
LINE
  5
B00
330
1F
100
AcDbEntity
  8
0
  6
Continuous
 62
     7
 48
0.129502
100
AcDbLine
 10
579.1264027597792
 20
84.15369362913446
 30
0.0
 11
589.4865727597797
 21
84.15369362913446
 31
0.0
  0
LINE
  5
B01
330
1F
100
AcDbEntity
  8
0
  6
Continuous
 62
     7
 48
0.129502
100
AcDbLine
 10
579.1264027597792
 20
86.51389362913409
 30
0.0
 11
589.4865727597797
 21
86.51389362913409
 31
0.0
  0
LINE
  5
B02
330
1F
100
AcDbEntity
  8
0
  6
Continuous
 62
     7
 48
0.129502
100
AcDbLine
 10
579.1264027597792
 20
80.15369362913446
 30
0.0
 11
589.4865727597797
 21
80.15369362913446
 31
0.0
  0
LINE
  5
B03
330
1F
100
AcDbEntity
  8
0
  6
Continuous
 62
     7
 48
0.129502
100
AcDbLine
 10
579.1264027597792
 20
82.51389362913448
 30
0.0
 11
589.4865727597797
 21
82.51389362913448
 31
0.0
  0
LINE
  5
B09
330
1F
100
AcDbEntity
  8
0
  6
Continuous
 62
     7
 48
0.129502
100
AcDbLine
 10
567.1264027597792
 20
88.15369362913447
 30
0.0
 11
577.4865727597797
 21
88.15369362913447
 31
0.0
  0
LINE
  5
B0A
330
1F
100
AcDbEntity
  8
0
  6
Continuous
 62
     7
 48
0.129502
100
AcDbLine
 10
567.1264027597792
 20
86.51389362913409
 30
0.0
 11
577.4865727597797
 21
86.51389362913409
 31
0.0
  0
LINE
  5
B0B
330
1F
100
AcDbEntity
  8
0
  6
Continuous
 62
     7
 48
0.129502
100
AcDbLine
 10
567.1264027597792
 20
84.15369362913446
 30
0.0
 11
577.4865727597797
 21
84.15369362913446
 31
0.0
  0
LINE
  5
B0C
330
1F
100
AcDbEntity
  8
0
  6
Continuous
 62
     7
 48
0.129502
100
AcDbLine
 10
567.1264027597792
 20
82.51389362913448
 30
0.0
 11
577.4865727597797
 21
82.51389362913448
 31
0.0
  0
LINE
  5
B0D
330
1F
100
AcDbEntity
  8
0
  6
Continuous
 62
     7
 48
0.129502
100
AcDbLine
 10
567.1264027597792
 20
80.15369362913446
 30
0.0
 11
577.4865727597797
 21
80.15369362913446
 31
0.0
  0
LINE
  5
B13
330
1F
100
AcDbEntity
  8
0
  6
Continuous
 62
     7
 48
0.029502
100
AcDbLine
 10
567.1264027597792
 20
86.51389362913409
 30
0.0
 11
567.1264027597792
 21
84.15369362913446
 31
0.0
  0
LINE
  5
B14
330
1F
100
AcDbEntity
  8
0
  6
Continuous
 62
     7
 48
0.029502
100
AcDbLine
 10
567.1264027597792
 20
82.51389362913448
 30
0.0
 11
567.1264027597792
 21
80.15369362913446
 31
0.0
  0
LINE
  5
B1C
330
1F
100
AcDbEntity
  8
0
  6
Continuous
 62
     7
 48
0.029502
100
AcDbLine
 10
577.4865727597797
 20
86.51389362913409
 30
0.0
 11
577.4865727597797
 21
84.15369362913446
 31
0.0
  0
LINE
  5
B1D
330
1F
100
AcDbEntity
  8
0
  6
Continuous
 62
     7
 48
0.029502
100
AcDbLine
 10
579.1264027597792
 20
86.51389362913409
 30
0.0
 11
579.1264027597792
 21
84.15369362913446
 31
0.0
  0
LINE
  5
B1E
330
1F
100
AcDbEntity
  8
0
  6
Continuous
 62
     7
 48
0.029502
100
AcDbLine
 10
577.4865727597797
 20
82.51389362913448
 30
0.0
 11
577.4865727597797
 21
80.15369362913446
 31
0.0
  0
LINE
  5
B1F
330
1F
100
AcDbEntity
  8
0
  6
Continuous
 62
     7
 48
0.029502
100
AcDbLine
 10
579.1264027597792
 20
82.51389362913448
 30
0.0
 11
579.1264027597792
 21
80.15369362913446
 31
0.0
  0
LINE
  5
B2E
330
1F
100
AcDbEntity
  8
0
  6
Continuous
 62
     7
 48
0.029502
100
AcDbLine
 10
589.4865727597797
 20
86.51389362913409
 30
0.0
 11
589.4865727597797
 21
84.15369362913446
 31
0.0
  0
LINE
  5
B2F
330
1F
100
AcDbEntity
  8
0
  6
Continuous
 62
     7
 48
0.029502
100
AcDbLine
 10
589.4865727597797
 20
82.51389362913448
 30
0.0
 11
589.4865727597797
 21
80.15369362913446
 31
0.0
  0
LINE
  5
B37
330
1F
100
AcDbEntity
  8
0
  6
Continuous
 62
     7
 48
0.029502
100
AcDbLine
 10
591.1264027597792
 20
86.51389362913409
 30
0.0
 11
591.1264027597792
 21
84.15369362913446
 31
0.0
  0
LINE
  5
B38
330
1F
100
AcDbEntity
  8
0
  6
Continuous
 62
     7
 48
0.029502
100
AcDbLine
 10
591.1264027597792
 20
82.51389362913448
 30
0.0
 11
591.1264027597792
 21
80.15369362913446
 31
0.0
  0
LINE
  5
B40
330
1F
100
AcDbEntity
  8
0
  6
Continuous
 62
     7
 48
0.129502
100
AcDbLine
 10
543.1264027597792
 20
94.51389362913408
 30
0.0
 11
553.4865727597792
 21
94.51389362913408
 31
0.0
  0
LINE
  5
B41
330
1F
100
AcDbEntity
  8
0
  6
Continuous
 62
     7
 48
0.129502
100
AcDbLine
 10
543.1264027597792
 20
92.15369362913447
 30
0.0
 11
553.4865727597792
 21
92.15369362913447
 31
0.0
  0
LINE
  5
B42
330
1F
100
AcDbEntity
  8
0
  6
Continuous
 62
     7
 48
0.129502
100
AcDbLine
 10
543.1264027597792
 20
90.51389362913425
 30
0.0
 11
553.4865727597792
 21
90.51389362913425
 31
0.0
  0
LINE
  5
B44
330
1F
100
AcDbEntity
  8
0
  6
Continuous
 62
     7
 48
0.129502
100
AcDbLine
 10
543.1264027597792
 20
110.513893629134
 30
0.0
 11
553.4865727597792
 21
110.513893629134
 31
0.0
  0
LINE
  5
B45
330
1F
100
AcDbEntity
  8
0
  6
Continuous
 62
     7
 48
0.129502
100
AcDbLine
 10
543.1264027597792
 20
108.1536936291342
 30
0.0
 11
553.4865727597792
 21
108.1536936291342
 31
0.0
  0
LINE
  5
B46
330
1F
100
AcDbEntity
  8
0
  6
Continuous
 62
     7
 48
0.129502
100
AcDbLine
 10
543.1264027597792
 20
106.5138936291344
 30
0.0
 11
553.4865727597792
 21
106.5138936291344
 31
0.0
  0
LINE
  5
B47
330
1F
100
AcDbEntity
  8
0
  6
Continuous
 62
     7
 48
0.129502
100
AcDbLine
 10
543.1264027597792
 20
104.1536936291342
 30
0.0
 11
553.4865727597792
 21
104.1536936291342
 31
0.0
  0
LINE
  5
B48
330
1F
100
AcDbEntity
  8
0
  6
Continuous
 62
     7
 48
0.129502
100
AcDbLine
 10
543.1264027597792
 20
102.5138936291344
 30
0.0
 11
553.4865727597792
 21
102.5138936291344
 31
0.0
  0
LINE
  5
B49
330
1F
100
AcDbEntity
  8
0
  6
Continuous
 62
     7
 48
0.129502
100
AcDbLine
 10
543.1264027597792
 20
100.1536936291344
 30
0.0
 11
553.4865727597792
 21
100.1536936291344
 31
0.0
  0
LINE
  5
B4A
330
1F
100
AcDbEntity
  8
0
  6
Continuous
 62
     7
 48
0.129502
100
AcDbLine
 10
543.1264027597792
 20
98.51389362913426
 30
0.0
 11
553.4865727597792
 21
98.51389362913426
 31
0.0
  0
LINE
  5
B4B
330
1F
100
AcDbEntity
  8
0
  6
Continuous
 62
     7
 48
0.129502
100
AcDbLine
 10
543.1264027597792
 20
96.15369362913448
 30
0.0
 11
553.4865727597792
 21
96.15369362913448
 31
0.0
  0
LINE
  5
B56
330
1F
100
AcDbEntity
  8
0
  6
Continuous
 62
     7
 48
0.029502
100
AcDbLine
 10
543.1264027597792
 20
102.5138936291344
 30
0.0
 11
543.1264027597792
 21
100.1536936291344
 31
0.0
  0
LINE
  5
B58
330
1F
100
AcDbEntity
  8
0
  6
Continuous
 62
     7
 48
0.029502
100
AcDbLine
 10
543.1264027597792
 20
94.51389362913408
 30
0.0
 11
543.1264027597792
 21
92.15369362913447
 31
0.0
  0
LINE
  5
B5A
330
1F
100
AcDbEntity
  8
0
  6
Continuous
 62
     7
 48
0.029502
100
AcDbLine
 10
543.1264027597792
 20
98.51389362913426
 30
0.0
 11
543.1264027597792
 21
96.15369362913448
 31
0.0
  0
LINE
  5
B62
330
1F
100
AcDbEntity
  8
0
  6
Continuous
 62
     7
 48
0.029502
100
AcDbLine
 10
543.1264027597792
 20
110.513893629134
 30
0.0
 11
543.1264027597792
 21
108.1536936291342
 31
0.0
  0
LINE
  5
B63
330
1F
100
AcDbEntity
  8
0
  6
Continuous
 62
     7
 48
0.029502
100
AcDbLine
 10
543.1264027597792
 20
106.5138936291344
 30
0.0
 11
543.1264027597792
 21
104.1536936291342
 31
0.0
  0
LINE
  5
B6B
330
1F
100
AcDbEntity
  8
0
  6
Continuous
 62
     7
 48
0.029502
100
AcDbLine
 10
553.4865727597792
 20
102.5138936291344
 30
0.0
 11
553.4865727597792
 21
100.1536936291344
 31
0.0
  0
LINE
  5
B6C
330
1F
100
AcDbEntity
  8
0
  6
Continuous
 62
     7
 48
0.029502
100
AcDbLine
 10
565.4865727597792
 20
102.5138936291344
 30
0.0
 11
565.4865727597792
 21
100.1536936291344
 31
0.0
  0
LINE
  5
B6D
330
1F
100
AcDbEntity
  8
0
  6
Continuous
 62
     7
 48
0.029502
100
AcDbLine
 10
555.1264027597796
 20
102.5138936291344
 30
0.0
 11
555.1264027597796
 21
100.1536936291344
 31
0.0
  0
LINE
  5
B71
330
1F
100
AcDbEntity
  8
0
  6
Continuous
 62
     7
 48
0.129502
100
AcDbLine
 10
555.1264027597796
 20
94.51389362913408
 30
0.0
 11
565.4865727597792
 21
94.51389362913408
 31
0.0
  0
LINE
  5
B72
330
1F
100
AcDbEntity
  8
0
  6
Continuous
 62
     7
 48
0.129502
100
AcDbLine
 10
555.1264027597796
 20
92.15369362913447
 30
0.0
 11
565.4865727597792
 21
92.15369362913447
 31
0.0
  0
LINE
  5
B73
330
1F
100
AcDbEntity
  8
0
  6
Continuous
 62
     7
 48
0.129502
100
AcDbLine
 10
555.1264027597796
 20
90.51389362913425
 30
0.0
 11
565.4865727597792
 21
90.51389362913425
 31
0.0
  0
LINE
  5
B75
330
1F
100
AcDbEntity
  8
0
  6
Continuous
 62
     7
 48
0.129502
100
AcDbLine
 10
555.1264027597796
 20
100.1536936291344
 30
0.0
 11
565.4865727597792
 21
100.1536936291344
 31
0.0
  0
LINE
  5
B76
330
1F
100
AcDbEntity
  8
0
  6
Continuous
 62
     7
 48
0.129502
100
AcDbLine
 10
555.1264027597796
 20
98.51389362913426
 30
0.0
 11
565.4865727597792
 21
98.51389362913426
 31
0.0
  0
LINE
  5
B77
330
1F
100
AcDbEntity
  8
0
  6
Continuous
 62
     7
 48
0.129502
100
AcDbLine
 10
555.1264027597796
 20
96.15369362913448
 30
0.0
 11
565.4865727597792
 21
96.15369362913448
 31
0.0
  0
LINE
  5
B7D
330
1F
100
AcDbEntity
  8
0
  6
Continuous
 62
     7
 48
0.029502
100
AcDbLine
 10
553.4865727597792
 20
94.51389362913408
 30
0.0
 11
553.4865727597792
 21
92.15369362913447
 31
0.0
  0
LINE
  5
B7E
330
1F
100
AcDbEntity
  8
0
  6
Continuous
 62
     7
 48
0.029502
100
AcDbLine
 10
555.1264027597796
 20
94.51389362913408
 30
0.0
 11
555.1264027597796
 21
92.15369362913447
 31
0.0
  0
LINE
  5
B81
330
1F
100
AcDbEntity
  8
0
  6
Continuous
 62
     7
 48
0.029502
100
AcDbLine
 10
553.4865727597792
 20
98.51389362913426
 30
0.0
 11
553.4865727597792
 21
96.15369362913448
 31
0.0
  0
LINE
  5
B82
330
1F
100
AcDbEntity
  8
0
  6
Continuous
 62
     7
 48
0.029502
100
AcDbLine
 10
555.1264027597796
 20
98.51389362913426
 30
0.0
 11
555.1264027597796
 21
96.15369362913448
 31
0.0
  0
LINE
  5
B91
330
1F
100
AcDbEntity
  8
0
  6
Continuous
 62
     7
 48
0.029502
100
AcDbLine
 10
565.4865727597792
 20
94.51389362913408
 30
0.0
 11
565.4865727597792
 21
92.15369362913447
 31
0.0
  0
LINE
  5
B93
330
1F
100
AcDbEntity
  8
0
  6
Continuous
 62
     7
 48
0.029502
100
AcDbLine
 10
565.4865727597792
 20
98.51389362913426
 30
0.0
 11
565.4865727597792
 21
96.15369362913448
 31
0.0
  0
LINE
  5
B9B
330
1F
100
AcDbEntity
  8
0
  6
Continuous
 62
     7
 48
0.129502
100
AcDbLine
 10
555.1264027597796
 20
110.513893629134
 30
0.0
 11
565.4865727597792
 21
110.513893629134
 31
0.0
  0
LINE
  5
B9C
330
1F
100
AcDbEntity
  8
0
  6
Continuous
 62
     7
 48
0.129502
100
AcDbLine
 10
555.1264027597796
 20
108.1536936291342
 30
0.0
 11
565.4865727597792
 21
108.1536936291342
 31
0.0
  0
LINE
  5
B9D
330
1F
100
AcDbEntity
  8
0
  6
Continuous
 62
     7
 48
0.129502
100
AcDbLine
 10
555.1264027597796
 20
106.5138936291344
 30
0.0
 11
565.4865727597792
 21
106.5138936291344
 31
0.0
  0
LINE
  5
B9E
330
1F
100
AcDbEntity
  8
0
  6
Continuous
 62
     7
 48
0.129502
100
AcDbLine
 10
555.1264027597796
 20
104.1536936291342
 30
0.0
 11
565.4865727597792
 21
104.1536936291342
 31
0.0
  0
LINE
  5
B9F
330
1F
100
AcDbEntity
  8
0
  6
Continuous
 62
     7
 48
0.129502
100
AcDbLine
 10
555.1264027597796
 20
102.5138936291344
 30
0.0
 11
565.4865727597792
 21
102.5138936291344
 31
0.0
  0
LINE
  5
BA5
330
1F
100
AcDbEntity
  8
0
  6
Continuous
 62
     7
 48
0.029502
100
AcDbLine
 10
553.4865727597792
 20
110.513893629134
 30
0.0
 11
553.4865727597792
 21
108.1536936291342
 31
0.0
  0
LINE
  5
BA6
330
1F
100
AcDbEntity
  8
0
  6
Continuous
 62
     7
 48
0.029502
100
AcDbLine
 10
555.1264027597796
 20
110.513893629134
 30
0.0
 11
555.1264027597796
 21
108.1536936291342
 31
0.0
  0
LINE
  5
BA7
330
1F
100
AcDbEntity
  8
0
  6
Continuous
 62
     7
 48
0.029502
100
AcDbLine
 10
553.4865727597792
 20
106.5138936291344
 30
0.0
 11
553.4865727597792
 21
104.1536936291342
 31
0.0
  0
LINE
  5
BA8
330
1F
100
AcDbEntity
  8
0
  6
Continuous
 62
     7
 48
0.029502
100
AcDbLine
 10
555.1264027597796
 20
106.5138936291344
 30
0.0
 11
555.1264027597796
 21
104.1536936291342
 31
0.0
  0
LINE
  5
BB7
330
1F
100
AcDbEntity
  8
0
  6
Continuous
 62
     7
 48
0.029502
100
AcDbLine
 10
565.4865727597792
 20
110.513893629134
 30
0.0
 11
565.4865727597792
 21
108.1536936291342
 31
0.0
  0
LINE
  5
BB8
330
1F
100
AcDbEntity
  8
0
  6
Continuous
 62
     7
 48
0.029502
100
AcDbLine
 10
565.4865727597792
 20
106.5138936291344
 30
0.0
 11
565.4865727597792
 21
104.1536936291342
 31
0.0
  0
LINE
  5
BC0
330
1F
100
AcDbEntity
  8
0
  6
Continuous
 62
     7
 48
0.129502
100
AcDbLine
 10
579.1264027597792
 20
92.15369362913447
 30
0.0
 11
589.4865727597797
 21
92.15369362913447
 31
0.0
  0
LINE
  5
BC1
330
1F
100
AcDbEntity
  8
0
  6
Continuous
 62
     7
 48
0.129502
100
AcDbLine
 10
579.1264027597792
 20
94.51389362913408
 30
0.0
 11
589.4865727597797
 21
94.51389362913408
 31
0.0
  0
LINE
  5
BC2
330
1F
100
AcDbEntity
  8
0
  6
Continuous
 62
     7
 48
0.129502
100
AcDbLine
 10
579.1264027597792
 20
90.51389362913425
 30
0.0
 11
589.4865727597797
 21
90.51389362913425
 31
0.0
  0
LINE
  5
BC4
330
1F
100
AcDbEntity
  8
0
  6
Continuous
 62
     7
 48
0.129502
100
AcDbLine
 10
579.1264027597792
 20
108.1536936291342
 30
0.0
 11
589.4865727597797
 21
108.1536936291342
 31
0.0
  0
LINE
  5
BC5
330
1F
100
AcDbEntity
  8
0
  6
Continuous
 62
     7
 48
0.129502
100
AcDbLine
 10
579.1264027597792
 20
110.513893629134
 30
0.0
 11
589.4865727597797
 21
110.513893629134
 31
0.0
  0
LINE
  5
BC6
330
1F
100
AcDbEntity
  8
0
  6
Continuous
 62
     7
 48
0.129502
100
AcDbLine
 10
579.1264027597792
 20
104.1536936291342
 30
0.0
 11
589.4865727597797
 21
104.1536936291342
 31
0.0
  0
LINE
  5
BC7
330
1F
100
AcDbEntity
  8
0
  6
Continuous
 62
     7
 48
0.129502
100
AcDbLine
 10
579.1264027597792
 20
106.5138936291344
 30
0.0
 11
589.4865727597797
 21
106.5138936291344
 31
0.0
  0
LINE
  5
BC8
330
1F
100
AcDbEntity
  8
0
  6
Continuous
 62
     7
 48
0.129502
100
AcDbLine
 10
579.1264027597792
 20
100.1536936291344
 30
0.0
 11
589.4865727597797
 21
100.1536936291344
 31
0.0
  0
LINE
  5
BC9
330
1F
100
AcDbEntity
  8
0
  6
Continuous
 62
     7
 48
0.129502
100
AcDbLine
 10
579.1264027597792
 20
102.5138936291344
 30
0.0
 11
589.4865727597797
 21
102.5138936291344
 31
0.0
  0
LINE
  5
BCA
330
1F
100
AcDbEntity
  8
0
  6
Continuous
 62
     7
 48
0.129502
100
AcDbLine
 10
579.1264027597792
 20
96.15369362913448
 30
0.0
 11
589.4865727597797
 21
96.15369362913448
 31
0.0
  0
LINE
  5
BCB
330
1F
100
AcDbEntity
  8
0
  6
Continuous
 62
     7
 48
0.129502
100
AcDbLine
 10
579.1264027597792
 20
98.51389362913426
 30
0.0
 11
589.4865727597797
 21
98.51389362913426
 31
0.0
  0
LINE
  5
BD6
330
1F
100
AcDbEntity
  8
0
  6
Continuous
 62
     7
 48
0.029502
100
AcDbLine
 10
567.1264027597792
 20
102.5138936291344
 30
0.0
 11
567.1264027597792
 21
100.1536936291344
 31
0.0
  0
LINE
  5
BD7
330
1F
100
AcDbEntity
  8
0
  6
Continuous
 62
     7
 48
0.029502
100
AcDbLine
 10
577.4865727597797
 20
102.5138936291344
 30
0.0
 11
577.4865727597797
 21
100.1536936291344
 31
0.0
  0
LINE
  5
BD8
330
1F
100
AcDbEntity
  8
0
  6
Continuous
 62
     7
 48
0.029502
100
AcDbLine
 10
579.1264027597792
 20
102.5138936291344
 30
0.0
 11
579.1264027597792
 21
100.1536936291344
 31
0.0
  0
LINE
  5
BDC
330
1F
100
AcDbEntity
  8
0
  6
Continuous
 62
     7
 48
0.129502
100
AcDbLine
 10
567.1264027597792
 20
94.51389362913408
 30
0.0
 11
577.4865727597797
 21
94.51389362913408
 31
0.0
  0
LINE
  5
BDD
330
1F
100
AcDbEntity
  8
0
  6
Continuous
 62
     7
 48
0.129502
100
AcDbLine
 10
567.1264027597792
 20
92.15369362913447
 30
0.0
 11
577.4865727597797
 21
92.15369362913447
 31
0.0
  0
LINE
  5
BDE
330
1F
100
AcDbEntity
  8
0
  6
Continuous
 62
     7
 48
0.129502
100
AcDbLine
 10
567.1264027597792
 20
90.51389362913425
 30
0.0
 11
577.4865727597797
 21
90.51389362913425
 31
0.0
  0
LINE
  5
BE0
330
1F
100
AcDbEntity
  8
0
  6
Continuous
 62
     7
 48
0.129502
100
AcDbLine
 10
567.1264027597792
 20
100.1536936291344
 30
0.0
 11
577.4865727597797
 21
100.1536936291344
 31
0.0
  0
LINE
  5
BE1
330
1F
100
AcDbEntity
  8
0
  6
Continuous
 62
     7
 48
0.129502
100
AcDbLine
 10
567.1264027597792
 20
98.51389362913426
 30
0.0
 11
577.4865727597797
 21
98.51389362913426
 31
0.0
  0
LINE
  5
BE2
330
1F
100
AcDbEntity
  8
0
  6
Continuous
 62
     7
 48
0.129502
100
AcDbLine
 10
567.1264027597792
 20
96.15369362913448
 30
0.0
 11
577.4865727597797
 21
96.15369362913448
 31
0.0
  0
LINE
  5
BE8
330
1F
100
AcDbEntity
  8
0
  6
Continuous
 62
     7
 48
0.029502
100
AcDbLine
 10
567.1264027597792
 20
94.51389362913408
 30
0.0
 11
567.1264027597792
 21
92.15369362913447
 31
0.0
  0
LINE
  5
BEA
330
1F
100
AcDbEntity
  8
0
  6
Continuous
 62
     7
 48
0.029502
100
AcDbLine
 10
567.1264027597792
 20
98.51389362913426
 30
0.0
 11
567.1264027597792
 21
96.15369362913448
 31
0.0
  0
LINE
  5
BF2
330
1F
100
AcDbEntity
  8
0
  6
Continuous
 62
     7
 48
0.029502
100
AcDbLine
 10
577.4865727597797
 20
94.51389362913408
 30
0.0
 11
577.4865727597797
 21
92.15369362913447
 31
0.0
  0
LINE
  5
BF3
330
1F
100
AcDbEntity
  8
0
  6
Continuous
 62
     7
 48
0.029502
100
AcDbLine
 10
579.1264027597792
 20
94.51389362913408
 30
0.0
 11
579.1264027597792
 21
92.15369362913447
 31
0.0
  0
LINE
  5
BF6
330
1F
100
AcDbEntity
  8
0
  6
Continuous
 62
     7
 48
0.029502
100
AcDbLine
 10
577.4865727597797
 20
98.51389362913426
 30
0.0
 11
577.4865727597797
 21
96.15369362913448
 31
0.0
  0
LINE
  5
BF7
330
1F
100
AcDbEntity
  8
0
  6
Continuous
 62
     7
 48
0.029502
100
AcDbLine
 10
579.1264027597792
 20
98.51389362913426
 30
0.0
 11
579.1264027597792
 21
96.15369362913448
 31
0.0
  0
LINE
  5
C06
330
1F
100
AcDbEntity
  8
0
  6
Continuous
 62
     7
 48
0.129502
100
AcDbLine
 10
567.1264027597792
 20
110.513893629134
 30
0.0
 11
577.4865727597797
 21
110.513893629134
 31
0.0
  0
LINE
  5
C07
330
1F
100
AcDbEntity
  8
0
  6
Continuous
 62
     7
 48
0.129502
100
AcDbLine
 10
567.1264027597792
 20
108.1536936291342
 30
0.0
 11
577.4865727597797
 21
108.1536936291342
 31
0.0
  0
LINE
  5
C08
330
1F
100
AcDbEntity
  8
0
  6
Continuous
 62
     7
 48
0.129502
100
AcDbLine
 10
567.1264027597792
 20
106.5138936291344
 30
0.0
 11
577.4865727597797
 21
106.5138936291344
 31
0.0
  0
LINE
  5
C09
330
1F
100
AcDbEntity
  8
0
  6
Continuous
 62
     7
 48
0.129502
100
AcDbLine
 10
567.1264027597792
 20
104.1536936291342
 30
0.0
 11
577.4865727597797
 21
104.1536936291342
 31
0.0
  0
LINE
  5
C0A
330
1F
100
AcDbEntity
  8
0
  6
Continuous
 62
     7
 48
0.129502
100
AcDbLine
 10
567.1264027597792
 20
102.5138936291344
 30
0.0
 11
577.4865727597797
 21
102.5138936291344
 31
0.0
  0
LINE
  5
C10
330
1F
100
AcDbEntity
  8
0
  6
Continuous
 62
     7
 48
0.029502
100
AcDbLine
 10
567.1264027597792
 20
110.513893629134
 30
0.0
 11
567.1264027597792
 21
108.1536936291342
 31
0.0
  0
LINE
  5
C11
330
1F
100
AcDbEntity
  8
0
  6
Continuous
 62
     7
 48
0.029502
100
AcDbLine
 10
567.1264027597792
 20
106.5138936291344
 30
0.0
 11
567.1264027597792
 21
104.1536936291342
 31
0.0
  0
LINE
  5
C19
330
1F
100
AcDbEntity
  8
0
  6
Continuous
 62
     7
 48
0.029502
100
AcDbLine
 10
577.4865727597797
 20
110.513893629134
 30
0.0
 11
577.4865727597797
 21
108.1536936291342
 31
0.0
  0
LINE
  5
C1A
330
1F
100
AcDbEntity
  8
0
  6
Continuous
 62
     7
 48
0.029502
100
AcDbLine
 10
579.1264027597792
 20
110.513893629134
 30
0.0
 11
579.1264027597792
 21
108.1536936291342
 31
0.0
  0
LINE
  5
C1B
330
1F
100
AcDbEntity
  8
0
  6
Continuous
 62
     7
 48
0.029502
100
AcDbLine
 10
577.4865727597797
 20
106.5138936291344
 30
0.0
 11
577.4865727597797
 21
104.1536936291342
 31
0.0
  0
LINE
  5
C1C
330
1F
100
AcDbEntity
  8
0
  6
Continuous
 62
     7
 48
0.029502
100
AcDbLine
 10
579.1264027597792
 20
106.5138936291344
 30
0.0
 11
579.1264027597792
 21
104.1536936291342
 31
0.0
  0
LINE
  5
C2B
330
1F
100
AcDbEntity
  8
0
  6
Continuous
 62
     7
 48
0.029502
100
AcDbLine
 10
589.4865727597797
 20
102.5138936291344
 30
0.0
 11
589.4865727597797
 21
100.1536936291344
 31
0.0
  0
LINE
  5
C2C
330
1F
100
AcDbEntity
  8
0
  6
Continuous
 62
     7
 48
0.029502
100
AcDbLine
 10
591.1264027597792
 20
102.5138936291344
 30
0.0
 11
591.1264027597792
 21
100.1536936291344
 31
0.0
  0
LINE
  5
C2F
330
1F
100
AcDbEntity
  8
0
  6
Continuous
 62
     7
 48
0.029502
100
AcDbLine
 10
589.4865727597797
 20
94.51389362913408
 30
0.0
 11
589.4865727597797
 21
92.15369362913447
 31
0.0
  0
LINE
  5
C31
330
1F
100
AcDbEntity
  8
0
  6
Continuous
 62
     7
 48
0.029502
100
AcDbLine
 10
589.4865727597797
 20
98.51389362913426
 30
0.0
 11
589.4865727597797
 21
96.15369362913448
 31
0.0
  0
LINE
  5
C39
330
1F
100
AcDbEntity
  8
0
  6
Continuous
 62
     7
 48
0.029502
100
AcDbLine
 10
591.1264027597792
 20
94.51389362913408
 30
0.0
 11
591.1264027597792
 21
92.15369362913447
 31
0.0
  0
LINE
  5
C3B
330
1F
100
AcDbEntity
  8
0
  6
Continuous
 62
     7
 48
0.029502
100
AcDbLine
 10
591.1264027597792
 20
98.51389362913426
 30
0.0
 11
591.1264027597792
 21
96.15369362913448
 31
0.0
  0
LINE
  5
C43
330
1F
100
AcDbEntity
  8
0
  6
Continuous
 62
     7
 48
0.029502
100
AcDbLine
 10
589.4865727597797
 20
110.513893629134
 30
0.0
 11
589.4865727597797
 21
108.1536936291342
 31
0.0
  0
LINE
  5
C44
330
1F
100
AcDbEntity
  8
0
  6
Continuous
 62
     7
 48
0.029502
100
AcDbLine
 10
589.4865727597797
 20
106.5138936291344
 30
0.0
 11
589.4865727597797
 21
104.1536936291342
 31
0.0
  0
LINE
  5
C4C
330
1F
100
AcDbEntity
  8
0
  6
Continuous
 62
     7
 48
0.029502
100
AcDbLine
 10
591.1264027597792
 20
110.513893629134
 30
0.0
 11
591.1264027597792
 21
108.1536936291342
 31
0.0
  0
LINE
  5
C4D
330
1F
100
AcDbEntity
  8
0
  6
Continuous
 62
     7
 48
0.029502
100
AcDbLine
 10
591.1264027597792
 20
106.5138936291344
 30
0.0
 11
591.1264027597792
 21
104.1536936291342
 31
0.0
  0
LINE
  5
C56
330
1F
100
AcDbEntity
  8
0
  6
Continuous
 62
     7
 48
0.06875
100
AcDbLine
 10
495.806640759779
 20
209.3338696291345
 30
0.0
 11
490.3066407597797
 21
209.3338696291345
 31
0.0
  0
ARC
  5
C57
330
1F
100
AcDbEntity
  8
0
  6
Continuous
 62
     7
100
AcDbCircle
 10
490.3066407597797
 20
206.3338696291345
 30
0.0
 40
3.0
100
AcDbArc
 50
90.00000300000095
 51
180.0000050000005
  0
ARC
  5
C5A
330
1F
100
AcDbEntity
  8
0
  6
Continuous
 62
     7
100
AcDbCircle
 10
499.9066167597792
 20
208.033789629134
 30
0.0
 40
0.3
100
AcDbArc
 50
0.0
 51
90.00000300000095
  0
LINE
  5
C5C
330
1F
100
AcDbEntity
  8
0
  6
Continuous
 62
     7
 48
0.00125
100
AcDbLine
 10
499.8066407597792
 20
208.333777629134
 30
0.0
 11
499.9066167597792
 21
208.333777629134
 31
0.0
  0
LINE
  5
C5D
330
1F
100
AcDbEntity
  8
0
  6
Continuous
 62
     7
 48
0.05
100
AcDbLine
 10
495.806640759779
 20
209.333777629134
 30
0.0
 11
499.8066407597792
 21
209.333777629134
 31
0.0
  0
LINE
  5
C60
330
1F
100
AcDbEntity
  8
0
  6
Continuous
 62
     7
 48
0.029502
100
AcDbLine
 10
543.1264027597792
 20
182.5138936291345
 30
0.0
 11
543.1264027597792
 21
180.1536936291345
 31
0.0
  0
LINE
  5
C61
330
1F
100
AcDbEntity
  8
0
  6
Continuous
 62
     7
 48
0.029502
100
AcDbLine
 10
553.4865727597792
 20
182.5138936291345
 30
0.0
 11
553.4865727597792
 21
180.1536936291345
 31
0.0
  0
LINE
  5
C62
330
1F
100
AcDbEntity
  8
0
  6
Continuous
 62
     7
 48
0.029502
100
AcDbLine
 10
555.1264027597796
 20
182.5138936291345
 30
0.0
 11
555.1264027597796
 21
180.1536936291345
 31
0.0
  0
LINE
  5
C63
330
1F
100
AcDbEntity
  8
0
  6
Continuous
 62
     7
 48
0.029502
100
AcDbLine
 10
565.4865727597792
 20
182.5138936291345
 30
0.0
 11
565.4865727597792
 21
180.1536936291345
 31
0.0
  0
LINE
  5
C64
330
1F
100
AcDbEntity
  8
0
  6
Continuous
 62
     7
 48
0.029502
100
AcDbLine
 10
567.1264027597792
 20
182.5138936291345
 30
0.0
 11
567.1264027597792
 21
180.1536936291345
 31
0.0
  0
LINE
  5
C65
330
1F
100
AcDbEntity
  8
0
  6
Continuous
 62
     7
 48
0.029502
100
AcDbLine
 10
577.4865727597797
 20
182.5138936291345
 30
0.0
 11
577.4865727597797
 21
180.1536936291345
 31
0.0
  0
LINE
  5
C66
330
1F
100
AcDbEntity
  8
0
  6
Continuous
 62
     7
 48
0.029502
100
AcDbLine
 10
589.4865727597797
 20
182.5138936291345
 30
0.0
 11
589.4865727597797
 21
180.1536936291345
 31
0.0
  0
LINE
  5
C67
330
1F
100
AcDbEntity
  8
0
  6
Continuous
 62
     7
 48
0.029502
100
AcDbLine
 10
579.1264027597792
 20
182.5138936291345
 30
0.0
 11
579.1264027597792
 21
180.1536936291345
 31
0.0
  0
LINE
  5
C68
330
1F
100
AcDbEntity
  8
0
  6
Continuous
 62
     7
 48
0.029502
100
AcDbLine
 10
591.1264027597792
 20
182.5138936291345
 30
0.0
 11
591.1264027597792
 21
180.1536936291345
 31
0.0
  0
LINE
  5
C72
330
1F
100
AcDbEntity
  8
0
  6
Continuous
 62
     7
 48
0.129502
100
AcDbLine
 10
543.1264027597792
 20
174.5138936291345
 30
0.0
 11
553.4865727597792
 21
174.5138936291345
 31
0.0
  0
LINE
  5
C73
330
1F
100
AcDbEntity
  8
0
  6
Continuous
 62
     7
 48
0.129502
100
AcDbLine
 10
543.1264027597792
 20
172.1536936291345
 30
0.0
 11
553.4865727597792
 21
172.1536936291345
 31
0.0
  0
LINE
  5
C74
330
1F
100
AcDbEntity
  8
0
  6
Continuous
 62
     7
 48
0.129502
100
AcDbLine
 10
543.1264027597792
 20
170.5138936291345
 30
0.0
 11
553.4865727597792
 21
170.5138936291345
 31
0.0
  0
LINE
  5
C75
330
1F
100
AcDbEntity
  8
0
  6
Continuous
 62
     7
 48
0.129502
100
AcDbLine
 10
543.1264027597792
 20
168.153693629134
 30
0.0
 11
553.4865727597792
 21
168.153693629134
 31
0.0
  0
LINE
  5
C76
330
1F
100
AcDbEntity
  8
0
  6
Continuous
 62
     7
 48
0.129502
100
AcDbLine
 10
543.1264027597792
 20
166.5138936291345
 30
0.0
 11
553.4865727597792
 21
166.5138936291345
 31
0.0
  0
LINE
  5
C77
330
1F
100
AcDbEntity
  8
0
  6
Continuous
 62
     7
 48
0.129502
100
AcDbLine
 10
543.1264027597792
 20
164.1536936291345
 30
0.0
 11
553.4865727597792
 21
164.1536936291345
 31
0.0
  0
LINE
  5
C7C
330
1F
100
AcDbEntity
  8
0
  6
Continuous
 62
     7
 48
0.129502
100
AcDbLine
 10
543.1264027597792
 20
180.1536936291345
 30
0.0
 11
553.4865727597792
 21
180.1536936291345
 31
0.0
  0
LINE
  5
C7D
330
1F
100
AcDbEntity
  8
0
  6
Continuous
 62
     7
 48
0.129502
100
AcDbLine
 10
543.1264027597792
 20
178.5138936291345
 30
0.0
 11
553.4865727597792
 21
178.5138936291345
 31
0.0
  0
LINE
  5
C7E
330
1F
100
AcDbEntity
  8
0
  6
Continuous
 62
     7
 48
0.129502
100
AcDbLine
 10
543.1264027597792
 20
176.1536936291345
 30
0.0
 11
553.4865727597792
 21
176.1536936291345
 31
0.0
  0
LINE
  5
C84
330
1F
100
AcDbEntity
  8
0
  6
Continuous
 62
     7
 48
0.029502
100
AcDbLine
 10
543.1264027597792
 20
170.5138936291345
 30
0.0
 11
543.1264027597792
 21
168.153693629134
 31
0.0
  0
LINE
  5
C86
330
1F
100
AcDbEntity
  8
0
  6
Continuous
 62
     7
 48
0.029502
100
AcDbLine
 10
543.1264027597792
 20
166.5138936291345
 30
0.0
 11
543.1264027597792
 21
164.1536936291345
 31
0.0
  0
LINE
  5
C8B
330
1F
100
AcDbEntity
  8
0
  6
Continuous
 62
     7
 48
0.029502
100
AcDbLine
 10
543.1264027597792
 20
174.5138936291345
 30
0.0
 11
543.1264027597792
 21
172.1536936291345
 31
0.0
  0
LINE
  5
C8D
330
1F
100
AcDbEntity
  8
0
  6
Continuous
 62
     7
 48
0.029502
100
AcDbLine
 10
543.1264027597792
 20
178.5138936291345
 30
0.0
 11
543.1264027597792
 21
176.1536936291345
 31
0.0
  0
LINE
  5
C95
330
1F
100
AcDbEntity
  8
0
  6
Continuous
 62
     7
 48
0.029502
100
AcDbLine
 10
553.4865727597792
 20
170.5138936291345
 30
0.0
 11
553.4865727597792
 21
168.153693629134
 31
0.0
  0
LINE
  5
C96
330
1F
100
AcDbEntity
  8
0
  6
Continuous
 62
     7
 48
0.029502
100
AcDbLine
 10
555.1264027597796
 20
170.5138936291345
 30
0.0
 11
555.1264027597796
 21
168.153693629134
 31
0.0
  0
LINE
  5
C97
330
1F
100
AcDbEntity
  8
0
  6
Continuous
 62
     7
 48
0.029502
100
AcDbLine
 10
565.4865727597792
 20
170.5138936291345
 30
0.0
 11
565.4865727597792
 21
168.153693629134
 31
0.0
  0
LINE
  5
C9B
330
1F
100
AcDbEntity
  8
0
  6
Continuous
 62
     7
 48
0.129502
100
AcDbLine
 10
555.1264027597796
 20
168.153693629134
 30
0.0
 11
565.4865727597792
 21
168.153693629134
 31
0.0
  0
LINE
  5
C9C
330
1F
100
AcDbEntity
  8
0
  6
Continuous
 62
     7
 48
0.129502
100
AcDbLine
 10
555.1264027597796
 20
166.5138936291345
 30
0.0
 11
565.4865727597792
 21
166.5138936291345
 31
0.0
  0
LINE
  5
C9D
330
1F
100
AcDbEntity
  8
0
  6
Continuous
 62
     7
 48
0.129502
100
AcDbLine
 10
555.1264027597796
 20
164.1536936291345
 30
0.0
 11
565.4865727597792
 21
164.1536936291345
 31
0.0
  0
LINE
  5
CA1
330
1F
100
AcDbEntity
  8
0
  6
Continuous
 62
     7
 48
0.029502
100
AcDbLine
 10
553.4865727597792
 20
166.5138936291345
 30
0.0
 11
553.4865727597792
 21
164.1536936291345
 31
0.0
  0
LINE
  5
CA2
330
1F
100
AcDbEntity
  8
0
  6
Continuous
 62
     7
 48
0.029502
100
AcDbLine
 10
555.1264027597796
 20
166.5138936291345
 30
0.0
 11
555.1264027597796
 21
164.1536936291345
 31
0.0
  0
LINE
  5
CAB
330
1F
100
AcDbEntity
  8
0
  6
Continuous
 62
     7
 48
0.029502
100
AcDbLine
 10
565.4865727597792
 20
166.5138936291345
 30
0.0
 11
565.4865727597792
 21
164.1536936291345
 31
0.0
  0
LINE
  5
CB0
330
1F
100
AcDbEntity
  8
0
  6
Continuous
 62
     7
 48
0.129502
100
AcDbLine
 10
555.1264027597796
 20
176.1536936291345
 30
0.0
 11
565.4865727597792
 21
176.1536936291345
 31
0.0
  0
LINE
  5
CB1
330
1F
100
AcDbEntity
  8
0
  6
Continuous
 62
     7
 48
0.129502
100
AcDbLine
 10
555.1264027597796
 20
174.5138936291345
 30
0.0
 11
565.4865727597792
 21
174.5138936291345
 31
0.0
  0
LINE
  5
CB2
330
1F
100
AcDbEntity
  8
0
  6
Continuous
 62
     7
 48
0.129502
100
AcDbLine
 10
555.1264027597796
 20
172.1536936291345
 30
0.0
 11
565.4865727597792
 21
172.1536936291345
 31
0.0
  0
LINE
  5
CB3
330
1F
100
AcDbEntity
  8
0
  6
Continuous
 62
     7
 48
0.129502
100
AcDbLine
 10
555.1264027597796
 20
170.5138936291345
 30
0.0
 11
565.4865727597792
 21
170.5138936291345
 31
0.0
  0
LINE
  5
CB5
330
1F
100
AcDbEntity
  8
0
  6
Continuous
 62
     7
 48
0.129502
100
AcDbLine
 10
555.1264027597796
 20
180.1536936291345
 30
0.0
 11
565.4865727597792
 21
180.1536936291345
 31
0.0
  0
LINE
  5
CB6
330
1F
100
AcDbEntity
  8
0
  6
Continuous
 62
     7
 48
0.129502
100
AcDbLine
 10
555.1264027597796
 20
178.5138936291345
 30
0.0
 11
565.4865727597792
 21
178.5138936291345
 31
0.0
  0
LINE
  5
CBC
330
1F
100
AcDbEntity
  8
0
  6
Continuous
 62
     7
 48
0.029502
100
AcDbLine
 10
553.4865727597792
 20
174.5138936291345
 30
0.0
 11
553.4865727597792
 21
172.1536936291345
 31
0.0
  0
LINE
  5
CBD
330
1F
100
AcDbEntity
  8
0
  6
Continuous
 62
     7
 48
0.029502
100
AcDbLine
 10
555.1264027597796
 20
174.5138936291345
 30
0.0
 11
555.1264027597796
 21
172.1536936291345
 31
0.0
  0
LINE
  5
CC0
330
1F
100
AcDbEntity
  8
0
  6
Continuous
 62
     7
 48
0.029502
100
AcDbLine
 10
553.4865727597792
 20
178.5138936291345
 30
0.0
 11
553.4865727597792
 21
176.1536936291345
 31
0.0
  0
LINE
  5
CC1
330
1F
100
AcDbEntity
  8
0
  6
Continuous
 62
     7
 48
0.029502
100
AcDbLine
 10
555.1264027597796
 20
178.5138936291345
 30
0.0
 11
555.1264027597796
 21
176.1536936291345
 31
0.0
  0
LINE
  5
CD0
330
1F
100
AcDbEntity
  8
0
  6
Continuous
 62
     7
 48
0.029502
100
AcDbLine
 10
565.4865727597792
 20
174.5138936291345
 30
0.0
 11
565.4865727597792
 21
172.1536936291345
 31
0.0
  0
LINE
  5
CD2
330
1F
100
AcDbEntity
  8
0
  6
Continuous
 62
     7
 48
0.029502
100
AcDbLine
 10
565.4865727597792
 20
178.5138936291345
 30
0.0
 11
565.4865727597792
 21
176.1536936291345
 31
0.0
  0
LINE
  5
CDA
330
1F
100
AcDbEntity
  8
0
  6
Continuous
 62
     7
 48
0.129502
100
AcDbLine
 10
579.1264027597792
 20
178.5138936291345
 30
0.0
 11
589.4865727597797
 21
178.5138936291345
 31
0.0
  0
LINE
  5
CDB
330
1F
100
AcDbEntity
  8
0
  6
Continuous
 62
     7
 48
0.129502
100
AcDbLine
 10
579.1264027597792
 20
176.1536936291345
 30
0.0
 11
589.4865727597797
 21
176.1536936291345
 31
0.0
  0
LINE
  5
CDC
330
1F
100
AcDbEntity
  8
0
  6
Continuous
 62
     7
 48
0.129502
100
AcDbLine
 10
579.1264027597792
 20
174.5138936291345
 30
0.0
 11
589.4865727597797
 21
174.5138936291345
 31
0.0
  0
LINE
  5
CDD
330
1F
100
AcDbEntity
  8
0
  6
Continuous
 62
     7
 48
0.129502
100
AcDbLine
 10
579.1264027597792
 20
172.1536936291345
 30
0.0
 11
589.4865727597797
 21
172.1536936291345
 31
0.0
  0
LINE
  5
CDE
330
1F
100
AcDbEntity
  8
0
  6
Continuous
 62
     7
 48
0.129502
100
AcDbLine
 10
579.1264027597792
 20
170.5138936291345
 30
0.0
 11
589.4865727597797
 21
170.5138936291345
 31
0.0
  0
LINE
  5
CDF
330
1F
100
AcDbEntity
  8
0
  6
Continuous
 62
     7
 48
0.129502
100
AcDbLine
 10
579.1264027597792
 20
168.153693629134
 30
0.0
 11
589.4865727597797
 21
168.153693629134
 31
0.0
  0
LINE
  5
CE0
330
1F
100
AcDbEntity
  8
0
  6
Continuous
 62
     7
 48
0.129502
100
AcDbLine
 10
579.1264027597792
 20
166.5138936291345
 30
0.0
 11
589.4865727597797
 21
166.5138936291345
 31
0.0
  0
LINE
  5
CE1
330
1F
100
AcDbEntity
  8
0
  6
Continuous
 62
     7
 48
0.129502
100
AcDbLine
 10
579.1264027597792
 20
164.1536936291345
 30
0.0
 11
589.4865727597797
 21
164.1536936291345
 31
0.0
  0
LINE
  5
CE8
330
1F
100
AcDbEntity
  8
0
  6
Continuous
 62
     7
 48
0.129502
100
AcDbLine
 10
579.1264027597792
 20
180.1536936291345
 30
0.0
 11
589.4865727597797
 21
180.1536936291345
 31
0.0
  0
LINE
  5
CEC
330
1F
100
AcDbEntity
  8
0
  6
Continuous
 62
     7
 48
0.029502
100
AcDbLine
 10
567.1264027597792
 20
170.5138936291345
 30
0.0
 11
567.1264027597792
 21
168.153693629134
 31
0.0
  0
LINE
  5
CED
330
1F
100
AcDbEntity
  8
0
  6
Continuous
 62
     7
 48
0.029502
100
AcDbLine
 10
577.4865727597797
 20
170.5138936291345
 30
0.0
 11
577.4865727597797
 21
168.153693629134
 31
0.0
  0
LINE
  5
CEE
330
1F
100
AcDbEntity
  8
0
  6
Continuous
 62
     7
 48
0.029502
100
AcDbLine
 10
579.1264027597792
 20
170.5138936291345
 30
0.0
 11
579.1264027597792
 21
168.153693629134
 31
0.0
  0
LINE
  5
CF2
330
1F
100
AcDbEntity
  8
0
  6
Continuous
 62
     7
 48
0.129502
100
AcDbLine
 10
567.1264027597792
 20
168.153693629134
 30
0.0
 11
577.4865727597797
 21
168.153693629134
 31
0.0
  0
LINE
  5
CF3
330
1F
100
AcDbEntity
  8
0
  6
Continuous
 62
     7
 48
0.129502
100
AcDbLine
 10
567.1264027597792
 20
166.5138936291345
 30
0.0
 11
577.4865727597797
 21
166.5138936291345
 31
0.0
  0
LINE
  5
CF4
330
1F
100
AcDbEntity
  8
0
  6
Continuous
 62
     7
 48
0.129502
100
AcDbLine
 10
567.1264027597792
 20
164.1536936291345
 30
0.0
 11
577.4865727597797
 21
164.1536936291345
 31
0.0
  0
LINE
  5
CF8
330
1F
100
AcDbEntity
  8
0
  6
Continuous
 62
     7
 48
0.029502
100
AcDbLine
 10
567.1264027597792
 20
166.5138936291345
 30
0.0
 11
567.1264027597792
 21
164.1536936291345
 31
0.0
  0
LINE
  5
CFD
330
1F
100
AcDbEntity
  8
0
  6
Continuous
 62
     7
 48
0.029502
100
AcDbLine
 10
577.4865727597797
 20
166.5138936291345
 30
0.0
 11
577.4865727597797
 21
164.1536936291345
 31
0.0
  0
LINE
  5
CFE
330
1F
100
AcDbEntity
  8
0
  6
Continuous
 62
     7
 48
0.029502
100
AcDbLine
 10
579.1264027597792
 20
166.5138936291345
 30
0.0
 11
579.1264027597792
 21
164.1536936291345
 31
0.0
  0
LINE
  5
D07
330
1F
100
AcDbEntity
  8
0
  6
Continuous
 62
     7
 48
0.129502
100
AcDbLine
 10
567.1264027597792
 20
178.5138936291345
 30
0.0
 11
577.4865727597797
 21
178.5138936291345
 31
0.0
  0
LINE
  5
D08
330
1F
100
AcDbEntity
  8
0
  6
Continuous
 62
     7
 48
0.129502
100
AcDbLine
 10
567.1264027597792
 20
176.1536936291345
 30
0.0
 11
577.4865727597797
 21
176.1536936291345
 31
0.0
  0
LINE
  5
D09
330
1F
100
AcDbEntity
  8
0
  6
Continuous
 62
     7
 48
0.129502
100
AcDbLine
 10
567.1264027597792
 20
174.5138936291345
 30
0.0
 11
577.4865727597797
 21
174.5138936291345
 31
0.0
  0
LINE
  5
D0A
330
1F
100
AcDbEntity
  8
0
  6
Continuous
 62
     7
 48
0.129502
100
AcDbLine
 10
567.1264027597792
 20
172.1536936291345
 30
0.0
 11
577.4865727597797
 21
172.1536936291345
 31
0.0
  0
LINE
  5
D0B
330
1F
100
AcDbEntity
  8
0
  6
Continuous
 62
     7
 48
0.129502
100
AcDbLine
 10
567.1264027597792
 20
170.5138936291345
 30
0.0
 11
577.4865727597797
 21
170.5138936291345
 31
0.0
  0
LINE
  5
D0D
330
1F
100
AcDbEntity
  8
0
  6
Continuous
 62
     7
 48
0.129502
100
AcDbLine
 10
567.1264027597792
 20
180.1536936291345
 30
0.0
 11
577.4865727597797
 21
180.1536936291345
 31
0.0
  0
LINE
  5
D13
330
1F
100
AcDbEntity
  8
0
  6
Continuous
 62
     7
 48
0.029502
100
AcDbLine
 10
567.1264027597792
 20
178.5138936291345
 30
0.0
 11
567.1264027597792
 21
176.1536936291345
 31
0.0
  0
LINE
  5
D14
330
1F
100
AcDbEntity
  8
0
  6
Continuous
 62
     7
 48
0.029502
100
AcDbLine
 10
567.1264027597792
 20
174.5138936291345
 30
0.0
 11
567.1264027597792
 21
172.1536936291345
 31
0.0
  0
LINE
  5
D1D
330
1F
100
AcDbEntity
  8
0
  6
Continuous
 62
     7
 48
0.029502
100
AcDbLine
 10
577.4865727597797
 20
178.5138936291345
 30
0.0
 11
577.4865727597797
 21
176.1536936291345
 31
0.0
  0
LINE
  5
D1E
330
1F
100
AcDbEntity
  8
0
  6
Continuous
 62
     7
 48
0.029502
100
AcDbLine
 10
579.1264027597792
 20
178.5138936291345
 30
0.0
 11
579.1264027597792
 21
176.1536936291345
 31
0.0
  0
LINE
  5
D1F
330
1F
100
AcDbEntity
  8
0
  6
Continuous
 62
     7
 48
0.029502
100
AcDbLine
 10
577.4865727597797
 20
174.5138936291345
 30
0.0
 11
577.4865727597797
 21
172.1536936291345
 31
0.0
  0
LINE
  5
D20
330
1F
100
AcDbEntity
  8
0
  6
Continuous
 62
     7
 48
0.029502
100
AcDbLine
 10
579.1264027597792
 20
174.5138936291345
 30
0.0
 11
579.1264027597792
 21
172.1536936291345
 31
0.0
  0
LINE
  5
D31
330
1F
100
AcDbEntity
  8
0
  6
Continuous
 62
     7
 48
0.029502
100
AcDbLine
 10
589.4865727597797
 20
170.5138936291345
 30
0.0
 11
589.4865727597797
 21
168.153693629134
 31
0.0
  0
LINE
  5
D32
330
1F
100
AcDbEntity
  8
0
  6
Continuous
 62
     7
 48
0.029502
100
AcDbLine
 10
591.1264027597792
 20
170.5138936291345
 30
0.0
 11
591.1264027597792
 21
168.153693629134
 31
0.0
  0
LINE
  5
D35
330
1F
100
AcDbEntity
  8
0
  6
Continuous
 62
     7
 48
0.029502
100
AcDbLine
 10
589.4865727597797
 20
166.5138936291345
 30
0.0
 11
589.4865727597797
 21
164.1536936291345
 31
0.0
  0
LINE
  5
D3A
330
1F
100
AcDbEntity
  8
0
  6
Continuous
 62
     7
 48
0.029502
100
AcDbLine
 10
591.1264027597792
 20
166.5138936291345
 30
0.0
 11
591.1264027597792
 21
164.1536936291345
 31
0.0
  0
LINE
  5
D3F
330
1F
100
AcDbEntity
  8
0
  6
Continuous
 62
     7
 48
0.029502
100
AcDbLine
 10
589.4865727597797
 20
178.5138936291345
 30
0.0
 11
589.4865727597797
 21
176.1536936291345
 31
0.0
  0
LINE
  5
D40
330
1F
100
AcDbEntity
  8
0
  6
Continuous
 62
     7
 48
0.029502
100
AcDbLine
 10
589.4865727597797
 20
174.5138936291345
 30
0.0
 11
589.4865727597797
 21
172.1536936291345
 31
0.0
  0
LINE
  5
D49
330
1F
100
AcDbEntity
  8
0
  6
Continuous
 62
     7
 48
0.029502
100
AcDbLine
 10
591.1264027597792
 20
178.5138936291345
 30
0.0
 11
591.1264027597792
 21
176.1536936291345
 31
0.0
  0
LINE
  5
D4A
330
1F
100
AcDbEntity
  8
0
  6
Continuous
 62
     7
 48
0.029502
100
AcDbLine
 10
591.1264027597792
 20
174.5138936291345
 30
0.0
 11
591.1264027597792
 21
172.1536936291345
 31
0.0
  0
LINE
  5
D53
330
1F
100
AcDbEntity
  8
0
  6
Continuous
 62
     7
 48
0.129502
100
AcDbLine
 10
543.1264027597792
 20
194.5138936291341
 30
0.0
 11
553.4865727597792
 21
194.5138936291341
 31
0.0
  0
LINE
  5
D54
330
1F
100
AcDbEntity
  8
0
  6
Continuous
 62
     7
 48
0.129502
100
AcDbLine
 10
543.1264027597792
 20
192.1536936291345
 30
0.0
 11
553.4865727597792
 21
192.1536936291345
 31
0.0
  0
LINE
  5
D55
330
1F
100
AcDbEntity
  8
0
  6
Continuous
 62
     7
 48
0.129502
100
AcDbLine
 10
543.1264027597792
 20
190.513893629134
 30
0.0
 11
553.4865727597792
 21
190.513893629134
 31
0.0
  0
LINE
  5
D56
330
1F
100
AcDbEntity
  8
0
  6
Continuous
 62
     7
 48
0.129502
100
AcDbLine
 10
543.1264027597792
 20
188.1536936291347
 30
0.0
 11
553.4865727597792
 21
188.1536936291347
 31
0.0
  0
LINE
  5
D57
330
1F
100
AcDbEntity
  8
0
  6
Continuous
 62
     7
 48
0.129502
100
AcDbLine
 10
543.1264027597792
 20
186.5138936291345
 30
0.0
 11
553.4865727597792
 21
186.5138936291345
 31
0.0
  0
LINE
  5
D58
330
1F
100
AcDbEntity
  8
0
  6
Continuous
 62
     7
 48
0.129502
100
AcDbLine
 10
543.1264027597792
 20
184.1536936291345
 30
0.0
 11
553.4865727597792
 21
184.1536936291345
 31
0.0
  0
LINE
  5
D59
330
1F
100
AcDbEntity
  8
0
  6
Continuous
 62
     7
 48
0.129502
100
AcDbLine
 10
543.1264027597792
 20
182.5138936291345
 30
0.0
 11
553.4865727597792
 21
182.5138936291345
 31
0.0
  0
LINE
  5
D61
330
1F
100
AcDbEntity
  8
0
  6
Continuous
 62
     7
 48
0.029502
100
AcDbLine
 10
543.1264027597792
 20
194.5138936291341
 30
0.0
 11
543.1264027597792
 21
192.1536936291345
 31
0.0
  0
LINE
  5
D63
330
1F
100
AcDbEntity
  8
0
  6
Continuous
 62
     7
 48
0.029502
100
AcDbLine
 10
543.1264027597792
 20
190.513893629134
 30
0.0
 11
543.1264027597792
 21
188.1536936291347
 31
0.0
  0
LINE
  5
D64
330
1F
100
AcDbEntity
  8
0
  6
Continuous
 62
     7
 48
0.029502
100
AcDbLine
 10
543.1264027597792
 20
186.5138936291345
 30
0.0
 11
543.1264027597792
 21
184.1536936291345
 31
0.0
  0
LINE
  5
D6E
330
1F
100
AcDbEntity
  8
0
  6
Continuous
 62
     7
 48
0.029502
100
AcDbLine
 10
553.4865727597792
 20
194.5138936291341
 30
0.0
 11
553.4865727597792
 21
192.1536936291345
 31
0.0
  0
LINE
  5
D6F
330
1F
100
AcDbEntity
  8
0
  6
Continuous
 62
     7
 48
0.029502
100
AcDbLine
 10
555.1264027597796
 20
194.5138936291341
 30
0.0
 11
555.1264027597796
 21
192.1536936291345
 31
0.0
  0
LINE
  5
D70
330
1F
100
AcDbEntity
  8
0
  6
Continuous
 62
     7
 48
0.029502
100
AcDbLine
 10
565.4865727597792
 20
194.5138936291341
 30
0.0
 11
565.4865727597792
 21
192.1536936291345
 31
0.0
  0
LINE
  5
D74
330
1F
100
AcDbEntity
  8
0
  6
Continuous
 62
     7
 48
0.129502
100
AcDbLine
 10
555.1264027597796
 20
192.1536936291345
 30
0.0
 11
565.4865727597792
 21
192.1536936291345
 31
0.0
  0
LINE
  5
D75
330
1F
100
AcDbEntity
  8
0
  6
Continuous
 62
     7
 48
0.129502
100
AcDbLine
 10
555.1264027597796
 20
190.513893629134
 30
0.0
 11
565.4865727597792
 21
190.513893629134
 31
0.0
  0
LINE
  5
D76
330
1F
100
AcDbEntity
  8
0
  6
Continuous
 62
     7
 48
0.129502
100
AcDbLine
 10
555.1264027597796
 20
188.1536936291347
 30
0.0
 11
565.4865727597792
 21
188.1536936291347
 31
0.0
  0
LINE
  5
D77
330
1F
100
AcDbEntity
  8
0
  6
Continuous
 62
     7
 48
0.129502
100
AcDbLine
 10
555.1264027597796
 20
186.5138936291345
 30
0.0
 11
565.4865727597792
 21
186.5138936291345
 31
0.0
  0
LINE
  5
D78
330
1F
100
AcDbEntity
  8
0
  6
Continuous
 62
     7
 48
0.129502
100
AcDbLine
 10
555.1264027597796
 20
184.1536936291345
 30
0.0
 11
565.4865727597792
 21
184.1536936291345
 31
0.0
  0
LINE
  5
D79
330
1F
100
AcDbEntity
  8
0
  6
Continuous
 62
     7
 48
0.129502
100
AcDbLine
 10
555.1264027597796
 20
182.5138936291345
 30
0.0
 11
565.4865727597792
 21
182.5138936291345
 31
0.0
  0
LINE
  5
D80
330
1F
100
AcDbEntity
  8
0
  6
Continuous
 62
     7
 48
0.029502
100
AcDbLine
 10
553.4865727597792
 20
190.513893629134
 30
0.0
 11
553.4865727597792
 21
188.1536936291347
 31
0.0
  0
LINE
  5
D81
330
1F
100
AcDbEntity
  8
0
  6
Continuous
 62
     7
 48
0.029502
100
AcDbLine
 10
555.1264027597796
 20
190.513893629134
 30
0.0
 11
555.1264027597796
 21
188.1536936291347
 31
0.0
  0
LINE
  5
D82
330
1F
100
AcDbEntity
  8
0
  6
Continuous
 62
     7
 48
0.029502
100
AcDbLine
 10
553.4865727597792
 20
186.5138936291345
 30
0.0
 11
553.4865727597792
 21
184.1536936291345
 31
0.0
  0
LINE
  5
D83
330
1F
100
AcDbEntity
  8
0
  6
Continuous
 62
     7
 48
0.029502
100
AcDbLine
 10
555.1264027597796
 20
186.5138936291345
 30
0.0
 11
555.1264027597796
 21
184.1536936291345
 31
0.0
  0
LINE
  5
D94
330
1F
100
AcDbEntity
  8
0
  6
Continuous
 62
     7
 48
0.029502
100
AcDbLine
 10
565.4865727597792
 20
190.513893629134
 30
0.0
 11
565.4865727597792
 21
188.1536936291347
 31
0.0
  0
LINE
  5
D95
330
1F
100
AcDbEntity
  8
0
  6
Continuous
 62
     7
 48
0.029502
100
AcDbLine
 10
565.4865727597792
 20
186.5138936291345
 30
0.0
 11
565.4865727597792
 21
184.1536936291345
 31
0.0
  0
LINE
  5
D9E
330
1F
100
AcDbEntity
  8
0
  6
Continuous
 62
     7
 48
0.129502
100
AcDbLine
 10
555.1264027597796
 20
194.5138936291341
 30
0.0
 11
565.4865727597792
 21
194.5138936291341
 31
0.0
  0
LINE
  5
DA3
330
1F
100
AcDbEntity
  8
0
  6
Continuous
 62
     7
 48
0.129502
100
AcDbLine
 10
579.1264027597792
 20
194.5138936291341
 30
0.0
 11
589.4865727597797
 21
194.5138936291341
 31
0.0
  0
LINE
  5
DA4
330
1F
100
AcDbEntity
  8
0
  6
Continuous
 62
     7
 48
0.129502
100
AcDbLine
 10
579.1264027597792
 20
192.1536936291345
 30
0.0
 11
589.4865727597797
 21
192.1536936291345
 31
0.0
  0
LINE
  5
DA5
330
1F
100
AcDbEntity
  8
0
  6
Continuous
 62
     7
 48
0.129502
100
AcDbLine
 10
579.1264027597792
 20
190.513893629134
 30
0.0
 11
589.4865727597797
 21
190.513893629134
 31
0.0
  0
LINE
  5
DA6
330
1F
100
AcDbEntity
  8
0
  6
Continuous
 62
     7
 48
0.129502
100
AcDbLine
 10
579.1264027597792
 20
188.1536936291347
 30
0.0
 11
589.4865727597797
 21
188.1536936291347
 31
0.0
  0
LINE
  5
DA7
330
1F
100
AcDbEntity
  8
0
  6
Continuous
 62
     7
 48
0.129502
100
AcDbLine
 10
579.1264027597792
 20
186.5138936291345
 30
0.0
 11
589.4865727597797
 21
186.5138936291345
 31
0.0
  0
LINE
  5
DA8
330
1F
100
AcDbEntity
  8
0
  6
Continuous
 62
     7
 48
0.129502
100
AcDbLine
 10
579.1264027597792
 20
184.1536936291345
 30
0.0
 11
589.4865727597797
 21
184.1536936291345
 31
0.0
  0
LINE
  5
DA9
330
1F
100
AcDbEntity
  8
0
  6
Continuous
 62
     7
 48
0.129502
100
AcDbLine
 10
579.1264027597792
 20
182.5138936291345
 30
0.0
 11
589.4865727597797
 21
182.5138936291345
 31
0.0
  0
LINE
  5
DB1
330
1F
100
AcDbEntity
  8
0
  6
Continuous
 62
     7
 48
0.029502
100
AcDbLine
 10
567.1264027597792
 20
194.5138936291341
 30
0.0
 11
567.1264027597792
 21
192.1536936291345
 31
0.0
  0
LINE
  5
DB2
330
1F
100
AcDbEntity
  8
0
  6
Continuous
 62
     7
 48
0.029502
100
AcDbLine
 10
577.4865727597797
 20
194.5138936291341
 30
0.0
 11
577.4865727597797
 21
192.1536936291345
 31
0.0
  0
LINE
  5
DB3
330
1F
100
AcDbEntity
  8
0
  6
Continuous
 62
     7
 48
0.029502
100
AcDbLine
 10
579.1264027597792
 20
194.5138936291341
 30
0.0
 11
579.1264027597792
 21
192.1536936291345
 31
0.0
  0
LINE
  5
DB7
330
1F
100
AcDbEntity
  8
0
  6
Continuous
 62
     7
 48
0.129502
100
AcDbLine
 10
567.1264027597792
 20
192.1536936291345
 30
0.0
 11
577.4865727597797
 21
192.1536936291345
 31
0.0
  0
LINE
  5
DB8
330
1F
100
AcDbEntity
  8
0
  6
Continuous
 62
     7
 48
0.129502
100
AcDbLine
 10
567.1264027597792
 20
190.513893629134
 30
0.0
 11
577.4865727597797
 21
190.513893629134
 31
0.0
  0
LINE
  5
DB9
330
1F
100
AcDbEntity
  8
0
  6
Continuous
 62
     7
 48
0.129502
100
AcDbLine
 10
567.1264027597792
 20
188.1536936291347
 30
0.0
 11
577.4865727597797
 21
188.1536936291347
 31
0.0
  0
LINE
  5
DBA
330
1F
100
AcDbEntity
  8
0
  6
Continuous
 62
     7
 48
0.129502
100
AcDbLine
 10
567.1264027597792
 20
186.5138936291345
 30
0.0
 11
577.4865727597797
 21
186.5138936291345
 31
0.0
  0
LINE
  5
DBB
330
1F
100
AcDbEntity
  8
0
  6
Continuous
 62
     7
 48
0.129502
100
AcDbLine
 10
567.1264027597792
 20
184.1536936291345
 30
0.0
 11
577.4865727597797
 21
184.1536936291345
 31
0.0
  0
LINE
  5
DBC
330
1F
100
AcDbEntity
  8
0
  6
Continuous
 62
     7
 48
0.129502
100
AcDbLine
 10
567.1264027597792
 20
182.5138936291345
 30
0.0
 11
577.4865727597797
 21
182.5138936291345
 31
0.0
  0
LINE
  5
DC3
330
1F
100
AcDbEntity
  8
0
  6
Continuous
 62
     7
 48
0.029502
100
AcDbLine
 10
567.1264027597792
 20
190.513893629134
 30
0.0
 11
567.1264027597792
 21
188.1536936291347
 31
0.0
  0
LINE
  5
DC4
330
1F
100
AcDbEntity
  8
0
  6
Continuous
 62
     7
 48
0.029502
100
AcDbLine
 10
567.1264027597792
 20
186.5138936291345
 30
0.0
 11
567.1264027597792
 21
184.1536936291345
 31
0.0
  0
LINE
  5
DCD
330
1F
100
AcDbEntity
  8
0
  6
Continuous
 62
     7
 48
0.029502
100
AcDbLine
 10
577.4865727597797
 20
190.513893629134
 30
0.0
 11
577.4865727597797
 21
188.1536936291347
 31
0.0
  0
LINE
  5
DCE
330
1F
100
AcDbEntity
  8
0
  6
Continuous
 62
     7
 48
0.029502
100
AcDbLine
 10
579.1264027597792
 20
190.513893629134
 30
0.0
 11
579.1264027597792
 21
188.1536936291347
 31
0.0
  0
LINE
  5
DCF
330
1F
100
AcDbEntity
  8
0
  6
Continuous
 62
     7
 48
0.029502
100
AcDbLine
 10
577.4865727597797
 20
186.5138936291345
 30
0.0
 11
577.4865727597797
 21
184.1536936291345
 31
0.0
  0
LINE
  5
DD0
330
1F
100
AcDbEntity
  8
0
  6
Continuous
 62
     7
 48
0.029502
100
AcDbLine
 10
579.1264027597792
 20
186.5138936291345
 30
0.0
 11
579.1264027597792
 21
184.1536936291345
 31
0.0
  0
LINE
  5
DE1
330
1F
100
AcDbEntity
  8
0
  6
Continuous
 62
     7
 48
0.129502
100
AcDbLine
 10
567.1264027597792
 20
194.5138936291341
 30
0.0
 11
577.4865727597797
 21
194.5138936291341
 31
0.0
  0
LINE
  5
DE6
330
1F
100
AcDbEntity
  8
0
  6
Continuous
 62
     7
 48
0.029502
100
AcDbLine
 10
589.4865727597797
 20
194.5138936291341
 30
0.0
 11
589.4865727597797
 21
192.1536936291345
 31
0.0
  0
LINE
  5
DE7
330
1F
100
AcDbEntity
  8
0
  6
Continuous
 62
     7
 48
0.029502
100
AcDbLine
 10
591.1264027597792
 20
194.5138936291341
 30
0.0
 11
591.1264027597792
 21
192.1536936291345
 31
0.0
  0
LINE
  5
DEA
330
1F
100
AcDbEntity
  8
0
  6
Continuous
 62
     7
 48
0.029502
100
AcDbLine
 10
589.4865727597797
 20
190.513893629134
 30
0.0
 11
589.4865727597797
 21
188.1536936291347
 31
0.0
  0
LINE
  5
DEB
330
1F
100
AcDbEntity
  8
0
  6
Continuous
 62
     7
 48
0.029502
100
AcDbLine
 10
589.4865727597797
 20
186.5138936291345
 30
0.0
 11
589.4865727597797
 21
184.1536936291345
 31
0.0
  0
LINE
  5
DF4
330
1F
100
AcDbEntity
  8
0
  6
Continuous
 62
     7
 48
0.029502
100
AcDbLine
 10
591.1264027597792
 20
190.513893629134
 30
0.0
 11
591.1264027597792
 21
188.1536936291347
 31
0.0
  0
LINE
  5
DF5
330
1F
100
AcDbEntity
  8
0
  6
Continuous
 62
     7
 48
0.029502
100
AcDbLine
 10
591.1264027597792
 20
186.5138936291345
 30
0.0
 11
591.1264027597792
 21
184.1536936291345
 31
0.0
  0
LINE
  5
E02
330
1F
100
AcDbEntity
  8
0
  6
DASHED
 62
     4
100
AcDbLine
 10
729.9066167597792
 20
72.8339616291343
 30
0.0
 11
729.9066167597792
 21
201.833961629134
 31
0.0
  0
LINE
  5
E03
330
1F
100
AcDbEntity
  8
0
  6
Continuous
 62
     7
100
AcDbLine
 10
724.9066167597791
 20
72.8339616291343
 30
0.0
 11
724.9066167597791
 21
201.833961629134
 31
0.0
  0
LINE
  5
E04
330
1F
100
AcDbEntity
  8
0
  6
Continuous
 62
     7
 48
0.016268
100
AcDbLine
 10
714.4066167597791
 20
135.3339616291344
 30
0.0
 11
714.4066167597791
 21
134.0325096291344
 31
0.0
  0
LINE
  5
E0A
330
1F
100
AcDbEntity
  8
0
  6
Continuous
 62
     7
100
AcDbLine
 10
618.0479127597797
 20
73.89026562913432
 30
0.0
 11
711.4066167597792
 21
74.70499362913449
 31
0.0
  0
LINE
  5
E0B
330
1F
100
AcDbEntity
  8
0
  6
Continuous
 62
     7
100
AcDbLine
 10
635.2258907597796
 20
70.0400156291343
 30
0.0
 11
711.4066167597792
 21
70.7048416291343
 31
0.0
  0
LINE
  5
E0C
330
1F
100
AcDbEntity
  8
0
  6
Continuous
 62
     7
 48
0.029502
100
AcDbLine
 10
601.4865727597797
 20
90.51389362913425
 30
0.0
 11
601.4865727597797
 21
88.15369362913447
 31
0.0
  0
LINE
  5
E0D
330
1F
100
AcDbEntity
  8
0
  6
Continuous
 62
     7
 48
0.029502
100
AcDbLine
 10
603.1264027597792
 20
90.51389362913425
 30
0.0
 11
603.1264027597792
 21
88.15369362913447
 31
0.0
  0
LINE
  5
E0E
330
1F
100
AcDbEntity
  8
0
  6
Continuous
 62
     7
 48
0.029502
100
AcDbLine
 10
613.4865727597797
 20
90.51389362913425
 30
0.0
 11
613.4865727597797
 21
88.15369362913447
 31
0.0
  0
LINE
  5
E12
330
1F
100
AcDbEntity
  8
0
  6
Continuous
 62
     7
 48
0.214281
100
AcDbLine
 10
635.2258907597796
 20
70.0400156291343
 30
0.0
 11
618.0840447597796
 21
69.8904196291345
 31
0.0
  0
ELLIPSE
  5
E13
330
1F
100
AcDbEntity
  8
0
  6
Continuous
 62
     7
100
AcDbEllipse
 10
618.0391847597793
 20
74.8902056291343
 30
0.0
 11
3.9599609375
 21
0.0345458984375
 31
0.0
210
0.0
220
0.0
230
1.0
 40
0.25252
 41
3.141668860112325
 42
4.712388936673296
  0
ELLIPSE
  5
E14
330
1F
100
AcDbEntity
  8
0
  6
Continuous
 62
     7
100
AcDbEllipse
 10
618.0753167597791
 20
70.89038762913429
 30
0.0
 11
-3.9599609375
 21
-0.0345458984375
 31
0.0
210
0.0
220
0.0
230
1.0
 40
0.25252
 41
0.0000761524206609
 42
1.570796370506284
  0
LINE
  5
E15
330
1F
100
AcDbEntity
  8
0
  6
Continuous
 62
     7
 48
0.05
100
AcDbLine
 10
614.0792227597794
 20
74.85556762913427
 30
0.0
 11
614.1153567597797
 21
70.85575162913432
 31
0.0
  0
LINE
  5
E16
330
1F
100
AcDbEntity
  8
0
  6
Continuous
 62
     7
 48
0.129502
100
AcDbLine
 10
603.1264027597792
 20
88.15369362913447
 30
0.0
 11
613.4865727597797
 21
88.15369362913447
 31
0.0
  0
LINE
  5
E17
330
1F
100
AcDbEntity
  8
0
  6
Continuous
 62
     7
 48
0.129502
100
AcDbLine
 10
603.1264027597792
 20
84.15369362913446
 30
0.0
 11
613.4865727597797
 21
84.15369362913446
 31
0.0
  0
LINE
  5
E18
330
1F
100
AcDbEntity
  8
0
  6
Continuous
 62
     7
 48
0.129502
100
AcDbLine
 10
603.1264027597792
 20
86.51389362913409
 30
0.0
 11
613.4865727597797
 21
86.51389362913409
 31
0.0
  0
LINE
  5
E19
330
1F
100
AcDbEntity
  8
0
  6
Continuous
 62
     7
 48
0.129502
100
AcDbLine
 10
603.1264027597792
 20
80.15369362913446
 30
0.0
 11
613.4865727597797
 21
80.15369362913446
 31
0.0
  0
LINE
  5
E1A
330
1F
100
AcDbEntity
  8
0
  6
Continuous
 62
     7
 48
0.129502
100
AcDbLine
 10
603.1264027597792
 20
82.51389362913448
 30
0.0
 11
613.4865727597797
 21
82.51389362913448
 31
0.0
  0
LINE
  5
E20
330
1F
100
AcDbEntity
  8
0
  6
Continuous
 62
     7
 48
0.029502
100
AcDbLine
 10
601.4865727597797
 20
86.51389362913409
 30
0.0
 11
601.4865727597797
 21
84.15369362913446
 31
0.0
  0
LINE
  5
E21
330
1F
100
AcDbEntity
  8
0
  6
Continuous
 62
     7
 48
0.029502
100
AcDbLine
 10
603.1264027597792
 20
86.51389362913409
 30
0.0
 11
603.1264027597792
 21
84.15369362913446
 31
0.0
  0
LINE
  5
E22
330
1F
100
AcDbEntity
  8
0
  6
Continuous
 62
     7
 48
0.029502
100
AcDbLine
 10
601.4865727597797
 20
82.51389362913448
 30
0.0
 11
601.4865727597797
 21
80.15369362913446
 31
0.0
  0
LINE
  5
E23
330
1F
100
AcDbEntity
  8
0
  6
Continuous
 62
     7
 48
0.029502
100
AcDbLine
 10
603.1264027597792
 20
82.51389362913448
 30
0.0
 11
603.1264027597792
 21
80.15369362913446
 31
0.0
  0
LINE
  5
E32
330
1F
100
AcDbEntity
  8
0
  6
Continuous
 62
     7
 48
0.029502
100
AcDbLine
 10
613.4865727597797
 20
86.51389362913409
 30
0.0
 11
613.4865727597797
 21
84.15369362913446
 31
0.0
  0
LINE
  5
E33
330
1F
100
AcDbEntity
  8
0
  6
Continuous
 62
     7
 48
0.029502
100
AcDbLine
 10
613.4865727597797
 20
82.51389362913448
 30
0.0
 11
613.4865727597797
 21
80.15369362913446
 31
0.0
  0
LINE
  5
E3B
330
1F
100
AcDbEntity
  8
0
  6
Continuous
 62
     7
 48
0.05
100
AcDbLine
 10
635.1897587597797
 20
74.03986362913428
 30
0.0
 11
635.2258907597796
 21
70.0400156291343
 31
0.0
  0
LINE
  5
E3C
330
1F
100
AcDbEntity
  8
0
  6
Continuous
 62
     7
 48
0.029502
100
AcDbLine
 10
601.4865727597797
 20
102.5138936291344
 30
0.0
 11
601.4865727597797
 21
100.1536936291344
 31
0.0
  0
LINE
  5
E3D
330
1F
100
AcDbEntity
  8
0
  6
Continuous
 62
     7
 48
0.029502
100
AcDbLine
 10
603.1264027597792
 20
102.5138936291344
 30
0.0
 11
603.1264027597792
 21
100.1536936291344
 31
0.0
  0
LINE
  5
E3E
330
1F
100
AcDbEntity
  8
0
  6
Continuous
 62
     7
 48
0.029502
100
AcDbLine
 10
613.4865727597797
 20
102.5138936291344
 30
0.0
 11
613.4865727597797
 21
100.1536936291344
 31
0.0
  0
LINE
  5
E42
330
1F
100
AcDbEntity
  8
0
  6
Continuous
 62
     7
 48
0.129502
100
AcDbLine
 10
603.1264027597792
 20
92.15369362913447
 30
0.0
 11
613.4865727597797
 21
92.15369362913447
 31
0.0
  0
LINE
  5
E43
330
1F
100
AcDbEntity
  8
0
  6
Continuous
 62
     7
 48
0.129502
100
AcDbLine
 10
603.1264027597792
 20
94.51389362913408
 30
0.0
 11
613.4865727597797
 21
94.51389362913408
 31
0.0
  0
LINE
  5
E44
330
1F
100
AcDbEntity
  8
0
  6
Continuous
 62
     7
 48
0.129502
100
AcDbLine
 10
603.1264027597792
 20
90.51389362913425
 30
0.0
 11
613.4865727597797
 21
90.51389362913425
 31
0.0
  0
LINE
  5
E46
330
1F
100
AcDbEntity
  8
0
  6
Continuous
 62
     7
 48
0.129502
100
AcDbLine
 10
603.1264027597792
 20
100.1536936291344
 30
0.0
 11
613.4865727597797
 21
100.1536936291344
 31
0.0
  0
LINE
  5
E47
330
1F
100
AcDbEntity
  8
0
  6
Continuous
 62
     7
 48
0.129502
100
AcDbLine
 10
603.1264027597792
 20
96.15369362913448
 30
0.0
 11
613.4865727597797
 21
96.15369362913448
 31
0.0
  0
LINE
  5
E48
330
1F
100
AcDbEntity
  8
0
  6
Continuous
 62
     7
 48
0.129502
100
AcDbLine
 10
603.1264027597792
 20
98.51389362913426
 30
0.0
 11
613.4865727597797
 21
98.51389362913426
 31
0.0
  0
LINE
  5
E4E
330
1F
100
AcDbEntity
  8
0
  6
Continuous
 62
     7
 48
0.029502
100
AcDbLine
 10
601.4865727597797
 20
94.51389362913408
 30
0.0
 11
601.4865727597797
 21
92.15369362913447
 31
0.0
  0
LINE
  5
E4F
330
1F
100
AcDbEntity
  8
0
  6
Continuous
 62
     7
 48
0.029502
100
AcDbLine
 10
603.1264027597792
 20
94.51389362913408
 30
0.0
 11
603.1264027597792
 21
92.15369362913447
 31
0.0
  0
LINE
  5
E52
330
1F
100
AcDbEntity
  8
0
  6
Continuous
 62
     7
 48
0.029502
100
AcDbLine
 10
601.4865727597797
 20
98.51389362913426
 30
0.0
 11
601.4865727597797
 21
96.15369362913448
 31
0.0
  0
LINE
  5
E53
330
1F
100
AcDbEntity
  8
0
  6
Continuous
 62
     7
 48
0.029502
100
AcDbLine
 10
603.1264027597792
 20
98.51389362913426
 30
0.0
 11
603.1264027597792
 21
96.15369362913448
 31
0.0
  0
LINE
  5
E62
330
1F
100
AcDbEntity
  8
0
  6
Continuous
 62
     7
 48
0.029502
100
AcDbLine
 10
613.4865727597797
 20
94.51389362913408
 30
0.0
 11
613.4865727597797
 21
92.15369362913447
 31
0.0
  0
LINE
  5
E64
330
1F
100
AcDbEntity
  8
0
  6
Continuous
 62
     7
 48
0.029502
100
AcDbLine
 10
613.4865727597797
 20
98.51389362913426
 30
0.0
 11
613.4865727597797
 21
96.15369362913448
 31
0.0
  0
LINE
  5
E6C
330
1F
100
AcDbEntity
  8
0
  6
Continuous
 62
     7
 48
0.129502
100
AcDbLine
 10
603.1264027597792
 20
108.1536936291342
 30
0.0
 11
613.4865727597797
 21
108.1536936291342
 31
0.0
  0
LINE
  5
E6D
330
1F
100
AcDbEntity
  8
0
  6
Continuous
 62
     7
 48
0.129502
100
AcDbLine
 10
603.1264027597792
 20
110.513893629134
 30
0.0
 11
613.4865727597797
 21
110.513893629134
 31
0.0
  0
LINE
  5
E6E
330
1F
100
AcDbEntity
  8
0
  6
Continuous
 62
     7
 48
0.129502
100
AcDbLine
 10
603.1264027597792
 20
104.1536936291342
 30
0.0
 11
613.4865727597797
 21
104.1536936291342
 31
0.0
  0
LINE
  5
E6F
330
1F
100
AcDbEntity
  8
0
  6
Continuous
 62
     7
 48
0.129502
100
AcDbLine
 10
603.1264027597792
 20
106.5138936291344
 30
0.0
 11
613.4865727597797
 21
106.5138936291344
 31
0.0
  0
LINE
  5
E70
330
1F
100
AcDbEntity
  8
0
  6
Continuous
 62
     7
 48
0.129502
100
AcDbLine
 10
603.1264027597792
 20
102.5138936291344
 30
0.0
 11
613.4865727597797
 21
102.5138936291344
 31
0.0
  0
LINE
  5
E76
330
1F
100
AcDbEntity
  8
0
  6
Continuous
 62
     7
 48
0.029502
100
AcDbLine
 10
601.4865727597797
 20
110.513893629134
 30
0.0
 11
601.4865727597797
 21
108.1536936291342
 31
0.0
  0
LINE
  5
E77
330
1F
100
AcDbEntity
  8
0
  6
Continuous
 62
     7
 48
0.029502
100
AcDbLine
 10
603.1264027597792
 20
110.513893629134
 30
0.0
 11
603.1264027597792
 21
108.1536936291342
 31
0.0
  0
LINE
  5
E78
330
1F
100
AcDbEntity
  8
0
  6
Continuous
 62
     7
 48
0.029502
100
AcDbLine
 10
601.4865727597797
 20
106.5138936291344
 30
0.0
 11
601.4865727597797
 21
104.1536936291342
 31
0.0
  0
LINE
  5
E79
330
1F
100
AcDbEntity
  8
0
  6
Continuous
 62
     7
 48
0.029502
100
AcDbLine
 10
603.1264027597792
 20
106.5138936291344
 30
0.0
 11
603.1264027597792
 21
104.1536936291342
 31
0.0
  0
LINE
  5
E88
330
1F
100
AcDbEntity
  8
0
  6
Continuous
 62
     7
 48
0.029502
100
AcDbLine
 10
613.4865727597797
 20
110.513893629134
 30
0.0
 11
613.4865727597797
 21
108.1536936291342
 31
0.0
  0
LINE
  5
E89
330
1F
100
AcDbEntity
  8
0
  6
Continuous
 62
     7
 48
0.029502
100
AcDbLine
 10
613.4865727597797
 20
106.5138936291344
 30
0.0
 11
613.4865727597797
 21
104.1536936291342
 31
0.0
  0
LINE
  5
E92
330
1F
100
AcDbEntity
  8
0
  6
Continuous
 62
     7
 48
0.046232
100
AcDbLine
 10
714.4066167597791
 20
89.0325096291345
 30
0.0
 11
714.4066167597791
 21
85.33396162913424
 31
0.0
  0
LINE
  5
E98
330
1F
100
AcDbEntity
  8
0
  6
DASHED
 62
     4
 48
0.23125
100
AcDbLine
 10
729.9066167597792
 20
71.33396162913431
 30
0.0
 11
711.4066167597792
 21
71.33396162913431
 31
0.0
  0
ARC
  5
E9A
330
1F
100
AcDbEntity
  8
0
  6
Continuous
 62
     7
100
AcDbCircle
 10
713.9066167597792
 20
81.33396162913408
 30
0.0
 40
0.5
100
AcDbArc
 50
0.0
 51
90.00000300000095
  0
ARC
  5
E9B
330
1F
100
AcDbEntity
  8
0
  6
Continuous
 62
     7
100
AcDbCircle
 10
713.9066167597792
 20
76.33396162913408
 30
0.0
 40
0.5
100
AcDbArc
 50
269.9999969999988
 51
0.0
  0
ARC
  5
E9C
330
1F
100
AcDbEntity
  8
0
  6
Continuous
 62
     7
100
AcDbCircle
 10
713.9066167597792
 20
85.33396162913424
 30
0.0
 40
0.5
100
AcDbArc
 50
269.9999969999988
 51
0.0
  0
LINE
  5
E9D
330
1F
100
AcDbEntity
  8
0
  6
Continuous
 62
     7
 48
0.068752
100
AcDbLine
 10
711.4066167597792
 20
74.80863162913431
 30
0.0
 11
718.4066167597792
 21
74.75852690186127
 31
0.0
  0
LINE
  5
E9E
330
1F
100
AcDbEntity
  8
0
  6
Continuous
 62
     7
 48
0.0875
100
AcDbLine
 10
718.4066167597792
 20
75.30863162913409
 30
0.0
 11
711.4066167597792
 21
75.30863162913409
 31
0.0
  0
LINE
  5
EA0
330
1F
100
AcDbEntity
  8
0
  6
Continuous
 62
     7
 48
0.068752
100
AcDbLine
 10
711.4066167597792
 20
82.85880362913406
 30
0.0
 11
718.4066167597792
 21
82.90886762913407
 31
0.0
  0
LINE
  5
EA1
330
1F
100
AcDbEntity
  8
0
  6
Continuous
 62
     7
 48
0.068752
100
AcDbLine
 10
711.4066167597792
 20
83.80878362913449
 30
0.0
 11
718.4066167597792
 21
83.75871962913448
 31
0.0
  0
LINE
  5
EBB
330
1F
100
AcDbEntity
  8
0
  6
Continuous
 62
     7
 48
0.046232
100
AcDbLine
 10
714.4066167597791
 20
80.03253962913447
 30
0.0
 11
714.4066167597791
 21
76.33396162913408
 31
0.0
  0
LINE
  5
EC1
330
1F
100
AcDbEntity
  8
0
  6
DASHED
 62
     4
 48
0.01875
100
AcDbLine
 10
729.9066167597792
 20
71.33396162913431
 30
0.0
 11
729.9066167597792
 21
72.8339616291343
 31
0.0
  0
LINE
  5
EC3
330
1F
100
AcDbEntity
  8
0
  6
Continuous
 62
     7
 48
0.0625
100
AcDbLine
 10
718.4066167597792
 20
79.1339496291339
 30
0.0
 11
724.9066167597791
 21
79.1339496291339
 31
0.0
  0
LINE
  5
EC4
330
1F
100
AcDbEntity
  8
0
  6
Continuous
 62
     7
 48
0.0625
100
AcDbLine
 10
724.9066167597791
 20
77.83396162913425
 30
0.0
 11
718.4066167597792
 21
77.83396162913425
 31
0.0
  0
LINE
  5
EC5
330
1F
100
AcDbEntity
  8
0
  6
Continuous
 62
     7
 48
0.016268
100
AcDbLine
 10
714.4066167597791
 20
81.33396162913408
 30
0.0
 11
714.4066167597791
 21
80.03253962913447
 31
0.0
  0
ARC
  5
ECE
330
1F
100
AcDbEntity
  8
0
  6
Continuous
 62
     7
100
AcDbCircle
 10
713.9066167597792
 20
112.3339616291344
 30
0.0
 40
0.5
100
AcDbArc
 50
269.9999969999988
 51
0.0
  0
ARC
  5
ED4
330
1F
100
AcDbEntity
  8
0
  6
Continuous
 62
     7
100
AcDbCircle
 10
713.9066167597792
 20
90.33396162913424
 30
0.0
 40
0.5
100
AcDbArc
 50
0.0
 51
90.00000300000095
  0
ARC
  5
ED5
330
1F
100
AcDbEntity
  8
0
  6
Continuous
 62
     7
100
AcDbCircle
 10
713.9066167597792
 20
99.33396162913425
 30
0.0
 40
0.5
100
AcDbArc
 50
0.0
 51
90.00000300000095
  0
ARC
  5
ED6
330
1F
100
AcDbEntity
  8
0
  6
Continuous
 62
     7
100
AcDbCircle
 10
713.9066167597792
 20
94.33396162913448
 30
0.0
 40
0.5
100
AcDbArc
 50
269.9999969999988
 51
0.0
  0
ARC
  5
ED7
330
1F
100
AcDbEntity
  8
0
  6
Continuous
 62
     7
100
AcDbCircle
 10
713.9066167597792
 20
108.3339616291344
 30
0.0
 40
0.5
100
AcDbArc
 50
0.0
 51
90.00000300000095
  0
ARC
  5
ED8
330
1F
100
AcDbEntity
  8
0
  6
Continuous
 62
     7
100
AcDbCircle
 10
713.9066167597792
 20
103.3339616291344
 30
0.0
 40
0.5
100
AcDbArc
 50
269.9999969999988
 51
0.0
  0
LINE
  5
EDA
330
1F
100
AcDbEntity
  8
0
  6
Continuous
 62
     7
 48
0.068752
100
AcDbLine
 10
711.4066167597792
 20
100.858803629134
 30
0.0
 11
718.4066167597792
 21
100.9088676291347
 31
0.0
  0
LINE
  5
EDB
330
1F
100
AcDbEntity
  8
0
  6
Continuous
 62
     7
 48
0.068752
100
AcDbLine
 10
711.4066167597792
 20
101.8087836291345
 30
0.0
 11
718.4066167597792
 21
101.7587196291344
 31
0.0
  0
LINE
  5
EDE
330
1F
100
AcDbEntity
  8
0
  6
Continuous
 62
     7
 48
0.068752
100
AcDbLine
 10
711.4066167597792
 20
109.8588036291345
 30
0.0
 11
718.4066167597792
 21
109.908867629134
 31
0.0
  0
LINE
  5
EDF
330
1F
100
AcDbEntity
  8
0
  6
Continuous
 62
     7
 48
0.068752
100
AcDbLine
 10
711.4066167597792
 20
110.8087836291342
 30
0.0
 11
718.4066167597792
 21
110.7587196291342
 31
0.0
  0
LINE
  5
EE2
330
1F
100
AcDbEntity
  8
0
  6
Continuous
 62
     7
 48
0.068752
100
AcDbLine
 10
711.4066167597792
 20
91.85880362913406
 30
0.0
 11
718.4066167597792
 21
91.9088676291347
 31
0.0
  0
LINE
  5
EE3
330
1F
100
AcDbEntity
  8
0
  6
Continuous
 62
     7
 48
0.068752
100
AcDbLine
 10
711.4066167597792
 20
92.80878362913426
 30
0.0
 11
718.4066167597792
 21
92.75871962913447
 31
0.0
  0
LINE
  5
F04
330
1F
100
AcDbEntity
  8
0
  6
Continuous
 62
     7
 48
0.016268
100
AcDbLine
 10
714.4066167597791
 20
90.33396162913424
 30
0.0
 11
714.4066167597791
 21
89.0325096291345
 31
0.0
  0
LINE
  5
F05
330
1F
100
AcDbEntity
  8
0
  6
Continuous
 62
     7
 48
0.016268
100
AcDbLine
 10
714.4066167597791
 20
99.33396162913425
 30
0.0
 11
714.4066167597791
 21
98.03250962913427
 31
0.0
  0
LINE
  5
F06
330
1F
100
AcDbEntity
  8
0
  6
Continuous
 62
     7
 48
0.046232
100
AcDbLine
 10
714.4066167597791
 20
98.03250962913427
 30
0.0
 11
714.4066167597791
 21
94.33396162913448
 31
0.0
  0
LINE
  5
F0E
330
1F
100
AcDbEntity
  8
0
  6
Continuous
 62
     7
 48
0.016268
100
AcDbLine
 10
714.4066167597791
 20
108.3339616291344
 30
0.0
 11
714.4066167597791
 21
107.0325096291344
 31
0.0
  0
LINE
  5
F0F
330
1F
100
AcDbEntity
  8
0
  6
Continuous
 62
     7
 48
0.046232
100
AcDbLine
 10
714.4066167597791
 20
107.0325096291344
 30
0.0
 11
714.4066167597791
 21
103.3339616291344
 31
0.0
  0
ARC
  5
F1C
330
1F
100
AcDbEntity
  8
0
  6
Continuous
 62
     7
100
AcDbCircle
 10
713.9066167597792
 20
117.3339616291344
 30
0.0
 40
0.5
100
AcDbArc
 50
0.0
 51
90.00000300000095
  0
ARC
  5
F1D
330
1F
100
AcDbEntity
  8
0
  6
Continuous
 62
     7
100
AcDbCircle
 10
713.9066167597792
 20
126.333961629134
 30
0.0
 40
0.5
100
AcDbArc
 50
0.0
 51
90.00000300000095
  0
ARC
  5
F1E
330
1F
100
AcDbEntity
  8
0
  6
Continuous
 62
     7
100
AcDbCircle
 10
713.9066167597792
 20
121.3339616291344
 30
0.0
 40
0.5
100
AcDbArc
 50
269.9999969999988
 51
0.0
  0
ARC
  5
F1F
330
1F
100
AcDbEntity
  8
0
  6
Continuous
 62
     7
100
AcDbCircle
 10
713.9066167597792
 20
130.333961629134
 30
0.0
 40
0.5
100
AcDbArc
 50
269.9999969999988
 51
0.0
  0
LINE
  5
F21
330
1F
100
AcDbEntity
  8
0
  6
Continuous
 62
     7
 48
0.068752
100
AcDbLine
 10
711.4066167597792
 20
118.858803629134
 30
0.0
 11
718.4066167597792
 21
118.9088676291344
 31
0.0
  0
LINE
  5
F22
330
1F
100
AcDbEntity
  8
0
  6
Continuous
 62
     7
 48
0.068752
100
AcDbLine
 10
711.4066167597792
 20
119.8087836291342
 30
0.0
 11
718.4066167597792
 21
119.758719629134
 31
0.0
  0
LINE
  5
F25
330
1F
100
AcDbEntity
  8
0
  6
Continuous
 62
     7
 48
0.068752
100
AcDbLine
 10
711.4066167597792
 20
127.858803629134
 30
0.0
 11
718.4066167597792
 21
127.9088676291344
 31
0.0
  0
LINE
  5
F26
330
1F
100
AcDbEntity
  8
0
  6
Continuous
 62
     7
 48
0.068752
100
AcDbLine
 10
711.4066167597792
 20
128.8087836291345
 30
0.0
 11
718.4066167597792
 21
128.7587196291342
 31
0.0
  0
LINE
  5
F40
330
1F
100
AcDbEntity
  8
0
  6
Continuous
 62
     7
 48
0.046232
100
AcDbLine
 10
714.4066167597791
 20
125.0325096291342
 30
0.0
 11
714.4066167597791
 21
121.3339616291344
 31
0.0
  0
LINE
  5
F42
330
1F
100
AcDbEntity
  8
0
  6
Continuous
 62
     7
 48
0.0625
100
AcDbLine
 10
718.4066167597792
 20
120.0339736291345
 30
0.0
 11
724.9066167597791
 21
120.0339736291345
 31
0.0
  0
LINE
  5
F43
330
1F
100
AcDbEntity
  8
0
  6
Continuous
 62
     7
 48
0.0625
100
AcDbLine
 10
724.9066167597791
 20
118.7339556291344
 30
0.0
 11
718.4066167597792
 21
118.7339556291344
 31
0.0
  0
LINE
  5
F45
330
1F
100
AcDbEntity
  8
0
  6
Continuous
 62
     7
 48
0.016268
100
AcDbLine
 10
714.4066167597791
 20
117.3339616291344
 30
0.0
 11
714.4066167597791
 21
116.0325096291344
 31
0.0
  0
LINE
  5
F46
330
1F
100
AcDbEntity
  8
0
  6
Continuous
 62
     7
 48
0.046232
100
AcDbLine
 10
714.4066167597791
 20
116.0325096291344
 30
0.0
 11
714.4066167597791
 21
112.3339616291344
 31
0.0
  0
LINE
  5
F50
330
1F
100
AcDbEntity
  8
0
  6
Continuous
 62
     7
 48
0.016268
100
AcDbLine
 10
714.4066167597791
 20
126.333961629134
 30
0.0
 11
714.4066167597791
 21
125.0325096291342
 31
0.0
  0
LINE
  5
F51
330
1F
100
AcDbEntity
  8
0
  6
Continuous
 62
     7
 48
0.046232
100
AcDbLine
 10
714.4066167597791
 20
134.0325096291344
 30
0.0
 11
714.4066167597791
 21
130.333961629134
 31
0.0
  0
LINE
  5
F58
330
1F
100
AcDbEntity
  8
0
  6
Continuous
 62
     7
100
AcDbLine
 10
635.2258907597796
 20
204.6275716291345
 30
0.0
 11
711.4066167597792
 21
203.9627456291345
 31
0.0
  0
LINE
  5
F59
330
1F
100
AcDbEntity
  8
0
  6
Continuous
 62
     7
100
AcDbLine
 10
711.4066167597792
 20
199.9625936291345
 30
0.0
 11
618.0479127597797
 21
200.7773216291345
 31
0.0
  0
LINE
  5
F5A
330
1F
100
AcDbEntity
  8
0
  6
Continuous
 62
     7
 48
0.029502
100
AcDbLine
 10
601.4865727597797
 20
182.5138936291345
 30
0.0
 11
601.4865727597797
 21
180.1536936291345
 31
0.0
  0
LINE
  5
F5B
330
1F
100
AcDbEntity
  8
0
  6
Continuous
 62
     7
 48
0.029502
100
AcDbLine
 10
613.4865727597797
 20
182.5138936291345
 30
0.0
 11
613.4865727597797
 21
180.1536936291345
 31
0.0
  0
LINE
  5
F5C
330
1F
100
AcDbEntity
  8
0
  6
Continuous
 62
     7
 48
0.029502
100
AcDbLine
 10
603.1264027597792
 20
182.5138936291345
 30
0.0
 11
603.1264027597792
 21
180.1536936291345
 31
0.0
  0
LINE
  5
F60
330
1F
100
AcDbEntity
  8
0
  6
Continuous
 62
     7
 48
0.029502
100
AcDbLine
 10
601.4865727597797
 20
170.5138936291345
 30
0.0
 11
601.4865727597797
 21
168.153693629134
 31
0.0
  0
LINE
  5
F61
330
1F
100
AcDbEntity
  8
0
  6
Continuous
 62
     7
 48
0.029502
100
AcDbLine
 10
613.4865727597797
 20
170.5138936291345
 30
0.0
 11
613.4865727597797
 21
168.153693629134
 31
0.0
  0
LINE
  5
F62
330
1F
100
AcDbEntity
  8
0
  6
Continuous
 62
     7
 48
0.029502
100
AcDbLine
 10
603.1264027597792
 20
170.5138936291345
 30
0.0
 11
603.1264027597792
 21
168.153693629134
 31
0.0
  0
LINE
  5
F66
330
1F
100
AcDbEntity
  8
0
  6
Continuous
 62
     7
 48
0.129502
100
AcDbLine
 10
603.1264027597792
 20
168.153693629134
 30
0.0
 11
613.4865727597797
 21
168.153693629134
 31
0.0
  0
LINE
  5
F67
330
1F
100
AcDbEntity
  8
0
  6
Continuous
 62
     7
 48
0.129502
100
AcDbLine
 10
603.1264027597792
 20
164.1536936291345
 30
0.0
 11
613.4865727597797
 21
164.1536936291345
 31
0.0
  0
LINE
  5
F68
330
1F
100
AcDbEntity
  8
0
  6
Continuous
 62
     7
 48
0.129502
100
AcDbLine
 10
603.1264027597792
 20
166.5138936291345
 30
0.0
 11
613.4865727597797
 21
166.5138936291345
 31
0.0
  0
LINE
  5
F6C
330
1F
100
AcDbEntity
  8
0
  6
Continuous
 62
     7
 48
0.029502
100
AcDbLine
 10
601.4865727597797
 20
166.5138936291345
 30
0.0
 11
601.4865727597797
 21
164.1536936291345
 31
0.0
  0
LINE
  5
F6D
330
1F
100
AcDbEntity
  8
0
  6
Continuous
 62
     7
 48
0.029502
100
AcDbLine
 10
603.1264027597792
 20
166.5138936291345
 30
0.0
 11
603.1264027597792
 21
164.1536936291345
 31
0.0
  0
LINE
  5
F76
330
1F
100
AcDbEntity
  8
0
  6
Continuous
 62
     7
 48
0.029502
100
AcDbLine
 10
613.4865727597797
 20
166.5138936291345
 30
0.0
 11
613.4865727597797
 21
164.1536936291345
 31
0.0
  0
LINE
  5
F7B
330
1F
100
AcDbEntity
  8
0
  6
Continuous
 62
     7
 48
0.129502
100
AcDbLine
 10
603.1264027597792
 20
176.1536936291345
 30
0.0
 11
613.4865727597797
 21
176.1536936291345
 31
0.0
  0
LINE
  5
F7C
330
1F
100
AcDbEntity
  8
0
  6
Continuous
 62
     7
 48
0.129502
100
AcDbLine
 10
603.1264027597792
 20
178.5138936291345
 30
0.0
 11
613.4865727597797
 21
178.5138936291345
 31
0.0
  0
LINE
  5
F7D
330
1F
100
AcDbEntity
  8
0
  6
Continuous
 62
     7
 48
0.129502
100
AcDbLine
 10
603.1264027597792
 20
172.1536936291345
 30
0.0
 11
613.4865727597797
 21
172.1536936291345
 31
0.0
  0
LINE
  5
F7E
330
1F
100
AcDbEntity
  8
0
  6
Continuous
 62
     7
 48
0.129502
100
AcDbLine
 10
603.1264027597792
 20
174.5138936291345
 30
0.0
 11
613.4865727597797
 21
174.5138936291345
 31
0.0
  0
LINE
  5
F7F
330
1F
100
AcDbEntity
  8
0
  6
Continuous
 62
     7
 48
0.129502
100
AcDbLine
 10
603.1264027597792
 20
170.5138936291345
 30
0.0
 11
613.4865727597797
 21
170.5138936291345
 31
0.0
  0
LINE
  5
F83
330
1F
100
AcDbEntity
  8
0
  6
Continuous
 62
     7
 48
0.129502
100
AcDbLine
 10
603.1264027597792
 20
180.1536936291345
 30
0.0
 11
613.4865727597797
 21
180.1536936291345
 31
0.0
  0
LINE
  5
F87
330
1F
100
AcDbEntity
  8
0
  6
Continuous
 62
     7
 48
0.029502
100
AcDbLine
 10
601.4865727597797
 20
178.5138936291345
 30
0.0
 11
601.4865727597797
 21
176.1536936291345
 31
0.0
  0
LINE
  5
F88
330
1F
100
AcDbEntity
  8
0
  6
Continuous
 62
     7
 48
0.029502
100
AcDbLine
 10
603.1264027597792
 20
178.5138936291345
 30
0.0
 11
603.1264027597792
 21
176.1536936291345
 31
0.0
  0
LINE
  5
F89
330
1F
100
AcDbEntity
  8
0
  6
Continuous
 62
     7
 48
0.029502
100
AcDbLine
 10
601.4865727597797
 20
174.5138936291345
 30
0.0
 11
601.4865727597797
 21
172.1536936291345
 31
0.0
  0
LINE
  5
F8A
330
1F
100
AcDbEntity
  8
0
  6
Continuous
 62
     7
 48
0.029502
100
AcDbLine
 10
603.1264027597792
 20
174.5138936291345
 30
0.0
 11
603.1264027597792
 21
172.1536936291345
 31
0.0
  0
LINE
  5
F9B
330
1F
100
AcDbEntity
  8
0
  6
Continuous
 62
     7
 48
0.029502
100
AcDbLine
 10
613.4865727597797
 20
178.5138936291345
 30
0.0
 11
613.4865727597797
 21
176.1536936291345
 31
0.0
  0
LINE
  5
F9C
330
1F
100
AcDbEntity
  8
0
  6
Continuous
 62
     7
 48
0.029502
100
AcDbLine
 10
613.4865727597797
 20
174.5138936291345
 30
0.0
 11
613.4865727597797
 21
172.1536936291345
 31
0.0
  0
LINE
  5
FA5
330
1F
100
AcDbEntity
  8
0
  6
Continuous
 62
     7
 48
0.214281
100
AcDbLine
 10
635.2258907597796
 20
204.6275716291345
 30
0.0
 11
618.0840447597796
 21
204.7771676291345
 31
0.0
  0
ELLIPSE
  5
FA6
330
1F
100
AcDbEntity
  8
0
  6
Continuous
 62
     7
100
AcDbEllipse
 10
618.0753167597791
 20
203.7771996291345
 30
0.0
 11
-3.9599609375
 21
0.0345458984375
 31
0.0
210
0.0
220
0.0
230
1.0
 40
0.25252
 41
4.712388936673296
 42
6.283109154758924
  0
ELLIPSE
  5
FA7
330
1F
100
AcDbEntity
  8
0
  6
Continuous
 62
     7
100
AcDbEllipse
 10
618.0391847597793
 20
199.777381629134
 30
0.0
 11
-3.9599609375
 21
0.0345458984375
 31
0.0
210
0.0
220
0.0
230
1.0
 40
0.25252
 41
4.712388936673296
 42
6.283109154758924
  0
LINE
  5
FA8
330
1F
100
AcDbEntity
  8
0
  6
Continuous
 62
     7
 48
0.029502
100
AcDbLine
 10
601.4865727597797
 20
194.5138936291341
 30
0.0
 11
601.4865727597797
 21
192.1536936291345
 31
0.0
  0
LINE
  5
FA9
330
1F
100
AcDbEntity
  8
0
  6
Continuous
 62
     7
 48
0.029502
100
AcDbLine
 10
613.4865727597797
 20
194.5138936291341
 30
0.0
 11
613.4865727597797
 21
192.1536936291345
 31
0.0
  0
LINE
  5
FAA
330
1F
100
AcDbEntity
  8
0
  6
Continuous
 62
     7
 48
0.029502
100
AcDbLine
 10
603.1264027597792
 20
194.5138936291341
 30
0.0
 11
603.1264027597792
 21
192.1536936291345
 31
0.0
  0
LINE
  5
FAE
330
1F
100
AcDbEntity
  8
0
  6
Continuous
 62
     7
 48
0.129502
100
AcDbLine
 10
603.1264027597792
 20
192.1536936291345
 30
0.0
 11
613.4865727597797
 21
192.1536936291345
 31
0.0
  0
LINE
  5
FAF
330
1F
100
AcDbEntity
  8
0
  6
Continuous
 62
     7
 48
0.129502
100
AcDbLine
 10
603.1264027597792
 20
188.1536936291347
 30
0.0
 11
613.4865727597797
 21
188.1536936291347
 31
0.0
  0
LINE
  5
FB0
330
1F
100
AcDbEntity
  8
0
  6
Continuous
 62
     7
 48
0.129502
100
AcDbLine
 10
603.1264027597792
 20
190.513893629134
 30
0.0
 11
613.4865727597797
 21
190.513893629134
 31
0.0
  0
LINE
  5
FB1
330
1F
100
AcDbEntity
  8
0
  6
Continuous
 62
     7
 48
0.129502
100
AcDbLine
 10
603.1264027597792
 20
184.1536936291345
 30
0.0
 11
613.4865727597797
 21
184.1536936291345
 31
0.0
  0
LINE
  5
FB2
330
1F
100
AcDbEntity
  8
0
  6
Continuous
 62
     7
 48
0.129502
100
AcDbLine
 10
603.1264027597792
 20
186.5138936291345
 30
0.0
 11
613.4865727597797
 21
186.5138936291345
 31
0.0
  0
LINE
  5
FB3
330
1F
100
AcDbEntity
  8
0
  6
Continuous
 62
     7
 48
0.129502
100
AcDbLine
 10
603.1264027597792
 20
182.5138936291345
 30
0.0
 11
613.4865727597797
 21
182.5138936291345
 31
0.0
  0
LINE
  5
FBA
330
1F
100
AcDbEntity
  8
0
  6
Continuous
 62
     7
 48
0.029502
100
AcDbLine
 10
601.4865727597797
 20
190.513893629134
 30
0.0
 11
601.4865727597797
 21
188.1536936291347
 31
0.0
  0
LINE
  5
FBB
330
1F
100
AcDbEntity
  8
0
  6
Continuous
 62
     7
 48
0.029502
100
AcDbLine
 10
603.1264027597792
 20
190.513893629134
 30
0.0
 11
603.1264027597792
 21
188.1536936291347
 31
0.0
  0
LINE
  5
FBC
330
1F
100
AcDbEntity
  8
0
  6
Continuous
 62
     7
 48
0.029502
100
AcDbLine
 10
601.4865727597797
 20
186.5138936291345
 30
0.0
 11
601.4865727597797
 21
184.1536936291345
 31
0.0
  0
LINE
  5
FBD
330
1F
100
AcDbEntity
  8
0
  6
Continuous
 62
     7
 48
0.029502
100
AcDbLine
 10
603.1264027597792
 20
186.5138936291345
 30
0.0
 11
603.1264027597792
 21
184.1536936291345
 31
0.0
  0
LINE
  5
FCE
330
1F
100
AcDbEntity
  8
0
  6
Continuous
 62
     7
 48
0.029502
100
AcDbLine
 10
613.4865727597797
 20
190.513893629134
 30
0.0
 11
613.4865727597797
 21
188.1536936291347
 31
0.0
  0
LINE
  5
FCF
330
1F
100
AcDbEntity
  8
0
  6
Continuous
 62
     7
 48
0.029502
100
AcDbLine
 10
613.4865727597797
 20
186.5138936291345
 30
0.0
 11
613.4865727597797
 21
184.1536936291345
 31
0.0
  0
LINE
  5
FD8
330
1F
100
AcDbEntity
  8
0
  6
Continuous
 62
     7
 48
0.129502
100
AcDbLine
 10
603.1264027597792
 20
194.5138936291341
 30
0.0
 11
613.4865727597797
 21
194.5138936291341
 31
0.0
  0
LINE
  5
FDC
330
1F
100
AcDbEntity
  8
0
  6
Continuous
 62
     7
 48
0.05
100
AcDbLine
 10
614.1153567597797
 20
203.8118356291346
 30
0.0
 11
614.0792227597794
 21
199.8119896291345
 31
0.0
  0
LINE
  5
FDE
330
1F
100
AcDbEntity
  8
0
  6
Continuous
 62
     7
 48
0.05
100
AcDbLine
 10
635.1897587597797
 20
200.6277236291345
 30
0.0
 11
635.2258907597796
 21
204.6275716291345
 31
0.0
  0
LINE
  5
FE1
330
1F
100
AcDbEntity
  8
0
  6
Continuous
 62
     7
 48
0.046232
100
AcDbLine
 10
714.4066167597791
 20
161.0325396291345
 30
0.0
 11
714.4066167597791
 21
157.333961629134
 31
0.0
  0
ARC
  5
FE7
330
1F
100
AcDbEntity
  8
0
  6
Continuous
 62
     7
100
AcDbCircle
 10
713.9066167597792
 20
135.3339616291344
 30
0.0
 40
0.5
100
AcDbArc
 50
0.0
 51
90.00000300000095
  0
ARC
  5
FE8
330
1F
100
AcDbEntity
  8
0
  6
Continuous
 62
     7
100
AcDbCircle
 10
713.9066167597792
 20
144.3339616291345
 30
0.0
 40
0.5
100
AcDbArc
 50
0.0
 51
90.00000300000095
  0
ARC
  5
FE9
330
1F
100
AcDbEntity
  8
0
  6
Continuous
 62
     7
100
AcDbCircle
 10
713.9066167597792
 20
139.3339616291345
 30
0.0
 40
0.5
100
AcDbArc
 50
269.9999969999988
 51
0.0
  0
ARC
  5
FEA
330
1F
100
AcDbEntity
  8
0
  6
Continuous
 62
     7
100
AcDbCircle
 10
713.9066167597792
 20
153.3339616291345
 30
0.0
 40
0.5
100
AcDbArc
 50
0.0
 51
90.00000300000095
  0
ARC
  5
FEB
330
1F
100
AcDbEntity
  8
0
  6
Continuous
 62
     7
100
AcDbCircle
 10
713.9066167597792
 20
148.3339616291345
 30
0.0
 40
0.5
100
AcDbArc
 50
269.9999969999988
 51
0.0
  0
ARC
  5
FEC
330
1F
100
AcDbEntity
  8
0
  6
Continuous
 62
     7
100
AcDbCircle
 10
713.9066167597792
 20
157.333961629134
 30
0.0
 40
0.5
100
AcDbArc
 50
269.9999969999988
 51
0.0
  0
LINE
  5
FEE
330
1F
100
AcDbEntity
  8
0
  6
Continuous
 62
     7
 48
0.068752
100
AcDbLine
 10
711.4066167597792
 20
136.858803629134
 30
0.0
 11
718.4066167597792
 21
136.908867629134
 31
0.0
  0
LINE
  5
FEF
330
1F
100
AcDbEntity
  8
0
  6
Continuous
 62
     7
 48
0.068752
100
AcDbLine
 10
711.4066167597792
 20
137.808783629134
 30
0.0
 11
718.4066167597792
 21
137.7587196291347
 31
0.0
  0
LINE
  5
FF2
330
1F
100
AcDbEntity
  8
0
  6
Continuous
 62
     7
 48
0.068752
100
AcDbLine
 10
711.4066167597792
 20
145.858803629134
 30
0.0
 11
718.4066167597792
 21
145.908867629134
 31
0.0
  0
LINE
  5
FF3
330
1F
100
AcDbEntity
  8
0
  6
Continuous
 62
     7
 48
0.068752
100
AcDbLine
 10
711.4066167597792
 20
146.808783629134
 30
0.0
 11
718.4066167597792
 21
146.7587196291347
 31
0.0
  0
LINE
  5
FF6
330
1F
100
AcDbEntity
  8
0
  6
Continuous
 62
     7
 48
0.068752
100
AcDbLine
 10
711.4066167597792
 20
154.858803629134
 30
0.0
 11
718.4066167597792
 21
154.9088676291347
 31
0.0
  0
LINE
  5
FF7
330
1F
100
AcDbEntity
  8
0
  6
Continuous
 62
     7
 48
0.068752
100
AcDbLine
 10
711.4066167597792
 20
155.8087836291338
 30
0.0
 11
718.4066167597792
 21
155.7587196291347
 31
0.0
  0
LINE
  5
1016
330
1F
100
AcDbEntity
  8
0
  6
Continuous
 62
     7
 48
0.016268
100
AcDbLine
 10
714.4066167597791
 20
144.3339616291345
 30
0.0
 11
714.4066167597791
 21
143.0325396291345
 31
0.0
  0
LINE
  5
1017
330
1F
100
AcDbEntity
  8
0
  6
Continuous
 62
     7
 48
0.046232
100
AcDbLine
 10
714.4066167597791
 20
143.0325396291345
 30
0.0
 11
714.4066167597791
 21
139.3339616291345
 31
0.0
  0
LINE
  5
1024
330
1F
100
AcDbEntity
  8
0
  6
Continuous
 62
     7
 48
0.016268
100
AcDbLine
 10
714.4066167597791
 20
153.3339616291345
 30
0.0
 11
714.4066167597791
 21
152.032509629134
 31
0.0
  0
LINE
  5
1025
330
1F
100
AcDbEntity
  8
0
  6
Continuous
 62
     7
 48
0.046232
100
AcDbLine
 10
714.4066167597791
 20
152.032509629134
 30
0.0
 11
714.4066167597791
 21
148.3339616291345
 31
0.0
  0
ARC
  5
102D
330
1F
100
AcDbEntity
  8
0
  6
Continuous
 62
     7
100
AcDbCircle
 10
713.9066167597792
 20
162.3339616291345
 30
0.0
 40
0.5
100
AcDbArc
 50
0.0
 51
90.00000300000095
  0
ARC
  5
102E
330
1F
100
AcDbEntity
  8
0
  6
Continuous
 62
     7
100
AcDbCircle
 10
713.9066167597792
 20
171.3339616291345
 30
0.0
 40
0.5
100
AcDbArc
 50
0.0
 51
90.00000300000095
  0
ARC
  5
102F
330
1F
100
AcDbEntity
  8
0
  6
Continuous
 62
     7
100
AcDbCircle
 10
713.9066167597792
 20
166.3339616291345
 30
0.0
 40
0.5
100
AcDbArc
 50
269.9999969999988
 51
0.0
  0
ARC
  5
1030
330
1F
100
AcDbEntity
  8
0
  6
Continuous
 62
     7
100
AcDbCircle
 10
713.9066167597792
 20
180.3339616291345
 30
0.0
 40
0.5
100
AcDbArc
 50
0.0
 51
90.00000300000095
  0
ARC
  5
1031
330
1F
100
AcDbEntity
  8
0
  6
Continuous
 62
     7
100
AcDbCircle
 10
713.9066167597792
 20
175.3339616291345
 30
0.0
 40
0.5
100
AcDbArc
 50
269.9999969999988
 51
0.0
  0
LINE
  5
1033
330
1F
100
AcDbEntity
  8
0
  6
Continuous
 62
     7
 48
0.068752
100
AcDbLine
 10
711.4066167597792
 20
163.8588036291345
 30
0.0
 11
718.4066167597792
 21
163.9088676291345
 31
0.0
  0
LINE
  5
1034
330
1F
100
AcDbEntity
  8
0
  6
Continuous
 62
     7
 48
0.068752
100
AcDbLine
 10
711.4066167597792
 20
164.8087836291345
 30
0.0
 11
718.4066167597792
 21
164.7587196291347
 31
0.0
  0
LINE
  5
1037
330
1F
100
AcDbEntity
  8
0
  6
Continuous
 62
     7
 48
0.068752
100
AcDbLine
 10
711.4066167597792
 20
172.8588036291345
 30
0.0
 11
718.4066167597792
 21
172.9088676291347
 31
0.0
  0
LINE
  5
1038
330
1F
100
AcDbEntity
  8
0
  6
Continuous
 62
     7
 48
0.068752
100
AcDbLine
 10
711.4066167597792
 20
173.808783629134
 30
0.0
 11
718.4066167597792
 21
173.7587196291347
 31
0.0
  0
LINE
  5
1059
330
1F
100
AcDbEntity
  8
0
  6
Continuous
 62
     7
 48
0.016268
100
AcDbLine
 10
714.4066167597791
 20
171.3339616291345
 30
0.0
 11
714.4066167597791
 21
170.0325096291345
 31
0.0
  0
LINE
  5
105B
330
1F
100
AcDbEntity
  8
0
  6
Continuous
 62
     7
 48
0.016268
100
AcDbLine
 10
714.4066167597791
 20
162.3339616291345
 30
0.0
 11
714.4066167597791
 21
161.0325396291345
 31
0.0
  0
LINE
  5
105C
330
1F
100
AcDbEntity
  8
0
  6
Continuous
 62
     7
 48
0.046232
100
AcDbLine
 10
714.4066167597791
 20
170.0325096291345
 30
0.0
 11
714.4066167597791
 21
166.3339616291345
 31
0.0
  0
LINE
  5
1063
330
1F
100
AcDbEntity
  8
0
  6
Continuous
 62
     7
 48
0.0625
100
AcDbLine
 10
718.4066167597792
 20
174.0339736291345
 30
0.0
 11
724.9066167597791
 21
174.0339736291345
 31
0.0
  0
LINE
  5
1064
330
1F
100
AcDbEntity
  8
0
  6
Continuous
 62
     7
 48
0.0625
100
AcDbLine
 10
724.9066167597791
 20
172.7339556291345
 30
0.0
 11
718.4066167597792
 21
172.7339556291345
 31
0.0
  0
LINE
  5
1066
330
1F
100
AcDbEntity
  8
0
  6
Continuous
 62
     7
 48
0.016268
100
AcDbLine
 10
714.4066167597791
 20
180.3339616291345
 30
0.0
 11
714.4066167597791
 21
179.0325096291346
 31
0.0
  0
LINE
  5
1067
330
1F
100
AcDbEntity
  8
0
  6
Continuous
 62
     7
 48
0.046232
100
AcDbLine
 10
714.4066167597791
 20
179.0325096291346
 30
0.0
 11
714.4066167597791
 21
175.3339616291345
 31
0.0
  0
LINE
  5
1072
330
1F
100
AcDbEntity
  8
0
  6
DASHED
 62
     4
 48
0.23125
100
AcDbLine
 10
729.9066167597792
 20
203.3339616291345
 30
0.0
 11
711.4066167597792
 21
203.3339616291345
 31
0.0
  0
ARC
  5
1074
330
1F
100
AcDbEntity
  8
0
  6
Continuous
 62
     7
100
AcDbCircle
 10
713.9066167597792
 20
189.3339616291345
 30
0.0
 40
0.5
100
AcDbArc
 50
0.0
 51
90.00000300000095
  0
ARC
  5
1075
330
1F
100
AcDbEntity
  8
0
  6
Continuous
 62
     7
100
AcDbCircle
 10
713.9066167597792
 20
184.3339616291345
 30
0.0
 40
0.5
100
AcDbArc
 50
269.9999969999988
 51
0.0
  0
ARC
  5
1076
330
1F
100
AcDbEntity
  8
0
  6
Continuous
 62
     7
100
AcDbCircle
 10
713.9066167597792
 20
198.333961629134
 30
0.0
 40
0.5
100
AcDbArc
 50
0.0
 51
90.00000300000095
  0
ARC
  5
1077
330
1F
100
AcDbEntity
  8
0
  6
Continuous
 62
     7
100
AcDbCircle
 10
713.9066167597792
 20
193.3339616291345
 30
0.0
 40
0.5
100
AcDbArc
 50
269.9999969999988
 51
0.0
  0
LINE
  5
1078
330
1F
100
AcDbEntity
  8
0
  6
Continuous
 62
     7
 48
0.068752
100
AcDbLine
 10
711.4066167597792
 20
181.858803629134
 30
0.0
 11
718.4066167597792
 21
181.9088676291347
 31
0.0
  0
LINE
  5
1079
330
1F
100
AcDbEntity
  8
0
  6
Continuous
 62
     7
 48
0.068752
100
AcDbLine
 10
711.4066167597792
 20
182.808783629134
 30
0.0
 11
718.4066167597792
 21
182.758719629134
 31
0.0
  0
LINE
  5
107C
330
1F
100
AcDbEntity
  8
0
  6
Continuous
 62
     7
 48
0.068752
100
AcDbLine
 10
711.4066167597792
 20
190.8588036291345
 30
0.0
 11
718.4066167597792
 21
190.9088676291345
 31
0.0
  0
LINE
  5
107D
330
1F
100
AcDbEntity
  8
0
  6
Continuous
 62
     7
 48
0.068752
100
AcDbLine
 10
711.4066167597792
 20
191.808783629134
 30
0.0
 11
718.4066167597792
 21
191.7587196291347
 31
0.0
  0
LINE
  5
1080
330
1F
100
AcDbEntity
  8
0
  6
Continuous
 62
     7
 48
0.068752
100
AcDbLine
 10
711.4066167597792
 20
199.8589556291345
 30
0.0
 11
718.4066167597792
 21
199.9090603564071
 31
0.0
  0
LINE
  5
1081
330
1F
100
AcDbEntity
  8
0
  6
Continuous
 62
     7
 48
0.055478
100
AcDbLine
 10
713.9066167597792
 20
198.8339616291341
 30
0.0
 11
713.9066167597792
 21
192.8339616291345
 31
0.0
  0
LINE
  5
1084
330
1F
100
AcDbEntity
  8
0
  6
Continuous
 62
     7
 48
0.04375
100
AcDbLine
 10
711.4066167597792
 20
199.3339616291345
 30
0.0
 11
711.4066167597792
 21
192.3339616291345
 31
0.0
  0
LINE
  5
108B
330
1F
100
AcDbEntity
  8
0
  6
Continuous
 62
     7
 48
0.01875
100
AcDbLine
 10
713.9066167597792
 20
192.8339616291345
 30
0.0
 11
712.4066167597791
 21
192.8339616291345
 31
0.0
  0
LINE
  5
1092
330
1F
100
AcDbEntity
  8
0
  6
Continuous
 62
     7
 48
0.0125
100
AcDbLine
 10
712.4066167597791
 20
192.3339616291345
 30
0.0
 11
711.4066167597792
 21
192.3339616291345
 31
0.0
  0
LINE
  5
1093
330
1F
100
AcDbEntity
  8
0
  6
Continuous
 62
     7
 48
0.0125
100
AcDbLine
 10
711.4066167597792
 20
199.9625936291345
 30
0.0
 11
711.4066167597792
 21
198.962623629134
 31
0.0
  0
LINE
  5
1095
330
1F
100
AcDbEntity
  8
0
  6
Continuous
 62
     7
 48
0.00786
100
AcDbLine
 10
711.4066167597792
 20
203.9627456291345
 30
0.0
 11
711.4066167597792
 21
70.7048416291343
 31
0.0
  0
LINE
  5
1098
330
1F
100
AcDbEntity
  8
0
  6
Continuous
 62
     7
 48
0.01875
100
AcDbLine
 10
713.9066167597792
 20
198.8339616291345
 30
0.0
 11
712.4066167597791
 21
198.8339616291345
 31
0.0
  0
LINE
  5
109A
330
1F
100
AcDbEntity
  8
0
  6
Continuous
 62
     7
 48
0.019522
100
AcDbLine
 10
712.4066167597791
 20
199.3339616291345
 30
0.0
 11
712.4066167597791
 21
192.3339616291345
 31
0.0
  0
LINE
  5
109B
330
1F
100
AcDbEntity
  8
0
  6
Continuous
 62
     7
 48
0.0125
100
AcDbLine
 10
712.4066167597791
 20
199.3339616291345
 30
0.0
 11
711.4066167597792
 21
199.3339616291345
 31
0.0
  0
LINE
  5
10A0
330
1F
100
AcDbEntity
  8
0
  6
Continuous
 62
     7
 48
0.016268
100
AcDbLine
 10
714.4066167597791
 20
189.3339616291345
 30
0.0
 11
714.4066167597791
 21
188.0325096291346
 31
0.0
  0
LINE
  5
10A1
330
1F
100
AcDbEntity
  8
0
  6
Continuous
 62
     7
 48
0.046232
100
AcDbLine
 10
714.4066167597791
 20
188.0325096291346
 30
0.0
 11
714.4066167597791
 21
184.3339616291345
 31
0.0
  0
LINE
  5
10AE
330
1F
100
AcDbEntity
  8
0
  6
Continuous
 62
     7
 48
0.08125
100
AcDbLine
 10
724.9066167597791
 20
196.8339616291345
 30
0.0
 11
718.4066167597792
 21
196.8339616291345
 31
0.0
  0
LINE
  5
10B0
330
1F
100
AcDbEntity
  8
0
  6
Continuous
 62
     7
 48
0.046232
100
AcDbLine
 10
714.4066167597791
 20
198.333961629134
 30
0.0
 11
714.4066167597791
 21
193.3339616291345
 31
0.0
  0
LINE
  5
10B2
330
1F
100
AcDbEntity
  8
0
  6
Continuous
 62
     7
 48
0.006876
100
AcDbLine
 10
718.4066167597792
 20
72.8339616291343
 30
0.0
 11
718.4066167597792
 21
201.8339616291345
 31
0.0
  0
LINE
  5
10B5
330
1F
100
AcDbEntity
  8
0
  6
DASHED
 62
     4
 48
0.01875
100
AcDbLine
 10
729.9066167597792
 20
201.833961629134
 30
0.0
 11
729.9066167597792
 21
203.3339616291345
 31
0.0
  0
LINE
  5
10B7
330
1F
100
AcDbEntity
  8
0
  6
DASHED
 62
     4
100
AcDbLine
 10
734.9066167597791
 20
76.33396162913408
 30
0.0
 11
734.9066167597791
 21
198.333961629134
 31
0.0
  0
LINE
  5
10DD
330
1F
100
AcDbEntity
  8
0
  6
Continuous
 62
     7
 48
0.04375
100
AcDbLine
 10
711.4066167335993
 20
190.3339616291349
 30
0.0
 11
711.4066167335993
 21
183.333961629135
 31
0.0
  0
LINE
  5
10DE
330
1F
100
AcDbEntity
  8
0
  6
Continuous
 62
     7
 48
0.019522
100
AcDbLine
 10
712.4066167335992
 20
190.3339616291349
 30
0.0
 11
712.4066167335992
 21
183.333961629135
 31
0.0
  0
LINE
  5
10DF
330
1F
100
AcDbEntity
  8
0
  6
Continuous
 62
     7
 48
0.055478
100
AcDbLine
 10
713.9066167335993
 20
189.8339616291345
 30
0.0
 11
713.9066167335993
 21
183.8339616291349
 31
0.0
  0
LINE
  5
10E0
330
1F
100
AcDbEntity
  8
0
  6
Continuous
 62
     7
 48
0.0125
100
AcDbLine
 10
712.4066167335992
 20
183.333961629135
 30
0.0
 11
711.4066167335993
 21
183.333961629135
 31
0.0
  0
LINE
  5
10E1
330
1F
100
AcDbEntity
  8
0
  6
Continuous
 62
     7
 48
0.01875
100
AcDbLine
 10
713.9066167335993
 20
183.8339616291349
 30
0.0
 11
712.4066167335992
 21
183.8339616291349
 31
0.0
  0
LINE
  5
10E2
330
1F
100
AcDbEntity
  8
0
  6
Continuous
 62
     7
 48
0.0125
100
AcDbLine
 10
712.4066167335992
 20
190.3339616291349
 30
0.0
 11
711.4066167335993
 21
190.3339616291349
 31
0.0
  0
LINE
  5
10E3
330
1F
100
AcDbEntity
  8
0
  6
Continuous
 62
     7
 48
0.01875
100
AcDbLine
 10
713.9066167335993
 20
189.833961629135
 30
0.0
 11
712.4066167335992
 21
189.833961629135
 31
0.0
  0
LINE
  5
10E4
330
1F
100
AcDbEntity
  8
0
  6
Continuous
 62
     7
 48
0.019522
100
AcDbLine
 10
712.4066167335991
 20
181.3339616291349
 30
0.0
 11
712.4066167335991
 21
174.3339616291349
 31
0.0
  0
LINE
  5
10E5
330
1F
100
AcDbEntity
  8
0
  6
Continuous
 62
     7
 48
0.04375
100
AcDbLine
 10
711.4066167335992
 20
181.3339616291349
 30
0.0
 11
711.4066167335992
 21
174.3339616291349
 31
0.0
  0
LINE
  5
10E6
330
1F
100
AcDbEntity
  8
0
  6
Continuous
 62
     7
 48
0.0125
100
AcDbLine
 10
712.4066167335991
 20
174.3339616291349
 30
0.0
 11
711.4066167335992
 21
174.3339616291349
 31
0.0
  0
LINE
  5
10E7
330
1F
100
AcDbEntity
  8
0
  6
Continuous
 62
     7
 48
0.055478
100
AcDbLine
 10
713.9066167335991
 20
180.8339616291345
 30
0.0
 11
713.9066167335991
 21
174.833961629135
 31
0.0
  0
LINE
  5
10E8
330
1F
100
AcDbEntity
  8
0
  6
Continuous
 62
     7
 48
0.01875
100
AcDbLine
 10
713.9066167335991
 20
180.8339616291349
 30
0.0
 11
712.4066167335991
 21
180.8339616291349
 31
0.0
  0
LINE
  5
10E9
330
1F
100
AcDbEntity
  8
0
  6
Continuous
 62
     7
 48
0.0125
100
AcDbLine
 10
712.4066167335991
 20
181.3339616291349
 30
0.0
 11
711.4066167335992
 21
181.3339616291349
 31
0.0
  0
LINE
  5
10EA
330
1F
100
AcDbEntity
  8
0
  6
Continuous
 62
     7
 48
0.01875
100
AcDbLine
 10
713.9066167335991
 20
174.833961629135
 30
0.0
 11
712.4066167335991
 21
174.833961629135
 31
0.0
  0
LINE
  5
10EB
330
1F
100
AcDbEntity
  8
0
  6
Continuous
 62
     7
 48
0.01875
100
AcDbLine
 10
713.9066167335993
 20
165.833961629135
 30
0.0
 11
712.4066167335992
 21
165.833961629135
 31
0.0
  0
LINE
  5
10EC
330
1F
100
AcDbEntity
  8
0
  6
Continuous
 62
     7
 48
0.0125
100
AcDbLine
 10
712.4066167335992
 20
172.3339616291349
 30
0.0
 11
711.4066167335993
 21
172.3339616291349
 31
0.0
  0
LINE
  5
10ED
330
1F
100
AcDbEntity
  8
0
  6
Continuous
 62
     7
 48
0.01875
100
AcDbLine
 10
713.9066167335993
 20
171.8339616291349
 30
0.0
 11
712.4066167335992
 21
171.8339616291349
 31
0.0
  0
LINE
  5
10EE
330
1F
100
AcDbEntity
  8
0
  6
Continuous
 62
     7
 48
0.055478
100
AcDbLine
 10
713.9066167335993
 20
171.8339616291345
 30
0.0
 11
713.9066167335993
 21
165.833961629135
 31
0.0
  0
LINE
  5
10EF
330
1F
100
AcDbEntity
  8
0
  6
Continuous
 62
     7
 48
0.0125
100
AcDbLine
 10
712.4066167335992
 20
165.3339616291349
 30
0.0
 11
711.4066167335993
 21
165.3339616291349
 31
0.0
  0
LINE
  5
10F0
330
1F
100
AcDbEntity
  8
0
  6
Continuous
 62
     7
 48
0.04375
100
AcDbLine
 10
711.4066167335993
 20
172.3339616291349
 30
0.0
 11
711.4066167335993
 21
165.3339616291349
 31
0.0
  0
LINE
  5
10F1
330
1F
100
AcDbEntity
  8
0
  6
Continuous
 62
     7
 48
0.019522
100
AcDbLine
 10
712.4066167335992
 20
172.3339616291349
 30
0.0
 11
712.4066167335992
 21
165.3339616291349
 31
0.0
  0
LINE
  5
10F2
330
1F
100
AcDbEntity
  8
0
  6
Continuous
 62
     7
 48
0.01875
100
AcDbLine
 10
713.9066167335993
 20
156.8339616291345
 30
0.0
 11
712.4066167335992
 21
156.8339616291345
 31
0.0
  0
LINE
  5
10F3
330
1F
100
AcDbEntity
  8
0
  6
Continuous
 62
     7
 48
0.0125
100
AcDbLine
 10
712.4066167335992
 20
163.3339616291345
 30
0.0
 11
711.4066167335993
 21
163.3339616291345
 31
0.0
  0
LINE
  5
10F4
330
1F
100
AcDbEntity
  8
0
  6
Continuous
 62
     7
 48
0.01875
100
AcDbLine
 10
713.9066167335993
 20
162.8339616291345
 30
0.0
 11
712.4066167335992
 21
162.8339616291345
 31
0.0
  0
LINE
  5
10F5
330
1F
100
AcDbEntity
  8
0
  6
Continuous
 62
     7
 48
0.055478
100
AcDbLine
 10
713.9066167335993
 20
162.833961629134
 30
0.0
 11
713.9066167335993
 21
156.8339616291345
 31
0.0
  0
LINE
  5
10F6
330
1F
100
AcDbEntity
  8
0
  6
Continuous
 62
     7
 48
0.0125
100
AcDbLine
 10
712.4066167335992
 20
156.3339616291345
 30
0.0
 11
711.4066167335993
 21
156.3339616291345
 31
0.0
  0
LINE
  5
10F7
330
1F
100
AcDbEntity
  8
0
  6
Continuous
 62
     7
 48
0.04375
100
AcDbLine
 10
711.4066167335993
 20
163.3339616291345
 30
0.0
 11
711.4066167335993
 21
156.3339616291345
 31
0.0
  0
LINE
  5
10F8
330
1F
100
AcDbEntity
  8
0
  6
Continuous
 62
     7
 48
0.019522
100
AcDbLine
 10
712.4066167335992
 20
163.3339616291345
 30
0.0
 11
712.4066167335992
 21
156.3339616291345
 31
0.0
  0
LINE
  5
10F9
330
1F
100
AcDbEntity
  8
0
  6
Continuous
 62
     7
 48
0.019522
100
AcDbLine
 10
712.4066167335992
 20
154.3339616291349
 30
0.0
 11
712.4066167335992
 21
147.3339616291349
 31
0.0
  0
LINE
  5
10FA
330
1F
100
AcDbEntity
  8
0
  6
Continuous
 62
     7
 48
0.04375
100
AcDbLine
 10
711.4066167335993
 20
154.3339616291349
 30
0.0
 11
711.4066167335993
 21
147.3339616291349
 31
0.0
  0
LINE
  5
10FB
330
1F
100
AcDbEntity
  8
0
  6
Continuous
 62
     7
 48
0.055478
100
AcDbLine
 10
713.9066167335993
 20
153.8339616291345
 30
0.0
 11
713.9066167335993
 21
147.833961629135
 31
0.0
  0
LINE
  5
10FC
330
1F
100
AcDbEntity
  8
0
  6
Continuous
 62
     7
 48
0.0125
100
AcDbLine
 10
712.4066167335992
 20
147.3339616291349
 30
0.0
 11
711.4066167335993
 21
147.3339616291349
 31
0.0
  0
LINE
  5
10FD
330
1F
100
AcDbEntity
  8
0
  6
Continuous
 62
     7
 48
0.01875
100
AcDbLine
 10
713.9066167335993
 20
147.833961629135
 30
0.0
 11
712.4066167335992
 21
147.833961629135
 31
0.0
  0
LINE
  5
10FE
330
1F
100
AcDbEntity
  8
0
  6
Continuous
 62
     7
 48
0.01875
100
AcDbLine
 10
713.9066167335993
 20
153.8339616291349
 30
0.0
 11
712.4066167335992
 21
153.8339616291349
 31
0.0
  0
LINE
  5
10FF
330
1F
100
AcDbEntity
  8
0
  6
Continuous
 62
     7
 48
0.0125
100
AcDbLine
 10
712.4066167335992
 20
154.3339616291349
 30
0.0
 11
711.4066167335993
 21
154.3339616291349
 31
0.0
  0
LINE
  5
1100
330
1F
100
AcDbEntity
  8
0
  6
Continuous
 62
     7
 48
0.055478
100
AcDbLine
 10
713.9066167335991
 20
144.8339616291345
 30
0.0
 11
713.9066167335991
 21
138.8339616291349
 31
0.0
  0
LINE
  5
1101
330
1F
100
AcDbEntity
  8
0
  6
Continuous
 62
     7
 48
0.04375
100
AcDbLine
 10
711.4066167335992
 20
145.3339616291349
 30
0.0
 11
711.4066167335992
 21
138.3339616291349
 31
0.0
  0
LINE
  5
1102
330
1F
100
AcDbEntity
  8
0
  6
Continuous
 62
     7
 48
0.019522
100
AcDbLine
 10
712.4066167335991
 20
145.3339616291349
 30
0.0
 11
712.4066167335991
 21
138.3339616291349
 31
0.0
  0
LINE
  5
1103
330
1F
100
AcDbEntity
  8
0
  6
Continuous
 62
     7
 48
0.01875
100
AcDbLine
 10
713.9066167335991
 20
138.8339616291349
 30
0.0
 11
712.4066167335991
 21
138.8339616291349
 31
0.0
  0
LINE
  5
1104
330
1F
100
AcDbEntity
  8
0
  6
Continuous
 62
     7
 48
0.0125
100
AcDbLine
 10
712.4066167335991
 20
138.3339616291349
 30
0.0
 11
711.4066167335992
 21
138.3339616291349
 31
0.0
  0
LINE
  5
1105
330
1F
100
AcDbEntity
  8
0
  6
Continuous
 62
     7
 48
0.0125
100
AcDbLine
 10
712.4066167335991
 20
145.3339616291349
 30
0.0
 11
711.4066167335992
 21
145.3339616291349
 31
0.0
  0
LINE
  5
1106
330
1F
100
AcDbEntity
  8
0
  6
Continuous
 62
     7
 48
0.01875
100
AcDbLine
 10
713.9066167335991
 20
144.833961629135
 30
0.0
 11
712.4066167335991
 21
144.833961629135
 31
0.0
  0
LINE
  5
1107
330
1F
100
AcDbEntity
  8
0
  6
Continuous
 62
     7
 48
0.01875
100
AcDbLine
 10
713.9066167335993
 20
135.8339616291349
 30
0.0
 11
712.4066167335992
 21
135.8339616291349
 31
0.0
  0
LINE
  5
1108
330
1F
100
AcDbEntity
  8
0
  6
Continuous
 62
     7
 48
0.0125
100
AcDbLine
 10
712.4066167335992
 20
136.3339616291349
 30
0.0
 11
711.4066167335993
 21
136.3339616291349
 31
0.0
  0
LINE
  5
1109
330
1F
100
AcDbEntity
  8
0
  6
Continuous
 62
     7
 48
0.0125
100
AcDbLine
 10
712.4066167335992
 20
129.3339616291349
 30
0.0
 11
711.4066167335993
 21
129.3339616291349
 31
0.0
  0
LINE
  5
110A
330
1F
100
AcDbEntity
  8
0
  6
Continuous
 62
     7
 48
0.01875
100
AcDbLine
 10
713.9066167335993
 20
129.8339616291349
 30
0.0
 11
712.4066167335992
 21
129.8339616291349
 31
0.0
  0
LINE
  5
110B
330
1F
100
AcDbEntity
  8
0
  6
Continuous
 62
     7
 48
0.019522
100
AcDbLine
 10
712.4066167335992
 20
136.3339616291349
 30
0.0
 11
712.4066167335992
 21
129.3339616291349
 31
0.0
  0
LINE
  5
110C
330
1F
100
AcDbEntity
  8
0
  6
Continuous
 62
     7
 48
0.04375
100
AcDbLine
 10
711.4066167335993
 20
136.3339616291349
 30
0.0
 11
711.4066167335993
 21
129.3339616291349
 31
0.0
  0
LINE
  5
110D
330
1F
100
AcDbEntity
  8
0
  6
Continuous
 62
     7
 48
0.055478
100
AcDbLine
 10
713.9066167335993
 20
135.8339616291344
 30
0.0
 11
713.9066167335993
 21
129.8339616291349
 31
0.0
  0
LINE
  5
110E
330
1F
100
AcDbEntity
  8
0
  6
Continuous
 62
     7
 48
0.055478
100
AcDbLine
 10
713.9066167335993
 20
126.833961629134
 30
0.0
 11
713.9066167335993
 21
120.8339616291345
 31
0.0
  0
LINE
  5
110F
330
1F
100
AcDbEntity
  8
0
  6
Continuous
 62
     7
 48
0.04375
100
AcDbLine
 10
711.4066167335993
 20
127.3339616291345
 30
0.0
 11
711.4066167335993
 21
120.3339616291345
 31
0.0
  0
LINE
  5
1110
330
1F
100
AcDbEntity
  8
0
  6
Continuous
 62
     7
 48
0.019522
100
AcDbLine
 10
712.4066167335992
 20
127.3339616291345
 30
0.0
 11
712.4066167335992
 21
120.3339616291345
 31
0.0
  0
LINE
  5
1111
330
1F
100
AcDbEntity
  8
0
  6
Continuous
 62
     7
 48
0.01875
100
AcDbLine
 10
713.9066167335993
 20
120.8339616291345
 30
0.0
 11
712.4066167335992
 21
120.8339616291345
 31
0.0
  0
LINE
  5
1112
330
1F
100
AcDbEntity
  8
0
  6
Continuous
 62
     7
 48
0.0125
100
AcDbLine
 10
712.4066167335992
 20
120.3339616291345
 30
0.0
 11
711.4066167335993
 21
120.3339616291345
 31
0.0
  0
LINE
  5
1113
330
1F
100
AcDbEntity
  8
0
  6
Continuous
 62
     7
 48
0.0125
100
AcDbLine
 10
712.4066167335992
 20
127.3339616291345
 30
0.0
 11
711.4066167335993
 21
127.3339616291345
 31
0.0
  0
LINE
  5
1114
330
1F
100
AcDbEntity
  8
0
  6
Continuous
 62
     7
 48
0.01875
100
AcDbLine
 10
713.9066167335993
 20
126.8339616291345
 30
0.0
 11
712.4066167335992
 21
126.8339616291345
 31
0.0
  0
LINE
  5
1115
330
1F
100
AcDbEntity
  8
0
  6
Continuous
 62
     7
 48
0.019522
100
AcDbLine
 10
712.4066167335992
 20
118.3339616291349
 30
0.0
 11
712.4066167335992
 21
111.3339616291349
 31
0.0
  0
LINE
  5
1116
330
1F
100
AcDbEntity
  8
0
  6
Continuous
 62
     7
 48
0.04375
100
AcDbLine
 10
711.4066167335993
 20
118.3339616291349
 30
0.0
 11
711.4066167335993
 21
111.3339616291349
 31
0.0
  0
LINE
  5
1117
330
1F
100
AcDbEntity
  8
0
  6
Continuous
 62
     7
 48
0.055478
100
AcDbLine
 10
713.9066167335993
 20
117.8339616291344
 30
0.0
 11
713.9066167335993
 21
111.8339616291349
 31
0.0
  0
LINE
  5
1118
330
1F
100
AcDbEntity
  8
0
  6
Continuous
 62
     7
 48
0.0125
100
AcDbLine
 10
712.4066167335992
 20
111.3339616291349
 30
0.0
 11
711.4066167335993
 21
111.3339616291349
 31
0.0
  0
LINE
  5
1119
330
1F
100
AcDbEntity
  8
0
  6
Continuous
 62
     7
 48
0.01875
100
AcDbLine
 10
713.9066167335993
 20
111.8339616291349
 30
0.0
 11
712.4066167335992
 21
111.8339616291349
 31
0.0
  0
LINE
  5
111A
330
1F
100
AcDbEntity
  8
0
  6
Continuous
 62
     7
 48
0.01875
100
AcDbLine
 10
713.9066167335993
 20
117.8339616291349
 30
0.0
 11
712.4066167335992
 21
117.8339616291349
 31
0.0
  0
LINE
  5
111B
330
1F
100
AcDbEntity
  8
0
  6
Continuous
 62
     7
 48
0.0125
100
AcDbLine
 10
712.4066167335992
 20
118.3339616291349
 30
0.0
 11
711.4066167335993
 21
118.3339616291349
 31
0.0
  0
LINE
  5
111C
330
1F
100
AcDbEntity
  8
0
  6
Continuous
 62
     7
 48
0.055478
100
AcDbLine
 10
713.9066167335993
 20
108.833961629134
 30
0.0
 11
713.9066167335993
 21
102.8339616291344
 31
0.0
  0
LINE
  5
111D
330
1F
100
AcDbEntity
  8
0
  6
Continuous
 62
     7
 48
0.04375
100
AcDbLine
 10
711.4066167335993
 20
109.3339616291344
 30
0.0
 11
711.4066167335993
 21
102.3339616291344
 31
0.0
  0
LINE
  5
111E
330
1F
100
AcDbEntity
  8
0
  6
Continuous
 62
     7
 48
0.019522
100
AcDbLine
 10
712.4066167335992
 20
109.3339616291344
 30
0.0
 11
712.4066167335992
 21
102.3339616291344
 31
0.0
  0
LINE
  5
111F
330
1F
100
AcDbEntity
  8
0
  6
Continuous
 62
     7
 48
0.01875
100
AcDbLine
 10
713.9066167335993
 20
102.8339616291344
 30
0.0
 11
712.4066167335992
 21
102.8339616291344
 31
0.0
  0
LINE
  5
1120
330
1F
100
AcDbEntity
  8
0
  6
Continuous
 62
     7
 48
0.0125
100
AcDbLine
 10
712.4066167335992
 20
102.3339616291344
 30
0.0
 11
711.4066167335993
 21
102.3339616291344
 31
0.0
  0
LINE
  5
1121
330
1F
100
AcDbEntity
  8
0
  6
Continuous
 62
     7
 48
0.0125
100
AcDbLine
 10
712.4066167335992
 20
109.3339616291344
 30
0.0
 11
711.4066167335993
 21
109.3339616291344
 31
0.0
  0
LINE
  5
1122
330
1F
100
AcDbEntity
  8
0
  6
Continuous
 62
     7
 48
0.01875
100
AcDbLine
 10
713.9066167335993
 20
108.8339616291344
 30
0.0
 11
712.4066167335992
 21
108.8339616291344
 31
0.0
  0
LINE
  5
1123
330
1F
100
AcDbEntity
  8
0
  6
Continuous
 62
     7
 48
0.01875
100
AcDbLine
 10
713.9066167335993
 20
99.83396162913471
 30
0.0
 11
712.4066167335992
 21
99.83396162913471
 31
0.0
  0
LINE
  5
1124
330
1F
100
AcDbEntity
  8
0
  6
Continuous
 62
     7
 48
0.0125
100
AcDbLine
 10
712.4066167335992
 20
100.3339616291347
 30
0.0
 11
711.4066167335993
 21
100.3339616291347
 31
0.0
  0
LINE
  5
1125
330
1F
100
AcDbEntity
  8
0
  6
Continuous
 62
     7
 48
0.0125
100
AcDbLine
 10
712.4066167335992
 20
93.33396162913471
 30
0.0
 11
711.4066167335993
 21
93.33396162913471
 31
0.0
  0
LINE
  5
1126
330
1F
100
AcDbEntity
  8
0
  6
Continuous
 62
     7
 48
0.01875
100
AcDbLine
 10
713.9066167335993
 20
93.8339616291347
 30
0.0
 11
712.4066167335992
 21
93.8339616291347
 31
0.0
  0
LINE
  5
1127
330
1F
100
AcDbEntity
  8
0
  6
Continuous
 62
     7
 48
0.019522
100
AcDbLine
 10
712.4066167335992
 20
100.3339616291347
 30
0.0
 11
712.4066167335992
 21
93.33396162913471
 31
0.0
  0
LINE
  5
1128
330
1F
100
AcDbEntity
  8
0
  6
Continuous
 62
     7
 48
0.04375
100
AcDbLine
 10
711.4066167335993
 20
100.3339616291347
 30
0.0
 11
711.4066167335993
 21
93.33396162913471
 31
0.0
  0
LINE
  5
1129
330
1F
100
AcDbEntity
  8
0
  6
Continuous
 62
     7
 48
0.055478
100
AcDbLine
 10
713.9066167335993
 20
99.83396162913425
 30
0.0
 11
713.9066167335993
 21
93.8339616291347
 31
0.0
  0
LINE
  5
112A
330
1F
100
AcDbEntity
  8
0
  6
Continuous
 62
     7
 48
0.055478
100
AcDbLine
 10
713.9066167335991
 20
90.83396162913425
 30
0.0
 11
713.9066167335991
 21
84.8339616291347
 31
0.0
  0
LINE
  5
112B
330
1F
100
AcDbEntity
  8
0
  6
Continuous
 62
     7
 48
0.04375
100
AcDbLine
 10
711.4066167335992
 20
91.3339616291347
 30
0.0
 11
711.4066167335992
 21
84.33396162913471
 31
0.0
  0
LINE
  5
112C
330
1F
100
AcDbEntity
  8
0
  6
Continuous
 62
     7
 48
0.019522
100
AcDbLine
 10
712.4066167335991
 20
91.3339616291347
 30
0.0
 11
712.4066167335991
 21
84.33396162913471
 31
0.0
  0
LINE
  5
112D
330
1F
100
AcDbEntity
  8
0
  6
Continuous
 62
     7
 48
0.01875
100
AcDbLine
 10
713.9066167335991
 20
84.8339616291347
 30
0.0
 11
712.4066167335991
 21
84.8339616291347
 31
0.0
  0
LINE
  5
112E
330
1F
100
AcDbEntity
  8
0
  6
Continuous
 62
     7
 48
0.0125
100
AcDbLine
 10
712.4066167335991
 20
84.33396162913471
 30
0.0
 11
711.4066167335992
 21
84.33396162913471
 31
0.0
  0
LINE
  5
112F
330
1F
100
AcDbEntity
  8
0
  6
Continuous
 62
     7
 48
0.0125
100
AcDbLine
 10
712.4066167335991
 20
91.3339616291347
 30
0.0
 11
711.4066167335992
 21
91.3339616291347
 31
0.0
  0
LINE
  5
1130
330
1F
100
AcDbEntity
  8
0
  6
Continuous
 62
     7
 48
0.01875
100
AcDbLine
 10
713.9066167335991
 20
90.83396162913471
 30
0.0
 11
712.4066167335991
 21
90.83396162913471
 31
0.0
  0
LINE
  5
1131
330
1F
100
AcDbEntity
  8
0
  6
Continuous
 62
     7
 48
0.019522
100
AcDbLine
 10
712.4066167335991
 20
82.33396162913454
 30
0.0
 11
712.4066167335991
 21
75.33396162913454
 31
0.0
  0
LINE
  5
1132
330
1F
100
AcDbEntity
  8
0
  6
Continuous
 62
     7
 48
0.04375
100
AcDbLine
 10
711.4066167335992
 20
82.33396162913454
 30
0.0
 11
711.4066167335992
 21
75.33396162913454
 31
0.0
  0
LINE
  5
1133
330
1F
100
AcDbEntity
  8
0
  6
Continuous
 62
     7
 48
0.055478
100
AcDbLine
 10
713.9066167335991
 20
81.83396162913409
 30
0.0
 11
713.9066167335991
 21
75.83396162913453
 31
0.0
  0
LINE
  5
1134
330
1F
100
AcDbEntity
  8
0
  6
Continuous
 62
     7
 48
0.0125
100
AcDbLine
 10
712.4066167335991
 20
75.33396162913454
 30
0.0
 11
711.4066167335992
 21
75.33396162913454
 31
0.0
  0
LINE
  5
1135
330
1F
100
AcDbEntity
  8
0
  6
Continuous
 62
     7
 48
0.01875
100
AcDbLine
 10
713.9066167335991
 20
75.83396162913453
 30
0.0
 11
712.4066167335991
 21
75.83396162913453
 31
0.0
  0
LINE
  5
1136
330
1F
100
AcDbEntity
  8
0
  6
Continuous
 62
     7
 48
0.01875
100
AcDbLine
 10
713.9066167335991
 20
81.83396162913453
 30
0.0
 11
712.4066167335991
 21
81.83396162913453
 31
0.0
  0
LINE
  5
1137
330
1F
100
AcDbEntity
  8
0
  6
Continuous
 62
     7
 48
0.0125
100
AcDbLine
 10
712.4066167335991
 20
82.33396162913454
 30
0.0
 11
711.4066167335992
 21
82.33396162913454
 31
0.0
  0
LINE
  5
113F
330
1F
100
AcDbEntity
  8
0
  6
DASHED
 62
     4
 48
0.23125
100
AcDbLine
 10
729.9066167597792
 20
201.8339616291345
 30
0.0
 11
711.4066167597792
 21
201.8339616291345
 31
0.0
  0
LINE
  5
1140
330
1F
100
AcDbEntity
  8
0
  6
DASHED
 62
     4
 48
0.23125
100
AcDbLine
 10
729.9066170215787
 20
72.83396162913454
 30
0.0
 11
711.4066170215787
 21
72.83396162913454
 31
0.0
  0
LINE
  5
1141
330
1F
100
AcDbEntity
  8
0
  6
DASHED
 62
     4
100
AcDbLine
 10
711.4066167597792
 20
72.83396162913454
 30
0.0
 11
711.4066167597792
 21
71.33396162913431
 31
0.0
  0
LINE
  5
1142
330
1F
100
AcDbEntity
  8
0
 62
     4
100
AcDbLine
 10
711.4066167597792
 20
203.3339616291345
 30
0.0
 11
711.4066167597792
 21
201.8339616291345
 31
0.0
  0
ENDSEC
  0
SECTION
  2
OBJECTS
  0
DICTIONARY
  5
C
330
0
100
AcDbDictionary
281
     1
  3
ACAD_GROUP
350
D
  3
ACAD_LAYOUT
350
1A
  3
ACAD_MLINESTYLE
350
17
  3
ACAD_PLOTSETTINGS
350
19
  3
ACAD_PLOTSTYLENAME
350
E
  0
DICTIONARY
  5
D
102
{ACAD_REACTORS
330
C
102
}
330
C
100
AcDbDictionary
281
     1
  0
DICTIONARY
  5
1A
102
{ACAD_REACTORS
330
C
102
}
330
C
100
AcDbDictionary
281
     1
  3
Model
350
22
  3
ﾚｲｱｳﾄ1
350
10C6
  0
DICTIONARY
  5
17
102
{ACAD_REACTORS
330
C
102
}
330
C
100
AcDbDictionary
281
     1
  3
Standard
350
18
  0
DICTIONARY
  5
19
102
{ACAD_REACTORS
330
C
102
}
330
C
100
AcDbDictionary
281
     1
  0
ACDBDICTIONARYWDFLT
  5
E
102
{ACAD_REACTORS
330
C
102
}
330
C
100
AcDbDictionary
281
     1
  3
Normal
350
F
100
AcDbDictionaryWithDefault
340
F
  0
LAYOUT
  5
22
102
{ACAD_REACTORS
330
1A
102
}
330
1A
100
AcDbPlotSettings
  1

  2
A2 Printer TG2 RPCS
  4

  6

 40
0.0
 41
0.0
 42
0.0
 43
0.0
 44
0.0
 45
0.0
 46
0.0
 47
0.0
 48
0.0
 49
0.0
140
0.0
141
0.0
142
1.0
143
1.0
 70
  1712
 72
     0
 73
     0
 74
     0
  7

 75
     0
147
1.0
148
0.0
149
0.0
100
AcDbLayout
  1
Model
 70
     1
 71
     0
 10
0.0
 20
0.0
 11
12.0
 21
9.0
 12
0.0
 22
0.0
 32
0.0
 14
0.0
 24
0.0
 34
0.0
 15
0.0
 25
0.0
 35
0.0
146
0.0
 13
0.0
 23
0.0
 33
0.0
 16
1.0
 26
0.0
 36
0.0
 17
0.0
 27
1.0
 37
0.0
 76
     0
330
1F
  0
LAYOUT
  5
10C6
102
{ACAD_REACTORS
330
1A
102
}
330
1A
100
AcDbPlotSettings
  1

  2
A2 Printer TG2 RPCS
  4

  6

 40
0.0
 41
0.0
 42
0.0
 43
0.0
 44
0.0
 45
0.0
 46
0.0
 47
0.0
 48
0.0
 49
0.0
140
0.0
141
0.0
142
1.0
143
1.0
 70
   688
 72
     0
 73
     0
 74
     5
  7

 75
    16
147
1.0
148
0.0
149
0.0
100
AcDbLayout
  1
ﾚｲｱｳﾄ1
 70
     1
 71
     1
 10
0.0
 20
0.0
 11
12.0
 21
9.0
 12
0.0
 22
0.0
 32
0.0
 14
0.0
 24
0.0
 34
0.0
 15
0.0
 25
0.0
 35
0.0
146
0.0
 13
0.0
 23
0.0
 33
0.0
 16
1.0
 26
0.0
 36
0.0
 17
0.0
 27
1.0
 37
0.0
 76
     0
330
10C5
  0
MLINESTYLE
  5
18
102
{ACAD_REACTORS
330
17
102
}
330
17
100
AcDbMlineStyle
  2
STANDARD
 70
     0
  3

 62
   256
 51
90.0
 52
90.0
 71
     2
 49
0.5
 62
   256
  6
BYLAYER
 49
-0.5
 62
   256
  6
BYLAYER
  0
ACDBPLACEHOLDER
  5
F
102
{ACAD_REACTORS
330
E
102
}
330
E
  0
ENDSEC
  0
EOF
