  0
SECTION
  2
HEADER
  9
$ACADVER
  1
AC1015
  9
$ACADMAINTVER
 70
     6
  9
$DWGCODEPAGE
  3
ANSI_1252
  9
$INSBASE
 10
0.0
 20
0.0
 30
0.0
  9
$EXTMIN
 10
0.0
 20
0.0
 30
0.0
  9
$EXTMAX
 10
939.196472
 20
754.667603
 30
2.0
  9
$LIMMIN
 10
0.0
 20
0.0
  9
$LIMMAX
 10
420.0
 20
297.0
  9
$ORTHOMODE
 70
     0
  9
$REGENMODE
 70
     1
  9
$FILLMODE
 70
     1
  9
$QTEXTMODE
 70
     0
  9
$MIRRTEXT
 70
     1
  9
$LTSCALE
 40
1.0
  9
$ATTMODE
 70
     1
  9
$TEXTSIZE
 40
2.5
  9
$TRACEWID
 40
1.0
  9
$TEXTSTYLE
  7
Standard
  9
$CLAYER
  8
0
  9
$CELTYPE
  6
ByLayer
  9
$CECOLOR
 62
   256
  9
$CELTSCALE
 40
1.0
  9
$DISPSILH
 70
     0
  9
$DIMSCALE
 40
1.0
  9
$DIMASZ
 40
2.5
  9
$DIMEXO
 40
0.625
  9
$DIMDLI
 40
3.75
  9
$DIMRND
 40
0.0
  9
$DIMDLE
 40
0.0
  9
$DIMEXE
 40
1.25
  9
$DIMTP
 40
0.0
  9
$DIMTM
 40
0.0
  9
$DIMTXT
 40
2.5
  9
$DIMCEN
 40
2.5
  9
$DIMTSZ
 40
0.0
  9
$DIMTOL
 70
     0
  9
$DIMLIM
 70
     0
  9
$DIMTIH
 70
     0
  9
$DIMTOH
 70
     0
  9
$DIMSE1
 70
     0
  9
$DIMSE2
 70
     0
  9
$DIMTAD
 70
     1
  9
$DIMZIN
 70
     8
  9
$DIMBLK
  1

  9
$DIMASO
 70
     1
  9
$DIMSHO
 70
     1
  9
$DIMPOST
  1

  9
$DIMAPOST
  1

  9
$DIMALT
 70
     0
  9
$DIMALTD
 70
     3
  9
$DIMALTF
 40
0.03937
  9
$DIMLFAC
 40
1.0
  9
$DIMTOFL
 70
     1
  9
$DIMTVP
 40
0.0
  9
$DIMTIX
 70
     0
  9
$DIMSOXD
 70
     0
  9
$DIMSAH
 70
     0
  9
$DIMBLK1
  1

  9
$DIMBLK2
  1

  9
$DIMSTYLE
  2
Standard
  9
$DIMCLRD
 70
     0
  9
$DIMCLRE
 70
     0
  9
$DIMCLRT
 70
     0
  9
$DIMTFAC
 40
1.0
  9
$DIMGAP
 40
0.625
  9
$DIMJUST
 70
     0
  9
$DIMSD1
 70
     0
  9
$DIMSD2
 70
     0
  9
$DIMTOLJ
 70
     0
  9
$DIMTZIN
 70
     8
  9
$DIMALTZ
 70
     0
  9
$DIMALTTZ
 70
     0
  9
$DIMUPT
 70
     0
  9
$DIMDEC
 70
     2
  9
$DIMTDEC
 70
     2
  9
$DIMALTU
 70
     2
  9
$DIMALTTD
 70
     3
  9
$DIMTXSTY
  7
Standard
  9
$DIMAUNIT
 70
     0
  9
$DIMADEC
 70
     0
  9
$DIMALTRND
 40
0.0
  9
$DIMAZIN
 70
     0
  9
$DIMDSEP
 70
    44
  9
$DIMATFIT
 70
     0
  9
$DIMFRAC
 70
     0
  9
$DIMLDRBLK
  1

  9
$DIMLUNIT
 70
     2
  9
$DIMLWD
 70
    -2
  9
$DIMLWE
 70
    -2
  9
$DIMTMOVE
 70
     0
  9
$LUNITS
 70
     2
  9
$LUPREC
 70
     4
  9
$SKETCHINC
 40
1.0
  9
$FILLETRAD
 40
2.5
  9
$AUNITS
 70
     0
  9
$AUPREC
 70
     0
  9
$MENU
  1
.
  9
$ELEVATION
 40
0.0
  9
$PELEVATION
 40
0.0
  9
$THICKNESS
 40
0.0
  9
$LIMCHECK
 70
     0
  9
$CHAMFERA
 40
2.5
  9
$CHAMFERB
 40
2.5
  9
$CHAMFERC
 40
0.0
  9
$CHAMFERD
 40
0.0
  9
$SKPOLY
 70
     0
  9
$TDCREATE
 40
2447893.375
  9
$TDUCREATE
 40
0.0
  9
$TDUPDATE
 40
2459513.556305579
  9
$TDUUPDATE
 40
2459513.181305579
  9
$TDINDWG
 40
0.0
  9
$TDUSRTIMER
 40
0.0
  9
$USRTIMER
 70
     1
  9
$ANGBASE
 50
0.0
  9
$ANGDIR
 70
     0
  9
$PDMODE
 70
     0
  9
$PDSIZE
 40
0.0
  9
$PLINEWID
 40
0.0
  9
$SPLFRAME
 70
     0
  9
$SPLINETYPE
 70
     6
  9
$SPLINESEGS
 70
     8
  9
$HANDSEED
  5
3B1
  9
$SURFTAB1
 70
     6
  9
$SURFTAB2
 70
     6
  9
$SURFTYPE
 70
     6
  9
$SURFU
 70
     6
  9
$SURFV
 70
     6
  9
$UCSBASE
  2

  9
$UCSNAME
  2

  9
$UCSORG
 10
0.0
 20
0.0
 30
0.0
  9
$UCSXDIR
 10
1.0
 20
0.0
 30
0.0
  9
$UCSYDIR
 10
0.0
 20
1.0
 30
0.0
  9
$UCSORTHOREF
  2

  9
$UCSORTHOVIEW
 70
     1
  9
$UCSORGTOP
 10
0.0
 20
0.0
 30
0.0
  9
$UCSORGBOTTOM
 10
0.0
 20
0.0
 30
0.0
  9
$UCSORGLEFT
 10
0.0
 20
0.0
 30
0.0
  9
$UCSORGRIGHT
 10
0.0
 20
0.0
 30
0.0
  9
$UCSORGFRONT
 10
0.0
 20
0.0
 30
0.0
  9
$UCSORGBACK
 10
0.0
 20
0.0
 30
0.0
  9
$PUCSBASE
  2

  9
$PUCSNAME
  2

  9
$PUCSORG
 10
0.0
 20
0.0
 30
0.0
  9
$PUCSXDIR
 10
1.0
 20
0.0
 30
0.0
  9
$PUCSYDIR
 10
0.0
 20
1.0
 30
0.0
  9
$PUCSORTHOREF
  2

  9
$PUCSORTHOVIEW
 70
     0
  9
$PUCSORGTOP
 10
0.0
 20
0.0
 30
0.0
  9
$PUCSORGBOTTOM
 10
0.0
 20
0.0
 30
0.0
  9
$PUCSORGLEFT
 10
0.0
 20
0.0
 30
0.0
  9
$PUCSORGRIGHT
 10
0.0
 20
0.0
 30
0.0
  9
$PUCSORGFRONT
 10
0.0
 20
0.0
 30
0.0
  9
$PUCSORGBACK
 10
0.0
 20
0.0
 30
0.0
  9
$USERI1
 70
     0
  9
$USERI2
 70
     0
  9
$USERI3
 70
     0
  9
$USERI4
 70
     0
  9
$USERI5
 70
     0
  9
$USERR1
 40
0.0
  9
$USERR2
 40
0.0
  9
$USERR3
 40
0.0
  9
$USERR4
 40
0.0
  9
$USERR5
 40
0.0
  9
$WORLDVIEW
 70
     1
  9
$SHADEDGE
 70
     3
  9
$SHADEDIF
 70
    70
  9
$TILEMODE
 70
     1
  9
$MAXACTVP
 70
    64
  9
$PINSBASE
 10
0.0
 20
0.0
 30
0.0
  9
$PLIMCHECK
 70
     0
  9
$PEXTMIN
 10
0.0
 20
0.0
 30
0.0
  9
$PEXTMAX
 10
939.196472
 20
754.667603
 30
2.0
  9
$PLIMMIN
 10
0.0
 20
0.0
  9
$PLIMMAX
 10
420.0
 20
297.0
  9
$UNITMODE
 70
     0
  9
$VISRETAIN
 70
     0
  9
$PLINEGEN
 70
     0
  9
$PSLTSCALE
 70
     1
  9
$TREEDEPTH
 70
  3020
  9
$CMLSTYLE
  2
Standard
  9
$CMLJUST
 70
     0
  9
$CMLSCALE
 40
20.0
  9
$PROXYGRAPHICS
 70
     1
  9
$MEASUREMENT
 70
     1
  9
$CELWEIGHT
370
    -1
  9
$ENDCAPS
280
     0
  9
$JOINSTYLE
280
     0
  9
$LWDISPLAY
290
     0
  9
$INSUNITS
 70
     0
  9
$HYPERLINKBASE
  1

  9
$STYLESHEET
  1

  9
$XEDIT
290
     1
  9
$CEPSNTYPE
380
     0
  9
$PSTYLEMODE
290
     0
  9
$FINGERPRINTGUID
  2
{01E35C73-68A0-45D5-BFAA-CCA69A304DC7}
  9
$VERSIONGUID
  2
{FAEB1C32-E019-11D5-929B-00C0DF256EC4}
  9
$EXTNAMES
290
     1
  9
$PSVPSCALE
 40
0.0
  9
$OLESTARTUP
290
     0
  0
ENDSEC
  0
SECTION
  2
CLASSES
  0
CLASS
  1
ACDBDICTIONARYWDFLT
  2
AcDbDictionaryWithDefault
  3
ObjectDBX Classes
 90
        0
280
     0
281
     0
  0
CLASS
  1
VISUALSTYLE
  2
AcDbVisualStyle
  3
ObjectDBX Classes
 90
     4095
280
     0
281
     0
  0
CLASS
  1
MATERIAL
  2
AcDbMaterial
  3
ObjectDBX Classes
 90
     1153
280
     0
281
     0
  0
CLASS
  1
SCALE
  2
AcDbScale
  3
ObjectDBX Classes
 90
     1153
280
     0
281
     0
  0
CLASS
  1
TABLESTYLE
  2
AcDbTableStyle
  3
ObjectDBX Classes
 90
     4095
280
     0
281
     0
  0
CLASS
  1
MLEADERSTYLE
  2
AcDbMLeaderStyle
  3
ACDB_MLEADERSTYLE_CLASS
 90
     4095
280
     0
281
     0
  0
CLASS
  1
SUN
  2
AcDbSun
  3
SCENEOE
 90
     1153
280
     0
281
     0
  0
CLASS
  1
ACDBPLACEHOLDER
  2
AcDbPlaceHolder
  3
ObjectDBX Classes
 90
        0
280
     0
281
     0
  0
CLASS
  1
LAYOUT
  2
AcDbLayout
  3
ObjectDBX Classes
 90
        0
280
     0
281
     0
  0
ENDSEC
  0
SECTION
  2
TABLES
  0
TABLE
  2
VPORT
  5
8
330
0
100
AcDbSymbolTable
 70
     1
  0
VPORT
  5
29
330
8
100
AcDbSymbolTableRecord
100
AcDbViewportTableRecord
  2
*Active
 70
     0
 10
0.0
 20
0.0
 11
1.0
 21
1.0
 12
10.429907
 22
4.5
 13
0.0
 23
0.0
 14
0.5
 24
0.5
 15
0.5
 25
0.5
 16
0.0
 26
0.0
 36
1.0
 17
0.0
 27
0.0
 37
0.0
 40
9.0
 41
1.972973
 42
50.0
 43
0.0
 44
0.0
 50
0.0
 51
0.0
 71
     0
 72
   100
 73
     1
 74
     3
 75
     0
 76
     0
 77
     0
 78
     0
281
     0
 65
     1
110
0.0
120
0.0
130
0.0
111
1.0
121
0.0
131
0.0
112
0.0
122
1.0
132
0.0
 79
     0
146
0.0
  0
ENDTAB
  0
TABLE
  2
LTYPE
  5
5
330
0
100
AcDbSymbolTable
 70
     2
  0
LTYPE
  5
14
330
5
100
AcDbSymbolTableRecord
100
AcDbLinetypeTableRecord
  2
ByBlock
 70
     0
  3

 72
    65
 73
     0
 40
0.0
  0
LTYPE
  5
15
330
5
100
AcDbSymbolTableRecord
100
AcDbLinetypeTableRecord
  2
ByLayer
 70
     0
  3

 72
    65
 73
     0
 40
0.0
  0
LTYPE
  5
16
330
5
100
AcDbSymbolTableRecord
100
AcDbLinetypeTableRecord
  2
Continuous
 70
     0
  3
Solid line
 72
    65
 73
     0
 40
0.0
  0
LTYPE
  5
6E
330
5
100
AcDbSymbolTableRecord
100
AcDbLinetypeTableRecord
  2
PHANTOM
 70
     0
  3
____________    ____    ____   _
 72
    65
 73
     6
 40
20.0
 49
10.0
 74
     0
 49
-2.0
 74
     0
 49
2.0
 74
     0
 49
-2.0
 74
     0
 49
2.0
 74
     0
 49
-2.0
 74
     0
  0
ENDTAB
  0
TABLE
  2
LAYER
  5
2
330
0
100
AcDbSymbolTable
 70
     1
  0
LAYER
  5
10
330
2
100
AcDbSymbolTableRecord
100
AcDbLayerTableRecord
  2
0
 70
     0
 62
     7
  6
Continuous
370
    -3
390
F
  0
ENDTAB
  0
TABLE
  2
STYLE
  5
3
330
0
100
AcDbSymbolTable
 70
     1
  0
STYLE
  5
11
330
3
100
AcDbSymbolTableRecord
100
AcDbTextStyleTableRecord
  2
Standard
 70
     0
 40
0.0
 41
1.0
 50
0.0
 71
     0
 42
2.5
  3
txt
  4

  0
ENDTAB
  0
TABLE
  2
VIEW
  5
6
330
0
100
AcDbSymbolTable
 70
     0
  0
ENDTAB
  0
TABLE
  2
UCS
  5
7
330
0
100
AcDbSymbolTable
 70
     0
  0
ENDTAB
  0
TABLE
  2
APPID
  5
9
330
0
100
AcDbSymbolTable
 70
     1
  0
APPID
  5
12
330
9
100
AcDbSymbolTableRecord
100
AcDbRegAppTableRecord
  2
ACAD
 70
     0
  0
ENDTAB
  0
TABLE
  2
DIMSTYLE
  5
A
330
0
100
AcDbSymbolTable
 70
     1
100
AcDbDimStyleTable
  0
DIMSTYLE
105
27
330
A
100
AcDbSymbolTableRecord
100
AcDbDimStyleTableRecord
  2
Standard
 70
     0
178
     0
340
11
  0
ENDTAB
  0
TABLE
  2
BLOCK_RECORD
  5
1
330
0
100
AcDbSymbolTable
 70
     1
  0
BLOCK_RECORD
  5
1F
330
1
100
AcDbSymbolTableRecord
100
AcDbBlockTableRecord
  2
*Model_Space
340
22
  0
BLOCK_RECORD
  5
1B
330
1
100
AcDbSymbolTableRecord
100
AcDbBlockTableRecord
  2
*Paper_Space
340
1E
  0
BLOCK_RECORD
  5
23
330
1
100
AcDbSymbolTableRecord
100
AcDbBlockTableRecord
  2
*Paper_Space0
340
26
  0
ENDTAB
  0
ENDSEC
  0
SECTION
  2
BLOCKS
  0
BLOCK
  5
20
330
1F
100
AcDbEntity
  8
0
100
AcDbBlockBegin
  2
*Model_Space
 70
     0
 10
0.0
 20
0.0
 30
0.0
  3
*Model_Space
  1

  0
ENDBLK
  5
21
330
1F
100
AcDbEntity
  8
0
100
AcDbBlockEnd
  0
BLOCK
  5
1C
330
1B
100
AcDbEntity
 67
     1
  8
0
100
AcDbBlockBegin
  2
*Paper_Space
 70
     0
 10
0.0
 20
0.0
 30
0.0
  3
*Paper_Space
  1

  0
ENDBLK
  5
1D
330
1B
100
AcDbEntity
 67
     1
  8
0
100
AcDbBlockEnd
  0
BLOCK
  5
24
330
23
100
AcDbEntity
  8
0
100
AcDbBlockBegin
  2
*Paper_Space0
 70
     0
 10
0.0
 20
0.0
 30
0.0
  3
*Paper_Space0
  1

  0
ENDBLK
  5
25
330
23
100
AcDbEntity
  8
0
100
AcDbBlockEnd
  0
ENDSEC
  0
SECTION
  2
ENTITIES
  0
LINE
  5
6F
330
1F
100
AcDbEntity
  8
0
 62
     7
370
    35
100
AcDbLine
 10
273.919891
 20
385.936707
 30
0.0
 11
273.919891
 21
384.736694
 31
0.0
  0
LINE
  5
70
330
1F
100
AcDbEntity
  8
0
 62
     7
370
    35
100
AcDbLine
 10
275.72876
 20
385.936707
 30
0.0
 11
275.72876
 21
384.736694
 31
0.0
  0
LINE
  5
71
330
1F
100
AcDbEntity
  8
0
 62
     7
370
    35
100
AcDbLine
 10
273.919891
 20
384.736694
 30
0.0
 11
275.72876
 21
384.736694
 31
0.0
  0
LINE
  5
72
330
1F
100
AcDbEntity
  8
0
 62
     7
370
    35
100
AcDbLine
 10
276.125122
 20
384.736694
 30
0.0
 11
275.72876
 21
384.736694
 31
0.0
  0
LINE
  5
73
330
1F
100
AcDbEntity
  8
0
 62
     7
370
    35
100
AcDbLine
 10
278.919891
 20
385.936707
 30
0.0
 11
278.919891
 21
384.736694
 31
0.0
  0
LINE
  5
74
330
1F
100
AcDbEntity
  8
0
 62
     7
370
    35
100
AcDbLine
 10
278.725098
 20
384.736694
 30
0.0
 11
278.919891
 21
384.736694
 31
0.0
  0
LINE
  5
75
330
1F
100
AcDbEntity
  8
0
 62
     7
370
    35
100
AcDbLine
 10
273.919891
 20
385.936707
 30
0.0
 11
273.919891
 21
387.936707
 31
0.0
  0
LINE
  5
76
330
1F
100
AcDbEntity
  8
0
 62
     7
370
    35
100
AcDbLine
 10
280.101044
 20
385.936707
 30
0.0
 11
273.919891
 21
385.936707
 31
0.0
  0
LINE
  5
77
330
1F
100
AcDbEntity
  8
0
 62
     7
370
    35
100
AcDbLine
 10
281.425079
 20
385.936707
 30
0.0
 11
280.101044
 21
385.936707
 31
0.0
  0
LINE
  5
78
330
1F
100
AcDbEntity
  8
0
 62
     7
370
    35
100
AcDbLine
 10
561.919922
 20
385.936707
 30
0.0
 11
561.364136
 21
385.936707
 31
0.0
  0
LINE
  5
79
330
1F
100
AcDbEntity
  8
0
 62
     7
370
    35
100
AcDbLine
 10
275.919891
 20
384.436707
 30
0.0
 11
275.919891
 21
384.736694
 31
0.0
  0
LINE
  5
7A
330
1F
100
AcDbEntity
  8
0
 62
     7
370
    35
100
AcDbLine
 10
280.101044
 20
101.936707
 30
0.0
 11
273.919891
 21
101.936707
 31
0.0
  0
LINE
  5
7B
330
1F
100
AcDbEntity
  8
0
 62
     7
370
    35
100
AcDbLine
 10
281.425079
 20
101.936707
 30
0.0
 11
280.101044
 21
101.936707
 31
0.0
  0
LINE
  5
7C
330
1F
100
AcDbEntity
  8
0
 62
     7
370
    35
100
AcDbLine
 10
561.919922
 20
101.936707
 30
0.0
 11
561.364136
 21
101.936707
 31
0.0
  0
LINE
  5
7D
330
1F
100
AcDbEntity
  8
0
 62
     7
370
    35
100
AcDbLine
 10
273.919891
 20
101.936707
 30
0.0
 11
273.919891
 21
99.936707
 31
0.0
  0
LINE
  5
7E
330
1F
100
AcDbEntity
  8
0
 62
     7
370
    35
100
AcDbLine
 10
561.919922
 20
101.936707
 30
0.0
 11
561.919922
 21
99.936707
 31
0.0
  0
LINE
  5
7F
330
1F
100
AcDbEntity
  8
0
 62
     7
370
    35
100
AcDbLine
 10
561.919922
 20
101.936707
 30
0.0
 11
561.919922
 21
103.931519
 31
0.0
  0
LINE
  5
80
330
1F
100
AcDbEntity
  8
0
 62
     7
370
    35
100
AcDbLine
 10
561.919922
 20
196.442444
 30
0.0
 11
561.919922
 21
291.428467
 31
0.0
  0
LINE
  5
81
330
1F
100
AcDbEntity
  8
0
 62
     7
370
    35
100
AcDbLine
 10
561.919922
 20
383.941895
 30
0.0
 11
561.919922
 21
385.936707
 31
0.0
  0
LINE
  5
82
330
1F
100
AcDbEntity
  8
0
 62
     7
370
    35
100
AcDbLine
 10
561.919922
 20
385.936707
 30
0.0
 11
561.919922
 21
387.936707
 31
0.0
  0
LINE
  5
83
330
1F
100
AcDbEntity
  8
0
 62
     7
370
    35
100
AcDbLine
 10
280.101044
 20
387.936707
 30
0.0
 11
273.919891
 21
387.936707
 31
0.0
  0
LINE
  5
84
330
1F
100
AcDbEntity
  8
0
 62
     7
370
    35
100
AcDbLine
 10
285.764771
 20
387.936707
 30
0.0
 11
280.101044
 21
387.936707
 31
0.0
  0
LINE
  5
85
330
1F
100
AcDbEntity
  8
0
 62
     7
370
    35
100
AcDbLine
 10
560.919922
 20
387.936707
 30
0.0
 11
285.764771
 21
387.936707
 31
0.0
  0
LINE
  5
86
330
1F
100
AcDbEntity
  8
0
 62
     7
370
    35
100
AcDbLine
 10
561.919922
 20
387.936707
 30
0.0
 11
560.919922
 21
387.936707
 31
0.0
  0
LINE
  5
87
330
1F
100
AcDbEntity
  8
0
 62
     7
370
    35
100
AcDbLine
 10
285.764771
 20
387.911865
 30
0.0
 11
285.764771
 21
387.936707
 31
0.0
  0
LINE
  5
88
330
1F
100
AcDbEntity
  8
0
 62
     7
370
    35
100
AcDbLine
 10
280.101044
 20
99.936707
 30
0.0
 11
273.919891
 21
99.936707
 31
0.0
  0
LINE
  5
89
330
1F
100
AcDbEntity
  8
0
 62
     7
370
    35
100
AcDbLine
 10
285.764771
 20
99.961563
 30
0.0
 11
285.764771
 21
99.936707
 31
0.0
  0
LINE
  5
8A
330
1F
100
AcDbEntity
  8
0
 62
     7
370
    35
100
AcDbLine
 10
285.764771
 20
99.936707
 30
0.0
 11
280.101044
 21
99.936707
 31
0.0
  0
LINE
  5
8B
330
1F
100
AcDbEntity
  8
0
 62
     7
370
    35
100
AcDbLine
 10
286.003113
 20
99.936707
 30
0.0
 11
285.764771
 21
99.936707
 31
0.0
  0
LINE
  5
8C
330
1F
100
AcDbEntity
  8
0
 62
     7
370
    35
100
AcDbLine
 10
527.92511
 20
99.936707
 30
0.0
 11
447.925079
 21
99.936707
 31
0.0
  0
LINE
  5
8D
330
1F
100
AcDbEntity
  8
0
 62
     7
370
    35
100
AcDbLine
 10
560.919922
 20
99.936707
 30
0.0
 11
558.544189
 21
99.936707
 31
0.0
  0
LINE
  5
8E
330
1F
100
AcDbEntity
  8
0
 62
     7
370
    35
100
AcDbLine
 10
561.919922
 20
99.936707
 30
0.0
 11
560.919922
 21
99.936707
 31
0.0
  0
LINE
  5
8F
330
1F
100
AcDbEntity
  8
0
 62
     7
370
    35
100
AcDbLine
 10
281.425079
 20
384.436707
 30
0.0
 11
281.425079
 21
384.513611
 31
0.0
  0
LINE
  5
90
330
1F
100
AcDbEntity
  8
0
 62
     7
370
    35
100
AcDbLine
 10
281.425079
 20
384.436707
 30
0.0
 11
279.614807
 21
384.436707
 31
0.0
  0
LINE
  5
91
330
1F
100
AcDbEntity
  8
0
 62
     7
370
    35
100
AcDbLine
 10
277.249695
 20
384.436707
 30
0.0
 11
279.614838
 21
384.436707
 31
0.0
  0
LINE
  5
92
330
1F
100
AcDbEntity
  8
0
 62
     7
370
    35
100
AcDbLine
 10
279.614838
 20
103.436707
 30
0.0
 11
277.249695
 21
103.436707
 31
0.0
  0
LINE
  5
93
330
1F
100
AcDbEntity
  8
0
 62
     7
370
    35
100
AcDbLine
 10
281.425079
 20
103.436707
 30
0.0
 11
279.614807
 21
103.436707
 31
0.0
  0
LINE
  5
94
330
1F
100
AcDbEntity
  8
0
 62
     7
370
    35
100
AcDbLine
 10
281.425079
 20
103.436707
 30
0.0
 11
281.425079
 21
103.359848
 31
0.0
  0
POLYLINE
  5
95
330
1F
100
AcDbEntity
  8
0
 62
     7
370
    35
100
AcDb2dPolyline
 66
     1
 10
0.0
 20
0.0
 30
0.0
  0
VERTEX
  5
96
330
95
100
AcDbEntity
  8
0
370
     0
100
AcDbVertex
100
AcDb2dVertex
 10
293.142029
 20
111.407547
 30
0.0
  0
VERTEX
  5
97
330
95
100
AcDbEntity
  8
0
370
     0
100
AcDbVertex
100
AcDb2dVertex
 10
292.762299
 20
111.668106
 30
0.0
  0
VERTEX
  5
98
330
95
100
AcDbEntity
  8
0
370
     0
100
AcDbVertex
100
AcDb2dVertex
 10
292.473389
 20
112.027039
 30
0.0
  0
VERTEX
  5
99
330
95
100
AcDbEntity
  8
0
370
     0
100
AcDbVertex
100
AcDb2dVertex
 10
292.291229
 20
112.449081
 30
0.0
  0
VERTEX
  5
9A
330
95
100
AcDbEntity
  8
0
370
     0
100
AcDbVertex
100
AcDb2dVertex
 10
292.228516
 20
112.903976
 30
0.0
  0
SEQEND
  5
9B
330
95
100
AcDbEntity
  8
0
 62
     7
370
    35
  0
LINE
  5
9C
330
1F
100
AcDbEntity
  8
0
 62
     7
370
    35
100
AcDbLine
 10
292.228516
 20
374.969421
 30
0.0
 11
292.228516
 21
112.903976
 31
0.0
  0
POLYLINE
  5
9D
330
1F
100
AcDbEntity
  8
0
 62
     7
370
    35
100
AcDb2dPolyline
 66
     1
 10
0.0
 20
0.0
 30
0.0
  0
VERTEX
  5
9E
330
9D
100
AcDbEntity
  8
0
370
     0
100
AcDbVertex
100
AcDb2dVertex
 10
292.228516
 20
374.969421
 30
0.0
  0
VERTEX
  5
9F
330
9D
100
AcDbEntity
  8
0
370
     0
100
AcDbVertex
100
AcDb2dVertex
 10
292.268951
 20
375.336334
 30
0.0
  0
VERTEX
  5
A0
330
9D
100
AcDbEntity
  8
0
370
     0
100
AcDbVertex
100
AcDb2dVertex
 10
292.388306
 20
375.686035
 30
0.0
  0
VERTEX
  5
A1
330
9D
100
AcDbEntity
  8
0
370
     0
100
AcDbVertex
100
AcDb2dVertex
 10
292.578949
 20
376.002136
 30
0.0
  0
VERTEX
  5
A2
330
9D
100
AcDbEntity
  8
0
370
     0
100
AcDbVertex
100
AcDb2dVertex
 10
292.832825
 20
376.267456
 30
0.0
  0
VERTEX
  5
A3
330
9D
100
AcDbEntity
  8
0
370
     0
100
AcDbVertex
100
AcDb2dVertex
 10
293.142059
 20
376.465881
 30
0.0
  0
SEQEND
  5
A4
330
9D
100
AcDbEntity
  8
0
 62
     7
370
    35
  0
ARC
  5
A5
330
1F
100
AcDbEntity
  8
0
 62
     7
370
    35
100
AcDbCircle
 10
417.546234
 20
32399.634766
 30
0.0
 40
32023.40899424491
100
AcDbArc
 50
269.777415
 51
270.22383
  0
POLYLINE
  5
A6
330
1F
100
AcDbEntity
  8
0
 62
     7
370
    35
100
AcDb2dPolyline
 66
     1
 10
0.0
 20
0.0
 30
0.0
  0
VERTEX
  5
A7
330
A6
100
AcDbEntity
  8
0
370
     0
100
AcDbVertex
100
AcDb2dVertex
 10
542.648865
 20
376.468597
 30
0.0
  0
VERTEX
  5
A8
330
A6
100
AcDbEntity
  8
0
370
     0
100
AcDbVertex
100
AcDb2dVertex
 10
543.027344
 20
376.207458
 30
0.0
  0
VERTEX
  5
A9
330
A6
100
AcDbEntity
  8
0
370
     0
100
AcDbVertex
100
AcDb2dVertex
 10
543.315186
 20
375.848633
 30
0.0
  0
VERTEX
  5
AA
330
A6
100
AcDbEntity
  8
0
370
     0
100
AcDbVertex
100
AcDb2dVertex
 10
543.496887
 20
375.42688
 30
0.0
  0
VERTEX
  5
AB
330
A6
100
AcDbEntity
  8
0
370
     0
100
AcDbVertex
100
AcDb2dVertex
 10
543.559509
 20
374.972168
 30
0.0
  0
SEQEND
  5
AC
330
A6
100
AcDbEntity
  8
0
 62
     7
370
    35
  0
LINE
  5
AD
330
1F
100
AcDbEntity
  8
0
 62
     7
370
    35
100
AcDbLine
 10
543.559509
 20
112.901245
 30
0.0
 11
543.559509
 21
374.972168
 31
0.0
  0
POLYLINE
  5
AE
330
1F
100
AcDbEntity
  8
0
 62
     7
370
    35
100
AcDb2dPolyline
 66
     1
 10
0.0
 20
0.0
 30
0.0
  0
VERTEX
  5
AF
330
AE
100
AcDbEntity
  8
0
370
     0
100
AcDbVertex
100
AcDb2dVertex
 10
543.559509
 20
112.901245
 30
0.0
  0
VERTEX
  5
B0
330
AE
100
AcDbEntity
  8
0
370
     0
100
AcDbVertex
100
AcDb2dVertex
 10
543.519226
 20
112.535049
 30
0.0
  0
VERTEX
  5
B1
330
AE
100
AcDbEntity
  8
0
370
     0
100
AcDbVertex
100
AcDb2dVertex
 10
543.400391
 20
112.185715
 30
0.0
  0
VERTEX
  5
B2
330
AE
100
AcDbEntity
  8
0
370
     0
100
AcDbVertex
100
AcDb2dVertex
 10
543.210449
 20
111.86969
 30
0.0
  0
VERTEX
  5
B3
330
AE
100
AcDbEntity
  8
0
370
     0
100
AcDbVertex
100
AcDb2dVertex
 10
542.957275
 20
111.603973
 30
0.0
  0
VERTEX
  5
B4
330
AE
100
AcDbEntity
  8
0
370
     0
100
AcDbVertex
100
AcDb2dVertex
 10
542.648865
 20
111.404831
 30
0.0
  0
SEQEND
  5
B5
330
AE
100
AcDbEntity
  8
0
 62
     7
370
    35
  0
ARC
  5
B6
330
1F
100
AcDbEntity
  8
0
 62
     7
370
    35
100
AcDbCircle
 10
417.545288
 20
-31906.146484
 30
0.0
 40
32017.79681485965
100
AcDbArc
 50
89.776129
 51
90.222619
  0
LINE
  5
B7
330
1F
100
AcDbEntity
  8
0
 62
     7
370
    35
100
AcDbLine
 10
281.425079
 20
384.51355
 30
0.0
 11
281.425079
 21
387.417084
 31
0.0
  0
ARC
  5
B8
330
1F
100
AcDbEntity
  8
0
 62
     7
370
    35
100
AcDbCircle
 10
282.033691
 20
385.51355
 30
0.0
 40
1.99845446658907
100
AcDbArc
 50
95.995003
 51
107.730006
  0
LINE
  5
B9
330
1F
100
AcDbEntity
  8
0
 62
     7
370
    35
100
AcDbLine
 10
281.824951
 20
387.501068
 30
0.0
 11
286.003113
 21
387.936707
 31
0.0
  0
LINE
  5
BA
330
1F
100
AcDbEntity
  8
0
 62
     7
370
    35
100
AcDbLine
 10
273.919891
 20
384.436707
 30
0.0
 11
277.249695
 21
384.436707
 31
0.0
  0
LINE
  5
BB
330
1F
100
AcDbEntity
  8
0
 62
     7
370
    35
100
AcDbLine
 10
277.249695
 20
103.436707
 30
0.0
 11
273.919891
 21
103.436707
 31
0.0
  0
ARC
  5
BC
330
1F
100
AcDbEntity
  8
0
 62
     7
370
    35
100
AcDbCircle
 10
282.034241
 20
102.362518
 30
0.0
 40
2.001136584783087
100
AcDbArc
 50
252.279038
 51
263.997627
  0
LINE
  5
BD
330
1F
100
AcDbEntity
  8
0
 62
     7
370
    35
100
AcDbLine
 10
281.425079
 20
103.359848
 30
0.0
 11
281.425079
 21
100.456329
 31
0.0
  0
POLYLINE
  5
BE
330
1F
100
AcDbEntity
  8
0
 62
     7
370
    35
100
AcDb2dPolyline
 66
     1
 10
0.0
 20
0.0
 30
0.0
  0
VERTEX
  5
BF
330
BE
100
AcDbEntity
  8
0
370
     0
100
AcDbVertex
100
AcDb2dVertex
 10
301.425079
 20
118.936707
 30
0.0
  0
VERTEX
  5
C0
330
BE
100
AcDbEntity
  8
0
370
     0
100
AcDbVertex
100
AcDb2dVertex
 10
301.297729
 20
118.873306
 30
0.0
  0
VERTEX
  5
C1
330
BE
100
AcDbEntity
  8
0
370
     0
100
AcDbVertex
100
AcDb2dVertex
 10
301.109589
 20
118.735039
 30
0.0
  0
VERTEX
  5
C2
330
BE
100
AcDbEntity
  8
0
370
     0
100
AcDbVertex
100
AcDb2dVertex
 10
300.428284
 20
118.168327
 30
0.0
  0
VERTEX
  5
C3
330
BE
100
AcDbEntity
  8
0
370
     0
100
AcDbVertex
100
AcDb2dVertex
 10
299.755859
 20
117.575363
 30
0.0
  0
VERTEX
  5
C4
330
BE
100
AcDbEntity
  8
0
370
     0
100
AcDbVertex
100
AcDb2dVertex
 10
297.194336
 20
115.227188
 30
0.0
  0
VERTEX
  5
C5
330
BE
100
AcDbEntity
  8
0
370
     0
100
AcDbVertex
100
AcDb2dVertex
 10
293.142029
 20
111.407532
 30
0.0
  0
SEQEND
  5
C6
330
BE
100
AcDbEntity
  8
0
 62
     7
370
    35
  0
ARC
  5
C7
330
1F
100
AcDbEntity
  8
0
 62
     7
370
    35
100
AcDbCircle
 10
301.425293
 20
120.436897
 30
0.0
 40
1.500251788754121
100
AcDbArc
 50
180.007303
 51
269.992703
  0
LINE
  5
C8
330
1F
100
AcDbEntity
  8
0
 62
     7
370
    35
100
AcDbLine
 10
299.925079
 20
120.436707
 30
0.0
 11
299.925079
 21
367.436707
 31
0.0
  0
ARC
  5
C9
330
1F
100
AcDbEntity
  8
0
 62
     7
370
    35
100
AcDbCircle
 10
301.425293
 20
367.436523
 30
0.0
 40
1.500251788754253
100
AcDbArc
 50
90.007297
 51
179.992697
  0
POLYLINE
  5
CA
330
1F
100
AcDbEntity
  8
0
 62
     7
370
    35
100
AcDb2dPolyline
 66
     1
 10
0.0
 20
0.0
 30
0.0
  0
VERTEX
  5
CB
330
CA
100
AcDbEntity
  8
0
370
     0
100
AcDbVertex
100
AcDb2dVertex
 10
293.142029
 20
376.465881
 30
0.0
  0
VERTEX
  5
CC
330
CA
100
AcDbEntity
  8
0
370
     0
100
AcDbVertex
100
AcDb2dVertex
 10
296.919189
 20
372.902435
 30
0.0
  0
VERTEX
  5
CD
330
CA
100
AcDbEntity
  8
0
370
     0
100
AcDbVertex
100
AcDb2dVertex
 10
298.832764
 20
371.134399
 30
0.0
  0
VERTEX
  5
CE
330
CA
100
AcDbEntity
  8
0
370
     0
100
AcDbVertex
100
AcDb2dVertex
 10
300.501404
 20
369.642334
 30
0.0
  0
VERTEX
  5
CF
330
CA
100
AcDbEntity
  8
0
370
     0
100
AcDbVertex
100
AcDb2dVertex
 10
301.086395
 20
369.156097
 30
0.0
  0
VERTEX
  5
D0
330
CA
100
AcDbEntity
  8
0
370
     0
100
AcDbVertex
100
AcDb2dVertex
 10
301.296326
 20
369.001221
 30
0.0
  0
VERTEX
  5
D1
330
CA
100
AcDbEntity
  8
0
370
     0
100
AcDbVertex
100
AcDb2dVertex
 10
301.425079
 20
368.936707
 30
0.0
  0
SEQEND
  5
D2
330
CA
100
AcDbEntity
  8
0
 62
     7
370
    35
  0
POLYLINE
  5
D3
330
1F
100
AcDbEntity
  8
0
 62
     7
370
    35
100
AcDb2dPolyline
 66
     1
 10
0.0
 20
0.0
 30
0.0
  0
VERTEX
  5
D4
330
D3
100
AcDbEntity
  8
0
370
     0
100
AcDbVertex
100
AcDb2dVertex
 10
534.42511
 20
368.936707
 30
0.0
  0
VERTEX
  5
D5
330
D3
100
AcDbEntity
  8
0
370
     0
100
AcDbVertex
100
AcDb2dVertex
 10
534.551758
 20
368.999725
 30
0.0
  0
VERTEX
  5
D6
330
D3
100
AcDbEntity
  8
0
370
     0
100
AcDbVertex
100
AcDb2dVertex
 10
534.738831
 20
369.137787
 30
0.0
  0
VERTEX
  5
D7
330
D3
100
AcDbEntity
  8
0
370
     0
100
AcDbVertex
100
AcDb2dVertex
 10
535.41449
 20
369.703308
 30
0.0
  0
VERTEX
  5
D8
330
D3
100
AcDbEntity
  8
0
370
     0
100
AcDbVertex
100
AcDb2dVertex
 10
536.08075
 20
370.294922
 30
0.0
  0
VERTEX
  5
D9
330
D3
100
AcDbEntity
  8
0
370
     0
100
AcDbVertex
100
AcDb2dVertex
 10
538.624268
 20
372.644409
 30
0.0
  0
VERTEX
  5
DA
330
D3
100
AcDbEntity
  8
0
370
     0
100
AcDbVertex
100
AcDb2dVertex
 10
542.648865
 20
376.468597
 30
0.0
  0
SEQEND
  5
DB
330
D3
100
AcDbEntity
  8
0
 62
     7
370
    35
  0
LINE
  5
DC
330
1F
100
AcDbEntity
  8
0
 62
     7
370
    35
100
AcDbLine
 10
534.42511
 20
368.936707
 30
0.0
 11
301.425079
 21
368.936707
 31
0.0
  0
ARC
  5
DD
330
1F
100
AcDbEntity
  8
0
 62
     7
370
    35
100
AcDbCircle
 10
534.424927
 20
367.436523
 30
0.0
 40
1.500251788754065
100
AcDbArc
 50
0.0073
 51
89.992701
  0
LINE
  5
DE
330
1F
100
AcDbEntity
  8
0
 62
     7
370
    35
100
AcDbLine
 10
535.92511
 20
367.436707
 30
0.0
 11
535.92511
 21
120.436707
 31
0.0
  0
ARC
  5
DF
330
1F
100
AcDbEntity
  8
0
 62
     7
370
    35
100
AcDbCircle
 10
534.424927
 20
120.436897
 30
0.0
 40
1.500251788754237
100
AcDbArc
 50
270.007299
 51
359.9927
  0
POLYLINE
  5
E0
330
1F
100
AcDbEntity
  8
0
 62
     7
370
    35
100
AcDb2dPolyline
 66
     1
 10
0.0
 20
0.0
 30
0.0
  0
VERTEX
  5
E1
330
E0
100
AcDbEntity
  8
0
370
     0
100
AcDbVertex
100
AcDb2dVertex
 10
542.648865
 20
111.404816
 30
0.0
  0
VERTEX
  5
E2
330
E0
100
AcDbEntity
  8
0
370
     0
100
AcDbVertex
100
AcDb2dVertex
 10
538.695312
 20
115.161682
 30
0.0
  0
VERTEX
  5
E3
330
E0
100
AcDbEntity
  8
0
370
     0
100
AcDbVertex
100
AcDb2dVertex
 10
536.160889
 20
117.505974
 30
0.0
  0
VERTEX
  5
E4
330
E0
100
AcDbEntity
  8
0
370
     0
100
AcDbVertex
100
AcDb2dVertex
 10
534.986572
 20
118.535477
 30
0.0
  0
VERTEX
  5
E5
330
E0
100
AcDbEntity
  8
0
370
     0
100
AcDbVertex
100
AcDb2dVertex
 10
534.580322
 20
118.853523
 30
0.0
  0
VERTEX
  5
E6
330
E0
100
AcDbEntity
  8
0
370
     0
100
AcDbVertex
100
AcDb2dVertex
 10
534.452698
 20
118.928299
 30
0.0
  0
VERTEX
  5
E7
330
E0
100
AcDbEntity
  8
0
370
     0
100
AcDbVertex
100
AcDb2dVertex
 10
534.42511
 20
118.936707
 30
0.0
  0
SEQEND
  5
E8
330
E0
100
AcDbEntity
  8
0
 62
     7
370
    35
  0
LINE
  5
E9
330
1F
100
AcDbEntity
  8
0
 62
     7
370
    35
100
AcDbLine
 10
301.425079
 20
118.936707
 30
0.0
 11
534.42511
 21
118.936707
 31
0.0
  0
LINE
  5
EA
330
1F
100
AcDbEntity
  8
0
 62
     7
370
    35
100
AcDbLine
 10
558.542786
 20
387.936707
 30
0.0
 11
286.003113
 21
387.936707
 31
0.0
  0
ARC
  5
EB
330
1F
100
AcDbEntity
  8
0
 62
     7
370
    35
100
AcDbCircle
 10
558.547729
 20
384.953064
 30
0.0
 40
2.983312678614288
100
AcDbArc
 50
359.904739
 51
90.095263
  0
ARC
  5
EC
330
1F
100
AcDbEntity
  8
0
 62
     7
370
    35
100
AcDbCircle
 10
558.547729
 20
102.920334
 30
0.0
 40
2.983314074113957
100
AcDbArc
 50
269.904764
 51
0.095237
  0
LINE
  5
ED
330
1F
100
AcDbEntity
  8
0
 62
     7
370
    35
100
AcDbLine
 10
281.824951
 20
100.372345
 30
0.0
 11
286.003113
 21
99.936707
 31
0.0
  0
LINE
  5
EE
330
1F
100
AcDbEntity
  8
0
 62
     7
370
    35
100
AcDbLine
 10
524.483582
 20
100.461639
 30
0.0
 11
451.366608
 21
100.461639
 31
0.0
  0
POLYLINE
  5
EF
330
1F
100
AcDbEntity
  8
0
 62
     7
370
    35
100
AcDb2dPolyline
 66
     1
 10
0.0
 20
0.0
 30
0.0
  0
VERTEX
  5
F0
330
EF
100
AcDbEntity
  8
0
370
     0
100
AcDbVertex
100
AcDb2dVertex
 10
526.38092
 20
100.341995
 30
0.0
  0
VERTEX
  5
F1
330
EF
100
AcDbEntity
  8
0
370
     0
100
AcDbVertex
100
AcDb2dVertex
 10
525.846741
 20
100.414673
 30
0.0
  0
VERTEX
  5
F2
330
EF
100
AcDbEntity
  8
0
370
     0
100
AcDbVertex
100
AcDb2dVertex
 10
524.483582
 20
100.461639
 30
0.0
  0
SEQEND
  5
F3
330
EF
100
AcDbEntity
  8
0
 62
     7
370
    35
  0
LINE
  5
F4
330
1F
100
AcDbEntity
  8
0
 62
     7
370
    35
100
AcDbLine
 10
527.92511
 20
99.936707
 30
0.0
 11
526.38092
 21
100.341995
 31
0.0
  0
LINE
  5
F5
330
1F
100
AcDbEntity
  8
0
 62
     7
370
    35
100
AcDbLine
 10
527.92511
 20
99.936707
 30
0.0
 11
558.542786
 21
99.936707
 31
0.0
  0
LINE
  5
F6
330
1F
100
AcDbEntity
  8
0
 62
     7
370
    35
100
AcDbLine
 10
286.003113
 20
99.936707
 30
0.0
 11
447.925079
 21
99.936707
 31
0.0
  0
LINE
  5
F7
330
1F
100
AcDbEntity
  8
0
 62
     7
370
    35
100
AcDbLine
 10
449.469238
 20
100.341995
 30
0.0
 11
447.925079
 21
99.936707
 31
0.0
  0
POLYLINE
  5
F8
330
1F
100
AcDbEntity
  8
0
 62
     7
370
    35
100
AcDb2dPolyline
 66
     1
 10
0.0
 20
0.0
 30
0.0
  0
VERTEX
  5
F9
330
F8
100
AcDbEntity
  8
0
370
     0
100
AcDbVertex
100
AcDb2dVertex
 10
451.366608
 20
100.461639
 30
0.0
  0
VERTEX
  5
FA
330
F8
100
AcDbEntity
  8
0
370
     0
100
AcDbVertex
100
AcDb2dVertex
 10
450.62735
 20
100.449249
 30
0.0
  0
VERTEX
  5
FB
330
F8
100
AcDbEntity
  8
0
370
     0
100
AcDbVertex
100
AcDb2dVertex
 10
449.675476
 20
100.380051
 30
0.0
  0
VERTEX
  5
FC
330
F8
100
AcDbEntity
  8
0
370
     0
100
AcDbVertex
100
AcDb2dVertex
 10
449.469238
 20
100.341995
 30
0.0
  0
SEQEND
  5
FD
330
F8
100
AcDbEntity
  8
0
 62
     7
370
    35
  0
LINE
  5
FE
330
1F
100
AcDbEntity
  8
0
 62
     7
370
    35
100
AcDbLine
 10
561.531372
 20
383.936707
 30
0.0
 11
561.531372
 21
384.436707
 31
0.0
  0
LINE
  5
FF
330
1F
100
AcDbEntity
  8
0
 62
     7
370
    35
100
AcDbLine
 10
561.531372
 20
384.436707
 30
0.0
 11
561.531372
 21
384.94812
 31
0.0
  0
LINE
  5
100
330
1F
100
AcDbEntity
  8
0
 62
     7
370
    35
100
AcDbLine
 10
561.531372
 20
103.436707
 30
0.0
 11
561.531372
 21
103.936707
 31
0.0
  0
LINE
  5
101
330
1F
100
AcDbEntity
  8
0
 62
     7
370
    35
100
AcDbLine
 10
561.531372
 20
102.925293
 30
0.0
 11
561.531372
 21
103.436707
 31
0.0
  0
LINE
  5
102
330
1F
100
AcDbEntity
  8
0
 62
     7
370
    35
100
AcDbLine
 10
561.531372
 20
383.936707
 30
0.0
 11
561.925049
 21
383.936707
 31
0.0
  0
LINE
  5
103
330
1F
100
AcDbEntity
  8
0
 62
     7
370
    35
100
AcDbLine
 10
561.925049
 20
103.936707
 30
0.0
 11
561.531372
 21
103.936707
 31
0.0
  0
LINE
  5
104
330
1F
100
AcDbEntity
  8
0
 62
     7
370
    35
100
AcDbLine
 10
561.925049
 20
103.936707
 30
0.0
 11
561.925049
 21
196.436966
 31
0.0
  0
POLYLINE
  5
105
330
1F
100
AcDbEntity
  8
0
 62
     7
370
    35
100
AcDb2dPolyline
 66
     1
 10
0.0
 20
0.0
 30
0.0
  0
VERTEX
  5
106
330
105
100
AcDbEntity
  8
0
370
     0
100
AcDbVertex
100
AcDb2dVertex
 10
561.798157
 20
196.678848
 30
0.0
  0
VERTEX
  5
107
330
105
100
AcDbEntity
  8
0
370
     0
100
AcDbVertex
100
AcDb2dVertex
 10
561.819092
 20
196.632584
 30
0.0
  0
VERTEX
  5
108
330
105
100
AcDbEntity
  8
0
370
     0
100
AcDbVertex
100
AcDb2dVertex
 10
561.925049
 20
196.433487
 30
0.0
  0
SEQEND
  5
109
330
105
100
AcDbEntity
  8
0
 62
     7
370
    35
  0
POLYLINE
  5
10A
330
1F
100
AcDbEntity
  8
0
 62
     7
370
    35
100
AcDb2dPolyline
 66
     1
 10
0.0
 20
0.0
 30
0.0
  0
VERTEX
  5
10B
330
10A
100
AcDbEntity
  8
0
370
     0
100
AcDbVertex
100
AcDb2dVertex
 10
561.622375
 20
199.130768
 30
0.0
  0
VERTEX
  5
10C
330
10A
100
AcDbEntity
  8
0
370
     0
100
AcDbVertex
100
AcDb2dVertex
 10
561.670227
 20
197.570435
 30
0.0
  0
VERTEX
  5
10D
330
10A
100
AcDbEntity
  8
0
370
     0
100
AcDbVertex
100
AcDb2dVertex
 10
561.75531
 20
196.8311
 30
0.0
  0
VERTEX
  5
10E
330
10A
100
AcDbEntity
  8
0
370
     0
100
AcDbVertex
100
AcDb2dVertex
 10
561.798035
 20
196.679047
 30
0.0
  0
SEQEND
  5
10F
330
10A
100
AcDbEntity
  8
0
 62
     7
370
    35
  0
LINE
  5
110
330
1F
100
AcDbEntity
  8
0
 62
     7
370
    35
100
AcDbLine
 10
561.622375
 20
288.742462
 30
0.0
 11
561.622375
 21
199.130966
 31
0.0
  0
POLYLINE
  5
111
330
1F
100
AcDbEntity
  8
0
 62
     7
370
    35
100
AcDb2dPolyline
 66
     1
 10
0.0
 20
0.0
 30
0.0
  0
VERTEX
  5
112
330
111
100
AcDbEntity
  8
0
370
     0
100
AcDbVertex
100
AcDb2dVertex
 10
561.798096
 20
291.194427
 30
0.0
  0
VERTEX
  5
113
330
111
100
AcDbEntity
  8
0
370
     0
100
AcDbVertex
100
AcDb2dVertex
 10
561.756836
 20
291.056183
 30
0.0
  0
VERTEX
  5
114
330
111
100
AcDbEntity
  8
0
370
     0
100
AcDbVertex
100
AcDb2dVertex
 10
561.672119
 20
290.338867
 30
0.0
  0
VERTEX
  5
115
330
111
100
AcDbEntity
  8
0
370
     0
100
AcDbVertex
100
AcDb2dVertex
 10
561.622375
 20
288.742615
 30
0.0
  0
SEQEND
  5
116
330
111
100
AcDbEntity
  8
0
 62
     7
370
    35
  0
ARC
  5
117
330
1F
100
AcDbEntity
  8
0
 62
     7
370
    35
100
AcDbCircle
 10
565.938599
 20
289.153748
 30
0.0
 40
4.61622484867454
100
AcDbArc
 50
150.559499
 51
153.763527
  0
LINE
  5
118
330
1F
100
AcDbEntity
  8
0
 62
     7
370
    35
100
AcDbLine
 10
561.925049
 20
291.443604
 30
0.0
 11
561.91803
 21
291.422974
 31
0.0
  0
LINE
  5
119
330
1F
100
AcDbEntity
  8
0
 62
     7
370
    35
100
AcDbLine
 10
561.925049
 20
291.443604
 30
0.0
 11
561.925049
 21
383.936707
 31
0.0
  0
LINE
  5
11A
330
1F
100
AcDbEntity
  8
0
 62
     7
370
    35
100
AcDbLine
 10
561.531372
 20
103.542999
 30
0.0
 11
561.925049
 21
103.936707
 31
0.0
  0
LINE
  5
11B
330
1F
100
AcDbEntity
  8
0
 62
     7
370
    35
100
AcDbLine
 10
561.925049
 20
383.936707
 30
0.0
 11
561.531372
 21
384.330414
 31
0.0
  0
LINE
  5
11C
330
1F
100
AcDbEntity
  8
0
 62
     7
370
    35
100
AcDbLine
 10
273.9198
 20
384.436707
 30
0.0
 11
273.9198
 21
103.436707
 31
0.0
  0
LINE
  5
11D
330
1F
100
AcDbEntity
  8
0
 62
     7
370
    35
100
AcDbLine
 10
281.425079
 20
384.436707
 30
0.0
 11
281.425079
 21
383.936707
 31
0.0
  0
LINE
  5
11E
330
1F
100
AcDbEntity
  8
0
 62
     7
370
    35
100
AcDbLine
 10
277.249695
 20
384.436707
 30
0.0
 11
273.9263
 21
384.436707
 31
0.0
  0
LINE
  5
11F
330
1F
100
AcDbEntity
  8
0
 62
     7
370
    35
100
AcDbLine
 10
277.249695
 20
383.936707
 30
0.0
 11
273.919891
 21
383.936707
 31
0.0
  0
LINE
  5
120
330
1F
100
AcDbEntity
  8
0
 62
     7
370
    35
100
AcDbLine
 10
281.425079
 20
384.436707
 30
0.0
 11
277.249695
 21
384.436707
 31
0.0
  0
LINE
  5
121
330
1F
100
AcDbEntity
  8
0
 62
     7
370
    35
100
AcDbLine
 10
281.425079
 20
383.936707
 30
0.0
 11
277.249695
 21
383.936707
 31
0.0
  0
LINE
  5
122
330
1F
100
AcDbEntity
  8
0
 62
     7
370
    35
100
AcDbLine
 10
281.425079
 20
384.436707
 30
0.0
 11
280.425079
 21
384.436707
 31
0.0
  0
LINE
  5
123
330
1F
100
AcDbEntity
  8
0
 62
     7
370
    35
100
AcDbLine
 10
280.425079
 20
384.436707
 30
0.0
 11
278.925079
 21
384.436707
 31
0.0
  0
LINE
  5
124
330
1F
100
AcDbEntity
  8
0
 62
     7
370
    35
100
AcDbLine
 10
281.425079
 20
385.736694
 30
0.0
 11
280.425079
 21
385.736694
 31
0.0
  0
LINE
  5
125
330
1F
100
AcDbEntity
  8
0
 62
     7
370
    35
100
AcDbLine
 10
280.425079
 20
385.736694
 30
0.0
 11
278.925079
 21
385.736694
 31
0.0
  0
LINE
  5
126
330
1F
100
AcDbEntity
  8
0
 62
     7
370
    35
100
AcDbLine
 10
278.925079
 20
384.436707
 30
0.0
 11
278.925079
 21
385.736694
 31
0.0
  0
LINE
  5
127
330
1F
100
AcDbEntity
  8
0
 62
     7
370
    35
100
AcDbLine
 10
275.225952
 20
102.036713
 30
0.0
 11
274.919891
 21
102.036713
 31
0.0
  0
LINE
  5
128
330
1F
100
AcDbEntity
  8
0
 62
     7
370
    35
100
AcDbLine
 10
275.225952
 20
103.436707
 30
0.0
 11
274.919891
 21
103.436707
 31
0.0
  0
LINE
  5
129
330
1F
100
AcDbEntity
  8
0
 62
     7
370
    35
100
AcDbLine
 10
279.919891
 20
102.036713
 30
0.0
 11
275.225952
 21
102.036713
 31
0.0
  0
LINE
  5
12A
330
1F
100
AcDbEntity
  8
0
 62
     7
370
    35
100
AcDbLine
 10
275.919891
 20
101.936707
 30
0.0
 11
275.919891
 21
102.036713
 31
0.0
  0
LINE
  5
12B
330
1F
100
AcDbEntity
  8
0
 62
     7
370
    35
100
AcDbLine
 10
278.919891
 20
101.936707
 30
0.0
 11
278.919891
 21
102.036713
 31
0.0
  0
LINE
  5
12C
330
1F
100
AcDbEntity
  8
0
 62
     7
370
    35
100
AcDbLine
 10
274.919891
 20
102.036713
 30
0.0
 11
274.919891
 21
103.436707
 31
0.0
  0
LINE
  5
12D
330
1F
100
AcDbEntity
  8
0
 62
     7
370
    35
100
AcDbLine
 10
279.919891
 20
102.036713
 30
0.0
 11
279.919891
 21
103.436707
 31
0.0
  0
LINE
  5
12E
330
1F
100
AcDbEntity
  8
0
 62
     7
370
    35
100
AcDbLine
 10
275.925079
 20
384.436707
 30
0.0
 11
278.741455
 21
384.436707
 31
0.0
  0
LINE
  5
12F
330
1F
100
AcDbEntity
  8
0
 62
     7
370
    35
100
AcDbLine
 10
278.741455
 20
384.436707
 30
0.0
 11
278.925079
 21
384.436707
 31
0.0
  0
LINE
  5
130
330
1F
100
AcDbEntity
  8
0
 62
     7
370
    35
100
AcDbLine
 10
276.125092
 20
385.936707
 30
0.0
 11
276.125092
 21
384.436707
 31
0.0
  0
LINE
  5
131
330
1F
100
AcDbEntity
  8
0
 62
     7
370
    35
100
AcDbLine
 10
278.725098
 20
385.936707
 30
0.0
 11
278.725098
 21
384.436707
 31
0.0
  0
ARC
  5
132
330
1F
100
AcDbEntity
  8
0
  6
PHANTOM
 62
     4
370
    35
100
AcDbCircle
 10
564.71991
 20
222.636703
 30
0.0
 40
2.0
100
AcDbArc
 50
0.0
 51
90.000003
  0
LINE
  5
133
330
1F
100
AcDbEntity
  8
0
  6
PHANTOM
 62
     4
370
    35
100
AcDbLine
 10
566.71991
 20
222.636703
 30
0.0
 11
566.71991
 21
162.636703
 31
0.0
  0
ARC
  5
134
330
1F
100
AcDbEntity
  8
0
  6
PHANTOM
 62
     4
370
    35
100
AcDbCircle
 10
564.71991
 20
162.636703
 30
0.0
 40
2.0
100
AcDbArc
 50
269.999997
 51
360.0
  0
LINE
  5
135
330
1F
100
AcDbEntity
  8
0
  6
PHANTOM
 62
     4
 48
0.07
370
    35
100
AcDbLine
 10
561.919922
 20
224.636703
 30
0.0
 11
564.71991
 21
224.636703
 31
0.0
  0
LINE
  5
136
330
1F
100
AcDbEntity
  8
0
  6
PHANTOM
 62
     4
 48
0.069872
370
    35
100
AcDbLine
 10
561.925049
 20
160.636703
 30
0.0
 11
564.71991
 21
160.636703
 31
0.0
  0
LINE
  5
137
330
1F
100
AcDbEntity
  8
0
  6
PHANTOM
 62
     4
 48
0.069999
370
    35
100
AcDbLine
 10
273.91983
 20
224.636703
 30
0.0
 11
271.119873
 21
224.636703
 31
0.0
  0
ARC
  5
138
330
1F
100
AcDbEntity
  8
0
  6
PHANTOM
 62
     4
370
    35
100
AcDbCircle
 10
271.119873
 20
222.636703
 30
0.0
 40
2.0
100
AcDbArc
 50
90.000003
 51
180.000005
  0
LINE
  5
139
330
1F
100
AcDbEntity
  8
0
  6
PHANTOM
 62
     4
 48
0.069998
370
    35
100
AcDbLine
 10
273.9198
 20
160.636703
 30
0.0
 11
271.119873
 21
160.636703
 31
0.0
  0
LINE
  5
13A
330
1F
100
AcDbEntity
  8
0
  6
PHANTOM
 62
     4
370
    35
100
AcDbLine
 10
269.119873
 20
222.636703
 30
0.0
 11
269.119873
 21
162.636703
 31
0.0
  0
ARC
  5
13B
330
1F
100
AcDbEntity
  8
0
  6
PHANTOM
 62
     4
370
    35
100
AcDbCircle
 10
271.119873
 20
162.636703
 30
0.0
 40
2.0
100
AcDbArc
 50
180.000005
 51
269.999997
  0
LINE
  5
13C
330
1F
100
AcDbEntity
  8
0
 62
     7
370
    35
100
AcDbLine
 10
939.196472
 20
382.236694
 30
0.0
 11
939.196472
 21
140.488541
 31
0.0
  0
LINE
  5
13D
330
1F
100
AcDbEntity
  8
0
 62
     7
370
    35
100
AcDbLine
 10
939.196472
 20
382.736694
 30
0.0
 11
939.196472
 21
382.236694
 31
0.0
  0
ARC
  5
13E
330
1F
100
AcDbEntity
  8
0
 62
     7
370
    35
100
AcDbCircle
 10
929.196472
 20
140.488541
 30
0.0
 40
10.0
100
AcDbArc
 50
303.690066
 51
360.0
  0
LINE
  5
13F
330
1F
100
AcDbEntity
  8
0
 62
     7
370
    35
100
AcDbLine
 10
934.743469
 20
132.16803
 30
0.0
 11
896.715698
 21
106.816208
 31
0.0
  0
ARC
  5
140
330
1F
100
AcDbEntity
  8
0
 62
     7
370
    35
100
AcDbCircle
 10
891.168701
 20
115.136703
 30
0.0
 40
10.00000000000001
100
AcDbArc
 50
269.999997
 51
303.690066
  0
LINE
  5
141
330
1F
100
AcDbEntity
  8
0
 62
     7
370
    35
100
AcDbLine
 10
719.196472
 20
105.136703
 30
0.0
 11
891.168701
 21
105.136703
 31
0.0
  0
CIRCLE
  5
142
330
1F
100
AcDbEntity
  8
0
 62
     7
370
    35
100
AcDbCircle
 10
723.196472
 20
265.936707
 30
0.0
 40
2.5
  0
CIRCLE
  5
143
330
1F
100
AcDbEntity
  8
0
 62
     7
370
    35
100
AcDbCircle
 10
742.196472
 20
241.936707
 30
0.0
 40
2.5
  0
LINE
  5
144
330
1F
100
AcDbEntity
  8
0
 62
     7
370
    35
100
AcDbLine
 10
719.196472
 20
382.236694
 30
0.0
 11
719.196472
 21
105.136703
 31
0.0
  0
LINE
  5
145
330
1F
100
AcDbEntity
  8
0
 62
     7
370
    35
100
AcDbLine
 10
719.196472
 20
382.736694
 30
0.0
 11
719.196472
 21
382.236694
 31
0.0
  0
LINE
  5
146
330
1F
100
AcDbEntity
  8
0
 62
     7
370
    35
100
AcDbLine
 10
719.196472
 20
382.736694
 30
0.0
 11
939.196472
 21
382.736694
 31
0.0
  0
ARC
  5
147
330
1F
100
AcDbEntity
  8
0
 62
     7
370
    35
100
AcDbCircle
 10
759.196472
 20
201.436707
 30
0.0
 40
1.5
100
AcDbArc
 50
247.060192
 51
74.204603
  0
ARC
  5
148
330
1F
100
AcDbEntity
  8
0
 62
     7
370
    35
100
AcDbCircle
 10
759.196472
 20
186.436707
 30
0.0
 40
1.5
100
AcDbArc
 50
65.579057
 51
255.685738
  0
CIRCLE
  5
149
330
1F
100
AcDbEntity
  8
0
 62
     7
370
    35
100
AcDbCircle
 10
739.196472
 20
113.136703
 30
0.0
 40
1.05
  0
CIRCLE
  5
14A
330
1F
100
AcDbEntity
  8
0
 62
     7
370
    35
100
AcDbCircle
 10
859.196472
 20
113.136703
 30
0.0
 40
1.05
  0
CIRCLE
  5
14B
330
1F
100
AcDbEntity
  8
0
 62
     7
370
    35
100
AcDbCircle
 10
884.396484
 20
133.936707
 30
0.0
 40
1.05
  0
CIRCLE
  5
14C
330
1F
100
AcDbEntity
  8
0
 62
     7
370
    35
100
AcDbCircle
 10
884.396484
 20
353.936707
 30
0.0
 40
1.05
  0
LINE
  5
14D
330
1F
100
AcDbEntity
  8
0
 62
     7
370
    35
100
AcDbLine
 10
891.396484
 20
105.136703
 30
0.0
 11
891.172119
 21
105.136703
 31
0.0
  0
CIRCLE
  5
14E
330
1F
100
AcDbEntity
  8
0
 62
     7
370
    35
100
AcDbCircle
 10
859.196472
 20
113.136703
 30
0.0
 40
1.0
  0
CIRCLE
  5
14F
330
1F
100
AcDbEntity
  8
0
 62
     7
370
    35
100
AcDbCircle
 10
739.196472
 20
113.136703
 30
0.0
 40
1.0
  0
ARC
  5
150
330
1F
100
AcDbEntity
  8
0
 62
     7
370
    35
100
AcDbCircle
 10
759.196472
 20
201.436707
 30
0.0
 40
1.0
100
AcDbArc
 50
245.26972
 51
75.995075
  0
ARC
  5
151
330
1F
100
AcDbEntity
  8
0
 62
     7
370
    35
100
AcDbCircle
 10
759.196472
 20
186.436707
 30
0.0
 40
1.0
100
AcDbArc
 50
63.04003
 51
258.224765
  0
LINE
  5
152
330
1F
100
AcDbEntity
  8
0
 62
     7
370
    35
100
AcDbLine
 10
706.446472
 20
385.936707
 30
0.0
 11
706.446472
 21
384.736694
 31
0.0
  0
LINE
  5
153
330
1F
100
AcDbEntity
  8
0
 62
     7
370
    35
100
AcDbLine
 10
706.446472
 20
384.736694
 30
0.0
 11
705.697021
 21
384.736694
 31
0.0
  0
LINE
  5
154
330
1F
100
AcDbEntity
  8
0
 62
     7
370
    35
100
AcDbLine
 10
706.446472
 20
384.736694
 30
0.0
 11
717.196472
 21
384.736694
 31
0.0
  0
LINE
  5
155
330
1F
100
AcDbEntity
  8
0
 62
     7
370
    35
100
AcDbLine
 10
719.196472
 20
385.936707
 30
0.0
 11
719.196472
 21
384.736694
 31
0.0
  0
ARC
  5
156
330
1F
100
AcDbEntity
  8
0
 62
     7
370
    35
100
AcDbCircle
 10
718.196472
 20
386.936707
 30
0.0
 40
1.0
100
AcDbArc
 50
0.0
 51
90.000003
  0
LINE
  5
157
330
1F
100
AcDbEntity
  8
0
 62
     7
370
    35
100
AcDbLine
 10
706.196472
 20
385.936707
 30
0.0
 11
705.697205
 21
385.936707
 31
0.0
  0
LINE
  5
158
330
1F
100
AcDbEntity
  8
0
 62
     7
370
    35
100
AcDbLine
 10
707.196472
 20
385.936707
 30
0.0
 11
706.196472
 21
385.936707
 31
0.0
  0
LINE
  5
159
330
1F
100
AcDbEntity
  8
0
 62
     7
370
    35
100
AcDbLine
 10
717.196472
 20
385.936707
 30
0.0
 11
707.196472
 21
385.936707
 31
0.0
  0
LINE
  5
15A
330
1F
100
AcDbEntity
  8
0
 62
     7
370
    35
100
AcDbLine
 10
706.196472
 20
101.936707
 30
0.0
 11
705.697083
 21
101.936707
 31
0.0
  0
LINE
  5
15B
330
1F
100
AcDbEntity
  8
0
 62
     7
370
    35
100
AcDbLine
 10
707.196472
 20
101.936707
 30
0.0
 11
706.196472
 21
101.936707
 31
0.0
  0
LINE
  5
15C
330
1F
100
AcDbEntity
  8
0
 62
     7
370
    35
100
AcDbLine
 10
717.196472
 20
101.936707
 30
0.0
 11
707.196472
 21
101.936707
 31
0.0
  0
ARC
  5
15D
330
1F
100
AcDbEntity
  8
0
 62
     7
370
    35
100
AcDbCircle
 10
718.196472
 20
100.936707
 30
0.0
 40
1.0
100
AcDbArc
 50
269.999997
 51
360.0
  0
LINE
  5
15E
330
1F
100
AcDbEntity
  8
0
 62
     7
370
    35
100
AcDbLine
 10
718.196472
 20
99.936707
 30
0.0
 11
707.196472
 21
99.936707
 31
0.0
  0
LINE
  5
15F
330
1F
100
AcDbEntity
  8
0
 62
     7
370
    35
100
AcDbLine
 10
717.196472
 20
101.936707
 30
0.0
 11
717.196472
 21
385.936707
 31
0.0
  0
LINE
  5
160
330
1F
100
AcDbEntity
  8
0
 62
     7
370
    35
100
AcDbLine
 10
718.196472
 20
387.936707
 30
0.0
 11
707.196472
 21
387.936707
 31
0.0
  0
LINE
  5
161
330
1F
100
AcDbEntity
  8
0
 62
     7
370
    35
100
AcDbLine
 10
719.196472
 20
100.936707
 30
0.0
 11
719.196472
 21
386.936707
 31
0.0
  0
LINE
  5
162
330
1F
100
AcDbEntity
  8
0
 62
     7
370
    35
100
AcDbLine
 10
699.446716
 20
387.936707
 30
0.0
 11
698.196472
 21
387.936707
 31
0.0
  0
LINE
  5
163
330
1F
100
AcDbEntity
  8
0
 62
     7
370
    35
100
AcDbLine
 10
706.196472
 20
387.936707
 30
0.0
 11
699.446716
 21
387.936707
 31
0.0
  0
LINE
  5
164
330
1F
100
AcDbEntity
  8
0
 62
     7
370
    35
100
AcDbLine
 10
707.196472
 20
387.936707
 30
0.0
 11
706.196472
 21
387.936707
 31
0.0
  0
LINE
  5
165
330
1F
100
AcDbEntity
  8
0
 62
     7
370
    35
100
AcDbLine
 10
706.196472
 20
385.936707
 30
0.0
 11
706.196472
 21
387.936707
 31
0.0
  0
LINE
  5
166
330
1F
100
AcDbEntity
  8
0
 62
     7
370
    35
100
AcDbLine
 10
699.446716
 20
99.936707
 30
0.0
 11
698.196472
 21
99.936707
 31
0.0
  0
LINE
  5
167
330
1F
100
AcDbEntity
  8
0
 62
     7
370
    35
100
AcDbLine
 10
706.196472
 20
99.936707
 30
0.0
 11
699.446716
 21
99.936707
 31
0.0
  0
LINE
  5
168
330
1F
100
AcDbEntity
  8
0
 62
     7
370
    35
100
AcDbLine
 10
706.196472
 20
101.936707
 30
0.0
 11
706.196472
 21
99.936707
 31
0.0
  0
LINE
  5
169
330
1F
100
AcDbEntity
  8
0
 62
     7
370
    35
100
AcDbLine
 10
707.196472
 20
99.936707
 30
0.0
 11
706.196472
 21
99.936707
 31
0.0
  0
LINE
  5
16A
330
1F
100
AcDbEntity
  8
0
 62
     7
370
    35
100
AcDbLine
 10
717.196472
 20
383.936707
 30
0.0
 11
716.196838
 21
383.936707
 31
0.0
  0
LINE
  5
16B
330
1F
100
AcDbEntity
  8
0
 62
     7
370
    35
100
AcDbLine
 10
716.197021
 20
103.936707
 30
0.0
 11
717.196472
 21
103.936707
 31
0.0
  0
LINE
  5
16C
330
1F
100
AcDbEntity
  8
0
 62
     7
370
    35
100
AcDbLine
 10
698.196472
 20
387.280457
 30
0.0
 11
698.196472
 21
387.936707
 31
0.0
  0
LINE
  5
16D
330
1F
100
AcDbEntity
  8
0
 62
     7
370
    35
100
AcDbLine
 10
698.196472
 20
99.936707
 30
0.0
 11
698.196472
 21
100.592941
 31
0.0
  0
LINE
  5
16E
330
1F
100
AcDbEntity
  8
0
 62
     7
370
    35
100
AcDbLine
 10
929.196472
 20
382.736694
 30
0.0
 11
927.196472
 21
382.736694
 31
0.0
  0
LINE
  5
16F
330
1F
100
AcDbEntity
  8
0
 62
     7
370
    35
100
AcDbLine
 10
929.196472
 20
382.736694
 30
0.0
 11
929.196472
 21
382.8367
 31
0.0
  0
LINE
  5
170
330
1F
100
AcDbEntity
  8
0
 62
     7
370
    35
100
AcDbLine
 10
929.196472
 20
382.8367
 30
0.0
 11
927.196472
 21
382.8367
 31
0.0
  0
LINE
  5
171
330
1F
100
AcDbEntity
  8
0
 62
     7
370
    35
100
AcDbLine
 10
916.196472
 20
382.736694
 30
0.0
 11
916.196472
 21
382.8367
 31
0.0
  0
LINE
  5
172
330
1F
100
AcDbEntity
  8
0
 62
     7
370
    35
100
AcDbLine
 10
918.196472
 20
382.736694
 30
0.0
 11
916.196472
 21
382.736694
 31
0.0
  0
LINE
  5
173
330
1F
100
AcDbEntity
  8
0
 62
     7
370
    35
100
AcDbLine
 10
918.196472
 20
382.8367
 30
0.0
 11
916.196472
 21
382.8367
 31
0.0
  0
LINE
  5
174
330
1F
100
AcDbEntity
  8
0
 62
     7
370
    35
100
AcDbLine
 10
927.196472
 20
382.736694
 30
0.0
 11
918.196472
 21
382.736694
 31
0.0
  0
LINE
  5
175
330
1F
100
AcDbEntity
  8
0
 62
     7
370
    35
100
AcDbLine
 10
927.196472
 20
382.8367
 30
0.0
 11
918.196472
 21
382.8367
 31
0.0
  0
CIRCLE
  5
176
330
1F
100
AcDbEntity
  8
0
 62
     7
370
    35
100
AcDbCircle
 10
742.196472
 20
241.936707
 30
0.0
 40
1.500000000000004
  0
CIRCLE
  5
177
330
1F
100
AcDbEntity
  8
0
 62
     7
370
    35
100
AcDbCircle
 10
723.196472
 20
265.936707
 30
0.0
 40
1.500000000000004
  0
LINE
  5
178
330
1F
100
AcDbEntity
  8
0
 62
     7
370
    35
100
AcDbLine
 10
763.99646
 20
382.736694
 30
0.0
 11
762.434753
 21
382.736694
 31
0.0
  0
LINE
  5
179
330
1F
100
AcDbEntity
  8
0
 62
     7
370
    35
100
AcDbLine
 10
762.434753
 20
382.736694
 30
0.0
 11
757.99646
 21
382.736694
 31
0.0
  0
LINE
  5
17A
330
1F
100
AcDbEntity
  8
0
 62
     7
370
    35
100
AcDbLine
 10
697.490356
 20
373.084412
 30
0.0
 11
697.490356
 21
114.788818
 31
0.0
  0
LINE
  5
17B
330
1F
100
AcDbEntity
  8
0
 62
     7
370
    35
100
AcDbLine
 10
697.480713
 20
376.468597
 30
0.0
 11
694.684326
 21
376.224487
 31
0.0
  0
POLYLINE
  5
17C
330
1F
100
AcDbEntity
  8
0
 62
     7
370
    35
100
AcDb2dPolyline
 66
     1
 10
0.0
 20
0.0
 30
0.0
  0
VERTEX
  5
17D
330
17C
100
AcDbEntity
  8
0
370
     0
100
AcDbVertex
100
AcDb2dVertex
 10
697.480713
 20
376.468597
 30
0.0
  0
VERTEX
  5
17E
330
17C
100
AcDbEntity
  8
0
370
     0
100
AcDbVertex
100
AcDb2dVertex
 10
697.503418
 20
376.07196
 30
0.0
  0
VERTEX
  5
17F
330
17C
100
AcDbEntity
  8
0
370
     0
100
AcDbVertex
100
AcDb2dVertex
 10
697.521545
 20
374.972168
 30
0.0
  0
SEQEND
  5
180
330
17C
100
AcDbEntity
  8
0
 62
     7
370
    35
  0
LINE
  5
181
330
1F
100
AcDbEntity
  8
0
 62
     7
370
    35
100
AcDbLine
 10
697.521545
 20
112.901245
 30
0.0
 11
697.521545
 21
374.972168
 31
0.0
  0
POLYLINE
  5
182
330
1F
100
AcDbEntity
  8
0
 62
     7
370
    35
100
AcDb2dPolyline
 66
     1
 10
0.0
 20
0.0
 30
0.0
  0
VERTEX
  5
183
330
182
100
AcDbEntity
  8
0
370
     0
100
AcDbVertex
100
AcDb2dVertex
 10
697.521545
 20
112.901245
 30
0.0
  0
VERTEX
  5
184
330
182
100
AcDbEntity
  8
0
370
     0
100
AcDbVertex
100
AcDb2dVertex
 10
697.503418
 20
111.80162
 30
0.0
  0
VERTEX
  5
185
330
182
100
AcDbEntity
  8
0
370
     0
100
AcDbVertex
100
AcDb2dVertex
 10
697.480713
 20
111.404831
 30
0.0
  0
SEQEND
  5
186
330
182
100
AcDbEntity
  8
0
 62
     7
370
    35
  0
LINE
  5
187
330
1F
100
AcDbEntity
  8
0
 62
     7
370
    35
100
AcDbLine
 10
694.684326
 20
111.64888
 30
0.0
 11
697.480713
 21
111.4048
 31
0.0
  0
LINE
  5
188
330
1F
100
AcDbEntity
  8
0
 62
     7
370
    35
100
AcDbLine
 10
697.423218
 20
100.660599
 30
0.0
 11
700.936401
 21
100.353226
 31
0.0
  0
LINE
  5
189
330
1F
100
AcDbEntity
  8
0
 62
     7
370
    35
100
AcDbLine
 10
697.423096
 20
387.21283
 30
0.0
 11
700.936401
 21
387.520203
 31
0.0
  0
LINE
  5
18A
330
1F
100
AcDbEntity
  8
0
 62
     7
370
    35
100
AcDbLine
 10
700.936401
 20
387.520203
 30
0.0
 11
701.392151
 21
387.560059
 31
0.0
  0
LINE
  5
18B
330
1F
100
AcDbEntity
  8
0
 62
     7
370
    35
100
AcDbLine
 10
701.392151
 20
387.560059
 30
0.0
 11
705.697205
 21
387.936707
 31
0.0
  0
LINE
  5
18C
330
1F
100
AcDbEntity
  8
0
 62
     7
370
    35
100
AcDbLine
 10
705.697205
 20
384.94812
 30
0.0
 11
705.697205
 21
387.936707
 31
0.0
  0
LINE
  5
18D
330
1F
100
AcDbEntity
  8
0
 62
     7
370
    35
100
AcDbLine
 10
705.697205
 20
99.936707
 30
0.0
 11
701.392151
 21
100.313354
 31
0.0
  0
LINE
  5
18E
330
1F
100
AcDbEntity
  8
0
 62
     7
370
    35
100
AcDbLine
 10
705.697205
 20
99.936707
 30
0.0
 11
705.697205
 21
102.925293
 31
0.0
  0
LINE
  5
18F
330
1F
100
AcDbEntity
  8
0
 62
     7
370
    35
100
AcDbLine
 10
700.938354
 20
100.353058
 30
0.0
 11
701.392334
 21
100.313339
 31
0.0
  0
LINE
  5
190
330
1F
100
AcDbEntity
  8
0
 62
     7
370
    35
100
AcDbLine
 10
716.197205
 20
293.630951
 30
0.0
 11
716.197205
 21
194.242447
 31
0.0
  0
LINE
  5
191
330
1F
100
AcDbEntity
  8
0
 62
     7
370
    35
100
AcDbLine
 10
705.697205
 20
383.936707
 30
0.0
 11
705.697205
 21
384.436707
 31
0.0
  0
LINE
  5
192
330
1F
100
AcDbEntity
  8
0
 62
     7
370
    35
100
AcDbLine
 10
705.697205
 20
384.436707
 30
0.0
 11
705.697205
 21
384.94812
 31
0.0
  0
LINE
  5
193
330
1F
100
AcDbEntity
  8
0
 62
     7
370
    35
100
AcDbLine
 10
705.697205
 20
103.436707
 30
0.0
 11
705.697205
 21
103.936707
 31
0.0
  0
LINE
  5
194
330
1F
100
AcDbEntity
  8
0
 62
     7
370
    35
100
AcDbLine
 10
705.697205
 20
102.925293
 30
0.0
 11
705.697205
 21
103.436707
 31
0.0
  0
LINE
  5
195
330
1F
100
AcDbEntity
  8
0
 62
     7
370
    35
100
AcDbLine
 10
705.697205
 20
383.936707
 30
0.0
 11
710.197205
 21
383.936707
 31
0.0
  0
LINE
  5
196
330
1F
100
AcDbEntity
  8
0
 62
     7
370
    35
100
AcDbLine
 10
710.197205
 20
103.936707
 30
0.0
 11
705.697205
 21
103.936707
 31
0.0
  0
LINE
  5
197
330
1F
100
AcDbEntity
  8
0
 62
     7
370
    35
100
AcDbLine
 10
710.197205
 20
103.936707
 30
0.0
 11
710.197205
 21
196.436966
 31
0.0
  0
POLYLINE
  5
198
330
1F
100
AcDbEntity
  8
0
 62
     7
370
    35
100
AcDb2dPolyline
 66
     1
 10
0.0
 20
0.0
 30
0.0
  0
VERTEX
  5
199
330
198
100
AcDbEntity
  8
0
370
     0
100
AcDbVertex
100
AcDb2dVertex
 10
708.745422
 20
196.678848
 30
0.0
  0
VERTEX
  5
19A
330
198
100
AcDbEntity
  8
0
370
     0
100
AcDbVertex
100
AcDb2dVertex
 10
709.030884
 20
196.624344
 30
0.0
  0
VERTEX
  5
19B
330
198
100
AcDbEntity
  8
0
370
     0
100
AcDbVertex
100
AcDb2dVertex
 10
710.197144
 20
196.433487
 30
0.0
  0
SEQEND
  5
19C
330
198
100
AcDbEntity
  8
0
 62
     7
370
    35
  0
ARC
  5
19D
330
1F
100
AcDbEntity
  8
0
 62
     7
370
    35
100
AcDbCircle
 10
709.239502
 20
199.131958
 30
0.0
 40
2.502047959753655
100
AcDbArc
 50
180.027056
 51
258.606258
  0
LINE
  5
19E
330
1F
100
AcDbEntity
  8
0
 62
     7
370
    35
100
AcDbLine
 10
706.737427
 20
288.742462
 30
0.0
 11
706.737427
 21
199.130966
 31
0.0
  0
POLYLINE
  5
19F
330
1F
100
AcDbEntity
  8
0
 62
     7
370
    35
100
AcDb2dPolyline
 66
     1
 10
0.0
 20
0.0
 30
0.0
  0
VERTEX
  5
1A0
330
19F
100
AcDbEntity
  8
0
370
     0
100
AcDbVertex
100
AcDb2dVertex
 10
708.745361
 20
291.194427
 30
0.0
  0
VERTEX
  5
1A1
330
19F
100
AcDbEntity
  8
0
370
     0
100
AcDbVertex
100
AcDb2dVertex
 10
708.273865
 20
291.056183
 30
0.0
  0
VERTEX
  5
1A2
330
19F
100
AcDbEntity
  8
0
370
     0
100
AcDbVertex
100
AcDb2dVertex
 10
707.841919
 20
290.826233
 30
0.0
  0
VERTEX
  5
1A3
330
19F
100
AcDbEntity
  8
0
370
     0
100
AcDbVertex
100
AcDb2dVertex
 10
707.556152
 20
290.602509
 30
0.0
  0
VERTEX
  5
1A4
330
19F
100
AcDbEntity
  8
0
370
     0
100
AcDbVertex
100
AcDb2dVertex
 10
707.306213
 20
290.338867
 30
0.0
  0
VERTEX
  5
1A5
330
19F
100
AcDbEntity
  8
0
370
     0
100
AcDbVertex
100
AcDb2dVertex
 10
707.097107
 20
290.04126
 30
0.0
  0
VERTEX
  5
1A6
330
19F
100
AcDbEntity
  8
0
370
     0
100
AcDbVertex
100
AcDb2dVertex
 10
706.933167
 20
289.7164
 30
0.0
  0
VERTEX
  5
1A7
330
19F
100
AcDbEntity
  8
0
370
     0
100
AcDbVertex
100
AcDb2dVertex
 10
706.765503
 20
289.116089
 30
0.0
  0
VERTEX
  5
1A8
330
19F
100
AcDbEntity
  8
0
370
     0
100
AcDbVertex
100
AcDb2dVertex
 10
706.737427
 20
288.742615
 30
0.0
  0
SEQEND
  5
1A9
330
19F
100
AcDbEntity
  8
0
 62
     7
370
    35
  0
LINE
  5
1AA
330
1F
100
AcDbEntity
  8
0
 62
     7
370
    35
100
AcDbLine
 10
710.116455
 20
291.422974
 30
0.0
 11
708.745361
 21
291.194427
 31
0.0
  0
LINE
  5
1AB
330
1F
100
AcDbEntity
  8
0
 62
     7
370
    35
100
AcDbLine
 10
710.197205
 20
291.443604
 30
0.0
 11
710.116455
 21
291.422974
 31
0.0
  0
LINE
  5
1AC
330
1F
100
AcDbEntity
  8
0
 62
     7
370
    35
100
AcDbLine
 10
710.197205
 20
291.443604
 30
0.0
 11
710.197205
 21
383.936707
 31
0.0
  0
LINE
  5
1AD
330
1F
100
AcDbEntity
  8
0
 62
     7
370
    35
100
AcDbLine
 10
707.197205
 20
288.742462
 30
0.0
 11
707.197205
 21
199.130966
 31
0.0
  0
ARC
  5
1AE
330
1F
100
AcDbEntity
  8
0
 62
     7
370
    35
100
AcDbCircle
 10
709.197388
 20
288.74231
 30
0.0
 40
2.000082039268267
100
AcDbArc
 50
99.466829
 51
179.995483
  0
ARC
  5
1AF
330
1F
100
AcDbEntity
  8
0
 62
     7
370
    35
100
AcDbCircle
 10
709.197388
 20
199.131119
 30
0.0
 40
2.00008203204111
100
AcDbArc
 50
180.004517
 51
260.533171
  0
LINE
  5
1B0
330
1F
100
AcDbEntity
  8
0
 62
     7
370
    35
100
AcDbLine
 10
705.697205
 20
384.436707
 30
0.0
 11
710.219055
 21
384.436707
 31
0.0
  0
LINE
  5
1B1
330
1F
100
AcDbEntity
  8
0
 62
     7
370
    35
100
AcDbLine
 10
710.219055
 20
384.436707
 30
0.0
 11
715.697205
 21
384.436707
 31
0.0
  0
LINE
  5
1B2
330
1F
100
AcDbEntity
  8
0
 62
     7
370
    35
100
AcDbLine
 10
715.697205
 20
384.436707
 30
0.0
 11
716.197205
 21
383.936707
 31
0.0
  0
LINE
  5
1B3
330
1F
100
AcDbEntity
  8
0
 62
     7
370
    35
100
AcDbLine
 10
710.219055
 20
103.436707
 30
0.0
 11
705.697205
 21
103.436707
 31
0.0
  0
LINE
  5
1B4
330
1F
100
AcDbEntity
  8
0
 62
     7
370
    35
100
AcDbLine
 10
710.219055
 20
103.436707
 30
0.0
 11
715.697205
 21
103.436707
 31
0.0
  0
LINE
  5
1B5
330
1F
100
AcDbEntity
  8
0
 62
     7
370
    35
100
AcDbLine
 10
715.697205
 20
103.436707
 30
0.0
 11
716.197205
 21
103.936707
 31
0.0
  0
LINE
  5
1B6
330
1F
100
AcDbEntity
  8
0
 62
     7
370
    35
100
AcDbLine
 10
710.197205
 20
103.936707
 30
0.0
 11
715.490112
 21
103.936707
 31
0.0
  0
LINE
  5
1B7
330
1F
100
AcDbEntity
  8
0
 62
     7
370
    35
100
AcDbLine
 10
715.490112
 20
103.936707
 30
0.0
 11
715.697205
 21
104.143814
 31
0.0
  0
LINE
  5
1B8
330
1F
100
AcDbEntity
  8
0
 62
     7
370
    35
100
AcDbLine
 10
715.697205
 20
104.143814
 30
0.0
 11
715.697205
 21
194.242447
 31
0.0
  0
ARC
  5
1B9
330
1F
100
AcDbEntity
  8
0
 62
     7
370
    35
100
AcDbCircle
 10
714.197205
 20
194.242447
 30
0.0
 40
1.500000000000043
100
AcDbArc
 50
359.999918
 51
80.537677
  0
LINE
  5
1BA
330
1F
100
AcDbEntity
  8
0
 62
     7
370
    35
100
AcDbLine
 10
714.443787
 20
195.722046
 30
0.0
 11
710.197205
 21
196.42981
 31
0.0
  0
LINE
  5
1BB
330
1F
100
AcDbEntity
  8
0
 62
     7
370
    35
100
AcDbLine
 10
708.868408
 20
197.158173
 30
0.0
 11
710.218445
 21
196.933167
 31
0.0
  0
LINE
  5
1BC
330
1F
100
AcDbEntity
  8
0
 62
     7
370
    35
100
AcDbLine
 10
714.526001
 20
196.21524
 30
0.0
 11
710.218445
 21
196.933167
 31
0.0
  0
ARC
  5
1BD
330
1F
100
AcDbEntity
  8
0
 62
     7
370
    35
100
AcDbCircle
 10
714.197205
 20
194.242447
 30
0.0
 40
2.0
100
AcDbArc
 50
0.0
 51
80.537677
  0
LINE
  5
1BE
330
1F
100
AcDbEntity
  8
0
 62
     7
370
    35
100
AcDbLine
 10
714.443787
 20
292.151367
 30
0.0
 11
710.197205
 21
291.443604
 31
0.0
  0
ARC
  5
1BF
330
1F
100
AcDbEntity
  8
0
 62
     7
370
    35
100
AcDbCircle
 10
714.197205
 20
293.630951
 30
0.0
 40
1.50000000000004
100
AcDbArc
 50
279.462378
 51
0.0
  0
LINE
  5
1C0
330
1F
100
AcDbEntity
  8
0
 62
     7
370
    35
100
AcDbLine
 10
715.697205
 20
383.729614
 30
0.0
 11
715.697205
 21
293.630951
 31
0.0
  0
LINE
  5
1C1
330
1F
100
AcDbEntity
  8
0
 62
     7
370
    35
100
AcDbLine
 10
715.490112
 20
383.936707
 30
0.0
 11
715.697205
 21
383.729614
 31
0.0
  0
LINE
  5
1C2
330
1F
100
AcDbEntity
  8
0
 62
     7
370
    35
100
AcDbLine
 10
710.197205
 20
383.936707
 30
0.0
 11
715.490112
 21
383.936707
 31
0.0
  0
LINE
  5
1C3
330
1F
100
AcDbEntity
  8
0
 62
     7
370
    35
100
AcDbLine
 10
716.197205
 20
383.936707
 30
0.0
 11
716.197205
 21
293.630951
 31
0.0
  0
LINE
  5
1C4
330
1F
100
AcDbEntity
  8
0
 62
     7
370
    35
100
AcDbLine
 10
716.197205
 20
103.936707
 30
0.0
 11
716.197205
 21
194.242447
 31
0.0
  0
LINE
  5
1C5
330
1F
100
AcDbEntity
  8
0
 62
     7
370
    35
100
AcDbLine
 10
714.526001
 20
291.658173
 30
0.0
 11
710.218445
 21
290.940247
 31
0.0
  0
LINE
  5
1C6
330
1F
100
AcDbEntity
  8
0
 62
     7
370
    35
100
AcDbLine
 10
710.218445
 20
290.940247
 30
0.0
 11
708.868408
 21
290.71524
 31
0.0
  0
ARC
  5
1C7
330
1F
100
AcDbEntity
  8
0
 62
     7
370
    35
100
AcDbCircle
 10
714.197205
 20
293.630951
 30
0.0
 40
1.999999999999998
100
AcDbArc
 50
279.462323
 51
360.0
  0
LINE
  5
1C8
330
1F
100
AcDbEntity
  8
0
 62
     7
370
    35
100
AcDbLine
 10
710.219055
 20
103.436707
 30
0.0
 11
710.197205
 21
103.936707
 31
0.0
  0
LINE
  5
1C9
330
1F
100
AcDbEntity
  8
0
 62
     7
370
    35
100
AcDbLine
 10
715.697205
 20
103.436707
 30
0.0
 11
715.490112
 21
103.936707
 31
0.0
  0
LINE
  5
1CA
330
1F
100
AcDbEntity
  8
0
 62
     7
370
    35
100
AcDbLine
 10
716.197205
 20
103.936707
 30
0.0
 11
715.697205
 21
104.143814
 31
0.0
  0
LINE
  5
1CB
330
1F
100
AcDbEntity
  8
0
 62
     7
370
    35
100
AcDbLine
 10
710.218445
 20
196.933228
 30
0.0
 11
710.197205
 21
196.433334
 31
0.0
  0
LINE
  5
1CC
330
1F
100
AcDbEntity
  8
0
 62
     7
370
    35
100
AcDbLine
 10
710.116455
 20
291.422974
 30
0.0
 11
710.218445
 21
290.940247
 31
0.0
  0
LINE
  5
1CD
330
1F
100
AcDbEntity
  8
0
 62
     7
370
    35
100
AcDbLine
 10
715.697205
 20
383.729614
 30
0.0
 11
716.197205
 21
383.936707
 31
0.0
  0
LINE
  5
1CE
330
1F
100
AcDbEntity
  8
0
 62
     7
370
    35
100
AcDbLine
 10
715.490112
 20
383.936707
 30
0.0
 11
715.697205
 21
384.436707
 31
0.0
  0
LINE
  5
1CF
330
1F
100
AcDbEntity
  8
0
 62
     7
370
    35
100
AcDbLine
 10
710.197205
 20
383.936707
 30
0.0
 11
710.219055
 21
384.436707
 31
0.0
  0
LINE
  5
1D0
330
1F
100
AcDbEntity
  8
0
 62
     7
370
    35
100
AcDbLine
 10
694.68457
 20
384.224243
 30
0.0
 11
694.68457
 21
376.224213
 31
0.0
  0
LINE
  5
1D1
330
1F
100
AcDbEntity
  8
0
 62
     7
370
    35
100
AcDbLine
 10
694.68457
 20
111.6492
 30
0.0
 11
694.68457
 21
103.64917
 31
0.0
  0
ARC
  5
1D2
330
1F
100
AcDbEntity
  8
0
 62
     7
370
    35
100
AcDbCircle
 10
697.684509
 20
103.649139
 30
0.0
 40
2.999934880415164
100
AcDbArc
 50
179.999117
 51
265.003222
  0
ARC
  5
1D3
330
1F
100
AcDbEntity
  8
0
 62
     7
370
    35
100
AcDbCircle
 10
697.684509
 20
384.224274
 30
0.0
 40
2.999934894197496
100
AcDbArc
 50
94.99675
 51
180.000883
  0
LINE
  5
1D4
330
1F
100
AcDbEntity
  8
0
 62
     7
370
    35
100
AcDbLine
 10
694.684326
 20
376.224487
 30
0.0
 11
697.521484
 21
373.049774
 31
0.0
  0
LINE
  5
1D5
330
1F
100
AcDbEntity
  8
0
 62
     7
370
    35
100
AcDbLine
 10
694.684265
 20
111.648911
 30
0.0
 11
697.521484
 21
114.823639
 31
0.0
  0
LINE
  5
1D6
330
1F
100
AcDbEntity
  8
0
 62
     7
370
    35
100
AcDbLine
 10
707.543274
 20
384.436707
 30
0.0
 11
705.697205
 21
384.436707
 31
0.0
  0
LINE
  5
1D7
330
1F
100
AcDbEntity
  8
0
 62
     7
370
    35
100
AcDbLine
 10
707.543274
 20
384.436707
 30
0.0
 11
715.697205
 21
384.436707
 31
0.0
  0
LINE
  5
1D8
330
1F
100
AcDbEntity
  8
0
 62
     7
370
    35
100
AcDbLine
 10
716.197205
 20
383.523926
 30
0.0
 11
717.196472
 21
383.523926
 31
0.0
  0
LINE
  5
1D9
330
1F
100
AcDbEntity
  8
0
 62
     7
370
    35
100
AcDbLine
 10
716.197205
 20
105.523941
 30
0.0
 11
717.196472
 21
105.523941
 31
0.0
  0
ARC
  5
1DA
330
1F
100
AcDbEntity
  8
0
  6
PHANTOM
 62
     4
370
    35
100
AcDbCircle
 10
773.196472
 20
162.636703
 30
0.0
 40
2.0
100
AcDbArc
 50
269.999997
 51
360.0
  0
LINE
  5
1DB
330
1F
100
AcDbEntity
  8
0
  6
PHANTOM
 62
     4
370
    35
100
AcDbLine
 10
722.196472
 20
160.636703
 30
0.0
 11
773.196472
 21
160.636703
 31
0.0
  0
LINE
  5
1DC
330
1F
100
AcDbEntity
  8
0
  6
PHANTOM
 62
     4
370
    35
100
AcDbLine
 10
775.196472
 20
162.636703
 30
0.0
 11
775.196472
 21
222.636703
 31
0.0
  0
ARC
  5
1DD
330
1F
100
AcDbEntity
  8
0
  6
PHANTOM
 62
     4
370
    35
100
AcDbCircle
 10
773.196472
 20
222.636703
 30
0.0
 40
2.0
100
AcDbArc
 50
0.0
 51
90.000003
  0
LINE
  5
1DE
330
1F
100
AcDbEntity
  8
0
  6
PHANTOM
 62
     4
370
    35
100
AcDbLine
 10
773.196472
 20
224.636703
 30
0.0
 11
722.196472
 21
224.636703
 31
0.0
  0
LINE
  5
1DF
330
1F
100
AcDbEntity
  8
0
  6
PHANTOM
 62
     4
 48
0.275
370
    35
100
AcDbLine
 10
749.196472
 20
163.636703
 30
0.0
 11
738.196472
 21
163.636703
 31
0.0
  0
ARC
  5
1E0
330
1F
100
AcDbEntity
  8
0
  6
PHANTOM
 62
     4
370
    35
100
AcDbCircle
 10
738.196472
 20
169.636703
 30
0.0
 40
6.0
100
AcDbArc
 50
4.411726
 51
269.999997
  0
ARC
  5
1E1
330
1F
100
AcDbEntity
  8
0
  6
PHANTOM
 62
     4
370
    35
100
AcDbCircle
 10
744.677185
 20
170.136703
 30
0.0
 40
0.5
100
AcDbArc
 50
184.411723
 51
269.999997
  0
LINE
  5
1E2
330
1F
100
AcDbEntity
  8
0
  6
PHANTOM
 62
     4
 48
0.072191
370
    35
100
AcDbLine
 10
744.677185
 20
169.636703
 30
0.0
 11
747.564819
 21
169.636703
 31
0.0
  0
ARC
  5
1E3
330
1F
100
AcDbEntity
  8
0
  6
PHANTOM
 62
     4
370
    35
100
AcDbCircle
 10
747.564819
 20
170.136703
 30
0.0
 40
0.5
100
AcDbArc
 50
269.999997
 51
340.632399
  0
LINE
  5
1E4
330
1F
100
AcDbEntity
  8
0
  6
PHANTOM
 62
     4
 48
0.484945
370
    35
100
AcDbLine
 10
758.31073
 20
199.198837
 30
0.0
 11
764.743591
 21
217.498932
 31
0.0
  0
LINE
  5
1E5
330
1F
100
AcDbEntity
  8
0
  6
PHANTOM
 62
     4
370
    35
100
AcDbLine
 10
748.03656
 20
169.970886
 30
0.0
 11
755.235413
 21
190.450134
 31
0.0
  0
ARC
  5
1E6
330
1F
100
AcDbEntity
  8
0
  6
PHANTOM
 62
     4
370
    35
100
AcDbCircle
 10
767.196472
 20
216.636703
 30
0.0
 40
2.6
100
AcDbArc
 50
340.632399
 51
160.632403
  0
LINE
  5
1E7
330
1F
100
AcDbEntity
  8
0
  6
PHANTOM
 62
     4
370
    35
100
AcDbLine
 10
760.133606
 20
188.704254
 30
0.0
 11
752.026733
 21
165.641815
 31
0.0
  0
LINE
  5
1E8
330
1F
100
AcDbEntity
  8
0
  6
PHANTOM
 62
     4
 48
0.486821
370
    35
100
AcDbLine
 10
769.649353
 20
215.774475
 30
0.0
 11
763.191589
 21
197.40361
 31
0.0
  0
ARC
  5
1E9
330
1F
100
AcDbEntity
  8
0
  6
PHANTOM
 62
     4
370
    35
100
AcDbCircle
 10
749.196472
 20
166.636703
 30
0.0
 40
3.0
100
AcDbArc
 50
269.999997
 51
340.632399
  0
LINE
  5
1EA
330
1F
100
AcDbEntity
  8
0
  6
PHANTOM
 62
     4
 48
0.05
370
    35
100
AcDbLine
 10
720.196472
 20
224.636703
 30
0.0
 11
720.196472
 21
222.636703
 31
0.0
  0
LINE
  5
1EB
330
1F
100
AcDbEntity
  8
0
  6
PHANTOM
 62
     4
 48
0.05
370
    35
100
AcDbLine
 10
722.196472
 20
222.636703
 30
0.0
 11
722.196472
 21
224.636703
 31
0.0
  0
LINE
  5
1EC
330
1F
100
AcDbEntity
  8
0
  6
PHANTOM
 62
     4
 48
0.05
370
    35
100
AcDbLine
 10
720.196472
 20
224.636703
 30
0.0
 11
722.196472
 21
224.636703
 31
0.0
  0
LINE
  5
1ED
330
1F
100
AcDbEntity
  8
0
  6
PHANTOM
 62
     4
370
    35
100
AcDbLine
 10
722.196472
 20
162.636703
 30
0.0
 11
722.196472
 21
222.636703
 31
0.0
  0
LINE
  5
1EE
330
1F
100
AcDbEntity
  8
0
  6
PHANTOM
 62
     4
 48
0.05
370
    35
100
AcDbLine
 10
722.196472
 20
160.636703
 30
0.0
 11
722.196472
 21
162.636703
 31
0.0
  0
LINE
  5
1EF
330
1F
100
AcDbEntity
  8
0
  6
PHANTOM
 62
     4
370
    35
100
AcDbLine
 10
720.196472
 20
222.636703
 30
0.0
 11
720.196472
 21
162.636703
 31
0.0
  0
LINE
  5
1F0
330
1F
100
AcDbEntity
  8
0
  6
PHANTOM
 62
     4
 48
0.05
370
    35
100
AcDbLine
 10
720.196472
 20
162.636703
 30
0.0
 11
720.196472
 21
160.636703
 31
0.0
  0
LINE
  5
1F1
330
1F
100
AcDbEntity
  8
0
  6
PHANTOM
 62
     4
 48
0.05
370
    35
100
AcDbLine
 10
720.196472
 20
160.636703
 30
0.0
 11
722.196472
 21
160.636703
 31
0.0
  0
LINE
  5
1F2
330
1F
100
AcDbEntity
  8
0
  6
PHANTOM
 62
     4
 48
0.144337
370
    35
100
AcDbLine
 10
754.196472
 20
191.049957
 30
0.0
 11
754.196472
 21
196.823456
 31
0.0
  0
LINE
  5
1F3
330
1F
100
AcDbEntity
  8
0
  6
PHANTOM
 62
     4
 48
0.144337
370
    35
100
AcDbLine
 10
764.196472
 20
196.823456
 30
0.0
 11
764.196472
 21
191.049957
 31
0.0
  0
LINE
  5
1F4
330
1F
100
AcDbEntity
  8
0
  6
PHANTOM
 62
     4
 48
0.011745
370
    35
100
AcDbLine
 10
759.99646
 20
198.778534
 30
0.0
 11
759.99646
 21
199.248322
 31
0.0
  0
LINE
  5
1F5
330
1F
100
AcDbEntity
  8
0
  6
PHANTOM
 62
     4
 48
0.121244
370
    35
100
AcDbLine
 10
759.99646
 20
199.248322
 30
0.0
 11
764.196472
 21
196.823456
 31
0.0
  0
LINE
  5
1F6
330
1F
100
AcDbEntity
  8
0
  6
PHANTOM
 62
     4
 48
0.121244
370
    35
100
AcDbLine
 10
764.196472
 20
191.049957
 30
0.0
 11
759.99646
 21
188.625092
 31
0.0
  0
LINE
  5
1F7
330
1F
100
AcDbEntity
  8
0
  6
PHANTOM
 62
     4
 48
0.011745
370
    35
100
AcDbLine
 10
759.99646
 20
189.094879
 30
0.0
 11
759.99646
 21
188.625092
 31
0.0
  0
ARC
  5
1F8
330
1F
100
AcDbEntity
  8
0
  6
PHANTOM
 62
     4
370
    35
100
AcDbCircle
 10
759.196472
 20
193.936707
 30
0.0
 40
4.907477288111815
100
AcDbArc
 50
279.382027
 51
80.617973
  0
LINE
  5
1F9
330
1F
100
AcDbEntity
  8
0
  6
PHANTOM
 62
     4
 48
0.011745
370
    35
100
AcDbLine
 10
758.396484
 20
189.094879
 30
0.0
 11
758.396484
 21
188.625092
 31
0.0
  0
LINE
  5
1FA
330
1F
100
AcDbEntity
  8
0
  6
PHANTOM
 62
     4
 48
0.121244
370
    35
100
AcDbLine
 10
758.396484
 20
188.625092
 30
0.0
 11
754.196472
 21
191.049957
 31
0.0
  0
LINE
  5
1FB
330
1F
100
AcDbEntity
  8
0
  6
PHANTOM
 62
     4
 48
0.121244
370
    35
100
AcDbLine
 10
754.196472
 20
196.823456
 30
0.0
 11
758.396484
 21
199.248322
 31
0.0
  0
LINE
  5
1FC
330
1F
100
AcDbEntity
  8
0
  6
PHANTOM
 62
     4
 48
0.011745
370
    35
100
AcDbLine
 10
758.396484
 20
198.778534
 30
0.0
 11
758.396484
 21
199.248322
 31
0.0
  0
ARC
  5
1FD
330
1F
100
AcDbEntity
  8
0
  6
PHANTOM
 62
     4
370
    35
100
AcDbCircle
 10
759.196472
 20
193.936707
 30
0.0
 40
4.907477288111815
100
AcDbArc
 50
99.382032
 51
260.617968
  0
LINE
  5
1FE
330
1F
100
AcDbEntity
  8
0
  6
PHANTOM
 62
     4
 48
0.242091
370
    35
100
AcDbLine
 10
759.99646
 20
189.094879
 30
0.0
 11
759.99646
 21
198.778534
 31
0.0
  0
LINE
  5
1FF
330
1F
100
AcDbEntity
  8
0
  6
PHANTOM
 62
     4
 48
0.242091
370
    35
100
AcDbLine
 10
758.396484
 20
198.778534
 30
0.0
 11
758.396484
 21
189.094879
 31
0.0
  0
LINE
  5
200
330
1F
100
AcDbEntity
  8
0
  6
PHANTOM
 62
     4
 48
0.023094
370
    35
100
AcDbLine
 10
759.196472
 20
199.710205
 30
0.0
 11
759.99646
 21
199.248322
 31
0.0
  0
LINE
  5
201
330
1F
100
AcDbEntity
  8
0
  6
PHANTOM
 62
     4
 48
0.023094
370
    35
100
AcDbLine
 10
759.196472
 20
188.163208
 30
0.0
 11
759.99646
 21
188.625092
 31
0.0
  0
LINE
  5
202
330
1F
100
AcDbEntity
  8
0
  6
PHANTOM
 62
     4
 48
0.023094
370
    35
100
AcDbLine
 10
759.196472
 20
188.163208
 30
0.0
 11
758.396484
 21
188.625092
 31
0.0
  0
LINE
  5
203
330
1F
100
AcDbEntity
  8
0
  6
PHANTOM
 62
     4
 48
0.023094
370
    35
100
AcDbLine
 10
759.196472
 20
199.710205
 30
0.0
 11
758.396484
 21
199.248322
 31
0.0
  0
LINE
  5
204
330
1F
100
AcDbEntity
  8
0
 62
     7
370
    35
100
AcDbLine
 10
556.21991
 20
754.667603
 30
0.0
 11
556.71991
 21
754.667603
 31
0.0
  0
LINE
  5
205
330
1F
100
AcDbEntity
  8
0
 62
     7
370
    35
100
AcDbLine
 10
279.619873
 20
754.667603
 30
0.0
 11
556.21991
 21
754.667603
 31
0.0
  0
LINE
  5
206
330
1F
100
AcDbEntity
  8
0
 62
     7
370
    35
100
AcDbLine
 10
279.119873
 20
754.667603
 30
0.0
 11
279.619873
 21
754.667603
 31
0.0
  0
LINE
  5
207
330
1F
100
AcDbEntity
  8
0
 62
     7
370
    35
100
AcDbLine
 10
556.21991
 20
534.667603
 30
0.0
 11
556.71991
 21
534.667603
 31
0.0
  0
LINE
  5
208
330
1F
100
AcDbEntity
  8
0
 62
     7
370
    35
100
AcDbLine
 10
279.619873
 20
534.667603
 30
0.0
 11
556.21991
 21
534.667603
 31
0.0
  0
LINE
  5
209
330
1F
100
AcDbEntity
  8
0
 62
     7
370
    35
100
AcDbLine
 10
279.119873
 20
534.667603
 30
0.0
 11
279.619873
 21
534.667603
 31
0.0
  0
LINE
  5
20A
330
1F
100
AcDbEntity
  8
0
 62
     7
370
    35
100
AcDbLine
 10
556.71991
 20
534.667603
 30
0.0
 11
556.71991
 21
754.667603
 31
0.0
  0
LINE
  5
20B
330
1F
100
AcDbEntity
  8
0
 62
     7
370
    35
100
AcDbLine
 10
279.119873
 20
534.667603
 30
0.0
 11
279.119873
 21
754.667603
 31
0.0
  0
CIRCLE
  5
20C
330
1F
100
AcDbEntity
  8
0
 62
     7
370
    35
100
AcDbCircle
 10
528.419922
 20
576.46759
 30
0.0
 40
3.100000000001165
  0
CIRCLE
  5
20D
330
1F
100
AcDbEntity
  8
0
 62
     7
370
    35
100
AcDbCircle
 10
527.919922
 20
699.867615
 30
0.0
 40
1.05
  0
CIRCLE
  5
20E
330
1F
100
AcDbEntity
  8
0
 62
     7
370
    35
100
AcDbCircle
 10
307.919891
 20
699.867615
 30
0.0
 40
1.05
  0
CIRCLE
  5
20F
330
1F
100
AcDbEntity
  8
0
 62
     7
370
    35
100
AcDbCircle
 10
527.919922
 20
699.867615
 30
0.0
 40
1.0
  0
CIRCLE
  5
210
330
1F
100
AcDbEntity
  8
0
 62
     7
370
    35
100
AcDbCircle
 10
307.919891
 20
699.867615
 30
0.0
 40
1.0
  0
LINE
  5
211
330
1F
100
AcDbEntity
  8
0
 62
     7
370
    35
100
AcDbLine
 10
273.919891
 20
534.667603
 30
0.0
 11
273.919891
 21
517.617615
 31
0.0
  0
LINE
  5
212
330
1F
100
AcDbEntity
  8
0
 62
     7
370
    35
100
AcDbLine
 10
275.919891
 20
534.667603
 30
0.0
 11
273.919891
 21
534.667603
 31
0.0
  0
LINE
  5
213
330
1F
100
AcDbEntity
  8
0
 62
     7
370
    35
100
AcDbLine
 10
273.919891
 20
534.667603
 30
0.0
 11
273.919891
 21
533.667603
 31
0.0
  0
LINE
  5
214
330
1F
100
AcDbEntity
  8
0
 62
     7
370
    35
100
AcDbLine
 10
561.919922
 20
533.667603
 30
0.0
 11
561.919922
 21
534.667603
 31
0.0
  0
LINE
  5
215
330
1F
100
AcDbEntity
  8
0
 62
     7
370
    35
100
AcDbLine
 10
273.919891
 20
534.667603
 30
0.0
 11
561.919922
 21
534.667603
 31
0.0
  0
LINE
  5
216
330
1F
100
AcDbEntity
  8
0
 62
     7
370
    35
100
AcDbLine
 10
273.919891
 20
533.667603
 30
0.0
 11
273.919891
 21
517.167603
 31
0.0
  0
LINE
  5
217
330
1F
100
AcDbEntity
  8
0
 62
     7
370
    35
100
AcDbLine
 10
561.919922
 20
533.667603
 30
0.0
 11
561.919922
 21
522.667603
 31
0.0
  0
ARC
  5
218
330
1F
100
AcDbEntity
  8
0
 62
     7
370
    35
100
AcDbCircle
 10
277.419891
 20
517.167603
 30
0.0
 40
3.5
100
AcDbArc
 50
180.000005
 51
319.999998
  0
LINE
  5
219
330
1F
100
AcDbEntity
  8
0
 62
     7
370
    35
100
AcDbLine
 10
285.764771
 20
521.667603
 30
0.0
 11
280.101044
 21
514.917847
 31
0.0
  0
LINE
  5
21A
330
1F
100
AcDbEntity
  8
0
 62
     7
370
    35
100
AcDbLine
 10
560.919922
 20
521.667603
 30
0.0
 11
285.764771
 21
521.667603
 31
0.0
  0
ARC
  5
21B
330
1F
100
AcDbEntity
  8
0
 62
     7
370
    35
100
AcDbCircle
 10
560.919922
 20
522.667603
 30
0.0
 40
1.0
100
AcDbArc
 50
269.999997
 51
0.0
  0
CIRCLE
  5
21C
330
1F
100
AcDbEntity
  8
0
 62
     7
370
    35
100
AcDbCircle
 10
277.419891
 20
517.167603
 30
0.0
 40
1.35
  0
LINE
  5
21D
330
1F
100
AcDbEntity
  8
0
 62
     7
370
    35
100
AcDbLine
 10
528.819885
 20
578.21759
 30
0.0
 11
528.019897
 21
578.21759
 31
0.0
  0
LINE
  5
21E
330
1F
100
AcDbEntity
  8
0
 62
     7
370
    35
100
AcDbLine
 10
526.669922
 20
576.067627
 30
0.0
 11
526.669922
 21
576.867615
 31
0.0
  0
LINE
  5
21F
330
1F
100
AcDbEntity
  8
0
 62
     7
370
    35
100
AcDbLine
 10
528.019897
 20
574.71759
 30
0.0
 11
528.819885
 21
574.71759
 31
0.0
  0
LINE
  5
220
330
1F
100
AcDbEntity
  8
0
 62
     7
370
    35
100
AcDbLine
 10
530.169922
 20
576.867615
 30
0.0
 11
530.169922
 21
576.067627
 31
0.0
  0
CIRCLE
  5
221
330
1F
100
AcDbEntity
  8
0
 62
     7
370
    35
100
AcDbCircle
 10
528.419922
 20
576.46759
 30
0.0
 40
3.000000000000001
  0
LINE
  5
222
330
1F
100
AcDbEntity
  8
0
 62
     7
370
    35
100
AcDbLine
 10
528.019897
 20
577.46759
 30
0.0
 11
528.019897
 21
578.21759
 31
0.0
  0
LINE
  5
223
330
1F
100
AcDbEntity
  8
0
 62
     7
370
    35
100
AcDbLine
 10
527.419922
 20
576.867615
 30
0.0
 11
526.669922
 21
576.867615
 31
0.0
  0
ARC
  5
224
330
1F
100
AcDbEntity
  8
0
 62
     7
370
    35
100
AcDbCircle
 10
527.419922
 20
577.46759
 30
0.0
 40
0.6
100
AcDbArc
 50
269.999997
 51
360.0
  0
LINE
  5
225
330
1F
100
AcDbEntity
  8
0
 62
     7
370
    35
100
AcDbLine
 10
528.819885
 20
578.21759
 30
0.0
 11
528.819885
 21
577.46759
 31
0.0
  0
LINE
  5
226
330
1F
100
AcDbEntity
  8
0
 62
     7
370
    35
100
AcDbLine
 10
530.169922
 20
576.867615
 30
0.0
 11
529.419922
 21
576.867615
 31
0.0
  0
ARC
  5
227
330
1F
100
AcDbEntity
  8
0
 62
     7
370
    35
100
AcDbCircle
 10
529.419922
 20
577.46759
 30
0.0
 40
0.6
100
AcDbArc
 50
180.000005
 51
269.999997
  0
LINE
  5
228
330
1F
100
AcDbEntity
  8
0
 62
     7
370
    35
100
AcDbLine
 10
526.669922
 20
576.067627
 30
0.0
 11
527.419922
 21
576.067627
 31
0.0
  0
LINE
  5
229
330
1F
100
AcDbEntity
  8
0
 62
     7
370
    35
100
AcDbLine
 10
528.019897
 20
574.71759
 30
0.0
 11
528.019897
 21
575.46759
 31
0.0
  0
ARC
  5
22A
330
1F
100
AcDbEntity
  8
0
 62
     7
370
    35
100
AcDbCircle
 10
527.419922
 20
575.46759
 30
0.0
 40
0.5999999999999999
100
AcDbArc
 50
0.0
 51
90.000003
  0
LINE
  5
22B
330
1F
100
AcDbEntity
  8
0
 62
     7
370
    35
100
AcDbLine
 10
528.819885
 20
575.46759
 30
0.0
 11
528.819885
 21
574.71759
 31
0.0
  0
LINE
  5
22C
330
1F
100
AcDbEntity
  8
0
 62
     7
370
    35
100
AcDbLine
 10
529.419922
 20
576.067627
 30
0.0
 11
530.169922
 21
576.067627
 31
0.0
  0
ARC
  5
22D
330
1F
100
AcDbEntity
  8
0
 62
     7
370
    35
100
AcDbCircle
 10
529.419922
 20
575.46759
 30
0.0
 40
0.6
100
AcDbArc
 50
90.000003
 51
180.000005
  0
ARC
  5
22E
330
1F
100
AcDbEntity
  8
0
 62
     7
370
    35
100
AcDbCircle
 10
417.54657
 20
3310.152832
 30
0.0
 40
2799.997203147069
100
AcDbArc
 50
267.213478
 51
272.872072
  0
LINE
  5
22F
330
1F
100
AcDbEntity
  8
0
 62
     7
370
    35
100
AcDbLine
 10
281.425079
 20
513.466431
 30
0.0
 11
279.614807
 21
513.554932
 31
0.0
  0
LINE
  5
230
330
1F
100
AcDbEntity
  8
0
 62
     7
370
    35
100
AcDbLine
 10
277.249695
 20
513.671753
 30
0.0
 11
279.614838
 21
513.555115
 31
0.0
  0
LINE
  5
231
330
1F
100
AcDbEntity
  8
0
 62
     7
370
    35
100
AcDbLine
 10
281.425079
 20
513.466431
 30
0.0
 11
281.425079
 21
515.712402
 31
0.0
  0
LINE
  5
232
330
1F
100
AcDbEntity
  8
0
 62
     7
370
    35
100
AcDbLine
 10
281.824951
 20
516.189026
 30
0.0
 11
281.42511
 21
515.712402
 31
0.0
  0
LINE
  5
233
330
1F
100
AcDbEntity
  8
0
 62
     7
370
    35
100
AcDbLine
 10
281.824951
 20
516.189026
 30
0.0
 11
286.003113
 21
521.168335
 31
0.0
  0
ARC
  5
234
330
1F
100
AcDbEntity
  8
0
 62
     7
370
    35
100
AcDbCircle
 10
277.419891
 20
517.167603
 30
0.0
 40
3.500001798380835
100
AcDbArc
 50
179.939694
 51
267.212959
  0
ARC
  5
235
330
1F
100
AcDbEntity
  8
0
 62
     7
370
    35
100
AcDbCircle
 10
557.667969
 20
517.168396
 30
0.0
 40
3.500086522870686
100
AcDbArc
 50
272.873041
 51
354.999019
  0
LINE
  5
236
330
1F
100
AcDbEntity
  8
0
 62
     7
370
    35
100
AcDbLine
 10
558.542786
 20
521.168335
 30
0.0
 11
286.003113
 21
521.168335
 31
0.0
  0
LINE
  5
237
330
1F
100
AcDbEntity
  8
0
 62
     7
370
    35
100
AcDbLine
 10
561.531372
 20
521.168335
 30
0.0
 11
561.154724
 21
516.863281
 31
0.0
  0
LINE
  5
238
330
1F
100
AcDbEntity
  8
0
 62
     7
370
    35
100
AcDbLine
 10
561.531372
 20
521.168335
 30
0.0
 11
558.542786
 21
521.168335
 31
0.0
  0
LINE
  5
239
330
1F
100
AcDbEntity
  8
0
 62
     7
370
    35
100
AcDbLine
 10
561.919922
 20
525.609009
 30
0.0
 11
561.925049
 21
525.668335
 31
0.0
  0
LINE
  5
23A
330
1F
100
AcDbEntity
  8
0
 62
     7
370
    35
100
AcDbLine
 10
561.531372
 20
521.168335
 30
0.0
 11
561.598267
 21
521.932861
 31
0.0
  0
LINE
  5
23B
330
1F
100
AcDbEntity
  8
0
 62
     7
370
    35
100
AcDbLine
 10
561.02948
 20
521.168335
 30
0.0
 11
561.074219
 21
521.679565
 31
0.0
  0
LINE
  5
23C
330
1F
100
AcDbEntity
  8
0
 62
     7
370
    35
100
AcDbLine
 10
561.925049
 20
530.961243
 30
0.0
 11
561.925049
 21
531.168335
 31
0.0
  0
LINE
  5
23D
330
1F
100
AcDbEntity
  8
0
 62
     7
370
    35
100
AcDbLine
 10
561.925049
 20
525.668335
 30
0.0
 11
561.925049
 21
530.961243
 31
0.0
  0
LINE
  5
23E
330
1F
100
AcDbEntity
  8
0
 62
     7
370
    35
100
AcDbLine
 10
281.425079
 20
513.466431
 30
0.0
 11
281.425079
 21
515.712463
 31
0.0
  0
LINE
  5
23F
330
1F
100
AcDbEntity
  8
0
 62
     7
370
    35
100
AcDbLine
 10
284.855286
 20
519.800476
 30
0.0
 11
281.425079
 21
515.712463
 31
0.0
  0
ARC
  5
240
330
1F
100
AcDbEntity
  8
0
 62
     7
370
    35
100
AcDbCircle
 10
281.025085
 20
523.014404
 30
0.0
 40
5.0
100
AcDbArc
 50
319.999998
 51
344.373992
  0
ARC
  5
241
330
1F
100
AcDbEntity
  8
0
 62
     7
370
    35
100
AcDbCircle
 10
277.419891
 20
517.167603
 30
0.0
 40
3.500001707752766
100
AcDbArc
 50
179.949024
 51
182.670148
  0
LINE
  5
242
330
1F
100
AcDbEntity
  8
0
 62
     7
370
    35
100
AcDbLine
 10
281.425079
 20
513.466431
 30
0.0
 11
277.249695
 21
513.671753
 31
0.0
  0
CIRCLE
  5
243
330
1F
100
AcDbEntity
  8
0
 62
     7
370
    35
100
AcDbCircle
 10
277.425079
 20
517.168335
 30
0.0
 40
1.300000000000007
  0
CIRCLE
  5
244
330
1F
100
AcDbEntity
  8
0
 62
     7
370
    35
100
AcDbCircle
 10
277.425079
 20
517.168335
 30
0.0
 40
1.100000000000138
  0
LINE
  5
245
330
1F
100
AcDbEntity
  8
0
 62
     7
370
    35
100
AcDbLine
 10
278.282562
 20
516.547668
 30
0.0
 11
278.310486
 21
516.590332
 31
0.0
  0
LINE
  5
246
330
1F
100
AcDbEntity
  8
0
  6
PHANTOM
 62
     4
 48
0.05
370
    35
100
AcDbLine
 10
558.71991
 20
588.667603
 30
0.0
 11
558.71991
 21
590.667603
 31
0.0
  0
LINE
  5
247
330
1F
100
AcDbEntity
  8
0
  6
PHANTOM
 62
     4
370
    35
100
AcDbLine
 10
558.71991
 20
588.667603
 30
0.0
 11
558.71991
 21
537.667603
 31
0.0
  0
LINE
  5
248
330
1F
100
AcDbEntity
  8
0
  6
PHANTOM
 62
     4
 48
0.05
370
    35
100
AcDbLine
 10
556.71991
 20
590.667603
 30
0.0
 11
558.71991
 21
590.667603
 31
0.0
  0
LINE
  5
249
330
1F
100
AcDbEntity
  8
0
  6
PHANTOM
 62
     4
 48
0.05
370
    35
100
AcDbLine
 10
564.71991
 20
535.667603
 30
0.0
 11
566.71991
 21
535.667603
 31
0.0
  0
LINE
  5
24A
330
1F
100
AcDbEntity
  8
0
  6
PHANTOM
 62
     4
 48
0.05
370
    35
100
AcDbLine
 10
566.71991
 20
535.667603
 30
0.0
 11
566.71991
 21
537.667603
 31
0.0
  0
LINE
  5
24B
330
1F
100
AcDbEntity
  8
0
  6
PHANTOM
 62
     4
 48
0.05
370
    35
100
AcDbLine
 10
566.71991
 20
537.667603
 30
0.0
 11
564.71991
 21
537.667603
 31
0.0
  0
LINE
  5
24C
330
1F
100
AcDbEntity
  8
0
  6
PHANTOM
 62
     4
 48
0.15
370
    35
100
AcDbLine
 10
558.71991
 20
537.667603
 30
0.0
 11
564.71991
 21
537.667603
 31
0.0
  0
LINE
  5
24D
330
1F
100
AcDbEntity
  8
0
  6
PHANTOM
 62
     4
 48
0.175
370
    35
100
AcDbLine
 10
557.71991
 20
535.667603
 30
0.0
 11
564.71991
 21
535.667603
 31
0.0
  0
ARC
  5
24E
330
1F
100
AcDbEntity
  8
0
  6
PHANTOM
 62
     4
370
    35
100
AcDbCircle
 10
557.71991
 20
536.667603
 30
0.0
 40
1.0
100
AcDbArc
 50
180.000005
 51
269.999997
  0
LINE
  5
24F
330
1F
100
AcDbEntity
  8
0
  6
PHANTOM
 62
     4
 48
0.05
370
    35
100
AcDbLine
 10
277.119873
 20
588.667603
 30
0.0
 11
277.119873
 21
590.667603
 31
0.0
  0
LINE
  5
250
330
1F
100
AcDbEntity
  8
0
  6
PHANTOM
 62
     4
370
    35
100
AcDbLine
 10
277.119873
 20
588.667603
 30
0.0
 11
277.119873
 21
537.667603
 31
0.0
  0
LINE
  5
251
330
1F
100
AcDbEntity
  8
0
  6
PHANTOM
 62
     4
 48
0.05
370
    35
100
AcDbLine
 10
277.119873
 20
590.667603
 30
0.0
 11
279.119873
 21
590.667603
 31
0.0
  0
LINE
  5
252
330
1F
100
AcDbEntity
  8
0
  6
PHANTOM
 62
     4
 48
0.05
370
    35
100
AcDbLine
 10
279.119873
 20
588.667603
 30
0.0
 11
279.119873
 21
590.667603
 31
0.0
  0
LINE
  5
253
330
1F
100
AcDbEntity
  8
0
  6
PHANTOM
 62
     4
370
    35
100
AcDbLine
 10
279.119873
 20
588.667603
 30
0.0
 11
279.119873
 21
536.667603
 31
0.0
  0
ARC
  5
254
330
1F
100
AcDbEntity
  8
0
  6
PHANTOM
 62
     4
370
    35
100
AcDbCircle
 10
278.119873
 20
536.667603
 30
0.0
 40
1.0
100
AcDbArc
 50
269.999997
 51
360.0
  0
LINE
  5
255
330
1F
100
AcDbEntity
  8
0
  6
PHANTOM
 62
     4
 48
0.15
370
    35
100
AcDbLine
 10
277.119873
 20
537.667603
 30
0.0
 11
271.119873
 21
537.667603
 31
0.0
  0
LINE
  5
256
330
1F
100
AcDbEntity
  8
0
  6
PHANTOM
 62
     4
 48
0.175
370
    35
100
AcDbLine
 10
278.119873
 20
535.667603
 30
0.0
 11
271.119873
 21
535.667603
 31
0.0
  0
LINE
  5
257
330
1F
100
AcDbEntity
  8
0
  6
PHANTOM
 62
     4
 48
0.05
370
    35
100
AcDbLine
 10
269.119873
 20
535.667603
 30
0.0
 11
271.119873
 21
535.667603
 31
0.0
  0
LINE
  5
258
330
1F
100
AcDbEntity
  8
0
  6
PHANTOM
 62
     4
 48
0.05
370
    35
100
AcDbLine
 10
269.119873
 20
537.667603
 30
0.0
 11
271.119873
 21
537.667603
 31
0.0
  0
LINE
  5
259
330
1F
100
AcDbEntity
  8
0
  6
PHANTOM
 62
     4
 48
0.05
370
    35
100
AcDbLine
 10
269.119873
 20
535.667603
 30
0.0
 11
269.119873
 21
537.667603
 31
0.0
  0
LINE
  5
25A
330
1F
100
AcDbEntity
  8
0
  6
PHANTOM
 62
     4
 48
0.011164
370
    35
100
AcDbLine
 10
269.673309
 20
579.667603
 30
0.0
 11
270.119873
 21
579.667603
 31
0.0
  0
LINE
  5
25B
330
1F
100
AcDbEntity
  8
0
  6
PHANTOM
 62
     4
 48
0.1625
370
    35
100
AcDbLine
 10
276.619873
 20
579.667603
 30
0.0
 11
270.119873
 21
579.667603
 31
0.0
  0
LINE
  5
25C
330
1F
100
AcDbEntity
  8
0
  6
PHANTOM
 62
     4
 48
0.011165
370
    35
100
AcDbLine
 10
276.619873
 20
579.667603
 30
0.0
 11
277.066467
 21
579.667603
 31
0.0
  0
LINE
  5
25D
330
1F
100
AcDbEntity
  8
0
  6
PHANTOM
 62
     4
 48
0.1625
370
    35
100
AcDbLine
 10
276.619873
 20
569.667603
 30
0.0
 11
270.119873
 21
569.667603
 31
0.0
  0
LINE
  5
25E
330
1F
100
AcDbEntity
  8
0
  6
PHANTOM
 62
     4
 48
0.011164
370
    35
100
AcDbLine
 10
270.119873
 20
569.667603
 30
0.0
 11
269.673309
 21
569.667603
 31
0.0
  0
LINE
  5
25F
330
1F
100
AcDbEntity
  8
0
  6
PHANTOM
 62
     4
 48
0.011165
370
    35
100
AcDbLine
 10
277.066467
 20
569.667603
 30
0.0
 11
276.619873
 21
569.667603
 31
0.0
  0
LINE
  5
260
330
1F
100
AcDbEntity
  8
0
  6
PHANTOM
 62
     4
 48
0.122687
370
    35
100
AcDbLine
 10
277.119873
 20
569.760132
 30
0.0
 11
277.119873
 21
574.667603
 31
0.0
  0
LINE
  5
261
330
1F
100
AcDbEntity
  8
0
  6
PHANTOM
 62
     4
 48
0.122687
370
    35
100
AcDbLine
 10
277.119873
 20
574.667603
 30
0.0
 11
277.119873
 21
579.575073
 31
0.0
  0
POLYLINE
  5
262
330
1F
100
AcDbEntity
  8
0
  6
PHANTOM
 62
     4
370
    35
100
AcDb2dPolyline
 66
     1
 10
0.0
 20
0.0
 30
0.0
  0
VERTEX
  5
263
330
262
100
AcDbEntity
  8
0
370
     0
100
AcDbVertex
100
AcDb2dVertex
 10
276.619873
 20
574.667603
 30
0.0
  0
VERTEX
  5
264
330
262
100
AcDbEntity
  8
0
370
     0
100
AcDbVertex
100
AcDb2dVertex
 10
276.812744
 20
575.312622
 30
0.0
  0
VERTEX
  5
265
330
262
100
AcDbEntity
  8
0
370
     0
100
AcDbVertex
100
AcDb2dVertex
 10
276.955261
 20
575.954163
 30
0.0
  0
VERTEX
  5
266
330
262
100
AcDbEntity
  8
0
370
     0
100
AcDbVertex
100
AcDb2dVertex
 10
277.054565
 20
576.773926
 30
0.0
  0
VERTEX
  5
267
330
262
100
AcDbEntity
  8
0
370
     0
100
AcDbVertex
100
AcDb2dVertex
 10
277.052765
 20
577.590149
 30
0.0
  0
VERTEX
  5
268
330
262
100
AcDbEntity
  8
0
370
     0
100
AcDbVertex
100
AcDb2dVertex
 10
276.95874
 20
578.361511
 30
0.0
  0
VERTEX
  5
269
330
262
100
AcDbEntity
  8
0
370
     0
100
AcDbVertex
100
AcDb2dVertex
 10
276.78125
 20
579.139465
 30
0.0
  0
VERTEX
  5
26A
330
262
100
AcDbEntity
  8
0
370
     0
100
AcDbVertex
100
AcDb2dVertex
 10
276.619873
 20
579.667603
 30
0.0
  0
SEQEND
  5
26B
330
262
100
AcDbEntity
  8
0
  6
PHANTOM
 62
     4
370
    35
  0
POLYLINE
  5
26C
330
1F
100
AcDbEntity
  8
0
  6
PHANTOM
 62
     4
370
    35
100
AcDb2dPolyline
 66
     1
 10
0.0
 20
0.0
 30
0.0
  0
VERTEX
  5
26D
330
26C
100
AcDbEntity
  8
0
370
     0
100
AcDbVertex
100
AcDb2dVertex
 10
276.619873
 20
574.667603
 30
0.0
  0
VERTEX
  5
26E
330
26C
100
AcDbEntity
  8
0
370
     0
100
AcDbVertex
100
AcDb2dVertex
 10
276.812744
 20
574.022583
 30
0.0
  0
VERTEX
  5
26F
330
26C
100
AcDbEntity
  8
0
370
     0
100
AcDbVertex
100
AcDb2dVertex
 10
276.955261
 20
573.381042
 30
0.0
  0
VERTEX
  5
270
330
26C
100
AcDbEntity
  8
0
370
     0
100
AcDbVertex
100
AcDb2dVertex
 10
277.054565
 20
572.561279
 30
0.0
  0
VERTEX
  5
271
330
26C
100
AcDbEntity
  8
0
370
     0
100
AcDbVertex
100
AcDb2dVertex
 10
277.052765
 20
571.745056
 30
0.0
  0
VERTEX
  5
272
330
26C
100
AcDbEntity
  8
0
370
     0
100
AcDbVertex
100
AcDb2dVertex
 10
276.95874
 20
570.973694
 30
0.0
  0
VERTEX
  5
273
330
26C
100
AcDbEntity
  8
0
370
     0
100
AcDbVertex
100
AcDb2dVertex
 10
276.78125
 20
570.19574
 30
0.0
  0
VERTEX
  5
274
330
26C
100
AcDbEntity
  8
0
370
     0
100
AcDbVertex
100
AcDb2dVertex
 10
276.619873
 20
569.667603
 30
0.0
  0
SEQEND
  5
275
330
26C
100
AcDbEntity
  8
0
  6
PHANTOM
 62
     4
370
    35
  0
LINE
  5
276
330
1F
100
AcDbEntity
  8
0
  6
PHANTOM
 62
     4
 48
0.006699
370
    35
100
AcDbLine
 10
269.619873
 20
573.867615
 30
0.0
 11
269.887817
 21
573.867615
 31
0.0
  0
POLYLINE
  5
277
330
1F
100
AcDbEntity
  8
0
  6
PHANTOM
 62
     4
370
    35
100
AcDb2dPolyline
 66
     1
 10
0.0
 20
0.0
 30
0.0
  0
VERTEX
  5
278
330
277
100
AcDbEntity
  8
0
370
     0
100
AcDbVertex
100
AcDb2dVertex
 10
269.887817
 20
573.867615
 30
0.0
  0
VERTEX
  5
279
330
277
100
AcDbEntity
  8
0
370
     0
100
AcDbVertex
100
AcDb2dVertex
 10
269.784515
 20
573.381042
 30
0.0
  0
VERTEX
  5
27A
330
277
100
AcDbEntity
  8
0
370
     0
100
AcDbVertex
100
AcDb2dVertex
 10
269.685211
 20
572.561279
 30
0.0
  0
VERTEX
  5
27B
330
277
100
AcDbEntity
  8
0
370
     0
100
AcDbVertex
100
AcDb2dVertex
 10
269.687012
 20
571.745056
 30
0.0
  0
VERTEX
  5
27C
330
277
100
AcDbEntity
  8
0
370
     0
100
AcDbVertex
100
AcDb2dVertex
 10
269.781006
 20
570.973694
 30
0.0
  0
VERTEX
  5
27D
330
277
100
AcDbEntity
  8
0
370
     0
100
AcDbVertex
100
AcDb2dVertex
 10
269.958527
 20
570.19574
 30
0.0
  0
VERTEX
  5
27E
330
277
100
AcDbEntity
  8
0
370
     0
100
AcDbVertex
100
AcDb2dVertex
 10
270.119873
 20
569.667603
 30
0.0
  0
SEQEND
  5
27F
330
277
100
AcDbEntity
  8
0
  6
PHANTOM
 62
     4
370
    35
  0
LINE
  5
280
330
1F
100
AcDbEntity
  8
0
  6
PHANTOM
 62
     4
 48
0.102687
370
    35
100
AcDbLine
 10
269.619873
 20
569.760132
 30
0.0
 11
269.619873
 21
573.867615
 31
0.0
  0
POLYLINE
  5
281
330
1F
100
AcDbEntity
  8
0
  6
PHANTOM
 62
     4
370
    35
100
AcDb2dPolyline
 66
     1
 10
0.0
 20
0.0
 30
0.0
  0
VERTEX
  5
282
330
281
100
AcDbEntity
  8
0
370
     0
100
AcDbVertex
100
AcDb2dVertex
 10
270.119873
 20
579.667603
 30
0.0
  0
VERTEX
  5
283
330
281
100
AcDbEntity
  8
0
370
     0
100
AcDbVertex
100
AcDb2dVertex
 10
269.927032
 20
579.022583
 30
0.0
  0
VERTEX
  5
284
330
281
100
AcDbEntity
  8
0
370
     0
100
AcDbVertex
100
AcDb2dVertex
 10
269.784515
 20
578.381042
 30
0.0
  0
VERTEX
  5
285
330
281
100
AcDbEntity
  8
0
370
     0
100
AcDbVertex
100
AcDb2dVertex
 10
269.685211
 20
577.561279
 30
0.0
  0
VERTEX
  5
286
330
281
100
AcDbEntity
  8
0
370
     0
100
AcDbVertex
100
AcDb2dVertex
 10
269.687012
 20
576.745056
 30
0.0
  0
VERTEX
  5
287
330
281
100
AcDbEntity
  8
0
370
     0
100
AcDbVertex
100
AcDb2dVertex
 10
269.758392
 20
576.108521
 30
0.0
  0
VERTEX
  5
288
330
281
100
AcDbEntity
  8
0
370
     0
100
AcDbVertex
100
AcDb2dVertex
 10
269.887817
 20
575.46759
 30
0.0
  0
SEQEND
  5
289
330
281
100
AcDbEntity
  8
0
  6
PHANTOM
 62
     4
370
    35
  0
LINE
  5
28A
330
1F
100
AcDbEntity
  8
0
  6
PHANTOM
 62
     4
 48
0.006699
370
    35
100
AcDbLine
 10
269.619873
 20
575.46759
 30
0.0
 11
269.887817
 21
575.46759
 31
0.0
  0
LINE
  5
28B
330
1F
100
AcDbEntity
  8
0
  6
PHANTOM
 62
     4
 48
0.102687
370
    35
100
AcDbLine
 10
269.619873
 20
575.46759
 30
0.0
 11
269.619873
 21
579.575073
 31
0.0
  0
LINE
  5
28C
330
1F
100
AcDbEntity
  8
0
  6
PHANTOM
 62
     4
 48
0.02
370
    35
100
AcDbLine
 10
270.619873
 20
574.667603
 30
0.0
 11
270.619873
 21
573.867615
 31
0.0
  0
LINE
  5
28D
330
1F
100
AcDbEntity
  8
0
  6
PHANTOM
 62
     4
 48
0.018301
370
    35
100
AcDbLine
 10
269.887817
 20
573.867615
 30
0.0
 11
270.619873
 21
573.867615
 31
0.0
  0
LINE
  5
28E
330
1F
100
AcDbEntity
  8
0
  6
PHANTOM
 62
     4
 48
0.15
370
    35
100
AcDbLine
 10
276.619873
 20
574.667603
 30
0.0
 11
270.619873
 21
574.667603
 31
0.0
  0
LINE
  5
28F
330
1F
100
AcDbEntity
  8
0
  6
PHANTOM
 62
     4
 48
0.018301
370
    35
100
AcDbLine
 10
269.887817
 20
575.46759
 30
0.0
 11
270.619873
 21
575.46759
 31
0.0
  0
LINE
  5
290
330
1F
100
AcDbEntity
  8
0
  6
PHANTOM
 62
     4
 48
0.02
370
    35
100
AcDbLine
 10
270.619873
 20
574.667603
 30
0.0
 11
270.619873
 21
575.46759
 31
0.0
  0
LINE
  5
291
330
1F
100
AcDbEntity
  8
0
  6
PHANTOM
 62
     4
 48
0.002671
370
    35
100
AcDbLine
 10
277.119873
 20
579.575073
 30
0.0
 11
277.066467
 21
579.667603
 31
0.0
  0
LINE
  5
292
330
1F
100
AcDbEntity
  8
0
  6
PHANTOM
 62
     4
 48
0.002671
370
    35
100
AcDbLine
 10
277.119873
 20
569.760132
 30
0.0
 11
277.066467
 21
569.667603
 31
0.0
  0
LINE
  5
293
330
1F
100
AcDbEntity
  8
0
  6
PHANTOM
 62
     4
 48
0.002671
370
    35
100
AcDbLine
 10
269.619873
 20
569.760132
 30
0.0
 11
269.673309
 21
569.667603
 31
0.0
  0
LINE
  5
294
330
1F
100
AcDbEntity
  8
0
  6
PHANTOM
 62
     4
 48
0.002671
370
    35
100
AcDbLine
 10
269.619873
 20
579.575073
 30
0.0
 11
269.673309
 21
579.667603
 31
0.0
  0
LINE
  5
295
330
1F
100
AcDbEntity
  8
0
  6
PHANTOM
 62
     4
 48
0.011165
370
    35
100
AcDbLine
 10
566.166504
 20
569.667603
 30
0.0
 11
565.71991
 21
569.667603
 31
0.0
  0
LINE
  5
296
330
1F
100
AcDbEntity
  8
0
  6
PHANTOM
 62
     4
 48
0.1625
370
    35
100
AcDbLine
 10
559.21991
 20
569.667603
 30
0.0
 11
565.71991
 21
569.667603
 31
0.0
  0
LINE
  5
297
330
1F
100
AcDbEntity
  8
0
  6
PHANTOM
 62
     4
 48
0.011165
370
    35
100
AcDbLine
 10
559.21991
 20
569.667603
 30
0.0
 11
558.773315
 21
569.667603
 31
0.0
  0
LINE
  5
298
330
1F
100
AcDbEntity
  8
0
  6
PHANTOM
 62
     4
 48
0.1625
370
    35
100
AcDbLine
 10
559.21991
 20
579.667603
 30
0.0
 11
565.71991
 21
579.667603
 31
0.0
  0
LINE
  5
299
330
1F
100
AcDbEntity
  8
0
  6
PHANTOM
 62
     4
 48
0.011165
370
    35
100
AcDbLine
 10
565.71991
 20
579.667603
 30
0.0
 11
566.166504
 21
579.667603
 31
0.0
  0
LINE
  5
29A
330
1F
100
AcDbEntity
  8
0
  6
PHANTOM
 62
     4
 48
0.011165
370
    35
100
AcDbLine
 10
558.773315
 20
579.667603
 30
0.0
 11
559.21991
 21
579.667603
 31
0.0
  0
POLYLINE
  5
29B
330
1F
100
AcDbEntity
  8
0
  6
PHANTOM
 62
     4
370
    35
100
AcDb2dPolyline
 66
     1
 10
0.0
 20
0.0
 30
0.0
  0
VERTEX
  5
29C
330
29B
100
AcDbEntity
  8
0
370
     0
100
AcDbVertex
100
AcDb2dVertex
 10
559.21991
 20
574.667603
 30
0.0
  0
VERTEX
  5
29D
330
29B
100
AcDbEntity
  8
0
370
     0
100
AcDbVertex
100
AcDb2dVertex
 10
559.027039
 20
574.022583
 30
0.0
  0
VERTEX
  5
29E
330
29B
100
AcDbEntity
  8
0
370
     0
100
AcDbVertex
100
AcDb2dVertex
 10
558.884521
 20
573.381042
 30
0.0
  0
VERTEX
  5
29F
330
29B
100
AcDbEntity
  8
0
370
     0
100
AcDbVertex
100
AcDb2dVertex
 10
558.785217
 20
572.561279
 30
0.0
  0
VERTEX
  5
2A0
330
29B
100
AcDbEntity
  8
0
370
     0
100
AcDbVertex
100
AcDb2dVertex
 10
558.786987
 20
571.745056
 30
0.0
  0
VERTEX
  5
2A1
330
29B
100
AcDbEntity
  8
0
370
     0
100
AcDbVertex
100
AcDb2dVertex
 10
558.881042
 20
570.973694
 30
0.0
  0
VERTEX
  5
2A2
330
29B
100
AcDbEntity
  8
0
370
     0
100
AcDbVertex
100
AcDb2dVertex
 10
559.058533
 20
570.19574
 30
0.0
  0
VERTEX
  5
2A3
330
29B
100
AcDbEntity
  8
0
370
     0
100
AcDbVertex
100
AcDb2dVertex
 10
559.21991
 20
569.667603
 30
0.0
  0
SEQEND
  5
2A4
330
29B
100
AcDbEntity
  8
0
  6
PHANTOM
 62
     4
370
    35
  0
POLYLINE
  5
2A5
330
1F
100
AcDbEntity
  8
0
  6
PHANTOM
 62
     4
370
    35
100
AcDb2dPolyline
 66
     1
 10
0.0
 20
0.0
 30
0.0
  0
VERTEX
  5
2A6
330
2A5
100
AcDbEntity
  8
0
370
     0
100
AcDbVertex
100
AcDb2dVertex
 10
559.21991
 20
574.667603
 30
0.0
  0
VERTEX
  5
2A7
330
2A5
100
AcDbEntity
  8
0
370
     0
100
AcDbVertex
100
AcDb2dVertex
 10
559.027039
 20
575.312622
 30
0.0
  0
VERTEX
  5
2A8
330
2A5
100
AcDbEntity
  8
0
370
     0
100
AcDbVertex
100
AcDb2dVertex
 10
558.884521
 20
575.954163
 30
0.0
  0
VERTEX
  5
2A9
330
2A5
100
AcDbEntity
  8
0
370
     0
100
AcDbVertex
100
AcDb2dVertex
 10
558.785217
 20
576.773926
 30
0.0
  0
VERTEX
  5
2AA
330
2A5
100
AcDbEntity
  8
0
370
     0
100
AcDbVertex
100
AcDb2dVertex
 10
558.786987
 20
577.590149
 30
0.0
  0
VERTEX
  5
2AB
330
2A5
100
AcDbEntity
  8
0
370
     0
100
AcDbVertex
100
AcDb2dVertex
 10
558.881042
 20
578.361511
 30
0.0
  0
VERTEX
  5
2AC
330
2A5
100
AcDbEntity
  8
0
370
     0
100
AcDbVertex
100
AcDb2dVertex
 10
559.058533
 20
579.139465
 30
0.0
  0
VERTEX
  5
2AD
330
2A5
100
AcDbEntity
  8
0
370
     0
100
AcDbVertex
100
AcDb2dVertex
 10
559.21991
 20
579.667603
 30
0.0
  0
SEQEND
  5
2AE
330
2A5
100
AcDbEntity
  8
0
  6
PHANTOM
 62
     4
370
    35
  0
LINE
  5
2AF
330
1F
100
AcDbEntity
  8
0
  6
PHANTOM
 62
     4
 48
0.006699
370
    35
100
AcDbLine
 10
566.21991
 20
575.46759
 30
0.0
 11
565.951965
 21
575.46759
 31
0.0
  0
POLYLINE
  5
2B0
330
1F
100
AcDbEntity
  8
0
  6
PHANTOM
 62
     4
370
    35
100
AcDb2dPolyline
 66
     1
 10
0.0
 20
0.0
 30
0.0
  0
VERTEX
  5
2B1
330
2B0
100
AcDbEntity
  8
0
370
     0
100
AcDbVertex
100
AcDb2dVertex
 10
565.951965
 20
575.46759
 30
0.0
  0
VERTEX
  5
2B2
330
2B0
100
AcDbEntity
  8
0
370
     0
100
AcDbVertex
100
AcDb2dVertex
 10
566.055298
 20
575.954163
 30
0.0
  0
VERTEX
  5
2B3
330
2B0
100
AcDbEntity
  8
0
370
     0
100
AcDbVertex
100
AcDb2dVertex
 10
566.154541
 20
576.773926
 30
0.0
  0
VERTEX
  5
2B4
330
2B0
100
AcDbEntity
  8
0
370
     0
100
AcDbVertex
100
AcDb2dVertex
 10
566.152771
 20
577.590149
 30
0.0
  0
VERTEX
  5
2B5
330
2B0
100
AcDbEntity
  8
0
370
     0
100
AcDbVertex
100
AcDb2dVertex
 10
566.058777
 20
578.361511
 30
0.0
  0
VERTEX
  5
2B6
330
2B0
100
AcDbEntity
  8
0
370
     0
100
AcDbVertex
100
AcDb2dVertex
 10
565.881226
 20
579.139465
 30
0.0
  0
VERTEX
  5
2B7
330
2B0
100
AcDbEntity
  8
0
370
     0
100
AcDbVertex
100
AcDb2dVertex
 10
565.71991
 20
579.667603
 30
0.0
  0
SEQEND
  5
2B8
330
2B0
100
AcDbEntity
  8
0
  6
PHANTOM
 62
     4
370
    35
  0
LINE
  5
2B9
330
1F
100
AcDbEntity
  8
0
  6
PHANTOM
 62
     4
 48
0.102687
370
    35
100
AcDbLine
 10
566.21991
 20
579.575073
 30
0.0
 11
566.21991
 21
575.46759
 31
0.0
  0
POLYLINE
  5
2BA
330
1F
100
AcDbEntity
  8
0
  6
PHANTOM
 62
     4
370
    35
100
AcDb2dPolyline
 66
     1
 10
0.0
 20
0.0
 30
0.0
  0
VERTEX
  5
2BB
330
2BA
100
AcDbEntity
  8
0
370
     0
100
AcDbVertex
100
AcDb2dVertex
 10
565.71991
 20
569.667603
 30
0.0
  0
VERTEX
  5
2BC
330
2BA
100
AcDbEntity
  8
0
370
     0
100
AcDbVertex
100
AcDb2dVertex
 10
565.91272
 20
570.312622
 30
0.0
  0
VERTEX
  5
2BD
330
2BA
100
AcDbEntity
  8
0
370
     0
100
AcDbVertex
100
AcDb2dVertex
 10
566.055298
 20
570.954163
 30
0.0
  0
VERTEX
  5
2BE
330
2BA
100
AcDbEntity
  8
0
370
     0
100
AcDbVertex
100
AcDb2dVertex
 10
566.154541
 20
571.773926
 30
0.0
  0
VERTEX
  5
2BF
330
2BA
100
AcDbEntity
  8
0
370
     0
100
AcDbVertex
100
AcDb2dVertex
 10
566.152771
 20
572.590149
 30
0.0
  0
VERTEX
  5
2C0
330
2BA
100
AcDbEntity
  8
0
370
     0
100
AcDbVertex
100
AcDb2dVertex
 10
566.081421
 20
573.226685
 30
0.0
  0
VERTEX
  5
2C1
330
2BA
100
AcDbEntity
  8
0
370
     0
100
AcDbVertex
100
AcDb2dVertex
 10
565.951965
 20
573.867615
 30
0.0
  0
SEQEND
  5
2C2
330
2BA
100
AcDbEntity
  8
0
  6
PHANTOM
 62
     4
370
    35
  0
LINE
  5
2C3
330
1F
100
AcDbEntity
  8
0
  6
PHANTOM
 62
     4
 48
0.006699
370
    35
100
AcDbLine
 10
566.21991
 20
573.867615
 30
0.0
 11
565.951965
 21
573.867615
 31
0.0
  0
LINE
  5
2C4
330
1F
100
AcDbEntity
  8
0
  6
PHANTOM
 62
     4
 48
0.102687
370
    35
100
AcDbLine
 10
566.21991
 20
573.867615
 30
0.0
 11
566.21991
 21
569.760132
 31
0.0
  0
LINE
  5
2C5
330
1F
100
AcDbEntity
  8
0
  6
PHANTOM
 62
     4
 48
0.02
370
    35
100
AcDbLine
 10
565.21991
 20
574.667603
 30
0.0
 11
565.21991
 21
575.46759
 31
0.0
  0
LINE
  5
2C6
330
1F
100
AcDbEntity
  8
0
  6
PHANTOM
 62
     4
 48
0.018301
370
    35
100
AcDbLine
 10
565.951965
 20
575.46759
 30
0.0
 11
565.21991
 21
575.46759
 31
0.0
  0
LINE
  5
2C7
330
1F
100
AcDbEntity
  8
0
  6
PHANTOM
 62
     4
 48
0.15
370
    35
100
AcDbLine
 10
559.21991
 20
574.667603
 30
0.0
 11
565.21991
 21
574.667603
 31
0.0
  0
LINE
  5
2C8
330
1F
100
AcDbEntity
  8
0
  6
PHANTOM
 62
     4
 48
0.018301
370
    35
100
AcDbLine
 10
565.951965
 20
573.867615
 30
0.0
 11
565.21991
 21
573.867615
 31
0.0
  0
LINE
  5
2C9
330
1F
100
AcDbEntity
  8
0
  6
PHANTOM
 62
     4
 48
0.02
370
    35
100
AcDbLine
 10
565.21991
 20
574.667603
 30
0.0
 11
565.21991
 21
573.867615
 31
0.0
  0
LINE
  5
2CA
330
1F
100
AcDbEntity
  8
0
  6
PHANTOM
 62
     4
 48
0.002671
370
    35
100
AcDbLine
 10
558.71991
 20
569.760132
 30
0.0
 11
558.773315
 21
569.667603
 31
0.0
  0
LINE
  5
2CB
330
1F
100
AcDbEntity
  8
0
  6
PHANTOM
 62
     4
 48
0.002671
370
    35
100
AcDbLine
 10
558.71991
 20
579.575073
 30
0.0
 11
558.773315
 21
579.667603
 31
0.0
  0
LINE
  5
2CC
330
1F
100
AcDbEntity
  8
0
  6
PHANTOM
 62
     4
 48
0.002671
370
    35
100
AcDbLine
 10
566.21991
 20
579.575073
 30
0.0
 11
566.166504
 21
579.667603
 31
0.0
  0
LINE
  5
2CD
330
1F
100
AcDbEntity
  8
0
  6
PHANTOM
 62
     4
 48
0.002671
370
    35
100
AcDbLine
 10
566.21991
 20
569.760132
 30
0.0
 11
566.166504
 21
569.667603
 31
0.0
  0
LINE
  5
2CE
330
1F
100
AcDbEntity
  8
0
 62
     7
370
    35
100
AcDbLine
 10
556.21991
 20
754.667603
 30
0.0
 11
556.71991
 21
754.667603
 31
0.0
  0
LINE
  5
2CF
330
1F
100
AcDbEntity
  8
0
 62
     7
370
    35
100
AcDbLine
 10
279.619873
 20
754.667603
 30
0.0
 11
556.21991
 21
754.667603
 31
0.0
  0
LINE
  5
2D0
330
1F
100
AcDbEntity
  8
0
 62
     7
370
    35
100
AcDbLine
 10
279.119873
 20
754.667603
 30
0.0
 11
279.619873
 21
754.667603
 31
0.0
  0
LINE
  5
2D1
330
1F
100
AcDbEntity
  8
0
 62
     7
370
    35
100
AcDbLine
 10
556.21991
 20
534.667603
 30
0.0
 11
556.71991
 21
534.667603
 31
0.0
  0
LINE
  5
2D2
330
1F
100
AcDbEntity
  8
0
 62
     7
370
    35
100
AcDbLine
 10
279.619873
 20
534.667603
 30
0.0
 11
556.21991
 21
534.667603
 31
0.0
  0
LINE
  5
2D3
330
1F
100
AcDbEntity
  8
0
 62
     7
370
    35
100
AcDbLine
 10
279.119873
 20
534.667603
 30
0.0
 11
279.619873
 21
534.667603
 31
0.0
  0
LINE
  5
2D4
330
1F
100
AcDbEntity
  8
0
 62
     7
370
    35
100
AcDbLine
 10
556.71991
 20
534.667603
 30
0.0
 11
556.71991
 21
754.667603
 31
0.0
  0
LINE
  5
2D5
330
1F
100
AcDbEntity
  8
0
 62
     7
370
    35
100
AcDbLine
 10
279.119873
 20
534.667603
 30
0.0
 11
279.119873
 21
754.667603
 31
0.0
  0
CIRCLE
  5
2D6
330
1F
100
AcDbEntity
  8
0
 62
     7
370
    35
100
AcDbCircle
 10
528.419922
 20
576.46759
 30
0.0
 40
3.099999904632568
  0
CIRCLE
  5
2D7
330
1F
100
AcDbEntity
  8
0
 62
     7
370
    35
100
AcDbCircle
 10
527.919922
 20
699.867615
 30
0.0
 40
1.049999952316284
  0
CIRCLE
  5
2D8
330
1F
100
AcDbEntity
  8
0
 62
     7
370
    35
100
AcDbCircle
 10
307.919891
 20
699.867615
 30
0.0
 40
1.049999952316284
  0
CIRCLE
  5
2D9
330
1F
100
AcDbEntity
  8
0
 62
     7
370
    35
100
AcDbCircle
 10
527.919922
 20
699.867615
 30
0.0
 40
1.0
  0
CIRCLE
  5
2DA
330
1F
100
AcDbEntity
  8
0
 62
     7
370
    35
100
AcDbCircle
 10
307.919891
 20
699.867615
 30
0.0
 40
1.0
  0
LINE
  5
2DB
330
1F
100
AcDbEntity
  8
0
 62
     7
370
    35
100
AcDbLine
 10
273.919891
 20
534.667603
 30
0.0
 11
273.919891
 21
517.617615
 31
0.0
  0
LINE
  5
2DC
330
1F
100
AcDbEntity
  8
0
 62
     7
370
    35
100
AcDbLine
 10
275.919891
 20
534.667603
 30
0.0
 11
273.919891
 21
534.667603
 31
0.0
  0
LINE
  5
2DD
330
1F
100
AcDbEntity
  8
0
 62
     7
370
    35
100
AcDbLine
 10
273.919891
 20
534.667603
 30
0.0
 11
273.919891
 21
533.667603
 31
0.0
  0
LINE
  5
2DE
330
1F
100
AcDbEntity
  8
0
 62
     7
370
    35
100
AcDbLine
 10
561.919922
 20
533.667603
 30
0.0
 11
561.919922
 21
534.667603
 31
0.0
  0
LINE
  5
2DF
330
1F
100
AcDbEntity
  8
0
 62
     7
370
    35
100
AcDbLine
 10
273.919891
 20
534.667603
 30
0.0
 11
561.919922
 21
534.667603
 31
0.0
  0
LINE
  5
2E0
330
1F
100
AcDbEntity
  8
0
 62
     7
370
    35
100
AcDbLine
 10
273.919891
 20
533.667603
 30
0.0
 11
273.919891
 21
517.167603
 31
0.0
  0
LINE
  5
2E1
330
1F
100
AcDbEntity
  8
0
 62
     7
370
    35
100
AcDbLine
 10
561.919922
 20
533.667603
 30
0.0
 11
561.919922
 21
522.667603
 31
0.0
  0
ARC
  5
2E2
330
1F
100
AcDbEntity
  8
0
 62
     7
370
    35
100
AcDbCircle
 10
277.419891
 20
517.167603
 30
0.0
 40
3.5
100
AcDbArc
 50
180.000009
 51
319.999988
  0
LINE
  5
2E3
330
1F
100
AcDbEntity
  8
0
 62
     7
370
    35
100
AcDbLine
 10
285.764771
 20
521.667603
 30
0.0
 11
280.101044
 21
514.917847
 31
0.0
  0
LINE
  5
2E4
330
1F
100
AcDbEntity
  8
0
 62
     7
370
    35
100
AcDbLine
 10
560.919922
 20
521.667603
 30
0.0
 11
285.764771
 21
521.667603
 31
0.0
  0
ARC
  5
2E5
330
1F
100
AcDbEntity
  8
0
 62
     7
370
    35
100
AcDbCircle
 10
560.919922
 20
522.667603
 30
0.0
 40
1.0
100
AcDbArc
 50
269.999997
 51
0.0
  0
CIRCLE
  5
2E6
330
1F
100
AcDbEntity
  8
0
 62
     7
370
    35
100
AcDbCircle
 10
277.419891
 20
517.167603
 30
0.0
 40
1.350000023841858
  0
LINE
  5
2E7
330
1F
100
AcDbEntity
  8
0
 62
     7
370
    35
100
AcDbLine
 10
528.819885
 20
578.21759
 30
0.0
 11
528.019897
 21
578.21759
 31
0.0
  0
LINE
  5
2E8
330
1F
100
AcDbEntity
  8
0
 62
     7
370
    35
100
AcDbLine
 10
526.669922
 20
576.067627
 30
0.0
 11
526.669922
 21
576.867615
 31
0.0
  0
LINE
  5
2E9
330
1F
100
AcDbEntity
  8
0
 62
     7
370
    35
100
AcDbLine
 10
528.019897
 20
574.71759
 30
0.0
 11
528.819885
 21
574.71759
 31
0.0
  0
LINE
  5
2EA
330
1F
100
AcDbEntity
  8
0
 62
     7
370
    35
100
AcDbLine
 10
530.169922
 20
576.867615
 30
0.0
 11
530.169922
 21
576.067627
 31
0.0
  0
CIRCLE
  5
2EB
330
1F
100
AcDbEntity
  8
0
 62
     7
370
    35
100
AcDbCircle
 10
528.419922
 20
576.46759
 30
0.0
 40
3.0
  0
LINE
  5
2EC
330
1F
100
AcDbEntity
  8
0
 62
     7
370
    35
100
AcDbLine
 10
528.019897
 20
577.46759
 30
0.0
 11
528.019897
 21
578.21759
 31
0.0
  0
LINE
  5
2ED
330
1F
100
AcDbEntity
  8
0
 62
     7
370
    35
100
AcDbLine
 10
527.419922
 20
576.867615
 30
0.0
 11
526.669922
 21
576.867615
 31
0.0
  0
ARC
  5
2EE
330
1F
100
AcDbEntity
  8
0
 62
     7
370
    35
100
AcDbCircle
 10
527.419922
 20
577.46759
 30
0.0
 40
0.6000000238418579
100
AcDbArc
 50
269.999997
 51
360.0
  0
LINE
  5
2EF
330
1F
100
AcDbEntity
  8
0
 62
     7
370
    35
100
AcDbLine
 10
528.819885
 20
578.21759
 30
0.0
 11
528.819885
 21
577.46759
 31
0.0
  0
LINE
  5
2F0
330
1F
100
AcDbEntity
  8
0
 62
     7
370
    35
100
AcDbLine
 10
530.169922
 20
576.867615
 30
0.0
 11
529.419922
 21
576.867615
 31
0.0
  0
ARC
  5
2F1
330
1F
100
AcDbEntity
  8
0
 62
     7
370
    35
100
AcDbCircle
 10
529.419922
 20
577.46759
 30
0.0
 40
0.6000000238418579
100
AcDbArc
 50
180.000009
 51
269.999997
  0
LINE
  5
2F2
330
1F
100
AcDbEntity
  8
0
 62
     7
370
    35
100
AcDbLine
 10
526.669922
 20
576.067627
 30
0.0
 11
527.419922
 21
576.067627
 31
0.0
  0
LINE
  5
2F3
330
1F
100
AcDbEntity
  8
0
 62
     7
370
    35
100
AcDbLine
 10
528.019897
 20
574.71759
 30
0.0
 11
528.019897
 21
575.46759
 31
0.0
  0
ARC
  5
2F4
330
1F
100
AcDbEntity
  8
0
 62
     7
370
    35
100
AcDbCircle
 10
527.419922
 20
575.46759
 30
0.0
 40
0.6000000238418579
100
AcDbArc
 50
0.0
 51
90.000003
  0
LINE
  5
2F5
330
1F
100
AcDbEntity
  8
0
 62
     7
370
    35
100
AcDbLine
 10
528.819885
 20
575.46759
 30
0.0
 11
528.819885
 21
574.71759
 31
0.0
  0
LINE
  5
2F6
330
1F
100
AcDbEntity
  8
0
 62
     7
370
    35
100
AcDbLine
 10
529.419922
 20
576.067627
 30
0.0
 11
530.169922
 21
576.067627
 31
0.0
  0
ARC
  5
2F7
330
1F
100
AcDbEntity
  8
0
 62
     7
370
    35
100
AcDbCircle
 10
529.419922
 20
575.46759
 30
0.0
 40
0.6000000238418579
100
AcDbArc
 50
90.000003
 51
180.000009
  0
ARC
  5
2F8
330
1F
100
AcDbEntity
  8
0
 62
     7
370
    35
100
AcDbCircle
 10
417.54657
 20
3310.152832
 30
0.0
 40
2799.997314453125
100
AcDbArc
 50
267.213472
 51
272.872065
  0
LINE
  5
2F9
330
1F
100
AcDbEntity
  8
0
 62
     7
370
    35
100
AcDbLine
 10
281.425079
 20
513.466431
 30
0.0
 11
279.614807
 21
513.554932
 31
0.0
  0
LINE
  5
2FA
330
1F
100
AcDbEntity
  8
0
 62
     7
370
    35
100
AcDbLine
 10
277.249695
 20
513.671753
 30
0.0
 11
279.614838
 21
513.555115
 31
0.0
  0
LINE
  5
2FB
330
1F
100
AcDbEntity
  8
0
 62
     7
370
    35
100
AcDbLine
 10
281.425079
 20
513.466431
 30
0.0
 11
281.425079
 21
515.712402
 31
0.0
  0
LINE
  5
2FC
330
1F
100
AcDbEntity
  8
0
 62
     7
370
    35
100
AcDbLine
 10
281.824951
 20
516.189026
 30
0.0
 11
281.42511
 21
515.712402
 31
0.0
  0
LINE
  5
2FD
330
1F
100
AcDbEntity
  8
0
 62
     7
370
    35
100
AcDbLine
 10
281.824951
 20
516.189026
 30
0.0
 11
286.003113
 21
521.168335
 31
0.0
  0
ARC
  5
2FE
330
1F
100
AcDbEntity
  8
0
 62
     7
370
    35
100
AcDbCircle
 10
277.419891
 20
517.167603
 30
0.0
 40
3.500001907348633
100
AcDbArc
 50
179.939694
 51
267.212952
  0
ARC
  5
2FF
330
1F
100
AcDbEntity
  8
0
 62
     7
370
    35
100
AcDbCircle
 10
557.667969
 20
517.168396
 30
0.0
 40
3.500086545944214
100
AcDbArc
 50
272.873048
 51
354.999028
  0
LINE
  5
300
330
1F
100
AcDbEntity
  8
0
 62
     7
370
    35
100
AcDbLine
 10
558.542786
 20
521.168335
 30
0.0
 11
286.003113
 21
521.168335
 31
0.0
  0
LINE
  5
301
330
1F
100
AcDbEntity
  8
0
 62
     7
370
    35
100
AcDbLine
 10
561.531372
 20
521.168335
 30
0.0
 11
561.154724
 21
516.863281
 31
0.0
  0
LINE
  5
302
330
1F
100
AcDbEntity
  8
0
 62
     7
370
    35
100
AcDbLine
 10
561.531372
 20
521.168335
 30
0.0
 11
558.542786
 21
521.168335
 31
0.0
  0
LINE
  5
303
330
1F
100
AcDbEntity
  8
0
 62
     7
370
    35
100
AcDbLine
 10
561.919922
 20
525.609009
 30
0.0
 11
561.925049
 21
525.668335
 31
0.0
  0
LINE
  5
304
330
1F
100
AcDbEntity
  8
0
 62
     7
370
    35
100
AcDbLine
 10
561.531372
 20
521.168335
 30
0.0
 11
561.598267
 21
521.932861
 31
0.0
  0
LINE
  5
305
330
1F
100
AcDbEntity
  8
0
 62
     7
370
    35
100
AcDbLine
 10
561.02948
 20
521.168335
 30
0.0
 11
561.074219
 21
521.679565
 31
0.0
  0
LINE
  5
306
330
1F
100
AcDbEntity
  8
0
 62
     7
370
    35
100
AcDbLine
 10
561.925049
 20
530.961243
 30
0.0
 11
561.925049
 21
531.168335
 31
0.0
  0
LINE
  5
307
330
1F
100
AcDbEntity
  8
0
 62
     7
370
    35
100
AcDbLine
 10
561.925049
 20
525.668335
 30
0.0
 11
561.925049
 21
530.961243
 31
0.0
  0
LINE
  5
308
330
1F
100
AcDbEntity
  8
0
 62
     7
370
    35
100
AcDbLine
 10
281.425079
 20
513.466431
 30
0.0
 11
281.425079
 21
515.712463
 31
0.0
  0
LINE
  5
309
330
1F
100
AcDbEntity
  8
0
 62
     7
370
    35
100
AcDbLine
 10
284.855286
 20
519.800476
 30
0.0
 11
281.425079
 21
515.712463
 31
0.0
  0
ARC
  5
30A
330
1F
100
AcDbEntity
  8
0
 62
     7
370
    35
100
AcDbCircle
 10
281.025085
 20
523.014404
 30
0.0
 40
5.0
100
AcDbArc
 50
319.999988
 51
344.373985
  0
ARC
  5
30B
330
1F
100
AcDbEntity
  8
0
 62
     7
370
    35
100
AcDbCircle
 10
277.419891
 20
517.167603
 30
0.0
 40
3.500001668930054
100
AcDbArc
 50
179.949024
 51
182.670148
  0
LINE
  5
30C
330
1F
100
AcDbEntity
  8
0
 62
     7
370
    35
100
AcDbLine
 10
281.425079
 20
513.466431
 30
0.0
 11
277.249695
 21
513.671753
 31
0.0
  0
CIRCLE
  5
30D
330
1F
100
AcDbEntity
  8
0
 62
     7
370
    35
100
AcDbCircle
 10
277.425079
 20
517.168335
 30
0.0
 40
1.299999952316284
  0
CIRCLE
  5
30E
330
1F
100
AcDbEntity
  8
0
 62
     7
370
    35
100
AcDbCircle
 10
277.425079
 20
517.168335
 30
0.0
 40
1.100000023841858
  0
LINE
  5
30F
330
1F
100
AcDbEntity
  8
0
 62
     7
370
    35
100
AcDbLine
 10
278.282562
 20
516.547668
 30
0.0
 11
278.310486
 21
516.590332
 31
0.0
  0
LINE
  5
310
330
1F
100
AcDbEntity
  8
0
 62
     7
370
    35
100
AcDbLine
 10
939.196472
 20
382.236694
 30
0.0
 11
939.196472
 21
140.488541
 31
0.0
  0
LINE
  5
311
330
1F
100
AcDbEntity
  8
0
 62
     7
370
    35
100
AcDbLine
 10
939.196472
 20
382.736694
 30
0.0
 11
939.196472
 21
382.236694
 31
0.0
  0
ARC
  5
312
330
1F
100
AcDbEntity
  8
0
 62
     7
370
    35
100
AcDbCircle
 10
929.196472
 20
140.488541
 30
0.0
 40
10.0
100
AcDbArc
 50
303.690073
 51
360.0
  0
LINE
  5
313
330
1F
100
AcDbEntity
  8
0
 62
     7
370
    35
100
AcDbLine
 10
934.743469
 20
132.16803
 30
0.0
 11
896.715698
 21
106.816208
 31
0.0
  0
ARC
  5
314
330
1F
100
AcDbEntity
  8
0
 62
     7
370
    35
100
AcDbCircle
 10
891.168701
 20
115.136703
 30
0.0
 40
10.0
100
AcDbArc
 50
269.999997
 51
303.690073
  0
LINE
  5
315
330
1F
100
AcDbEntity
  8
0
 62
     7
370
    35
100
AcDbLine
 10
719.196472
 20
105.136703
 30
0.0
 11
891.168701
 21
105.136703
 31
0.0
  0
CIRCLE
  5
316
330
1F
100
AcDbEntity
  8
0
 62
     7
370
    35
100
AcDbCircle
 10
723.196472
 20
265.936707
 30
0.0
 40
2.5
  0
CIRCLE
  5
317
330
1F
100
AcDbEntity
  8
0
 62
     7
370
    35
100
AcDbCircle
 10
742.196472
 20
241.936707
 30
0.0
 40
2.5
  0
LINE
  5
318
330
1F
100
AcDbEntity
  8
0
 62
     7
370
    35
100
AcDbLine
 10
719.196472
 20
382.236694
 30
0.0
 11
719.196472
 21
105.136703
 31
0.0
  0
LINE
  5
319
330
1F
100
AcDbEntity
  8
0
 62
     7
370
    35
100
AcDbLine
 10
719.196472
 20
382.736694
 30
0.0
 11
719.196472
 21
382.236694
 31
0.0
  0
LINE
  5
31A
330
1F
100
AcDbEntity
  8
0
 62
     7
370
    35
100
AcDbLine
 10
719.196472
 20
382.736694
 30
0.0
 11
939.196472
 21
382.736694
 31
0.0
  0
CIRCLE
  5
31B
330
1F
100
AcDbEntity
  8
0
 62
     7
370
    35
100
AcDbCircle
 10
759.196472
 20
201.436707
 30
0.0
 40
1.5
  0
CIRCLE
  5
31C
330
1F
100
AcDbEntity
  8
0
 62
     7
370
    35
100
AcDbCircle
 10
759.196472
 20
193.936707
 30
0.0
 40
3.0
  0
CIRCLE
  5
31D
330
1F
100
AcDbEntity
  8
0
 62
     7
370
    35
100
AcDbCircle
 10
759.196472
 20
186.436707
 30
0.0
 40
1.5
  0
CIRCLE
  5
31E
330
1F
100
AcDbEntity
  8
0
 62
     7
370
    35
100
AcDbCircle
 10
739.196472
 20
113.136703
 30
0.0
 40
1.049999952316284
  0
CIRCLE
  5
31F
330
1F
100
AcDbEntity
  8
0
 62
     7
370
    35
100
AcDbCircle
 10
859.196472
 20
113.136703
 30
0.0
 40
1.049999952316284
  0
CIRCLE
  5
320
330
1F
100
AcDbEntity
  8
0
 62
     7
370
    35
100
AcDbCircle
 10
884.396484
 20
133.936707
 30
0.0
 40
1.049999952316284
  0
CIRCLE
  5
321
330
1F
100
AcDbEntity
  8
0
 62
     7
370
    35
100
AcDbCircle
 10
884.396484
 20
353.936707
 30
0.0
 40
1.049999952316284
  0
LINE
  5
322
330
1F
100
AcDbEntity
  8
0
 62
     7
370
    35
100
AcDbLine
 10
891.396484
 20
105.136703
 30
0.0
 11
891.172119
 21
105.136703
 31
0.0
  0
CIRCLE
  5
323
330
1F
100
AcDbEntity
  8
0
 62
     7
370
    35
100
AcDbCircle
 10
859.196472
 20
113.136703
 30
0.0
 40
1.0
  0
CIRCLE
  5
324
330
1F
100
AcDbEntity
  8
0
 62
     7
370
    35
100
AcDbCircle
 10
739.196472
 20
113.136703
 30
0.0
 40
1.0
  0
CIRCLE
  5
325
330
1F
100
AcDbEntity
  8
0
 62
     7
370
    35
100
AcDbCircle
 10
759.196472
 20
193.936707
 30
0.0
 40
2.066999912261963
  0
CIRCLE
  5
326
330
1F
100
AcDbEntity
  8
0
 62
     7
370
    35
100
AcDbCircle
 10
759.196472
 20
193.936707
 30
0.0
 40
2.367000102996826
  0
CIRCLE
  5
327
330
1F
100
AcDbEntity
  8
0
 62
     7
370
    35
100
AcDbCircle
 10
759.196472
 20
201.436707
 30
0.0
 40
1.0
  0
CIRCLE
  5
328
330
1F
100
AcDbEntity
  8
0
 62
     7
370
    35
100
AcDbCircle
 10
759.196472
 20
186.436707
 30
0.0
 40
1.0
  0
LINE
  5
329
330
1F
100
AcDbEntity
  8
0
 62
     7
370
    35
100
AcDbLine
 10
706.446472
 20
385.936707
 30
0.0
 11
706.446472
 21
384.736694
 31
0.0
  0
LINE
  5
32A
330
1F
100
AcDbEntity
  8
0
 62
     7
370
    35
100
AcDbLine
 10
706.446472
 20
384.736694
 30
0.0
 11
705.697021
 21
384.736694
 31
0.0
  0
LINE
  5
32B
330
1F
100
AcDbEntity
  8
0
 62
     7
370
    35
100
AcDbLine
 10
706.446472
 20
384.736694
 30
0.0
 11
717.196472
 21
384.736694
 31
0.0
  0
LINE
  5
32C
330
1F
100
AcDbEntity
  8
0
 62
     7
370
    35
100
AcDbLine
 10
719.196472
 20
385.936707
 30
0.0
 11
719.196472
 21
384.736694
 31
0.0
  0
ARC
  5
32D
330
1F
100
AcDbEntity
  8
0
 62
     7
370
    35
100
AcDbCircle
 10
718.196472
 20
386.936707
 30
0.0
 40
1.0
100
AcDbArc
 50
0.0
 51
90.000003
  0
LINE
  5
32E
330
1F
100
AcDbEntity
  8
0
 62
     7
370
    35
100
AcDbLine
 10
706.196472
 20
385.936707
 30
0.0
 11
705.697205
 21
385.936707
 31
0.0
  0
LINE
  5
32F
330
1F
100
AcDbEntity
  8
0
 62
     7
370
    35
100
AcDbLine
 10
707.196472
 20
385.936707
 30
0.0
 11
706.196472
 21
385.936707
 31
0.0
  0
LINE
  5
330
330
1F
100
AcDbEntity
  8
0
 62
     7
370
    35
100
AcDbLine
 10
717.196472
 20
385.936707
 30
0.0
 11
707.196472
 21
385.936707
 31
0.0
  0
LINE
  5
331
330
1F
100
AcDbEntity
  8
0
 62
     7
370
    35
100
AcDbLine
 10
706.196472
 20
101.936707
 30
0.0
 11
705.697083
 21
101.936707
 31
0.0
  0
LINE
  5
332
330
1F
100
AcDbEntity
  8
0
 62
     7
370
    35
100
AcDbLine
 10
707.196472
 20
101.936707
 30
0.0
 11
706.196472
 21
101.936707
 31
0.0
  0
LINE
  5
333
330
1F
100
AcDbEntity
  8
0
 62
     7
370
    35
100
AcDbLine
 10
717.196472
 20
101.936707
 30
0.0
 11
707.196472
 21
101.936707
 31
0.0
  0
ARC
  5
334
330
1F
100
AcDbEntity
  8
0
 62
     7
370
    35
100
AcDbCircle
 10
718.196472
 20
100.936707
 30
0.0
 40
1.0
100
AcDbArc
 50
269.999997
 51
360.0
  0
LINE
  5
335
330
1F
100
AcDbEntity
  8
0
 62
     7
370
    35
100
AcDbLine
 10
718.196472
 20
99.936707
 30
0.0
 11
707.196472
 21
99.936707
 31
0.0
  0
LINE
  5
336
330
1F
100
AcDbEntity
  8
0
 62
     7
370
    35
100
AcDbLine
 10
717.196472
 20
101.936707
 30
0.0
 11
717.196472
 21
385.936707
 31
0.0
  0
LINE
  5
337
330
1F
100
AcDbEntity
  8
0
 62
     7
370
    35
100
AcDbLine
 10
718.196472
 20
387.936707
 30
0.0
 11
707.196472
 21
387.936707
 31
0.0
  0
LINE
  5
338
330
1F
100
AcDbEntity
  8
0
 62
     7
370
    35
100
AcDbLine
 10
719.196472
 20
100.936707
 30
0.0
 11
719.196472
 21
386.936707
 31
0.0
  0
LINE
  5
339
330
1F
100
AcDbEntity
  8
0
 62
     7
370
    35
100
AcDbLine
 10
699.446716
 20
387.936707
 30
0.0
 11
698.196472
 21
387.936707
 31
0.0
  0
LINE
  5
33A
330
1F
100
AcDbEntity
  8
0
 62
     7
370
    35
100
AcDbLine
 10
706.196472
 20
387.936707
 30
0.0
 11
699.446716
 21
387.936707
 31
0.0
  0
LINE
  5
33B
330
1F
100
AcDbEntity
  8
0
 62
     7
370
    35
100
AcDbLine
 10
707.196472
 20
387.936707
 30
0.0
 11
706.196472
 21
387.936707
 31
0.0
  0
LINE
  5
33C
330
1F
100
AcDbEntity
  8
0
 62
     7
370
    35
100
AcDbLine
 10
706.196472
 20
385.936707
 30
0.0
 11
706.196472
 21
387.936707
 31
0.0
  0
LINE
  5
33D
330
1F
100
AcDbEntity
  8
0
 62
     7
370
    35
100
AcDbLine
 10
699.446716
 20
99.936707
 30
0.0
 11
698.196472
 21
99.936707
 31
0.0
  0
LINE
  5
33E
330
1F
100
AcDbEntity
  8
0
 62
     7
370
    35
100
AcDbLine
 10
706.196472
 20
99.936707
 30
0.0
 11
699.446716
 21
99.936707
 31
0.0
  0
LINE
  5
33F
330
1F
100
AcDbEntity
  8
0
 62
     7
370
    35
100
AcDbLine
 10
706.196472
 20
101.936707
 30
0.0
 11
706.196472
 21
99.936707
 31
0.0
  0
LINE
  5
340
330
1F
100
AcDbEntity
  8
0
 62
     7
370
    35
100
AcDbLine
 10
707.196472
 20
99.936707
 30
0.0
 11
706.196472
 21
99.936707
 31
0.0
  0
LINE
  5
341
330
1F
100
AcDbEntity
  8
0
 62
     7
370
    35
100
AcDbLine
 10
717.196472
 20
383.936707
 30
0.0
 11
716.196838
 21
383.936707
 31
0.0
  0
LINE
  5
342
330
1F
100
AcDbEntity
  8
0
 62
     7
370
    35
100
AcDbLine
 10
716.197021
 20
103.936707
 30
0.0
 11
717.196472
 21
103.936707
 31
0.0
  0
LINE
  5
343
330
1F
100
AcDbEntity
  8
0
 62
     7
370
    35
100
AcDbLine
 10
698.196472
 20
387.280457
 30
0.0
 11
698.196472
 21
387.936707
 31
0.0
  0
LINE
  5
344
330
1F
100
AcDbEntity
  8
0
 62
     7
370
    35
100
AcDbLine
 10
698.196472
 20
99.936707
 30
0.0
 11
698.196472
 21
100.592941
 31
0.0
  0
LINE
  5
345
330
1F
100
AcDbEntity
  8
0
 62
     7
370
    35
100
AcDbLine
 10
929.196472
 20
382.736694
 30
0.0
 11
927.196472
 21
382.736694
 31
0.0
  0
LINE
  5
346
330
1F
100
AcDbEntity
  8
0
 62
     7
370
    35
100
AcDbLine
 10
929.196472
 20
382.736694
 30
0.0
 11
929.196472
 21
382.8367
 31
0.0
  0
LINE
  5
347
330
1F
100
AcDbEntity
  8
0
 62
     7
370
    35
100
AcDbLine
 10
929.196472
 20
382.8367
 30
0.0
 11
927.196472
 21
382.8367
 31
0.0
  0
LINE
  5
348
330
1F
100
AcDbEntity
  8
0
 62
     7
370
    35
100
AcDbLine
 10
916.196472
 20
382.736694
 30
0.0
 11
916.196472
 21
382.8367
 31
0.0
  0
LINE
  5
349
330
1F
100
AcDbEntity
  8
0
 62
     7
370
    35
100
AcDbLine
 10
918.196472
 20
382.736694
 30
0.0
 11
916.196472
 21
382.736694
 31
0.0
  0
LINE
  5
34A
330
1F
100
AcDbEntity
  8
0
 62
     7
370
    35
100
AcDbLine
 10
918.196472
 20
382.8367
 30
0.0
 11
916.196472
 21
382.8367
 31
0.0
  0
LINE
  5
34B
330
1F
100
AcDbEntity
  8
0
 62
     7
370
    35
100
AcDbLine
 10
927.196472
 20
382.736694
 30
0.0
 11
918.196472
 21
382.736694
 31
0.0
  0
LINE
  5
34C
330
1F
100
AcDbEntity
  8
0
 62
     7
370
    35
100
AcDbLine
 10
927.196472
 20
382.8367
 30
0.0
 11
918.196472
 21
382.8367
 31
0.0
  0
CIRCLE
  5
34D
330
1F
100
AcDbEntity
  8
0
 62
     7
370
    35
100
AcDbCircle
 10
742.196472
 20
241.936707
 30
0.0
 40
1.5
  0
CIRCLE
  5
34E
330
1F
100
AcDbEntity
  8
0
 62
     7
370
    35
100
AcDbCircle
 10
723.196472
 20
265.936707
 30
0.0
 40
1.5
  0
LINE
  5
34F
330
1F
100
AcDbEntity
  8
0
 62
     7
370
    35
100
AcDbLine
 10
763.99646
 20
382.736694
 30
0.0
 11
762.434753
 21
382.736694
 31
0.0
  0
LINE
  5
350
330
1F
100
AcDbEntity
  8
0
 62
     7
370
    35
100
AcDbLine
 10
762.434753
 20
382.736694
 30
0.0
 11
757.99646
 21
382.736694
 31
0.0
  0
LINE
  5
351
330
1F
100
AcDbEntity
  8
0
 62
     7
370
    35
100
AcDbLine
 10
697.490356
 20
373.084412
 30
0.0
 11
697.490356
 21
114.788818
 31
0.0
  0
LINE
  5
352
330
1F
100
AcDbEntity
  8
0
 62
     7
370
    35
100
AcDbLine
 10
697.480713
 20
376.468597
 30
0.0
 11
694.684326
 21
376.224487
 31
0.0
  0
POLYLINE
  5
353
330
1F
100
AcDbEntity
  8
0
 62
     7
370
    35
100
AcDb2dPolyline
 66
     1
 10
0.0
 20
0.0
 30
0.0
  0
VERTEX
  5
354
330
353
100
AcDbEntity
  8
0
370
     0
100
AcDbVertex
100
AcDb2dVertex
 10
697.480713
 20
376.468597
 30
0.0
  0
VERTEX
  5
355
330
353
100
AcDbEntity
  8
0
370
     0
100
AcDbVertex
100
AcDb2dVertex
 10
697.503418
 20
376.07196
 30
0.0
  0
VERTEX
  5
356
330
353
100
AcDbEntity
  8
0
370
     0
100
AcDbVertex
100
AcDb2dVertex
 10
697.521545
 20
374.972168
 30
0.0
  0
SEQEND
  5
357
330
353
100
AcDbEntity
  8
0
 62
     7
370
    35
  0
LINE
  5
358
330
1F
100
AcDbEntity
  8
0
 62
     7
370
    35
100
AcDbLine
 10
697.521545
 20
112.901245
 30
0.0
 11
697.521545
 21
374.972168
 31
0.0
  0
POLYLINE
  5
359
330
1F
100
AcDbEntity
  8
0
 62
     7
370
    35
100
AcDb2dPolyline
 66
     1
 10
0.0
 20
0.0
 30
0.0
  0
VERTEX
  5
35A
330
359
100
AcDbEntity
  8
0
370
     0
100
AcDbVertex
100
AcDb2dVertex
 10
697.521545
 20
112.901245
 30
0.0
  0
VERTEX
  5
35B
330
359
100
AcDbEntity
  8
0
370
     0
100
AcDbVertex
100
AcDb2dVertex
 10
697.503418
 20
111.80162
 30
0.0
  0
VERTEX
  5
35C
330
359
100
AcDbEntity
  8
0
370
     0
100
AcDbVertex
100
AcDb2dVertex
 10
697.480713
 20
111.404831
 30
0.0
  0
SEQEND
  5
35D
330
359
100
AcDbEntity
  8
0
 62
     7
370
    35
  0
LINE
  5
35E
330
1F
100
AcDbEntity
  8
0
 62
     7
370
    35
100
AcDbLine
 10
694.684326
 20
111.64888
 30
0.0
 11
697.480713
 21
111.4048
 31
0.0
  0
LINE
  5
35F
330
1F
100
AcDbEntity
  8
0
 62
     7
370
    35
100
AcDbLine
 10
697.423218
 20
100.660599
 30
0.0
 11
700.936401
 21
100.353226
 31
0.0
  0
LINE
  5
360
330
1F
100
AcDbEntity
  8
0
 62
     7
370
    35
100
AcDbLine
 10
697.423096
 20
387.21283
 30
0.0
 11
700.936401
 21
387.520203
 31
0.0
  0
LINE
  5
361
330
1F
100
AcDbEntity
  8
0
 62
     7
370
    35
100
AcDbLine
 10
700.936401
 20
387.520203
 30
0.0
 11
701.392151
 21
387.560059
 31
0.0
  0
LINE
  5
362
330
1F
100
AcDbEntity
  8
0
 62
     7
370
    35
100
AcDbLine
 10
701.392151
 20
387.560059
 30
0.0
 11
705.697205
 21
387.936707
 31
0.0
  0
LINE
  5
363
330
1F
100
AcDbEntity
  8
0
 62
     7
370
    35
100
AcDbLine
 10
705.697205
 20
384.94812
 30
0.0
 11
705.697205
 21
387.936707
 31
0.0
  0
LINE
  5
364
330
1F
100
AcDbEntity
  8
0
 62
     7
370
    35
100
AcDbLine
 10
705.697205
 20
99.936707
 30
0.0
 11
701.392151
 21
100.313354
 31
0.0
  0
LINE
  5
365
330
1F
100
AcDbEntity
  8
0
 62
     7
370
    35
100
AcDbLine
 10
705.697205
 20
99.936707
 30
0.0
 11
705.697205
 21
102.925293
 31
0.0
  0
LINE
  5
366
330
1F
100
AcDbEntity
  8
0
 62
     7
370
    35
100
AcDbLine
 10
700.938354
 20
100.353058
 30
0.0
 11
701.392334
 21
100.313339
 31
0.0
  0
LINE
  5
367
330
1F
100
AcDbEntity
  8
0
 62
     7
370
    35
100
AcDbLine
 10
716.197205
 20
293.630951
 30
0.0
 11
716.197205
 21
194.242447
 31
0.0
  0
LINE
  5
368
330
1F
100
AcDbEntity
  8
0
 62
     7
370
    35
100
AcDbLine
 10
705.697205
 20
383.936707
 30
0.0
 11
705.697205
 21
384.436707
 31
0.0
  0
LINE
  5
369
330
1F
100
AcDbEntity
  8
0
 62
     7
370
    35
100
AcDbLine
 10
705.697205
 20
384.436707
 30
0.0
 11
705.697205
 21
384.94812
 31
0.0
  0
LINE
  5
36A
330
1F
100
AcDbEntity
  8
0
 62
     7
370
    35
100
AcDbLine
 10
705.697205
 20
103.436707
 30
0.0
 11
705.697205
 21
103.936707
 31
0.0
  0
LINE
  5
36B
330
1F
100
AcDbEntity
  8
0
 62
     7
370
    35
100
AcDbLine
 10
705.697205
 20
102.925293
 30
0.0
 11
705.697205
 21
103.436707
 31
0.0
  0
LINE
  5
36C
330
1F
100
AcDbEntity
  8
0
 62
     7
370
    35
100
AcDbLine
 10
705.697205
 20
383.936707
 30
0.0
 11
710.197205
 21
383.936707
 31
0.0
  0
LINE
  5
36D
330
1F
100
AcDbEntity
  8
0
 62
     7
370
    35
100
AcDbLine
 10
710.197205
 20
103.936707
 30
0.0
 11
705.697205
 21
103.936707
 31
0.0
  0
LINE
  5
36E
330
1F
100
AcDbEntity
  8
0
 62
     7
370
    35
100
AcDbLine
 10
710.197205
 20
103.936707
 30
0.0
 11
710.197205
 21
196.436966
 31
0.0
  0
POLYLINE
  5
36F
330
1F
100
AcDbEntity
  8
0
 62
     7
370
    35
100
AcDb2dPolyline
 66
     1
 10
0.0
 20
0.0
 30
0.0
  0
VERTEX
  5
370
330
36F
100
AcDbEntity
  8
0
370
     0
100
AcDbVertex
100
AcDb2dVertex
 10
708.745422
 20
196.678848
 30
0.0
  0
VERTEX
  5
371
330
36F
100
AcDbEntity
  8
0
370
     0
100
AcDbVertex
100
AcDb2dVertex
 10
709.030884
 20
196.624344
 30
0.0
  0
VERTEX
  5
372
330
36F
100
AcDbEntity
  8
0
370
     0
100
AcDbVertex
100
AcDb2dVertex
 10
710.197144
 20
196.433487
 30
0.0
  0
SEQEND
  5
373
330
36F
100
AcDbEntity
  8
0
 62
     7
370
    35
  0
ARC
  5
374
330
1F
100
AcDbEntity
  8
0
 62
     7
370
    35
100
AcDbCircle
 10
709.239502
 20
199.131958
 30
0.0
 40
2.502048015594482
100
AcDbArc
 50
180.027056
 51
258.606265
  0
LINE
  5
375
330
1F
100
AcDbEntity
  8
0
 62
     7
370
    35
100
AcDbLine
 10
706.737427
 20
288.742462
 30
0.0
 11
706.737427
 21
199.130966
 31
0.0
  0
POLYLINE
  5
376
330
1F
100
AcDbEntity
  8
0
 62
     7
370
    35
100
AcDb2dPolyline
 66
     1
 10
0.0
 20
0.0
 30
0.0
  0
VERTEX
  5
377
330
376
100
AcDbEntity
  8
0
370
     0
100
AcDbVertex
100
AcDb2dVertex
 10
708.745361
 20
291.194427
 30
0.0
  0
VERTEX
  5
378
330
376
100
AcDbEntity
  8
0
370
     0
100
AcDbVertex
100
AcDb2dVertex
 10
708.273865
 20
291.056183
 30
0.0
  0
VERTEX
  5
379
330
376
100
AcDbEntity
  8
0
370
     0
100
AcDbVertex
100
AcDb2dVertex
 10
707.841919
 20
290.826233
 30
0.0
  0
VERTEX
  5
37A
330
376
100
AcDbEntity
  8
0
370
     0
100
AcDbVertex
100
AcDb2dVertex
 10
707.556152
 20
290.602509
 30
0.0
  0
VERTEX
  5
37B
330
376
100
AcDbEntity
  8
0
370
     0
100
AcDbVertex
100
AcDb2dVertex
 10
707.306213
 20
290.338867
 30
0.0
  0
VERTEX
  5
37C
330
376
100
AcDbEntity
  8
0
370
     0
100
AcDbVertex
100
AcDb2dVertex
 10
707.097107
 20
290.04126
 30
0.0
  0
VERTEX
  5
37D
330
376
100
AcDbEntity
  8
0
370
     0
100
AcDbVertex
100
AcDb2dVertex
 10
706.933167
 20
289.7164
 30
0.0
  0
VERTEX
  5
37E
330
376
100
AcDbEntity
  8
0
370
     0
100
AcDbVertex
100
AcDb2dVertex
 10
706.765503
 20
289.116089
 30
0.0
  0
VERTEX
  5
37F
330
376
100
AcDbEntity
  8
0
370
     0
100
AcDbVertex
100
AcDb2dVertex
 10
706.737427
 20
288.742615
 30
0.0
  0
SEQEND
  5
380
330
376
100
AcDbEntity
  8
0
 62
     7
370
    35
  0
LINE
  5
381
330
1F
100
AcDbEntity
  8
0
 62
     7
370
    35
100
AcDbLine
 10
710.116455
 20
291.422974
 30
0.0
 11
708.745361
 21
291.194427
 31
0.0
  0
LINE
  5
382
330
1F
100
AcDbEntity
  8
0
 62
     7
370
    35
100
AcDbLine
 10
710.197205
 20
291.443604
 30
0.0
 11
710.116455
 21
291.422974
 31
0.0
  0
LINE
  5
383
330
1F
100
AcDbEntity
  8
0
 62
     7
370
    35
100
AcDbLine
 10
710.197205
 20
291.443604
 30
0.0
 11
710.197205
 21
383.936707
 31
0.0
  0
LINE
  5
384
330
1F
100
AcDbEntity
  8
0
 62
     7
370
    35
100
AcDbLine
 10
707.197205
 20
288.742462
 30
0.0
 11
707.197205
 21
199.130966
 31
0.0
  0
ARC
  5
385
330
1F
100
AcDbEntity
  8
0
 62
     7
370
    35
100
AcDbCircle
 10
709.197388
 20
288.74231
 30
0.0
 40
2.000082015991211
100
AcDbArc
 50
99.466829
 51
179.995483
  0
ARC
  5
386
330
1F
100
AcDbEntity
  8
0
 62
     7
370
    35
100
AcDbCircle
 10
709.197388
 20
199.131119
 30
0.0
 40
2.000082015991211
100
AcDbArc
 50
180.004517
 51
260.533171
  0
LINE
  5
387
330
1F
100
AcDbEntity
  8
0
 62
     7
370
    35
100
AcDbLine
 10
705.697205
 20
384.436707
 30
0.0
 11
710.219055
 21
384.436707
 31
0.0
  0
LINE
  5
388
330
1F
100
AcDbEntity
  8
0
 62
     7
370
    35
100
AcDbLine
 10
710.219055
 20
384.436707
 30
0.0
 11
715.697205
 21
384.436707
 31
0.0
  0
LINE
  5
389
330
1F
100
AcDbEntity
  8
0
 62
     7
370
    35
100
AcDbLine
 10
715.697205
 20
384.436707
 30
0.0
 11
716.197205
 21
383.936707
 31
0.0
  0
LINE
  5
38A
330
1F
100
AcDbEntity
  8
0
 62
     7
370
    35
100
AcDbLine
 10
710.219055
 20
103.436707
 30
0.0
 11
705.697205
 21
103.436707
 31
0.0
  0
LINE
  5
38B
330
1F
100
AcDbEntity
  8
0
 62
     7
370
    35
100
AcDbLine
 10
710.219055
 20
103.436707
 30
0.0
 11
715.697205
 21
103.436707
 31
0.0
  0
LINE
  5
38C
330
1F
100
AcDbEntity
  8
0
 62
     7
370
    35
100
AcDbLine
 10
715.697205
 20
103.436707
 30
0.0
 11
716.197205
 21
103.936707
 31
0.0
  0
LINE
  5
38D
330
1F
100
AcDbEntity
  8
0
 62
     7
370
    35
100
AcDbLine
 10
710.197205
 20
103.936707
 30
0.0
 11
715.490112
 21
103.936707
 31
0.0
  0
LINE
  5
38E
330
1F
100
AcDbEntity
  8
0
 62
     7
370
    35
100
AcDbLine
 10
715.490112
 20
103.936707
 30
0.0
 11
715.697205
 21
104.143814
 31
0.0
  0
LINE
  5
38F
330
1F
100
AcDbEntity
  8
0
 62
     7
370
    35
100
AcDbLine
 10
715.697205
 20
104.143814
 30
0.0
 11
715.697205
 21
194.242447
 31
0.0
  0
ARC
  5
390
330
1F
100
AcDbEntity
  8
0
 62
     7
370
    35
100
AcDbCircle
 10
714.197205
 20
194.242447
 30
0.0
 40
1.5
100
AcDbArc
 50
359.999928
 51
80.537677
  0
LINE
  5
391
330
1F
100
AcDbEntity
  8
0
 62
     7
370
    35
100
AcDbLine
 10
714.443787
 20
195.722046
 30
0.0
 11
710.197205
 21
196.42981
 31
0.0
  0
LINE
  5
392
330
1F
100
AcDbEntity
  8
0
 62
     7
370
    35
100
AcDbLine
 10
708.868408
 20
197.158173
 30
0.0
 11
710.218445
 21
196.933167
 31
0.0
  0
LINE
  5
393
330
1F
100
AcDbEntity
  8
0
 62
     7
370
    35
100
AcDbLine
 10
714.526001
 20
196.21524
 30
0.0
 11
710.218445
 21
196.933167
 31
0.0
  0
ARC
  5
394
330
1F
100
AcDbEntity
  8
0
 62
     7
370
    35
100
AcDbCircle
 10
714.197205
 20
194.242447
 30
0.0
 40
2.0
100
AcDbArc
 50
0.0
 51
80.537677
  0
LINE
  5
395
330
1F
100
AcDbEntity
  8
0
 62
     7
370
    35
100
AcDbLine
 10
714.443787
 20
292.151367
 30
0.0
 11
710.197205
 21
291.443604
 31
0.0
  0
ARC
  5
396
330
1F
100
AcDbEntity
  8
0
 62
     7
370
    35
100
AcDbCircle
 10
714.197205
 20
293.630951
 30
0.0
 40
1.5
100
AcDbArc
 50
279.462378
 51
0.0
  0
LINE
  5
397
330
1F
100
AcDbEntity
  8
0
 62
     7
370
    35
100
AcDbLine
 10
715.697205
 20
383.729614
 30
0.0
 11
715.697205
 21
293.630951
 31
0.0
  0
LINE
  5
398
330
1F
100
AcDbEntity
  8
0
 62
     7
370
    35
100
AcDbLine
 10
715.490112
 20
383.936707
 30
0.0
 11
715.697205
 21
383.729614
 31
0.0
  0
LINE
  5
399
330
1F
100
AcDbEntity
  8
0
 62
     7
370
    35
100
AcDbLine
 10
710.197205
 20
383.936707
 30
0.0
 11
715.490112
 21
383.936707
 31
0.0
  0
LINE
  5
39A
330
1F
100
AcDbEntity
  8
0
 62
     7
370
    35
100
AcDbLine
 10
716.197205
 20
383.936707
 30
0.0
 11
716.197205
 21
293.630951
 31
0.0
  0
LINE
  5
39B
330
1F
100
AcDbEntity
  8
0
 62
     7
370
    35
100
AcDbLine
 10
716.197205
 20
103.936707
 30
0.0
 11
716.197205
 21
194.242447
 31
0.0
  0
LINE
  5
39C
330
1F
100
AcDbEntity
  8
0
 62
     7
370
    35
100
AcDbLine
 10
714.526001
 20
291.658173
 30
0.0
 11
710.218445
 21
290.940247
 31
0.0
  0
LINE
  5
39D
330
1F
100
AcDbEntity
  8
0
 62
     7
370
    35
100
AcDbLine
 10
710.218445
 20
290.940247
 30
0.0
 11
708.868408
 21
290.71524
 31
0.0
  0
ARC
  5
39E
330
1F
100
AcDbEntity
  8
0
 62
     7
370
    35
100
AcDbCircle
 10
714.197205
 20
293.630951
 30
0.0
 40
2.0
100
AcDbArc
 50
279.462323
 51
360.0
  0
LINE
  5
39F
330
1F
100
AcDbEntity
  8
0
 62
     7
370
    35
100
AcDbLine
 10
710.219055
 20
103.436707
 30
0.0
 11
710.197205
 21
103.936707
 31
0.0
  0
LINE
  5
3A0
330
1F
100
AcDbEntity
  8
0
 62
     7
370
    35
100
AcDbLine
 10
715.697205
 20
103.436707
 30
0.0
 11
715.490112
 21
103.936707
 31
0.0
  0
LINE
  5
3A1
330
1F
100
AcDbEntity
  8
0
 62
     7
370
    35
100
AcDbLine
 10
716.197205
 20
103.936707
 30
0.0
 11
715.697205
 21
104.143814
 31
0.0
  0
LINE
  5
3A2
330
1F
100
AcDbEntity
  8
0
 62
     7
370
    35
100
AcDbLine
 10
710.218445
 20
196.933228
 30
0.0
 11
710.197205
 21
196.433334
 31
0.0
  0
LINE
  5
3A3
330
1F
100
AcDbEntity
  8
0
 62
     7
370
    35
100
AcDbLine
 10
710.116455
 20
291.422974
 30
0.0
 11
710.218445
 21
290.940247
 31
0.0
  0
LINE
  5
3A4
330
1F
100
AcDbEntity
  8
0
 62
     7
370
    35
100
AcDbLine
 10
715.697205
 20
383.729614
 30
0.0
 11
716.197205
 21
383.936707
 31
0.0
  0
LINE
  5
3A5
330
1F
100
AcDbEntity
  8
0
 62
     7
370
    35
100
AcDbLine
 10
715.490112
 20
383.936707
 30
0.0
 11
715.697205
 21
384.436707
 31
0.0
  0
LINE
  5
3A6
330
1F
100
AcDbEntity
  8
0
 62
     7
370
    35
100
AcDbLine
 10
710.197205
 20
383.936707
 30
0.0
 11
710.219055
 21
384.436707
 31
0.0
  0
LINE
  5
3A7
330
1F
100
AcDbEntity
  8
0
 62
     7
370
    35
100
AcDbLine
 10
694.68457
 20
384.224243
 30
0.0
 11
694.68457
 21
376.224213
 31
0.0
  0
LINE
  5
3A8
330
1F
100
AcDbEntity
  8
0
 62
     7
370
    35
100
AcDbLine
 10
694.68457
 20
111.6492
 30
0.0
 11
694.68457
 21
103.64917
 31
0.0
  0
ARC
  5
3A9
330
1F
100
AcDbEntity
  8
0
 62
     7
370
    35
100
AcDbCircle
 10
697.684509
 20
103.649139
 30
0.0
 40
2.999934911727905
100
AcDbArc
 50
179.999117
 51
265.003222
  0
ARC
  5
3AA
330
1F
100
AcDbEntity
  8
0
 62
     7
370
    35
100
AcDbCircle
 10
697.684509
 20
384.224274
 30
0.0
 40
2.999934911727905
100
AcDbArc
 50
94.99675
 51
180.000883
  0
LINE
  5
3AB
330
1F
100
AcDbEntity
  8
0
 62
     7
370
    35
100
AcDbLine
 10
694.684326
 20
376.224487
 30
0.0
 11
697.521484
 21
373.049774
 31
0.0
  0
LINE
  5
3AC
330
1F
100
AcDbEntity
  8
0
 62
     7
370
    35
100
AcDbLine
 10
694.684265
 20
111.648911
 30
0.0
 11
697.521484
 21
114.823639
 31
0.0
  0
LINE
  5
3AD
330
1F
100
AcDbEntity
  8
0
 62
     7
370
    35
100
AcDbLine
 10
707.543274
 20
384.436707
 30
0.0
 11
705.697205
 21
384.436707
 31
0.0
  0
LINE
  5
3AE
330
1F
100
AcDbEntity
  8
0
 62
     7
370
    35
100
AcDbLine
 10
707.543274
 20
384.436707
 30
0.0
 11
715.697205
 21
384.436707
 31
0.0
  0
LINE
  5
3AF
330
1F
100
AcDbEntity
  8
0
 62
     7
370
    35
100
AcDbLine
 10
716.197205
 20
383.523926
 30
0.0
 11
717.196472
 21
383.523926
 31
0.0
  0
LINE
  5
3B0
330
1F
100
AcDbEntity
  8
0
 62
     7
370
    35
100
AcDbLine
 10
716.197205
 20
105.523941
 30
0.0
 11
717.196472
 21
105.523941
 31
0.0
  0
ENDSEC
  0
SECTION
  2
OBJECTS
  0
DICTIONARY
  5
C
330
0
100
AcDbDictionary
281
     1
  3
ACAD_GROUP
350
D
  3
ACAD_LAYOUT
350
1A
  3
ACAD_MLINESTYLE
350
17
  3
ACAD_PLOTSETTINGS
350
19
  3
ACAD_PLOTSTYLENAME
350
E
  3
ACAD_SCALELIST
350
47
  0
DICTIONARY
  5
D
102
{ACAD_REACTORS
330
C
102
}
330
C
100
AcDbDictionary
281
     1
  0
DICTIONARY
  5
1A
102
{ACAD_REACTORS
330
C
102
}
330
C
100
AcDbDictionary
281
     1
  3
Layout1
350
1E
  3
Layout2
350
26
  3
Model
350
22
  0
DICTIONARY
  5
17
102
{ACAD_REACTORS
330
C
102
}
330
C
100
AcDbDictionary
281
     1
  3
Standard
350
18
  0
DICTIONARY
  5
19
102
{ACAD_REACTORS
330
C
102
}
330
C
100
AcDbDictionary
281
     1
  0
ACDBDICTIONARYWDFLT
  5
E
102
{ACAD_REACTORS
330
C
102
}
330
C
100
AcDbDictionary
281
     1
  3
Normal
350
F
100
AcDbDictionaryWithDefault
340
F
  0
DICTIONARY
  5
47
102
{ACAD_REACTORS
330
C
102
}
330
C
100
AcDbDictionary
281
     1
  3
A0
350
48
  3
A1
350
49
  3
A2
350
4A
  3
A3
350
4B
  3
A4
350
4C
  3
A5
350
4D
  3
A6
350
4E
  3
A7
350
4F
  3
A8
350
50
  3
A9
350
51
  3
B0
350
52
  3
B1
350
53
  3
B2
350
54
  3
B3
350
55
  3
B4
350
56
  3
B5
350
57
  3
B6
350
58
  3
B7
350
59
  3
B8
350
5A
  3
B9
350
5B
  3
C0
350
5C
  3
C1
350
5D
  3
C2
350
5E
  3
C3
350
5F
  3
C4
350
60
  3
C5
350
61
  3
C6
350
62
  3
C7
350
63
  3
C8
350
64
  3
C9
350
65
  3
D0
350
66
  3
D1
350
67
  3
D2
350
68
  0
LAYOUT
  5
1E
102
{ACAD_REACTORS
330
1A
102
}
330
1A
100
AcDbPlotSettings
  1

  2
none_device
  4

  6

 40
0.0
 41
0.0
 42
0.0
 43
0.0
 44
0.0
 45
0.0
 46
0.0
 47
0.0
 48
0.0
 49
0.0
140
0.0
141
0.0
142
1.0
143
1.0
 70
  4784
 72
     0
 73
     0
 74
     5
  7

 75
    16
147
1.0
148
0.0
149
0.0
100
AcDbLayout
  1
Layout1
 70
     1
 71
     1
 10
0.0
 20
0.0
 11
420.0
 21
297.0
 12
0.0
 22
0.0
 32
0.0
 14
0.0
 24
0.0
 34
0.0
 15
939.196472
 25
754.667603
 35
2.0
146
0.0
 13
0.0
 23
0.0
 33
0.0
 16
1.0
 26
0.0
 36
0.0
 17
0.0
 27
1.0
 37
0.0
 76
     0
330
1B
  0
LAYOUT
  5
26
102
{ACAD_REACTORS
330
1A
102
}
330
1A
100
AcDbPlotSettings
  1

  2
none_device
  4

  6

 40
0.0
 41
0.0
 42
0.0
 43
0.0
 44
0.0
 45
0.0
 46
0.0
 47
0.0
 48
0.0
 49
0.0
140
0.0
141
0.0
142
1.0
143
1.0
 70
  4784
 72
     0
 73
     0
 74
     5
  7

 75
    16
147
1.0
148
0.0
149
0.0
100
AcDbLayout
  1
Layout2
 70
     1
 71
     2
 10
0.0
 20
0.0
 11
0.0
 21
0.0
 12
0.0
 22
0.0
 32
0.0
 14
0.0
 24
0.0
 34
0.0
 15
0.0
 25
0.0
 35
0.0
146
0.0
 13
0.0
 23
0.0
 33
0.0
 16
1.0
 26
0.0
 36
0.0
 17
0.0
 27
1.0
 37
0.0
 76
     0
330
23
  0
LAYOUT
  5
22
102
{ACAD_REACTORS
330
1A
102
}
330
1A
100
AcDbPlotSettings
  1

  2
none_device
  4
Letter_(8.50_x_11.00_Inches)
  6

 40
6.35
 41
6.35
 42
6.350005
 43
6.350005
 44
215.9
 45
279.4
 46
0.0
 47
0.0
 48
0.0
 49
0.0
140
0.0
141
0.0
142
1.0
143
1.0
 70
  5808
 72
     0
 73
     0
 74
     0
  7

 75
     0
147
1.0
148
0.0
149
0.0
100
AcDbLayout
  1
Model
 70
     1
 71
     0
 10
0.0
 20
0.0
 11
420.0
 21
297.0
 12
0.0
 22
0.0
 32
0.0
 14
0.0
 24
0.0
 34
0.0
 15
939.196472
 25
754.667603
 35
2.0
146
0.0
 13
0.0
 23
0.0
 33
0.0
 16
1.0
 26
0.0
 36
0.0
 17
0.0
 27
1.0
 37
0.0
 76
     0
330
1F
331
29
  0
MLINESTYLE
  5
18
102
{ACAD_REACTORS
330
17
102
}
330
17
100
AcDbMlineStyle
  2
Standard
 70
     0
  3

 62
   256
 51
90.0
 52
90.0
 71
     2
 49
0.5
 62
   256
  6
BYLAYER
 49
-0.5
 62
   256
  6
BYLAYER
  0
ACDBPLACEHOLDER
  5
F
102
{ACAD_REACTORS
330
E
102
}
330
E
  0
SCALE
  5
48
102
{ACAD_REACTORS
330
47
102
}
330
47
100
AcDbScale
 70
     0
300
1:1
140
1.0
141
1.0
290
     1
  0
SCALE
  5
49
102
{ACAD_REACTORS
330
47
102
}
330
47
100
AcDbScale
 70
     0
300
1:2
140
1.0
141
2.0
290
     0
  0
SCALE
  5
4A
102
{ACAD_REACTORS
330
47
102
}
330
47
100
AcDbScale
 70
     0
300
1:4
140
1.0
141
4.0
290
     0
  0
SCALE
  5
4B
102
{ACAD_REACTORS
330
47
102
}
330
47
100
AcDbScale
 70
     0
300
1:5
140
1.0
141
5.0
290
     0
  0
SCALE
  5
4C
102
{ACAD_REACTORS
330
47
102
}
330
47
100
AcDbScale
 70
     0
300
1:8
140
1.0
141
8.0
290
     0
  0
SCALE
  5
4D
102
{ACAD_REACTORS
330
47
102
}
330
47
100
AcDbScale
 70
     0
300
1:10
140
1.0
141
10.0
290
     0
  0
SCALE
  5
4E
102
{ACAD_REACTORS
330
47
102
}
330
47
100
AcDbScale
 70
     0
300
1:16
140
1.0
141
16.0
290
     0
  0
SCALE
  5
4F
102
{ACAD_REACTORS
330
47
102
}
330
47
100
AcDbScale
 70
     0
300
1:20
140
1.0
141
20.0
290
     0
  0
SCALE
  5
50
102
{ACAD_REACTORS
330
47
102
}
330
47
100
AcDbScale
 70
     0
300
1:30
140
1.0
141
30.0
290
     0
  0
SCALE
  5
51
102
{ACAD_REACTORS
330
47
102
}
330
47
100
AcDbScale
 70
     0
300
1:40
140
1.0
141
40.0
290
     0
  0
SCALE
  5
52
102
{ACAD_REACTORS
330
47
102
}
330
47
100
AcDbScale
 70
     0
300
1:50
140
1.0
141
50.0
290
     0
  0
SCALE
  5
53
102
{ACAD_REACTORS
330
47
102
}
330
47
100
AcDbScale
 70
     0
300
1:100
140
1.0
141
100.0
290
     0
  0
SCALE
  5
54
102
{ACAD_REACTORS
330
47
102
}
330
47
100
AcDbScale
 70
     0
300
2:1
140
2.0
141
1.0
290
     0
  0
SCALE
  5
55
102
{ACAD_REACTORS
330
47
102
}
330
47
100
AcDbScale
 70
     0
300
4:1
140
4.0
141
1.0
290
     0
  0
SCALE
  5
56
102
{ACAD_REACTORS
330
47
102
}
330
47
100
AcDbScale
 70
     0
300
8:1
140
8.0
141
1.0
290
     0
  0
SCALE
  5
57
102
{ACAD_REACTORS
330
47
102
}
330
47
100
AcDbScale
 70
     0
300
10:1
140
10.0
141
1.0
290
     0
  0
SCALE
  5
58
102
{ACAD_REACTORS
330
47
102
}
330
47
100
AcDbScale
 70
     0
300
100:1
140
100.0
141
1.0
290
     0
  0
SCALE
  5
59
102
{ACAD_REACTORS
330
47
102
}
330
47
100
AcDbScale
 70
     0
300
1/128" = 1'-0"
140
0.007812
141
12.0
290
     0
  0
SCALE
  5
5A
102
{ACAD_REACTORS
330
47
102
}
330
47
100
AcDbScale
 70
     0
300
1/64" = 1'-0"
140
0.015625
141
12.0
290
     0
  0
SCALE
  5
5B
102
{ACAD_REACTORS
330
47
102
}
330
47
100
AcDbScale
 70
     0
300
1/32" = 1'-0"
140
0.03125
141
12.0
290
     0
  0
SCALE
  5
5C
102
{ACAD_REACTORS
330
47
102
}
330
47
100
AcDbScale
 70
     0
300
1/16" = 1'-0"
140
0.0625
141
12.0
290
     0
  0
SCALE
  5
5D
102
{ACAD_REACTORS
330
47
102
}
330
47
100
AcDbScale
 70
     0
300
3/32" = 1'-0"
140
0.09375
141
12.0
290
     0
  0
SCALE
  5
5E
102
{ACAD_REACTORS
330
47
102
}
330
47
100
AcDbScale
 70
     0
300
1/8" = 1'-0"
140
0.125
141
12.0
290
     0
  0
SCALE
  5
5F
102
{ACAD_REACTORS
330
47
102
}
330
47
100
AcDbScale
 70
     0
300
3/16" = 1'-0"
140
0.1875
141
12.0
290
     0
  0
SCALE
  5
60
102
{ACAD_REACTORS
330
47
102
}
330
47
100
AcDbScale
 70
     0
300
1/4" = 1'-0"
140
0.25
141
12.0
290
     0
  0
SCALE
  5
61
102
{ACAD_REACTORS
330
47
102
}
330
47
100
AcDbScale
 70
     0
300
3/8" = 1'-0"
140
0.375
141
12.0
290
     0
  0
SCALE
  5
62
102
{ACAD_REACTORS
330
47
102
}
330
47
100
AcDbScale
 70
     0
300
1/2" = 1'-0"
140
0.5
141
12.0
290
     0
  0
SCALE
  5
63
102
{ACAD_REACTORS
330
47
102
}
330
47
100
AcDbScale
 70
     0
300
3/4" = 1'-0"
140
0.75
141
12.0
290
     0
  0
SCALE
  5
64
102
{ACAD_REACTORS
330
47
102
}
330
47
100
AcDbScale
 70
     0
300
1" = 1'-0"
140
1.0
141
12.0
290
     0
  0
SCALE
  5
65
102
{ACAD_REACTORS
330
47
102
}
330
47
100
AcDbScale
 70
     0
300
1-1/2" = 1'-0"
140
1.5
141
12.0
290
     0
  0
SCALE
  5
66
102
{ACAD_REACTORS
330
47
102
}
330
47
100
AcDbScale
 70
     0
300
3" = 1'-0"
140
3.0
141
12.0
290
     0
  0
SCALE
  5
67
102
{ACAD_REACTORS
330
47
102
}
330
47
100
AcDbScale
 70
     0
300
6" = 1'-0"
140
6.0
141
12.0
290
     0
  0
SCALE
  5
68
102
{ACAD_REACTORS
330
47
102
}
330
47
100
AcDbScale
 70
     0
300
1'-0" = 1'-0"
140
12.0
141
12.0
290
     0
  0
ENDSEC
  0
EOF
