  0
SECTION
  2
HEADER
  9
$ACADVER
  1
AC1015
  9
$ACADMAINTVER
 70
    10
  9
$DWGCODEPAGE
  3
ANSI_932
  9
$INSBASE
 10
0.0
 20
0.0
 30
0.0
  9
$EXTMIN
 10
49.68628139125605
 20
122.9436645559668
 30
0.0
  9
$EXTMAX
 10
675.8047963091286
 20
412.1836743178771
 30
0.0
  9
$LIMMIN
 10
0.0
 20
0.0
  9
$LIMMAX
 10
420.0
 20
297.0
  9
$ORTHOMODE
 70
     1
  9
$REGENMODE
 70
     1
  9
$FILLMODE
 70
     1
  9
$QTEXTMODE
 70
     0
  9
$MIRRTEXT
 70
     1
  9
$LTSCALE
 40
1.0
  9
$ATTMODE
 70
     1
  9
$TEXTSIZE
 40
0.0
  9
$TRACEWID
 40
1.0
  9
$TEXTSTYLE
  7
STANDARD
  9
$CLAYER
  8
0
  9
$CELTYPE
  6
BYLAYER
  9
$CECOLOR
 62
   256
  9
$CELTSCALE
 40
1.0
  9
$DISPSILH
 70
     0
  9
$DIMSCALE
 40
1.0
  9
$DIMASZ
 40
2.5
  9
$DIMEXO
 40
0.625
  9
$DIMDLI
 40
3.75
  9
$DIMRND
 40
0.0
  9
$DIMDLE
 40
0.0
  9
$DIMEXE
 40
1.25
  9
$DIMTP
 40
0.0
  9
$DIMTM
 40
0.0
  9
$DIMTXT
 40
2.5
  9
$DIMCEN
 40
2.5
  9
$DIMTSZ
 40
0.0
  9
$DIMTOL
 70
     0
  9
$DIMLIM
 70
     0
  9
$DIMTIH
 70
     0
  9
$DIMTOH
 70
     0
  9
$DIMSE1
 70
     0
  9
$DIMSE2
 70
     0
  9
$DIMTAD
 70
     1
  9
$DIMZIN
 70
     8
  9
$DIMBLK
  1

  9
$DIMASO
 70
     1
  9
$DIMSHO
 70
     1
  9
$DIMPOST
  1

  9
$DIMAPOST
  1

  9
$DIMALT
 70
     0
  9
$DIMALTD
 70
     3
  9
$DIMALTF
 40
0.03937
  9
$DIMLFAC
 40
1.0
  9
$DIMTOFL
 70
     1
  9
$DIMTVP
 40
0.0
  9
$DIMTIX
 70
     0
  9
$DIMSOXD
 70
     0
  9
$DIMSAH
 70
     0
  9
$DIMBLK1
  1

  9
$DIMBLK2
  1

  9
$DIMSTYLE
  2
STANDARD
  9
$DIMCLRD
 70
     0
  9
$DIMCLRE
 70
     0
  9
$DIMCLRT
 70
     0
  9
$DIMTFAC
 40
1.0
  9
$DIMGAP
 40
0.625
  9
$DIMJUST
 70
     0
  9
$DIMSD1
 70
     0
  9
$DIMSD2
 70
     0
  9
$DIMTOLJ
 70
     0
  9
$DIMTZIN
 70
     8
  9
$DIMALTZ
 70
     0
  9
$DIMALTTZ
 70
     0
  9
$DIMUPT
 70
     0
  9
$DIMDEC
 70
     2
  9
$DIMTDEC
 70
     2
  9
$DIMALTU
 70
     2
  9
$DIMALTTD
 70
     3
  9
$DIMTXSTY
  7
STANDARD
  9
$DIMAUNIT
 70
     0
  9
$DIMADEC
 70
     0
  9
$DIMALTRND
 40
0.0
  9
$DIMAZIN
 70
     0
  9
$DIMDSEP
 70
    46
  9
$DIMATFIT
 70
     3
  9
$DIMFRAC
 70
     0
  9
$DIMLDRBLK
  1

  9
$DIMLUNIT
 70
     2
  9
$DIMLWD
 70
    -2
  9
$DIMLWE
 70
    -2
  9
$DIMTMOVE
 70
     0
  9
$LUNITS
 70
     2
  9
$LUPREC
 70
     4
  9
$SKETCHINC
 40
1.0
  9
$FILLETRAD
 40
2.5
  9
$AUNITS
 70
     0
  9
$AUPREC
 70
     0
  9
$MENU
  1
.
  9
$ELEVATION
 40
0.0
  9
$PELEVATION
 40
0.0
  9
$THICKNESS
 40
0.0
  9
$LIMCHECK
 70
     0
  9
$CHAMFERA
 40
2.5
  9
$CHAMFERB
 40
2.5
  9
$CHAMFERC
 40
0.0
  9
$CHAMFERD
 40
0.0
  9
$SKPOLY
 70
     0
  9
$TDCREATE
 40
2312275.082421388
  9
$TDUCREATE
 40
2312274.707421388
  9
$TDUPDATE
 40
2456493.751166018
  9
$TDUUPDATE
 40
2456493.376166018
  9
$TDINDWG
 40
0.0591765162
  9
$TDUSRTIMER
 40
0.0591759722
  9
$USRTIMER
 70
     1
  9
$ANGBASE
 50
0.0
  9
$ANGDIR
 70
     0
  9
$PDMODE
 70
     0
  9
$PDSIZE
 40
0.0
  9
$PLINEWID
 40
0.0
  9
$SPLFRAME
 70
     0
  9
$SPLINETYPE
 70
     6
  9
$SPLINESEGS
 70
     8
  9
$HANDSEED
  5
4603
  9
$SURFTAB1
 70
     6
  9
$SURFTAB2
 70
     6
  9
$SURFTYPE
 70
     6
  9
$SURFU
 70
     6
  9
$SURFV
 70
     6
  9
$UCSBASE
  2

  9
$UCSNAME
  2

  9
$UCSORG
 10
0.0
 20
0.0
 30
0.0
  9
$UCSXDIR
 10
1.0
 20
0.0
 30
0.0
  9
$UCSYDIR
 10
0.0
 20
1.0
 30
0.0
  9
$UCSORTHOREF
  2

  9
$UCSORTHOVIEW
 70
     0
  9
$UCSORGTOP
 10
0.0
 20
0.0
 30
0.0
  9
$UCSORGBOTTOM
 10
0.0
 20
0.0
 30
0.0
  9
$UCSORGLEFT
 10
0.0
 20
0.0
 30
0.0
  9
$UCSORGRIGHT
 10
0.0
 20
0.0
 30
0.0
  9
$UCSORGFRONT
 10
0.0
 20
0.0
 30
0.0
  9
$UCSORGBACK
 10
0.0
 20
0.0
 30
0.0
  9
$PUCSBASE
  2

  9
$PUCSNAME
  2

  9
$PUCSORG
 10
0.0
 20
0.0
 30
0.0
  9
$PUCSXDIR
 10
1.0
 20
0.0
 30
0.0
  9
$PUCSYDIR
 10
0.0
 20
1.0
 30
0.0
  9
$PUCSORTHOREF
  2

  9
$PUCSORTHOVIEW
 70
     0
  9
$PUCSORGTOP
 10
0.0
 20
0.0
 30
0.0
  9
$PUCSORGBOTTOM
 10
0.0
 20
0.0
 30
0.0
  9
$PUCSORGLEFT
 10
0.0
 20
0.0
 30
0.0
  9
$PUCSORGRIGHT
 10
0.0
 20
0.0
 30
0.0
  9
$PUCSORGFRONT
 10
0.0
 20
0.0
 30
0.0
  9
$PUCSORGBACK
 10
0.0
 20
0.0
 30
0.0
  9
$USERI1
 70
     0
  9
$USERI2
 70
     0
  9
$USERI3
 70
     0
  9
$USERI4
 70
     0
  9
$USERI5
 70
     0
  9
$USERR1
 40
0.0
  9
$USERR2
 40
0.0
  9
$USERR3
 40
0.0
  9
$USERR4
 40
0.0
  9
$USERR5
 40
0.0
  9
$WORLDVIEW
 70
     1
  9
$SHADEDGE
 70
     3
  9
$SHADEDIF
 70
    70
  9
$TILEMODE
 70
     1
  9
$MAXACTVP
 70
    48
  9
$PINSBASE
 10
0.0
 20
0.0
 30
0.0
  9
$PLIMCHECK
 70
     0
  9
$PEXTMIN
 10
0.0
 20
0.0
 30
0.0
  9
$PEXTMAX
 10
401.4999999999998
 20
275.0
 30
2.0
  9
$PLIMMIN
 10
0.0
 20
0.0
  9
$PLIMMAX
 10
420.0
 20
297.0
  9
$UNITMODE
 70
     0
  9
$VISRETAIN
 70
     0
  9
$PLINEGEN
 70
     0
  9
$PSLTSCALE
 70
     1
  9
$TREEDEPTH
 70
  3020
  9
$CMLSTYLE
  2
STANDARD
  9
$CMLJUST
 70
     0
  9
$CMLSCALE
 40
20.0
  9
$PROXYGRAPHICS
 70
     1
  9
$MEASUREMENT
 70
     1
  9
$CELWEIGHT
370
    -1
  9
$ENDCAPS
280
     0
  9
$JOINSTYLE
280
     0
  9
$LWDISPLAY
290
     0
  9
$INSUNITS
 70
     0
  9
$HYPERLINKBASE
  1

  9
$STYLESHEET
  1

  9
$XEDIT
290
     1
  9
$CEPSNTYPE
380
     0
  9
$PSTYLEMODE
290
     1
  9
$FINGERPRINTGUID
  2
{B2FE10F9-736F-41AD-8EB4-7007330ACF36}
  9
$VERSIONGUID
  2
{745544F9-4439-4EA6-B45B-6C0C390F7473}
  9
$EXTNAMES
290
     1
  9
$PSVPSCALE
 40
0.0
  9
$OLESTARTUP
290
     0
  0
ENDSEC
  0
SECTION
  2
CLASSES
  0
CLASS
  1
LWPOLYLINE
  2
AcDbPolyline
  3
AutoCAD 2000
 90
    32768
280
     0
281
     1
  0
CLASS
  1
IMAGE
  2
AcDbRasterImage
  3
ISM
 90
    32895
280
     0
281
     1
  0
CLASS
  1
OLE2FRAME
  2
AcDbOle2Frame
  3
AutoCAD 2000
 90
    32768
280
     0
281
     1
  0
CLASS
  1
HATCH
  2
AcDbHatch
  3
AutoCAD 2000
 90
    32768
280
     0
281
     1
  0
CLASS
  1
DICTIONARYVAR
  2
AcDbDictionaryVar
  3
AutoCAD 2000
 90
    32768
280
     0
281
     0
  0
CLASS
  1
RASTERVARIABLES
  2
AcDbRasterVariables
  3
ISM
 90
    32768
280
     0
281
     0
  0
CLASS
  1
IMAGEDEF
  2
AcDbRasterImageDef
  3
ISM
 90
    32768
280
     0
281
     0
  0
CLASS
  1
IMAGEDEF_REACTOR
  2
AcDbRasterImageDefReactor
  3
ISM
 90
    32769
280
     0
281
     0
  0
CLASS
  1
IDBUFFER
  2
AcDbIdBuffer
  3
AutoCAD 2000
 90
    32768
280
     0
281
     0
  0
CLASS
  1
SPATIAL_FILTER
  2
AcDbSpatialFilter
  3
AutoCAD 2000
 90
    32768
280
     0
281
     0
  0
CLASS
  1
XRECORD
  2
AcDbXrecord
  3
AutoCAD 2000
 90
    32768
280
     0
281
     0
  0
CLASS
  1
SORTENTSTABLE
  2
AcDbSortentsTable
  3
AutoCAD 2000
 90
    32768
280
     0
281
     0
  0
CLASS
  1
LAYER_INDEX
  2
AcDbLayerIndex
  3
AutoCAD 2000
 90
    32768
280
     0
281
     0
  0
CLASS
  1
SPATIAL_INDEX
  2
AcDbSpatialIndex
  3
AutoCAD 2000
 90
    32768
280
     0
281
     0
  0
CLASS
  1
OBJECT_PTR
  2
CAseDLPNTableRecord
  3
"ASE-LPNTableRecord"
 90
    32769
280
     0
281
     0
  0
CLASS
  1
LAYOUT
  2
AcDbLayout
  3
AutoCAD 2000
 90
        0
280
     0
281
     0
  0
CLASS
  1
PLOTSETTINGS
  2
AcDbPlotSettings
  3
AutoCAD 2000
 90
    32768
280
     0
281
     0
  0
CLASS
  1
ACDBDICTIONARYWDFLT
  2
AcDbDictionaryWithDefault
  3
AutoCAD 2000
 90
        0
280
     0
281
     0
  0
CLASS
  1
ACDBPLACEHOLDER
  2
AcDbPlaceHolder
  3
AutoCAD 2000
 90
        0
280
     0
281
     0
  0
CLASS
  1
VBA_PROJECT
  2
AcDbVbaProject
  3
"acadvba"
 90
    32768
280
     0
281
     0
  0
CLASS
  1
WIPEOUT
  2
AcDbWipeout
  3
WipeOut|AutoCAD Express Tool|expresstools@autodesk.com
 90
    32895
280
     0
281
     1
  0
CLASS
  1
WIPEOUTVARIABLES
  2
AcDbWipeoutVariables
  3
WipeOut|AutoCAD Express Tool|expresstools@autodesk.com
 90
    32768
280
     0
281
     0
  0
CLASS
  1
RTEXT
  2
RText
  3
RText|AutoCAD Express Tool|expresstools@autodesk.com
 90
    32768
280
     0
281
     1
  0
CLASS
  1
ARCALIGNEDTEXT
  2
AcDbArcAlignedText
  3
ATEXT|AutoCAD Express Tool|expresstools@autodesk.com
 90
    32768
280
     0
281
     1
  0
ENDSEC
  0
SECTION
  2
TABLES
  0
TABLE
  2
VPORT
  5
7
330
0
100
AcDbSymbolTable
 70
     3
  0
VPORT
  5
4602
330
7
100
AcDbSymbolTableRecord
100
AcDbViewportTableRecord
  2
*Active
 70
     0
 10
0.0
 20
0.0
 11
1.0
 21
1.0
 12
368.7285056236471
 22
279.8661430864655
 13
0.0
 23
0.0
 14
1.0
 24
1.0
 15
0.0
 25
0.0
 16
0.0
 26
0.0
 36
1.0
 17
0.0
 27
0.0
 37
0.0
 40
411.0666262217681
 41
1.78095238095238
 42
50.0
 43
0.0
 44
0.0
 50
0.0
 51
0.0
 71
     0
 72
   100
 73
     1
 74
     1
 75
     0
 76
     0
 77
     0
 78
     0
281
     0
 65
     1
110
0.0
120
0.0
130
0.0
111
1.0
121
0.0
131
0.0
112
0.0
122
1.0
132
0.0
 79
     0
146
0.0
  0
ENDTAB
  0
TABLE
  2
LTYPE
  5
4
330
0
100
AcDbSymbolTable
 70
     2
  0
LTYPE
  5
11
330
4
100
AcDbSymbolTableRecord
100
AcDbLinetypeTableRecord
  2
BYBLOCK
 70
     0
  3

 72
    65
 73
     0
 40
0.0
  0
LTYPE
  5
12
330
4
100
AcDbSymbolTableRecord
100
AcDbLinetypeTableRecord
  2
BYLAYER
 70
     0
  3

 72
    65
 73
     0
 40
0.0
  0
LTYPE
  5
13
330
4
100
AcDbSymbolTableRecord
100
AcDbLinetypeTableRecord
  2
CONTINUOUS
 70
     0
  3
Solid line
 72
    65
 73
     0
 40
0.0
  0
LTYPE
  5
1D
330
4
100
AcDbSymbolTableRecord
100
AcDbLinetypeTableRecord
  2
DASHED
 70
     0
  3
__ __ __ __ __ __ __ __ __ __ __ __ __ __ __ __
 72
    65
 73
     2
 40
15.0
 49
12.0
 74
     0
 49
-3.0
 74
     0
  0
ENDTAB
  0
TABLE
  2
LAYER
  5
2
330
0
100
AcDbSymbolTable
 70
     1
  0
LAYER
  5
14
330
2
100
AcDbSymbolTableRecord
100
AcDbLayerTableRecord
  2
0
 70
     0
 62
     7
  6
CONTINUOUS
370
    -3
390
453E
  0
ENDTAB
  0
TABLE
  2
STYLE
  5
3
330
0
100
AcDbSymbolTable
 70
     1
  0
STYLE
  5
17
330
3
100
AcDbSymbolTableRecord
100
AcDbTextStyleTableRecord
  2
STANDARD
 70
     0
 40
0.0
 41
1.0
 50
0.0
 71
     0
 42
0.0
  3
txt
  4

  0
ENDTAB
  0
TABLE
  2
VIEW
  5
5
330
0
100
AcDbSymbolTable
 70
     0
  0
ENDTAB
  0
TABLE
  2
UCS
  5
6
330
0
100
AcDbSymbolTable
 70
     0
  0
ENDTAB
  0
TABLE
  2
APPID
  5
8
330
0
100
AcDbSymbolTable
 70
     1
  0
APPID
  5
16
330
8
100
AcDbSymbolTableRecord
100
AcDbRegAppTableRecord
  2
ACAD
 70
     0
  0
ENDTAB
  0
TABLE
  2
DIMSTYLE
  5
9
330
0
100
AcDbSymbolTable
 70
     1
100
AcDbDimStyleTable
 71
     1
340
18
  0
DIMSTYLE
105
18
330
9
100
AcDbSymbolTableRecord
100
AcDbDimStyleTableRecord
  2
STANDARD
 70
     0
340
17
  0
ENDTAB
  0
TABLE
  2
BLOCK_RECORD
  5
1
330
0
100
AcDbSymbolTable
 70
     0
  0
BLOCK_RECORD
  5
A
330
1
100
AcDbSymbolTableRecord
100
AcDbBlockTableRecord
  2
*MODEL_SPACE
340
4541
  0
BLOCK_RECORD
  5
B
330
1
100
AcDbSymbolTableRecord
100
AcDbBlockTableRecord
  2
*PAPER_SPACE
340
4542
  0
ENDTAB
  0
ENDSEC
  0
SECTION
  2
BLOCKS
  0
BLOCK
  5
D
330
A
100
AcDbEntity
  8
0
100
AcDbBlockBegin
  2
*MODEL_SPACE
 70
     0
 10
0.0
 20
0.0
 30
0.0
  3
*MODEL_SPACE
  1

  0
ENDBLK
  5
E
330
A
100
AcDbEntity
  8
0
100
AcDbBlockEnd
  0
BLOCK
  5
F
330
B
100
AcDbEntity
 67
     1
  8
0
100
AcDbBlockBegin
  2
*PAPER_SPACE
 70
     0
 10
0.0
 20
0.0
 30
0.0
  3
*PAPER_SPACE
  1

  0
ENDBLK
  5
10
330
B
100
AcDbEntity
 67
     1
  8
0
100
AcDbBlockEnd
  0
ENDSEC
  0
SECTION
  2
ENTITIES
  0
LINE
  5
3E43
330
A
100
AcDbEntity
  8
0
 62
     7
 48
0.025
100
AcDbLine
 10
54.900497
 20
409.5636449999998
 30
0.0
 11
54.900497
 21
411.5636450000002
 31
0.0
  0
LINE
  5
3E44
330
A
100
AcDbEntity
  8
0
 62
     7
 48
0.074711
100
AcDbLine
 10
60.87741100000003
 20
409.5636449999998
 30
0.0
 11
54.900497
 21
409.5636449999998
 31
0.0
  0
LINE
  5
3E46
330
A
100
AcDbEntity
  8
0
 62
     7
 48
0.003751
100
AcDbLine
 10
56.90049699999995
 20
408.063645
 30
0.0
 11
56.90049699999995
 21
408.3636929999998
 31
0.0
  0
LINE
  5
3E47
330
A
100
AcDbEntity
  8
0
 62
     7
 48
0.01875
100
AcDbLine
 10
56.90049699999995
 20
125.563675
 30
0.0
 11
56.90049699999995
 21
127.0636589999996
 31
0.0
  0
LINE
  5
3E48
330
A
100
AcDbEntity
  8
0
 62
     7
 48
0.074711
100
AcDbLine
 10
60.87741100000003
 20
125.563675
 30
0.0
 11
54.900497
 21
125.563675
 31
0.0
  0
LINE
  5
3E4A
330
A
100
AcDbEntity
  8
0
 62
     7
 48
0.025
100
AcDbLine
 10
54.900497
 20
125.563675
 30
0.0
 11
54.900497
 21
123.563675
 31
0.0
  0
LINE
  5
3E4C
330
A
100
AcDbEntity
  8
0
 62
     7
100
AcDbLine
 10
342.9004969999998
 20
123.563675
 30
0.0
 11
342.9004969999998
 21
411.5636450000002
 31
0.0
  0
LINE
  5
3E50
330
A
100
AcDbEntity
  8
0
 62
     7
100
AcDbLine
 10
342.9004969999998
 20
411.5636450000002
 30
0.0
 11
54.900497
 21
411.5636450000002
 31
0.0
  0
LINE
  5
3E52
330
A
100
AcDbEntity
  8
0
 62
     7
 48
0.020065
100
AcDbLine
 10
61.081651
 20
409.9584189999998
 30
0.0
 11
61.081651
 21
411.5636450000002
 31
0.0
  0
LINE
  5
3E55
330
A
100
AcDbEntity
  8
0
 62
     7
 48
0.020065
100
AcDbLine
 10
61.081651
 20
125.1689149999997
 30
0.0
 11
61.081651
 21
123.563675
 31
0.0
  0
LINE
  5
3E57
330
A
100
AcDbEntity
  8
0
 62
     7
 48
0.000304
100
AcDbLine
 10
66.74537699999999
 20
123.5879829999998
 30
0.0
 11
66.74537699999999
 21
123.563675
 31
0.0
  0
LINE
  5
3E5A
330
A
100
AcDbEntity
  8
0
 62
     7
 48
0.002914
100
AcDbLine
 10
66.978531
 20
123.563675
 30
0.0
 11
66.74537699999999
 21
123.563675
 31
0.0
  0
LINE
  5
3E5E
330
A
100
AcDbEntity
  8
0
 62
     7
 48
0.014999
100
AcDbLine
 10
54.900497
 20
409.5636449999998
 30
0.0
 11
54.900497
 21
408.3636929999998
 31
0.0
  0
LINE
  5
3E5F
330
A
100
AcDbEntity
  8
0
 62
     7
 48
0.014999
100
AcDbLine
 10
56.70933500000003
 20
409.5636449999998
 30
0.0
 11
56.70933500000003
 21
408.3636929999998
 31
0.0
  0
LINE
  5
3E60
330
A
100
AcDbEntity
  8
0
 62
     7
 48
0.02261
100
AcDbLine
 10
54.900497
 20
408.3636929999998
 30
0.0
 11
60.60273849338962
 21
408.3636929999998
 31
0.0
  0
LINE
  5
3E61
330
A
100
AcDbEntity
  8
0
 62
     7
 48
0.014999
100
AcDbLine
 10
58.40049699999998
 20
409.5636449999998
 30
0.0
 11
58.40049699999998
 21
408.3636929999998
 31
0.0
  0
LINE
  5
3E63
330
A
100
AcDbEntity
  8
0
 62
     7
 48
0.014999
100
AcDbLine
 10
59.900497
 20
409.5636449999998
 30
0.0
 11
59.900497
 21
408.3636929999998
 31
0.0
  0
LINE
  5
3E66
330
A
100
AcDbEntity
  8
0
  6
DASHED
 62
     4
 48
0.035
100
AcDbLine
 10
54.90048300000001
 20
251.2636869999997
 30
0.0
 11
52.100495
 21
251.2636869999997
 31
0.0
  0
ARC
  5
3E67
330
A
100
AcDbEntity
  8
0
  6
DASHED
 62
     4
100
AcDbCircle
 10
52.100495
 20
249.2636869999997
 30
0.0
 40
2.0
100
AcDbArc
 50
90.00000300000001
 51
180.000005
  0
LINE
  5
3E68
330
A
100
AcDbEntity
  8
0
  6
DASHED
 62
     4
 48
0.035
100
AcDbLine
 10
54.90048300000001
 20
187.2636569999998
 30
0.0
 11
52.100495
 21
187.2636569999998
 31
0.0
  0
LINE
  5
3E69
330
A
100
AcDbEntity
  8
0
  6
DASHED
 62
     4
100
AcDbLine
 10
50.100495
 20
249.2636869999997
 30
0.0
 11
50.100495
 21
189.2636569999998
 31
0.0
  0
ARC
  5
3E6A
330
A
100
AcDbEntity
  8
0
  6
DASHED
 62
     4
100
AcDbCircle
 10
52.100495
 20
189.2636569999998
 30
0.0
 40
2.0
100
AcDbArc
 50
180.000005
 51
270.000001
  0
ARC
  5
3E6B
330
A
100
AcDbEntity
  8
0
  6
DASHED
 62
     4
100
AcDbCircle
 10
345.7004849999998
 20
249.2636869999997
 30
0.0
 40
2.0
100
AcDbArc
 50
0.0
 51
90.00000300000001
  0
LINE
  5
3E6C
330
A
100
AcDbEntity
  8
0
  6
DASHED
 62
     4
100
AcDbLine
 10
347.7004849999998
 20
249.2636869999997
 30
0.0
 11
347.7004849999998
 21
189.2636569999998
 31
0.0
  0
ARC
  5
3E6D
330
A
100
AcDbEntity
  8
0
  6
DASHED
 62
     4
100
AcDbCircle
 10
345.7004849999998
 20
189.2636569999998
 30
0.0
 40
2.0
100
AcDbArc
 50
270.000001
 51
0.00001
  0
LINE
  5
3E6E
330
A
100
AcDbEntity
  8
0
  6
DASHED
 62
     4
 48
0.035
100
AcDbLine
 10
342.9004969999998
 20
251.2636869999997
 30
0.0
 11
345.7004849999998
 21
251.2636869999997
 31
0.0
  0
LINE
  5
3E6F
330
A
100
AcDbEntity
  8
0
  6
DASHED
 62
     4
 48
0.035
100
AcDbLine
 10
342.9004969999998
 20
187.2636569999998
 30
0.0
 11
345.7004849999998
 21
187.2636569999998
 31
0.0
  0
LINE
  5
3E70
330
A
100
AcDbEntity
  8
0
 62
     7
100
AcDbLine
 10
80.90049699999999
 20
390.563645
 30
0.0
 11
80.90049699999999
 21
144.5636749999998
 31
0.0
  0
LINE
  5
3E71
330
A
100
AcDbEntity
  8
0
 62
     7
100
AcDbLine
 10
316.9004969999998
 20
144.5636749999998
 30
0.0
 11
316.9004969999998
 21
390.563645
 31
0.0
  0
LINE
  5
3E72
330
A
100
AcDbEntity
  8
0
 62
     7
 48
0.100688
100
AcDbLine
 10
73.69589299999998
 20
394.1660009999998
 30
0.0
 11
80.90049699999999
 21
390.563645
 31
0.0
  0
LINE
  5
3E73
330
A
100
AcDbEntity
  8
0
 62
     7
 48
0.100687
100
AcDbLine
 10
73.69589299999998
 20
140.9613789999999
 30
0.0
 11
80.90049699999999
 21
144.5636749999998
 31
0.0
  0
LINE
  5
3E74
330
A
100
AcDbEntity
  8
0
 62
     7
100
AcDbLine
 10
73.69589299999998
 20
394.1660009999998
 30
0.0
 11
73.69589299999998
 21
140.9613789999999
 31
0.0
  0
LINE
  5
3E75
330
A
100
AcDbEntity
  8
0
 62
     7
 48
0.099815
100
AcDbLine
 10
324.0426789999998
 20
140.992599
 30
0.0
 11
316.9004969999998
 21
144.5636749999998
 31
0.0
  0
LINE
  5
3E76
330
A
100
AcDbEntity
  8
0
 62
     7
 48
0.099815
100
AcDbLine
 10
324.0426789999998
 20
394.1347509999998
 30
0.0
 11
316.9004969999998
 21
390.563645
 31
0.0
  0
LINE
  5
3E77
330
A
100
AcDbEntity
  8
0
 62
     7
100
AcDbLine
 10
324.0426789999998
 20
140.992599
 30
0.0
 11
324.0426789999998
 21
394.1347509999998
 31
0.0
  0
ARC
  5
3E78
330
A
100
AcDbEntity
  8
0
 62
     7
100
AcDbCircle
 10
82.900497
 20
144.5636749999998
 30
0.0
 40
2.0
100
AcDbArc
 50
179.9999949999999
 51
269.9999969999999
  0
LINE
  5
3E79
330
A
100
AcDbEntity
  8
0
 62
     7
 48
0.098664
100
AcDbLine
 10
75.840699
 20
139.0337989999999
 30
0.0
 11
82.900497
 21
142.5636749999998
 31
0.0
  0
LWPOLYLINE
  5
3E7A
330
A
100
AcDbEntity
  8
0
 62
     7
100
AcDbPolyline
 90
        9
 70
     0
 43
0.0
 10
73.69589299999998
 20
140.9613789999999
 10
73.71086099999995
 20
140.5138389999999
 10
73.82959099999998
 20
140.0839989999997
 10
74.045197
 20
139.6961509999997
 10
74.34703100000001
 20
139.3748629999997
 10
74.72195500000002
 20
139.1420749999998
 10
75.15034499999998
 20
139.0167689999999
 10
75.49234099999998
 20
138.9969029999998
 10
75.840699
 20
139.0337989999999
  0
LINE
  5
3E85
330
A
100
AcDbEntity
  8
0
 62
     7
 48
0.006149
100
AcDbLine
 10
73.69589299999998
 20
394.1660009999998
 30
0.0
 11
73.203935
 21
394.1660009999998
 31
0.0
  0
LINE
  5
3E86
330
A
100
AcDbEntity
  8
0
 62
     7
100
AcDbLine
 10
73.203935
 20
394.1660009999998
 30
0.0
 11
73.203935
 21
140.9613789999999
 31
0.0
  0
LINE
  5
3E87
330
A
100
AcDbEntity
  8
0
 62
     7
 48
0.006149
100
AcDbLine
 10
73.69589299999998
 20
140.9613789999999
 30
0.0
 11
73.203935
 21
140.9613789999999
 31
0.0
  0
ARC
  5
3E88
330
A
100
AcDbEntity
  8
0
 62
     7
100
AcDbCircle
 10
314.900497
 20
390.563645
 30
0.0
 40
2.0
100
AcDbArc
 50
0.0
 51
90.00000300000001
  0
LINE
  5
3E89
330
A
100
AcDbEntity
  8
0
 62
     7
 48
0.097808
100
AcDbLine
 10
321.8990629999996
 20
396.0629729999998
 30
0.0
 11
314.900497
 21
392.563645
 31
0.0
  0
LWPOLYLINE
  5
3E8A
330
A
100
AcDbEntity
  8
0
 62
     7
100
AcDbPolyline
 90
        9
 70
     0
 43
0.0
 10
324.0426789999998
 20
394.1347509999998
 10
324.0277569999999
 20
394.5822609999998
 10
323.9091349999998
 20
395.0120689999998
 10
323.6937109999999
 20
395.3999489999998
 10
323.3921049999999
 20
395.7213589999998
 10
323.0173809999998
 20
395.954269
 10
322.589189
 20
396.079757
 10
322.247331
 20
396.0997769999998
 10
321.8990629999999
 20
396.0629729999998
  0
LINE
  5
3E95
330
A
100
AcDbEntity
  8
0
 62
     7
 48
0.006153
100
AcDbLine
 10
324.0426789999998
 20
140.992599
 30
0.0
 11
324.5348969999998
 21
140.992599
 31
0.0
  0
LINE
  5
3E96
330
A
100
AcDbEntity
  8
0
 62
     7
100
AcDbLine
 10
324.5348969999998
 20
140.992599
 30
0.0
 11
324.5348969999998
 21
394.1347509999998
 31
0.0
  0
LINE
  5
3E97
330
A
100
AcDbEntity
  8
0
 62
     7
 48
0.006153
100
AcDbLine
 10
324.0426789999998
 20
394.1347509999998
 30
0.0
 11
324.5348969999998
 21
394.1347509999998
 31
0.0
  0
ARC
  5
3E98
330
A
100
AcDbEntity
  8
0
 62
     7
100
AcDbCircle
 10
198.5219889999999
 20
2935.344038999998
 30
0.0
 40
2799.0
100
AcDbArc
 50
267.487895
 51
272.526362
  0
LINE
  5
3E99
330
A
100
AcDbEntity
  8
0
 62
     7
100
AcDbLine
 10
314.900497
 20
142.5636749999998
 30
0.0
 11
82.900497
 21
142.5636749999998
 31
0.0
  0
LINE
  5
3E9A
330
A
100
AcDbEntity
  8
0
 62
     7
 48
0.097808
100
AcDbLine
 10
321.8990629999996
 20
139.064377
 30
0.0
 11
314.900497
 21
142.5636749999998
 31
0.0
  0
LWPOLYLINE
  5
3E9B
330
A
100
AcDbEntity
  8
0
 62
     7
100
AcDbPolyline
 90
        9
 70
     0
 43
0.0
 10
73.203935
 20
140.9613789999999
 10
73.25715699999998
 20
140.423935
 10
73.415177
 20
139.9106289999999
 10
73.67318700000001
 20
139.441147
 10
74.024507
 20
139.033921
 10
74.45784099999997
 20
138.7080529999996
 10
74.95794699999997
 20
138.4784389999998
 10
75.36943099999998
 20
138.373337
 10
75.796875
 20
138.3266749999999
  0
ARC
  5
3EA6
330
A
100
AcDbEntity
  8
0
 62
     7
100
AcDbCircle
 10
93.142823
 20
137.6163489999997
 30
0.0
 40
17.360306
100
AcDbArc
 50
175.3166399999999
 51
177.65501
  0
ARC
  5
3EA7
330
A
100
AcDbEntity
  8
0
 62
     7
100
AcDbCircle
 10
93.142899
 20
397.5110329999998
 30
0.0
 40
17.360382
100
AcDbArc
 50
182.3450719999999
 51
184.683442
  0
LWPOLYLINE
  5
3EA8
330
A
100
AcDbEntity
  8
0
 62
     7
100
AcDbPolyline
 90
        9
 70
     0
 43
0.0
 10
75.79686099999998
 20
396.800705
 10
75.224717
 20
396.7244109999998
 10
74.68905699999997
 20
396.541427
 10
74.21298300000002
 20
396.2533409999998
 10
73.823701
 20
395.882369
 10
73.522065
 20
395.4396809999998
 10
73.31727699999998
 20
394.9444429999998
 10
73.23242299999998
 20
394.560287
 10
73.203935
 20
394.1660009999998
  0
LWPOLYLINE
  5
3EB3
330
A
100
AcDbEntity
  8
0
 62
     7
100
AcDbPolyline
 90
        8
 70
     0
 43
0.0
 10
75.840699
 20
396.0935509999998
 10
75.31066899999998
 20
396.1276709999998
 10
74.80806100000002
 20
396.020919
 10
74.42033499999998
 20
395.8095549999999
 10
74.101639
 20
395.5046849999998
 10
73.867265
 20
395.129441
 10
73.71859699999998
 20
394.6601409999998
 10
73.69589299999998
 20
394.1660009999998
  0
LINE
  5
3EBF
330
A
100
AcDbEntity
  8
0
 62
     7
 48
0.001058
100
AcDbLine
 10
60.59024100000001
 20
408.1483009999995
 30
0.0
 11
60.59024100000001
 21
408.063645
 31
0.0
  0
LINE
  5
3EC3
330
A
100
AcDbEntity
  8
0
 62
     7
 48
0.001058
100
AcDbLine
 10
60.59024100000001
 20
126.9790649999998
 30
0.0
 11
60.59024100000001
 21
127.0636749999999
 31
0.0
  0
ARC
  5
3EC5
330
A
100
AcDbEntity
  8
0
 62
     7
100
AcDbCircle
 10
198.5219889999999
 20
-2401.508742999999
 30
0.0
 40
2800.999512
100
AcDbArc
 50
87.474547
 51
92.51120300000001
  0
LWPOLYLINE
  5
3EC6
330
A
100
AcDbEntity
  8
0
 62
     7
100
AcDbPolyline
 90
        9
 70
     0
 43
0.0
 10
324.5348969999998
 20
394.1347509999998
 10
324.4817049999998
 20
394.672165
 10
324.3238069999998
 20
395.1854089999998
 10
324.065965
 20
395.6549530000001
 10
323.714889
 20
396.0622409999998
 10
323.2817849999999
 20
396.388229
 10
322.781877
 20
396.6180269999998
 10
322.3704989999998
 20
396.7233129999998
 10
321.9431309999998
 20
396.7700649999999
  0
LWPOLYLINE
  5
3ED1
330
A
100
AcDbEntity
  8
0
 62
     7
100
AcDbPolyline
 90
        9
 70
     0
 43
0.0
 10
321.9431609999998
 20
138.357285
 10
322.5151829999998
 20
138.4337009999994
 10
323.0506749999999
 20
138.6168669999999
 10
323.5265049999998
 20
138.905137
 10
323.915573
 20
139.276229
 10
324.2169949999998
 20
139.7189489999997
 10
324.4216469999999
 20
140.2141569999996
 10
324.5064249999998
 20
140.5983129999997
 10
324.5348969999998
 20
140.992599
  0
ARC
  5
3EDC
330
A
100
AcDbEntity
  8
0
 62
     7
100
AcDbCircle
 10
198.5219889999999
 20
2936.636276999998
 30
0.0
 40
2800.999512
100
AcDbArc
 50
267.488797
 51
272.5254529999999
  0
ARC
  5
3EDD
330
A
100
AcDbEntity
  8
0
 62
     7
100
AcDbCircle
 10
198.5219889999999
 20
-2400.216507
 30
0.0
 40
2799.0
100
AcDbArc
 50
87.473638
 51
92.512105
  0
LINE
  5
3EDE
330
A
100
AcDbEntity
  8
0
 62
     7
100
AcDbLine
 10
82.900497
 20
392.563645
 30
0.0
 11
314.900497
 21
392.563645
 31
0.0
  0
LINE
  5
3EDF
330
A
100
AcDbEntity
  8
0
 62
     7
 48
0.098664
100
AcDbLine
 10
75.840699
 20
396.0935509999998
 30
0.0
 11
82.900497
 21
392.563645
 31
0.0
  0
ARC
  5
3EE0
330
A
100
AcDbEntity
  8
0
 62
     7
100
AcDbCircle
 10
304.6945349999997
 20
397.4803929999996
 30
0.0
 40
17.263042
100
AcDbArc
 50
355.29014
 51
357.641741
  0
ARC
  5
3EE1
330
A
100
AcDbEntity
  8
0
 62
     7
100
AcDbCircle
 10
304.694473
 20
137.6468969999999
 30
0.0
 40
17.26311799999999
100
AcDbArc
 50
2.358343
 51
4.709933
  0
LWPOLYLINE
  5
3EE2
330
A
100
AcDbEntity
  8
0
 62
     7
100
AcDbPolyline
 90
        8
 70
     0
 43
0.0
 10
321.8990629999999
 20
139.064377
 10
322.4289409999999
 20
139.030471
 10
322.9313509999998
 20
139.137435
 10
323.3188329999998
 20
139.3489529999998
 10
323.6372829999996
 20
139.6538549999995
 10
323.8714749999998
 20
140.029189
 10
324.0200349999998
 20
140.4984589999995
 10
324.0426789999998
 20
140.992599
  0
LINE
  5
3EF7
330
A
100
AcDbEntity
  8
0
 62
     7
 48
0.05251
100
AcDbLine
 10
66.978531
 20
411.5636450000002
 30
0.0
 11
62.80038500000001
 21
411.1280370000002
 31
0.0
  0
LWPOLYLINE
  5
3EF8
330
A
100
AcDbEntity
  8
0
 62
     7
100
AcDbPolyline
 90
       10
 70
     0
 43
0.0
 10
62.80038500000001
 20
411.1280370000002
 10
62.27568100000001
 20
410.9998009999998
 10
61.76889099999999
 20
410.7186129999998
 10
61.34483300000002
 20
410.3217009999998
 10
61.151245
 20
410.066635
 10
60.97575500000001
 20
409.771163
 10
60.817917
 20
409.4176489999998
 10
60.694917
 20
409.0206149999998
 10
60.593155
 20
408.2953949999998
 10
60.59024100000001
 20
408.1483009999995
  0
LINE
  5
3F04
330
A
100
AcDbEntity
  8
0
 62
     7
 48
0.041558
100
AcDbLine
 10
60.59024100000001
 20
127.0636749999999
 30
0.0
 11
54.900497
 21
127.0636749999999
 31
0.0
  0
LINE
  5
3F05
330
A
100
AcDbEntity
  8
0
 62
     7
 48
0.004921
100
AcDbLine
 10
342.9004969999998
 20
127.0636749999999
 30
0.0
 11
342.5067909999996
 21
127.0636749999999
 31
0.0
  0
LWPOLYLINE
  5
3F08
330
A
100
AcDbEntity
  8
0
 62
     7
100
AcDbPolyline
 90
       10
 70
     0
 43
0.0
 10
62.80038500000001
 20
123.9993129999999
 10
62.27568100000001
 20
124.1275629999998
 10
61.76889099999999
 20
124.408737
 10
61.34483300000002
 20
124.805633
 10
61.151245
 20
125.0607449999999
 10
60.97575500000001
 20
125.356171
 10
60.817917
 20
125.7097169999999
 10
60.694917
 20
126.1067649999999
 10
60.593155
 20
126.831985
 10
60.59024100000001
 20
126.9790649999998
  0
LINE
  5
3F14
330
A
100
AcDbEntity
  8
0
 62
     7
100
AcDbLine
 10
342.6380169999998
 20
312.3694309999998
 30
0.0
 11
342.6380169999998
 21
222.7579189999998
 31
0.0
  0
ELLIPSE
  5
3F15
330
A
100
AcDbEntity
  8
0
 62
     7
100
AcDbEllipse
 10
342.8130029999998
 20
312.3694309999998
 30
0.0
 11
0.0
 21
2.0
 31
0.0
210
0.0
220
0.0
230
1.0
 40
0.087489
 41
0.1651486754417419
 42
1.570796370506284
  0
LINE
  5
3F16
330
A
100
AcDbEntity
  8
0
 62
     7
 48
0.003126
100
AcDbLine
 10
342.9004969999998
 20
314.5636749999998
 30
0.0
 11
342.7842569999997
 21
314.3422089999996
 31
0.0
  0
LINE
  5
3F18
330
A
100
AcDbEntity
  8
0
 62
     7
 48
0.004921
100
AcDbLine
 10
342.9004969999998
 20
408.063645
 30
0.0
 11
342.5067909999996
 21
408.063645
 31
0.0
  0
LINE
  5
3F19
330
A
100
AcDbEntity
  8
0
 62
     7
 48
0.006393
100
AcDbLine
 10
342.5067909999996
 20
408.5751189999998
 30
0.0
 11
342.5067909999996
 21
408.063645
 31
0.0
  0
LINE
  5
3F1C
330
A
100
AcDbEntity
  8
0
 62
     7
 48
0.006393
100
AcDbLine
 10
342.5067909999996
 20
126.5522609999996
 30
0.0
 11
342.5067909999996
 21
127.0636749999999
 31
0.0
  0
LINE
  5
3F1D
330
A
100
AcDbEntity
  8
0
 62
     7
100
AcDbLine
 10
342.9004969999998
 20
127.0636749999999
 30
0.0
 11
342.9004969999998
 21
220.5636749999998
 31
0.0
  0
LINE
  5
3F1E
330
A
100
AcDbEntity
  8
0
 62
     7
 48
0.003126
100
AcDbLine
 10
342.9004969999998
 20
220.5636749999998
 30
0.0
 11
342.7842569999997
 21
220.7851409999999
 31
0.0
  0
ELLIPSE
  5
3F1F
330
A
100
AcDbEntity
  8
0
 62
     7
100
AcDbEllipse
 10
342.8130029999998
 20
222.7579189999998
 30
0.0
 11
0.0
 21
2.0
 31
0.0
210
0.0
220
0.0
230
1.0
 40
0.087489
 41
1.570796370506284
 42
2.976444005966186
  0
LINE
  5
3F2E
330
A
100
AcDbEntity
  8
0
 62
     7
 48
0.05251
100
AcDbLine
 10
66.978531
 20
123.563675
 30
0.0
 11
62.80038500000001
 21
123.9993129999999
 31
0.0
  0
LINE
  5
3F2F
330
A
100
AcDbEntity
  8
0
 62
     7
100
AcDbLine
 10
342.9004969999998
 20
123.563675
 30
0.0
 11
54.900497
 21
123.563675
 31
0.0
  0
ARC
  5
3F30
330
A
100
AcDbEntity
  8
0
 62
     7
100
AcDbCircle
 10
339.5233309999998
 20
126.547149
 30
0.0
 40
2.983109999999998
100
AcDbArc
 50
269.901882
 51
0.0981260000000001
  0
ARC
  5
3F33
330
A
100
AcDbEntity
  8
0
 62
     7
100
AcDbCircle
 10
339.5233309999998
 20
408.580185
 30
0.0
 40
2.983115999999998
100
AcDbArc
 50
359.901971
 51
90.098029
  0
LINE
  5
3F3D
330
A
100
AcDbEntity
  8
0
 62
     7
 48
0.041558
100
AcDbLine
 10
60.59024100000001
 20
408.063645
 30
0.0
 11
54.900497
 21
408.063645
 31
0.0
  0
ARC
  5
3F3E
330
A
100
AcDbEntity
  8
0
 62
     7
100
AcDbCircle
 10
314.900497
 20
144.5636749999998
 30
0.0
 40
2.0
100
AcDbArc
 50
269.9999969999999
 51
0.0
  0
ARC
  5
3F3F
330
A
100
AcDbEntity
  8
0
 62
     7
100
AcDbCircle
 10
82.900497
 20
390.563645
 30
0.0
 40
2.0
100
AcDbArc
 50
90.00000300000001
 51
180.000005
  0
LINE
  5
3F40
330
A
100
AcDbEntity
  8
0
 62
     7
100
AcDbLine
 10
54.900497
 20
127.0636749999999
 30
0.0
 11
54.900497
 21
408.063645
 31
0.0
  0
ARC
  5
4462
330
A
100
AcDbEntity
  8
0
 62
     7
100
AcDbCircle
 10
453.761551
 20
410.563645
 30
0.0
 40
1.0
100
AcDbArc
 50
0.0
 51
90.00000300000001
  0
LINE
  5
4465
330
A
100
AcDbEntity
  8
0
 62
     7
 48
0.125
100
AcDbLine
 10
452.761551
 20
409.5636449999998
 30
0.0
 11
441.2613689999998
 21
409.5636449999998
 31
0.0
  0
LINE
  5
446A
330
A
100
AcDbEntity
  8
0
 62
     7
 48
0.125
100
AcDbLine
 10
452.761551
 20
125.563675
 30
0.0
 11
441.2615509999998
 21
125.563675
 31
0.0
  0
ARC
  5
446B
330
A
100
AcDbEntity
  8
0
 62
     7
100
AcDbCircle
 10
453.761551
 20
124.5636749999996
 30
0.0
 40
1.0
100
AcDbArc
 50
270.000001
 51
0.00001
  0
LINE
  5
446C
330
A
100
AcDbEntity
  8
0
 62
     7
 48
0.1375
100
AcDbLine
 10
453.761551
 20
123.563675
 30
0.0
 11
433.761551
 21
123.563675
 31
0.0
  0
LINE
  5
446E
330
A
100
AcDbEntity
  8
0
 62
     7
100
AcDbLine
 10
452.761551
 20
125.563675
 30
0.0
 11
452.761551
 21
409.5636449999998
 31
0.0
  0
LINE
  5
4470
330
A
100
AcDbEntity
  8
0
 62
     7
 48
0.1375
100
AcDbLine
 10
453.761551
 20
411.5636450000002
 30
0.0
 11
433.761551
 21
411.5636450000002
 31
0.0
  0
LINE
  5
4471
330
A
100
AcDbEntity
  8
0
 62
     7
100
AcDbLine
 10
454.7615509999998
 20
124.5636749999996
 30
0.0
 11
454.7615509999998
 21
410.563645
 31
0.0
  0
LINE
  5
4477
330
A
100
AcDbEntity
  8
0
 62
     7
 48
0.006837
100
AcDbLine
 10
435.0117949999998
 20
411.016709
 30
0.0
 11
435.0117949999998
 21
411.5636450000002
 31
0.0
  0
LINE
  5
4478
330
A
100
AcDbEntity
  8
0
 62
     7
 48
0.025
100
AcDbLine
 10
441.761551
 20
409.5636449999998
 30
0.0
 11
441.761551
 21
411.5636450000002
 31
0.0
  0
LINE
  5
447C
330
A
100
AcDbEntity
  8
0
 62
     7
 48
0.025
100
AcDbLine
 10
441.761551
 20
125.563675
 30
0.0
 11
441.761551
 21
123.563675
 31
0.0
  0
LINE
  5
447E
330
A
100
AcDbEntity
  8
0
 62
     7
 48
0.008202
100
AcDbLine
 10
433.761551
 20
410.9075169999998
 30
0.0
 11
433.761551
 21
411.5636450000002
 31
0.0
  0
LINE
  5
447F
330
A
100
AcDbEntity
  8
0
 62
     7
 48
0.008202
100
AcDbLine
 10
433.761551
 20
123.563675
 30
0.0
 11
433.761551
 21
124.2198029999997
 31
0.0
  0
LINE
  5
4480
330
A
100
AcDbEntity
  8
0
 62
     7
100
AcDbLine
 10
674.7615510000001
 20
405.8636929999998
 30
0.0
 11
674.7615510000001
 21
164.1155249999999
 31
0.0
  0
LINE
  5
4481
330
A
100
AcDbEntity
  8
0
 62
     7
 48
0.00625
100
AcDbLine
 10
674.7615510000001
 20
406.3636929999998
 30
0.0
 11
674.7615510000001
 21
405.8636929999998
 31
0.0
  0
ARC
  5
4482
330
A
100
AcDbEntity
  8
0
 62
     7
100
AcDbCircle
 10
664.7615509999996
 20
164.1155249999999
 30
0.0
 40
10.0
100
AcDbArc
 50
303.6900709999998
 51
0.00001
  0
LINE
  5
4483
330
A
100
AcDbEntity
  8
0
 62
     7
100
AcDbLine
 10
670.3085489999997
 20
155.7950289999998
 30
0.0
 11
632.2807769999998
 21
130.4431769999997
 31
0.0
  0
ARC
  5
4484
330
A
100
AcDbEntity
  8
0
 62
     7
100
AcDbCircle
 10
626.7337809999998
 20
138.7636569999995
 30
0.0
 40
10.0
100
AcDbArc
 50
270.000001
 51
303.6900709999998
  0
LINE
  5
4485
330
A
100
AcDbEntity
  8
0
 62
     7
100
AcDbLine
 10
454.7615509999998
 20
128.7636709999997
 30
0.0
 11
626.7337809999998
 21
128.7636709999997
 31
0.0
  0
LINE
  5
448A
330
A
100
AcDbEntity
  8
0
 62
     7
100
AcDbLine
 10
454.7615509999998
 20
406.3636929999998
 30
0.0
 11
674.7615510000001
 21
406.3636929999998
 31
0.0
  0
LINE
  5
4492
330
A
100
AcDbEntity
  8
0
 62
     7
 48
0.002805
100
AcDbLine
 10
626.9615629999996
 20
128.7636709999997
 30
0.0
 11
626.737199
 21
128.7636709999997
 31
0.0
  0
LINE
  5
4499
330
A
100
AcDbEntity
  8
0
 62
     7
 48
0.014999
100
AcDbLine
 10
442.0115509999998
 20
409.5636449999998
 30
0.0
 11
442.0115509999998
 21
408.3636929999998
 31
0.0
  0
LINE
  5
449B
330
A
100
AcDbEntity
  8
0
 62
     7
 48
0.134375
100
AcDbLine
 10
441.2613689999998
 20
408.3636929999998
 30
0.0
 11
452.761551
 21
408.3636929999998
 31
0.0
  0
LINE
  5
44DA
330
A
100
AcDbEntity
  8
0
 62
     7
 48
0.00039
100
AcDbLine
 10
433.0849149999998
 20
140.9613789999999
 30
0.0
 11
433.0536969999998
 21
140.9613789999999
 31
0.0
  0
LINE
  5
44DB
330
A
100
AcDbEntity
  8
0
 62
     7
 48
0.000013
100
AcDbLine
 10
433.0848849999998
 20
140.992599
 30
0.0
 11
433.0858929999997
 21
140.992599
 31
0.0
  0
LINE
  5
44DC
330
A
100
AcDbEntity
  8
0
 62
     7
100
AcDbLine
 10
433.0858929999997
 20
140.992599
 30
0.0
 11
433.0858929999997
 21
394.1347509999998
 31
0.0
  0
LINE
  5
44DD
330
A
100
AcDbEntity
  8
0
 62
     7
 48
0.000013
100
AcDbLine
 10
433.0848849999998
 20
394.1347509999998
 30
0.0
 11
433.0858929999997
 21
394.1347509999998
 31
0.0
  0
LINE
  5
44DE
330
A
100
AcDbEntity
  8
0
 62
     7
 48
0.044026
100
AcDbLine
 10
430.5417629999998
 20
136.3439169999995
 30
0.0
 11
433.0322729999998
 21
138.8343969999999
 31
0.0
  0
LINE
  5
44E2
330
A
100
AcDbEntity
  8
0
 62
     7
 48
0.048101
100
AcDbLine
 10
430.2488869999996
 20
399.4905849999998
 30
0.0
 11
432.9703529999998
 21
396.7700649999999
 31
0.0
  0
LWPOLYLINE
  5
44E3
330
A
100
AcDbEntity
  8
0
 62
     7
100
AcDbPolyline
 90
        6
 70
     0
 43
0.0
 10
433.0858929999997
 20
394.1347509999998
 10
433.0587310000001
 20
395.8329929999998
 10
433.0233929999998
 20
396.4670249999998
 10
432.9893049999998
 20
396.7230069999998
 10
432.9767609999998
 20
396.7606049999998
 10
432.970353
 20
396.7700649999999
  0
LWPOLYLINE
  5
44EB
330
A
100
AcDbEntity
  8
0
 62
     7
100
AcDbPolyline
 90
        6
 70
     0
 43
0.0
 10
432.970353
 20
138.357285
 10
432.9779209999998
 20
138.369187
 10
432.992691
 20
138.4191129999996
 10
433.0315709999998
 20
138.764083
 10
433.062241
 20
139.3935689999999
 10
433.0858929999997
 20
140.992599
  0
LINE
  5
44F3
330
A
100
AcDbEntity
  8
0
 62
     7
 48
0.048101
100
AcDbLine
 10
430.2488869999996
 20
135.6367949999996
 30
0.0
 11
432.9703529999998
 21
138.357285
 31
0.0
  0
LINE
  5
44F4
330
A
100
AcDbEntity
  8
0
 62
     7
 48
0.044026
100
AcDbLine
 10
433.0323029999998
 20
396.2929529999998
 30
0.0
 11
430.5417629999998
 21
398.7834309999998
 31
0.0
  0
LINE
  5
44FA
330
A
100
AcDbEntity
  8
0
 62
     7
 48
0.06875
100
AcDbLine
 10
451.2615509999998
 20
127.0636749999999
 30
0.0
 11
445.761551
 21
127.0636749999999
 31
0.0
  0
LINE
  5
44FB
330
A
100
AcDbEntity
  8
0
 62
     7
 48
0.05625
100
AcDbLine
 10
445.761551
 20
127.0636749999999
 30
0.0
 11
441.261551
 21
127.0636749999999
 31
0.0
  0
LINE
  5
44FC
330
A
100
AcDbEntity
  8
0
 62
     7
 48
0.044084
100
AcDbLine
 10
432.9874109999998
 20
124.2875669999998
 30
0.0
 11
436.5007169999998
 21
123.9801949999999
 31
0.0
  0
LINE
  5
44FE
330
A
100
AcDbEntity
  8
0
 62
     7
100
AcDbLine
 10
442.7615509999998
 20
312.3694309999998
 30
0.0
 11
442.7615509999998
 21
222.7579189999998
 31
0.0
  0
ARC
  5
44FF
330
A
100
AcDbEntity
  8
0
 62
     7
100
AcDbCircle
 10
444.761551
 20
312.3694309999998
 30
0.0
 40
2.0
100
AcDbArc
 50
99.46232100000001
 51
180.000005
  0
LINE
  5
4500
330
A
100
AcDbEntity
  8
0
 62
     7
 48
0.016839
100
AcDbLine
 10
445.761551
 20
314.5636749999998
 30
0.0
 11
444.4327549999998
 21
314.3422089999996
 31
0.0
  0
LINE
  5
4501
330
A
100
AcDbEntity
  8
0
 62
     7
100
AcDbLine
 10
445.761551
 20
314.5636749999998
 30
0.0
 11
445.761551
 21
408.063645
 31
0.0
  0
LINE
  5
4507
330
A
100
AcDbEntity
  8
0
 62
     7
100
AcDbLine
 10
445.761551
 20
127.0636749999999
 30
0.0
 11
445.761551
 21
220.5636749999998
 31
0.0
  0
LINE
  5
4508
330
A
100
AcDbEntity
  8
0
 62
     7
 48
0.016839
100
AcDbLine
 10
445.761551
 20
220.5636749999998
 30
0.0
 11
444.4327549999998
 21
220.7851409999999
 31
0.0
  0
ARC
  5
4509
330
A
100
AcDbEntity
  8
0
 62
     7
100
AcDbCircle
 10
444.761551
 20
222.7579189999998
 30
0.0
 40
2.0
100
AcDbArc
 50
180.000005
 51
260.5376759999999
  0
LINE
  5
450A
330
A
100
AcDbEntity
  8
0
 62
     7
 48
0.005719
100
AcDbLine
 10
436.5007169999998
 20
123.9801949999999
 30
0.0
 11
436.9564969999998
 21
123.9403229999999
 31
0.0
  0
LINE
  5
450C
330
A
100
AcDbEntity
  8
0
 62
     7
 48
0.054019
100
AcDbLine
 10
441.261551
 20
123.563675
 30
0.0
 11
436.9564969999998
 21
123.9403229999999
 31
0.0
  0
LINE
  5
450D
330
A
100
AcDbEntity
  8
0
 62
     7
 48
0.076035
100
AcDbLine
 10
445.761551
 20
220.5636749999998
 30
0.0
 11
451.7615509999997
 21
219.5636749999998
 31
0.0
  0
LINE
  5
450E
330
A
100
AcDbEntity
  8
0
 62
     7
 48
0.037357
100
AcDbLine
 10
441.261551
 20
123.563675
 30
0.0
 11
441.261551
 21
127.0636749999999
 31
0.0
  0
LINE
  5
450F
330
A
100
AcDbEntity
  8
0
 62
     7
 48
0.008839
100
AcDbLine
 10
451.7615509999997
 20
407.5636450000001
 30
0.0
 11
451.2615509999998
 21
408.063645
 31
0.0
  0
LINE
  5
4510
330
A
100
AcDbEntity
  8
0
 62
     7
 48
0.06875
100
AcDbLine
 10
451.2615509999998
 20
408.063645
 30
0.0
 11
441.261551
 21
408.063645
 31
0.0
  0
LINE
  5
4511
330
A
100
AcDbEntity
  8
0
 62
     7
 48
0.076035
100
AcDbLine
 10
451.7615509999997
 20
315.5636749999998
 30
0.0
 11
445.761551
 21
314.5636749999998
 31
0.0
  0
LINE
  5
4512
330
A
100
AcDbEntity
  8
0
 62
     7
100
AcDbLine
 10
451.7615509999997
 20
315.5636749999998
 30
0.0
 11
451.7615509999997
 21
407.5636450000001
 31
0.0
  0
LINE
  5
4513
330
A
100
AcDbEntity
  8
0
 62
     7
100
AcDbLine
 10
451.7615509999997
 20
219.5636749999998
 30
0.0
 11
451.7615509999997
 21
315.5636749999998
 31
0.0
  0
LINE
  5
4514
330
A
100
AcDbEntity
  8
0
 62
     7
100
AcDbLine
 10
451.7615509999997
 20
127.563675
 30
0.0
 11
451.7615509999997
 21
219.5636749999998
 31
0.0
  0
LINE
  5
4517
330
A
100
AcDbEntity
  8
0
 62
     7
 48
0.037357
100
AcDbLine
 10
441.261551
 20
408.063645
 30
0.0
 11
441.261551
 21
411.5636450000002
 31
0.0
  0
LINE
  5
4518
330
A
100
AcDbEntity
  8
0
 62
     7
 48
0.008839
100
AcDbLine
 10
451.7615509999997
 20
127.563675
 30
0.0
 11
451.2615509999998
 21
127.0636749999999
 31
0.0
  0
LINE
  5
4519
330
A
100
AcDbEntity
  8
0
 62
     7
 48
0.044084
100
AcDbLine
 10
432.9874109999998
 20
410.839767
 30
0.0
 11
441.261551
 21
411.5636450000002
 31
0.0
  0
LINE
  5
4528
330
A
100
AcDbEntity
  8
0
 62
     7
 48
0.104508
100
AcDbLine
 10
430.2488869999996
 20
127.2761529999995
 30
0.0
 11
430.2488869999996
 21
135.6367949999996
 31
0.0
  0
LINE
  5
4529
330
A
100
AcDbEntity
  8
0
 62
     7
 48
0.104507
100
AcDbLine
 10
430.2488869999996
 20
399.4905849999998
 30
0.0
 11
430.2488869999996
 21
407.8511809999998
 31
0.0
  0
ARC
  5
4534
330
A
100
AcDbEntity
  8
0
 62
     7
100
AcDbCircle
 10
431.248887
 20
135.6367949999996
 30
0.0
 40
1.0
100
AcDbArc
 50
135.0
 51
180.000005
  0
ARC
  5
4535
330
A
100
AcDbEntity
  8
0
 62
     7
100
AcDbCircle
 10
431.248887
 20
399.4905849999998
 30
0.0
 40
1.0
100
AcDbArc
 50
179.9999949999999
 51
225.0
  0
ARC
  5
4536
330
A
100
AcDbEntity
  8
0
 62
     7
100
AcDbCircle
 10
433.2488869999998
 20
127.2761529999995
 30
0.0
 40
3.0
100
AcDbArc
 50
180.000005
 51
264.999974
  0
ARC
  5
4537
330
A
100
AcDbEntity
  8
0
 62
     7
100
AcDbCircle
 10
433.2488869999998
 20
407.8511809999998
 30
0.0
 40
3.0
100
AcDbArc
 50
95.00000099999999
 51
180.000005
  0
LINE
  5
459D
330
A
100
AcDbEntity
  8
0
  6
DASHED
 62
     4
 48
0.294316
100
AcDbLine
 10
493.5004429999998
 20
221.9129963673243
 30
0.0
 11
501.3086709999998
 21
244.1258883673246
 31
0.0
  0
LINE
  5
459E
330
A
100
AcDbEntity
  8
0
  6
DASHED
 62
     4
100
AcDbLine
 10
509.7615509999998
 20
251.2636743673246
 30
0.0
 11
456.7615509999998
 21
251.2636743673246
 31
0.0
  0
LINE
  5
459F
330
A
100
AcDbEntity
  8
0
  6
DASHED
 62
     4
100
AcDbLine
 10
456.7615509999998
 20
187.2636443673244
 30
0.0
 11
509.7615509999998
 21
187.2636443673244
 31
0.0
  0
LINE
  5
45A0
330
A
100
AcDbEntity
  8
0
  6
DASHED
 62
     4
 48
0.01375
100
AcDbLine
 10
497.2612469999998
 20
218.1649503673245
 30
0.0
 11
496.1612709999998
 21
218.1644003673246
 31
0.0
  0
LINE
  5
45A1
330
A
100
AcDbEntity
  8
0
  6
DASHED
 62
     4
 48
0.01375
100
AcDbLine
 10
496.1618809999998
 20
216.9643883673245
 30
0.0
 11
497.2618569999998
 21
216.9649683673245
 31
0.0
  0
LINE
  5
45A2
330
A
100
AcDbEntity
  8
0
  6
DASHED
 62
     4
 48
0.062787
100
AcDbLine
 10
492.2523349999998
 20
213.2123743673246
 30
0.0
 11
497.2752849999998
 21
213.2149683673246
 31
0.0
  0
LINE
  5
45A3
330
A
100
AcDbEntity
  8
0
  6
DASHED
 62
     4
 48
0.048353
100
AcDbLine
 10
492.8291789999995
 20
214.2126803673245
 30
0.0
 11
496.6974029999998
 21
214.2146623673244
 31
0.0
  0
LINE
  5
45A4
330
A
100
AcDbEntity
  8
0
  6
DASHED
 62
     4
 48
0.062787
100
AcDbLine
 10
497.2707669999998
 20
221.9149503673244
 30
0.0
 11
492.2478189999998
 21
221.9123563673245
 31
0.0
  0
LINE
  5
45A5
330
A
100
AcDbEntity
  8
0
  6
DASHED
 62
     4
 48
0.048353
100
AcDbLine
 10
496.6939249999998
 20
220.9146443673243
 30
0.0
 11
492.8256989999998
 21
220.9126603673245
 31
0.0
  0
LINE
  5
45A6
330
A
100
AcDbEntity
  8
0
  6
DASHED
 62
     4
100
AcDbLine
 10
456.7615509999998
 20
251.2636743673246
 30
0.0
 11
456.7615509999998
 21
187.2636443673244
 31
0.0
  0
LINE
  5
45A7
330
A
100
AcDbEntity
  8
0
  6
DASHED
 62
     4
100
AcDbLine
 10
458.7615509999998
 20
187.2636443673244
 30
0.0
 11
458.7615509999998
 21
251.2636743673246
 31
0.0
  0
LINE
  5
45A8
330
A
100
AcDbEntity
  8
0
  6
DASHED
 62
     4
 48
0.01375
100
AcDbLine
 10
495.3602449999998
 20
220.0639683673246
 30
0.0
 11
495.3608549999998
 21
218.9639603673246
 31
0.0
  0
LINE
  5
45A9
330
A
100
AcDbEntity
  8
0
  6
DASHED
 62
     4
 48
0.01375
100
AcDbLine
 10
494.1608429999998
 20
218.9633503673245
 30
0.0
 11
494.1602329999998
 21
220.0633563673246
 31
0.0
  0
LINE
  5
45AA
330
A
100
AcDbEntity
  8
0
  6
DASHED
 62
     4
 48
0.062787
100
AcDbLine
 10
492.2478189999998
 20
221.9123563673245
 30
0.0
 11
489.7386029999998
 21
217.5610683673244
 31
0.0
  0
LINE
  5
45AB
330
A
100
AcDbEntity
  8
0
  6
DASHED
 62
     4
 48
0.048353
100
AcDbLine
 10
492.8256989999998
 20
220.9126603673245
 30
0.0
 11
490.8933269999998
 21
217.5616483673246
 31
0.0
  0
LINE
  5
45AE
330
A
100
AcDbEntity
  8
0
  6
DASHED
 62
     4
 48
0.025
100
AcDbLine
 10
456.7615509999998
 20
189.2636443673244
 30
0.0
 11
458.7615509999998
 21
189.2636443673244
 31
0.0
  0
LINE
  5
45B0
330
A
100
AcDbEntity
  8
0
  6
DASHED
 62
     4
 48
0.277524
100
AcDbLine
 10
495.9545449999998
 20
213.2142663673246
 30
0.0
 11
488.5918129999998
 21
192.2687703673246
 31
0.0
  0
LINE
  5
45B1
330
A
100
AcDbEntity
  8
0
  6
DASHED
 62
     4
 48
0.245944
100
AcDbLine
 10
484.6016389999999
 20
196.5978423673244
 30
0.0
 11
491.1265409999996
 21
215.1599143673246
 31
0.0
  0
ARC
  5
45B2
330
A
100
AcDbEntity
  8
0
  6
DASHED
 62
     4
100
AcDbCircle
 10
481.2423249999998
 20
196.7636443673244
 30
0.0
 40
0.5
100
AcDbArc
 50
184.4117200000004
 51
270.0000009999981
  0
ARC
  5
45B3
330
A
100
AcDbEntity
  8
0
  6
DASHED
 62
     4
100
AcDbCircle
 10
474.7615509999998
 20
196.2636443673244
 30
0.0
 40
6.0
100
AcDbArc
 50
4.411726000000916
 51
270.0000009999981
  0
LINE
  5
45B4
330
A
100
AcDbEntity
  8
0
  6
DASHED
 62
     4
 48
0.1375
100
AcDbLine
 10
485.7615509999998
 20
190.2636443673244
 30
0.0
 11
474.7615509999998
 21
190.2636443673244
 31
0.0
  0
ARC
  5
45B5
330
A
100
AcDbEntity
  8
0
  6
DASHED
 62
     4
100
AcDbCircle
 10
485.7615509999998
 20
193.2636443673244
 30
0.0
 40
3.0
100
AcDbArc
 50
270.0000009999981
 51
340.6324079999996
  0
ARC
  5
45B6
330
A
100
AcDbEntity
  8
0
  6
DASHED
 62
     4
100
AcDbCircle
 10
484.1298989999998
 20
196.7636443673244
 30
0.0
 40
0.5
100
AcDbArc
 50
270.0000009999981
 51
340.6324079999996
  0
LINE
  5
45B7
330
A
100
AcDbEntity
  8
0
  6
DASHED
 62
     4
 48
0.036095
100
AcDbLine
 10
481.2423249999998
 20
196.2636443673244
 30
0.0
 11
484.1298989999998
 21
196.2636443673244
 31
0.0
  0
ARC
  5
45B8
330
A
100
AcDbEntity
  8
0
  6
DASHED
 62
     4
100
AcDbCircle
 10
496.1608429999998
 20
218.9643883673245
 30
0.0
 40
0.8
100
AcDbArc
 50
180.0297710000006
 51
270.0297799999995
  0
ARC
  5
45B9
330
A
100
AcDbEntity
  8
0
  6
DASHED
 62
     4
100
AcDbCircle
 10
493.3608549999998
 20
218.9629243673246
 30
0.0
 40
0.8
100
AcDbArc
 50
270.0297799999995
 51
0.0297619999998039
  0
LINE
  5
45BA
330
A
100
AcDbEntity
  8
0
  6
DASHED
 62
     4
 48
0.01375
100
AcDbLine
 10
493.3612209999998
 20
218.1629363673244
 30
0.0
 11
492.2612469999998
 21
218.1623863673245
 31
0.0
  0
LINE
  5
45BB
330
A
100
AcDbEntity
  8
0
  6
DASHED
 62
     4
 48
0.015
100
AcDbLine
 10
492.2618569999998
 20
216.9623743673246
 30
0.0
 11
492.2612469999998
 21
218.1623863673245
 31
0.0
  0
LINE
  5
45BC
330
A
100
AcDbEntity
  8
0
  6
DASHED
 62
     4
 48
0.01375
100
AcDbLine
 10
492.2618569999998
 20
216.9623743673246
 30
0.0
 11
493.3618929999998
 21
216.9629243673246
 31
0.0
  0
ARC
  5
45BD
330
A
100
AcDbEntity
  8
0
  6
DASHED
 62
     4
100
AcDbCircle
 10
493.3622589999997
 20
216.1629363673244
 30
0.0
 40
0.8
100
AcDbArc
 50
0.0297700000007114
 51
90.02976800000089
  0
LINE
  5
45BE
330
A
100
AcDbEntity
  8
0
  6
DASHED
 62
     4
 48
0.01375
100
AcDbLine
 10
494.1628569999998
 20
215.0633563673245
 30
0.0
 11
494.1623089999997
 21
216.1633623673246
 31
0.0
  0
LINE
  5
45BF
330
A
100
AcDbEntity
  8
0
  6
DASHED
 62
     4
 48
0.015
100
AcDbLine
 10
494.1628569999998
 20
215.0633563673245
 30
0.0
 11
495.3628689999998
 21
215.0639983673244
 31
0.0
  0
LINE
  5
45C0
330
A
100
AcDbEntity
  8
0
  6
DASHED
 62
     4
 48
0.01375
100
AcDbLine
 10
495.3622589999998
 20
216.1639743673246
 30
0.0
 11
495.3628689999998
 21
215.0639983673244
 31
0.0
  0
ARC
  5
45C1
330
A
100
AcDbEntity
  8
0
  6
DASHED
 62
     4
100
AcDbCircle
 10
496.1623089999998
 20
216.1644003673246
 30
0.0
 40
0.8
100
AcDbArc
 50
90.02976800000089
 51
180.0297710000006
  0
LINE
  5
45C2
330
A
100
AcDbEntity
  8
0
  6
DASHED
 62
     4
 48
0.062787
100
AcDbLine
 10
489.7386029999998
 20
217.5610683673244
 30
0.0
 11
492.2523349999998
 21
213.2123743673246
 31
0.0
  0
LINE
  5
45C3
330
A
100
AcDbEntity
  8
0
  6
DASHED
 62
     4
 48
0.048353
100
AcDbLine
 10
490.8933269999998
 20
217.5616483673246
 30
0.0
 11
492.8291789999995
 21
214.2126803673245
 31
0.0
  0
LINE
  5
45C4
330
A
100
AcDbEntity
  8
0
  6
DASHED
 62
     4
 48
0.014434
100
AcDbLine
 10
492.2523349999998
 20
213.2123743673246
 30
0.0
 11
492.8291789999995
 21
214.2126803673245
 31
0.0
  0
LINE
  5
45C5
330
A
100
AcDbEntity
  8
0
  6
DASHED
 62
     4
 48
0.014434
100
AcDbLine
 10
489.7386029999998
 20
217.5610683673244
 30
0.0
 11
490.8933269999998
 21
217.5616483673246
 31
0.0
  0
LINE
  5
45CC
330
A
100
AcDbEntity
  8
0
  6
DASHED
 62
     4
 48
0.025
100
AcDbLine
 10
456.7615509999998
 20
249.2636743673246
 30
0.0
 11
458.7615509999998
 21
249.2636743673246
 31
0.0
  0
LINE
  5
45CE
330
A
100
AcDbEntity
  8
0
  6
DASHED
 62
     4
 48
0.015
100
AcDbLine
 10
495.3602449999998
 20
220.0639683673246
 30
0.0
 11
494.1602329999998
 21
220.0633563673246
 31
0.0
  0
LINE
  5
45CF
330
A
100
AcDbEntity
  8
0
  6
DASHED
 62
     4
 48
0.014434
100
AcDbLine
 10
492.2478189999998
 20
221.9123563673245
 30
0.0
 11
492.8256989999998
 21
220.9126603673245
 31
0.0
  0
LINE
  5
45D3
330
A
100
AcDbEntity
  8
0
  6
DASHED
 62
     4
100
AcDbLine
 10
511.7615509999998
 20
189.2636443673244
 30
0.0
 11
511.7615509999998
 21
249.2636743673246
 31
0.0
  0
LINE
  5
45D4
330
A
100
AcDbEntity
  8
0
  6
DASHED
 62
     4
 48
0.062787
100
AcDbLine
 10
499.7845009999998
 20
217.5662563673244
 30
0.0
 11
497.2707669999998
 21
221.9149503673244
 31
0.0
  0
LINE
  5
45D5
330
A
100
AcDbEntity
  8
0
  6
DASHED
 62
     4
 48
0.048353
100
AcDbLine
 10
498.6297769999998
 20
217.5656763673245
 30
0.0
 11
496.6939249999998
 21
220.9146443673243
 31
0.0
  0
ARC
  5
45D6
330
A
100
AcDbEntity
  8
0
  6
DASHED
 62
     4
100
AcDbCircle
 10
509.7615509999998
 20
189.2636443673244
 30
0.0
 40
2.0
100
AcDbArc
 50
270.0000009999981
 51
0.000009999999378
  0
LINE
  5
45D7
330
A
100
AcDbEntity
  8
0
  6
DASHED
 62
     4
 48
0.015
100
AcDbLine
 10
497.2612469999998
 20
218.1649503673245
 30
0.0
 11
497.2618569999998
 21
216.9649683673245
 31
0.0
  0
LINE
  5
45D8
330
A
100
AcDbEntity
  8
0
  6
DASHED
 62
     4
 48
0.062787
100
AcDbLine
 10
497.2752849999998
 20
213.2149683673246
 30
0.0
 11
499.7845009999998
 21
217.5662563673244
 31
0.0
  0
LINE
  5
45D9
330
A
100
AcDbEntity
  8
0
  6
DASHED
 62
     4
 48
0.014434
100
AcDbLine
 10
497.2752849999998
 20
213.2149683673246
 30
0.0
 11
496.6974029999998
 21
214.2146623673244
 31
0.0
  0
LINE
  5
45DA
330
A
100
AcDbEntity
  8
0
  6
DASHED
 62
     4
 48
0.048353
100
AcDbLine
 10
496.6974029999998
 20
214.2146623673244
 30
0.0
 11
498.6297769999998
 21
217.5656763673245
 31
0.0
  0
LINE
  5
45DB
330
A
100
AcDbEntity
  8
0
  6
DASHED
 62
     4
 48
0.014434
100
AcDbLine
 10
499.7845009999998
 20
217.5662563673244
 30
0.0
 11
498.6297769999998
 21
217.5656763673245
 31
0.0
  0
ARC
  5
45DC
330
A
100
AcDbEntity
  8
0
  6
DASHED
 62
     4
100
AcDbCircle
 10
503.7615509999998
 20
243.2636743673246
 30
0.0
 40
2.6
100
AcDbArc
 50
340.6324079999996
 51
160.632370999999
  0
LINE
  5
45DD
330
A
100
AcDbEntity
  8
0
  6
DASHED
 62
     4
 48
0.296275
100
AcDbLine
 10
506.2144329999997
 20
242.4014303673244
 30
0.0
 11
498.3542029999997
 21
220.0406823673246
 31
0.0
  0
LINE
  5
45DE
330
A
100
AcDbEntity
  8
0
  6
DASHED
 62
     4
 48
0.014434
100
AcDbLine
 10
497.2707669999998
 20
221.9149503673244
 30
0.0
 11
496.6939249999998
 21
220.9146443673243
 31
0.0
  0
ARC
  5
45DF
330
A
100
AcDbEntity
  8
0
  6
DASHED
 62
     4
100
AcDbCircle
 10
509.7615509999998
 20
249.2636743673246
 30
0.0
 40
2.0
100
AcDbArc
 50
0.0
 51
90.00000299999769
  0
VIEWPORT
  5
4538
330
B
100
AcDbEntity
 67
     1
  8
0
 62
     0
100
AcDbViewport
 10
0.0
 20
0.0
 30
0.0
 40
1000.0
 41
1000.0
 68
     1
 69
     1
 12
0.0
 22
0.0
 13
0.0
 23
0.0
 14
1.0
 24
1.0
 15
1.0
 25
1.0
 16
0.0
 26
0.0
 36
1.0
 17
0.0
 27
0.0
 37
0.0
 42
50.0
 43
0.0
 44
0.0
 45
1000.0
 50
0.0
 51
0.0
 72
   100
 90
    32800
  1

281
     0
 71
     1
 74
     0
110
0.0
120
0.0
130
0.0
111
1.0
121
0.0
131
0.0
112
0.0
122
1.0
132
0.0
 79
     0
146
0.0
  0
ENDSEC
  0
SECTION
  2
OBJECTS
  0
DICTIONARY
  5
19
330
0
100
AcDbDictionary
281
     1
  3
ACAD_GROUP
350
1A
  3
ACAD_LAYOUT
350
453F
  3
ACAD_MLINESTYLE
350
1B
  3
ACAD_PLOTSETTINGS
350
4540
  3
ACAD_PLOTSTYLENAME
350
453D
  0
DICTIONARY
  5
1A
102
{ACAD_REACTORS
330
19
102
}
330
19
100
AcDbDictionary
281
     1
  0
DICTIONARY
  5
453F
102
{ACAD_REACTORS
330
19
102
}
330
19
100
AcDbDictionary
281
     1
  3
Model
350
4541
  3
ﾚｲｱｳﾄ1
350
4542
  0
DICTIONARY
  5
1B
102
{ACAD_REACTORS
330
19
102
}
330
19
100
AcDbDictionary
281
     1
  3
STANDARD
350
1C
  0
DICTIONARY
  5
4540
102
{ACAD_REACTORS
330
19
102
}
330
19
100
AcDbDictionary
281
     1
  0
ACDBDICTIONARYWDFLT
  5
453D
102
{ACAD_REACTORS
330
19
102
}
330
19
100
AcDbDictionary
281
     1
  3
Normal
350
453E
100
AcDbDictionaryWithDefault
340
453E
  0
LAYOUT
  5
4541
102
{ACAD_REACTORS
330
453F
102
}
330
453F
100
AcDbPlotSettings
  1

  2
Canon iR-ADV C5030/5035 LIPSLX
  4

  6

 40
0.0
 41
0.0
 42
0.0
 43
0.0
 44
0.0
 45
0.0
 46
0.0
 47
0.0
 48
0.0
 49
0.0
140
0.0
141
0.0
142
1.0
143
1.0
 70
  1712
 72
     0
 73
     0
 74
     0
  7

 75
     0
147
1.0
148
0.0
149
0.0
100
AcDbLayout
  1
Model
 70
     1
 71
     0
 10
0.0
 20
0.0
 11
12.0
 21
9.0
 12
0.0
 22
0.0
 32
0.0
 14
0.0
 24
0.0
 34
0.0
 15
0.0
 25
0.0
 35
0.0
146
0.0
 13
0.0
 23
0.0
 33
0.0
 16
1.0
 26
0.0
 36
0.0
 17
0.0
 27
1.0
 37
0.0
 76
     0
330
A
  0
LAYOUT
  5
4542
102
{ACAD_REACTORS
330
453F
102
}
330
453F
100
AcDbPlotSettings
  1

  2
Canon iR-ADV C5030/5035 LIPSLX
  4

  6

 40
0.0
 41
0.0
 42
0.0
 43
0.0
 44
0.0
 45
0.0
 46
0.0
 47
0.0
 48
0.0
 49
0.0
140
0.0
141
0.0
142
1.0
143
1.0
 70
   688
 72
     0
 73
     0
 74
     5
  7

 75
    16
147
1.0
148
0.0
149
0.0
100
AcDbLayout
  1
ﾚｲｱｳﾄ1
 70
     1
 71
     1
 10
0.0
 20
0.0
 11
420.0
 21
297.0
 12
0.0
 22
0.0
 32
0.0
 14
0.0
 24
0.0
 34
0.0
 15
401.4999999999998
 25
275.0
 35
2.0
146
0.0
 13
0.0
 23
0.0
 33
0.0
 16
1.0
 26
0.0
 36
0.0
 17
0.0
 27
1.0
 37
0.0
 76
     0
330
B
331
4538
  0
MLINESTYLE
  5
1C
102
{ACAD_REACTORS
330
1B
102
}
330
1B
100
AcDbMlineStyle
  2
STANDARD
 70
     0
  3

 62
     0
 51
90.0
 52
90.0
 71
     2
 49
0.5
 62
   256
  6
BYLAYER
 49
-0.5
 62
   256
  6
BYLAYER
  0
ACDBPLACEHOLDER
  5
453E
102
{ACAD_REACTORS
330
453D
102
}
330
453D
  0
ENDSEC
  0
EOF
