  0
SECTION
  2
HEADER
  9
$ACADVER
  1
AC1015
  9
$ACADMAINTVER
 70
    10
  9
$DWGCODEPAGE
  3
ANSI_932
  9
$INSBASE
 10
0.0
 20
0.0
 30
0.0
  9
$EXTMIN
 10
77.00623488025843
 20
126.7111896731879
 30
0.0
  9
$EXTMAX
 10
554.6271216422011
 20
271.1734751065987
 30
0.0
  9
$LIMMIN
 10
0.0
 20
0.0
  9
$LIMMAX
 10
420.0
 20
297.0
  9
$ORTHOMODE
 70
     0
  9
$REGENMODE
 70
     1
  9
$FILLMODE
 70
     1
  9
$QTEXTMODE
 70
     0
  9
$MIRRTEXT
 70
     1
  9
$LTSCALE
 40
1.0
  9
$ATTMODE
 70
     1
  9
$TEXTSIZE
 40
0.0
  9
$TRACEWID
 40
1.0
  9
$TEXTSTYLE
  7
STANDARD
  9
$CLAYER
  8
0
  9
$CELTYPE
  6
BYLAYER
  9
$CECOLOR
 62
   256
  9
$CELTSCALE
 40
1.0
  9
$DISPSILH
 70
     0
  9
$DIMSCALE
 40
1.0
  9
$DIMASZ
 40
2.5
  9
$DIMEXO
 40
0.625
  9
$DIMDLI
 40
3.75
  9
$DIMRND
 40
0.0
  9
$DIMDLE
 40
0.0
  9
$DIMEXE
 40
1.25
  9
$DIMTP
 40
0.0
  9
$DIMTM
 40
0.0
  9
$DIMTXT
 40
2.5
  9
$DIMCEN
 40
2.5
  9
$DIMTSZ
 40
0.0
  9
$DIMTOL
 70
     0
  9
$DIMLIM
 70
     0
  9
$DIMTIH
 70
     0
  9
$DIMTOH
 70
     0
  9
$DIMSE1
 70
     0
  9
$DIMSE2
 70
     0
  9
$DIMTAD
 70
     1
  9
$DIMZIN
 70
     8
  9
$DIMBLK
  1

  9
$DIMASO
 70
     1
  9
$DIMSHO
 70
     1
  9
$DIMPOST
  1

  9
$DIMAPOST
  1

  9
$DIMALT
 70
     0
  9
$DIMALTD
 70
     3
  9
$DIMALTF
 40
0.03937
  9
$DIMLFAC
 40
1.0
  9
$DIMTOFL
 70
     1
  9
$DIMTVP
 40
0.0
  9
$DIMTIX
 70
     0
  9
$DIMSOXD
 70
     0
  9
$DIMSAH
 70
     0
  9
$DIMBLK1
  1

  9
$DIMBLK2
  1

  9
$DIMSTYLE
  2
STANDARD
  9
$DIMCLRD
 70
     0
  9
$DIMCLRE
 70
     0
  9
$DIMCLRT
 70
     0
  9
$DIMTFAC
 40
1.0
  9
$DIMGAP
 40
0.625
  9
$DIMJUST
 70
     0
  9
$DIMSD1
 70
     0
  9
$DIMSD2
 70
     0
  9
$DIMTOLJ
 70
     0
  9
$DIMTZIN
 70
     8
  9
$DIMALTZ
 70
     0
  9
$DIMALTTZ
 70
     0
  9
$DIMUPT
 70
     0
  9
$DIMDEC
 70
     2
  9
$DIMTDEC
 70
     2
  9
$DIMALTU
 70
     2
  9
$DIMALTTD
 70
     3
  9
$DIMTXSTY
  7
STANDARD
  9
$DIMAUNIT
 70
     0
  9
$DIMADEC
 70
     0
  9
$DIMALTRND
 40
0.0
  9
$DIMAZIN
 70
     0
  9
$DIMDSEP
 70
    46
  9
$DIMATFIT
 70
     3
  9
$DIMFRAC
 70
     0
  9
$DIMLDRBLK
  1

  9
$DIMLUNIT
 70
     2
  9
$DIMLWD
 70
    -2
  9
$DIMLWE
 70
    -2
  9
$DIMTMOVE
 70
     0
  9
$LUNITS
 70
     2
  9
$LUPREC
 70
     4
  9
$SKETCHINC
 40
1.0
  9
$FILLETRAD
 40
2.5
  9
$AUNITS
 70
     0
  9
$AUPREC
 70
     0
  9
$MENU
  1
.
  9
$ELEVATION
 40
0.0
  9
$PELEVATION
 40
0.0
  9
$THICKNESS
 40
0.0
  9
$LIMCHECK
 70
     0
  9
$CHAMFERA
 40
2.5
  9
$CHAMFERB
 40
2.5
  9
$CHAMFERC
 40
0.0
  9
$CHAMFERD
 40
0.0
  9
$SKPOLY
 70
     0
  9
$TDCREATE
 40
2312275.082376111
  9
$TDUCREATE
 40
2312274.707376111
  9
$TDUPDATE
 40
2456493.756132639
  9
$TDUUPDATE
 40
2456493.381132639
  9
$TDINDWG
 40
0.0082287616
  9
$TDUSRTIMER
 40
0.0082280324
  9
$USRTIMER
 70
     1
  9
$ANGBASE
 50
0.0
  9
$ANGDIR
 70
     0
  9
$PDMODE
 70
     0
  9
$PDSIZE
 40
0.0
  9
$PLINEWID
 40
0.0
  9
$SPLFRAME
 70
     0
  9
$SPLINETYPE
 70
     6
  9
$SPLINESEGS
 70
     8
  9
$HANDSEED
  5
358B
  9
$SURFTAB1
 70
     6
  9
$SURFTAB2
 70
     6
  9
$SURFTYPE
 70
     6
  9
$SURFU
 70
     6
  9
$SURFV
 70
     6
  9
$UCSBASE
  2

  9
$UCSNAME
  2

  9
$UCSORG
 10
0.0
 20
0.0
 30
0.0
  9
$UCSXDIR
 10
1.0
 20
0.0
 30
0.0
  9
$UCSYDIR
 10
0.0
 20
1.0
 30
0.0
  9
$UCSORTHOREF
  2

  9
$UCSORTHOVIEW
 70
     0
  9
$UCSORGTOP
 10
0.0
 20
0.0
 30
0.0
  9
$UCSORGBOTTOM
 10
0.0
 20
0.0
 30
0.0
  9
$UCSORGLEFT
 10
0.0
 20
0.0
 30
0.0
  9
$UCSORGRIGHT
 10
0.0
 20
0.0
 30
0.0
  9
$UCSORGFRONT
 10
0.0
 20
0.0
 30
0.0
  9
$UCSORGBACK
 10
0.0
 20
0.0
 30
0.0
  9
$PUCSBASE
  2

  9
$PUCSNAME
  2

  9
$PUCSORG
 10
0.0
 20
0.0
 30
0.0
  9
$PUCSXDIR
 10
1.0
 20
0.0
 30
0.0
  9
$PUCSYDIR
 10
0.0
 20
1.0
 30
0.0
  9
$PUCSORTHOREF
  2

  9
$PUCSORTHOVIEW
 70
     0
  9
$PUCSORGTOP
 10
0.0
 20
0.0
 30
0.0
  9
$PUCSORGBOTTOM
 10
0.0
 20
0.0
 30
0.0
  9
$PUCSORGLEFT
 10
0.0
 20
0.0
 30
0.0
  9
$PUCSORGRIGHT
 10
0.0
 20
0.0
 30
0.0
  9
$PUCSORGFRONT
 10
0.0
 20
0.0
 30
0.0
  9
$PUCSORGBACK
 10
0.0
 20
0.0
 30
0.0
  9
$USERI1
 70
     0
  9
$USERI2
 70
     0
  9
$USERI3
 70
     0
  9
$USERI4
 70
     0
  9
$USERI5
 70
     0
  9
$USERR1
 40
0.0
  9
$USERR2
 40
0.0
  9
$USERR3
 40
0.0
  9
$USERR4
 40
0.0
  9
$USERR5
 40
0.0
  9
$WORLDVIEW
 70
     1
  9
$SHADEDGE
 70
     3
  9
$SHADEDIF
 70
    70
  9
$TILEMODE
 70
     1
  9
$MAXACTVP
 70
    48
  9
$PINSBASE
 10
0.0
 20
0.0
 30
0.0
  9
$PLIMCHECK
 70
     0
  9
$PEXTMIN
 10
0.0
 20
0.0
 30
0.0
  9
$PEXTMAX
 10
401.4999999999998
 20
275.0
 30
2.0
  9
$PLIMMIN
 10
0.0
 20
0.0
  9
$PLIMMAX
 10
420.0
 20
297.0
  9
$UNITMODE
 70
     0
  9
$VISRETAIN
 70
     0
  9
$PLINEGEN
 70
     0
  9
$PSLTSCALE
 70
     1
  9
$TREEDEPTH
 70
  3020
  9
$CMLSTYLE
  2
STANDARD
  9
$CMLJUST
 70
     0
  9
$CMLSCALE
 40
20.0
  9
$PROXYGRAPHICS
 70
     1
  9
$MEASUREMENT
 70
     1
  9
$CELWEIGHT
370
    -1
  9
$ENDCAPS
280
     0
  9
$JOINSTYLE
280
     0
  9
$LWDISPLAY
290
     0
  9
$INSUNITS
 70
     0
  9
$HYPERLINKBASE
  1

  9
$STYLESHEET
  1

  9
$XEDIT
290
     1
  9
$CEPSNTYPE
380
     0
  9
$PSTYLEMODE
290
     1
  9
$FINGERPRINTGUID
  2
{1FE15D6E-077B-46FC-961C-DFAB9B4586C5}
  9
$VERSIONGUID
  2
{8AD692E4-11F2-4742-9D43-11B7B6791264}
  9
$EXTNAMES
290
     1
  9
$PSVPSCALE
 40
0.0
  9
$OLESTARTUP
290
     0
  0
ENDSEC
  0
SECTION
  2
CLASSES
  0
CLASS
  1
LWPOLYLINE
  2
AcDbPolyline
  3
AutoCAD 2000
 90
    32768
280
     0
281
     1
  0
CLASS
  1
IMAGE
  2
AcDbRasterImage
  3
ISM
 90
    32895
280
     0
281
     1
  0
CLASS
  1
OLE2FRAME
  2
AcDbOle2Frame
  3
AutoCAD 2000
 90
    32768
280
     0
281
     1
  0
CLASS
  1
HATCH
  2
AcDbHatch
  3
AutoCAD 2000
 90
    32768
280
     0
281
     1
  0
CLASS
  1
DICTIONARYVAR
  2
AcDbDictionaryVar
  3
AutoCAD 2000
 90
    32768
280
     0
281
     0
  0
CLASS
  1
RASTERVARIABLES
  2
AcDbRasterVariables
  3
ISM
 90
    32768
280
     0
281
     0
  0
CLASS
  1
IMAGEDEF
  2
AcDbRasterImageDef
  3
ISM
 90
    32768
280
     0
281
     0
  0
CLASS
  1
IMAGEDEF_REACTOR
  2
AcDbRasterImageDefReactor
  3
ISM
 90
    32769
280
     0
281
     0
  0
CLASS
  1
IDBUFFER
  2
AcDbIdBuffer
  3
AutoCAD 2000
 90
    32768
280
     0
281
     0
  0
CLASS
  1
SPATIAL_FILTER
  2
AcDbSpatialFilter
  3
AutoCAD 2000
 90
    32768
280
     0
281
     0
  0
CLASS
  1
XRECORD
  2
AcDbXrecord
  3
AutoCAD 2000
 90
    32768
280
     0
281
     0
  0
CLASS
  1
SORTENTSTABLE
  2
AcDbSortentsTable
  3
AutoCAD 2000
 90
    32768
280
     0
281
     0
  0
CLASS
  1
LAYER_INDEX
  2
AcDbLayerIndex
  3
AutoCAD 2000
 90
    32768
280
     0
281
     0
  0
CLASS
  1
SPATIAL_INDEX
  2
AcDbSpatialIndex
  3
AutoCAD 2000
 90
    32768
280
     0
281
     0
  0
CLASS
  1
OBJECT_PTR
  2
CAseDLPNTableRecord
  3
"ASE-LPNTableRecord"
 90
    32769
280
     0
281
     0
  0
CLASS
  1
LAYOUT
  2
AcDbLayout
  3
AutoCAD 2000
 90
        0
280
     0
281
     0
  0
CLASS
  1
PLOTSETTINGS
  2
AcDbPlotSettings
  3
AutoCAD 2000
 90
    32768
280
     0
281
     0
  0
CLASS
  1
ACDBDICTIONARYWDFLT
  2
AcDbDictionaryWithDefault
  3
AutoCAD 2000
 90
        0
280
     0
281
     0
  0
CLASS
  1
ACDBPLACEHOLDER
  2
AcDbPlaceHolder
  3
AutoCAD 2000
 90
        0
280
     0
281
     0
  0
CLASS
  1
VBA_PROJECT
  2
AcDbVbaProject
  3
"acadvba"
 90
    32768
280
     0
281
     0
  0
CLASS
  1
WIPEOUT
  2
AcDbWipeout
  3
WipeOut|AutoCAD Express Tool|expresstools@autodesk.com
 90
    32895
280
     0
281
     1
  0
CLASS
  1
WIPEOUTVARIABLES
  2
AcDbWipeoutVariables
  3
WipeOut|AutoCAD Express Tool|expresstools@autodesk.com
 90
    32768
280
     0
281
     0
  0
CLASS
  1
RTEXT
  2
RText
  3
RText|AutoCAD Express Tool|expresstools@autodesk.com
 90
    32768
280
     0
281
     1
  0
CLASS
  1
ARCALIGNEDTEXT
  2
AcDbArcAlignedText
  3
ATEXT|AutoCAD Express Tool|expresstools@autodesk.com
 90
    32768
280
     0
281
     1
  0
ENDSEC
  0
SECTION
  2
TABLES
  0
TABLE
  2
VPORT
  5
7
330
0
100
AcDbSymbolTable
 70
     2
  0
VPORT
  5
358A
330
7
100
AcDbSymbolTableRecord
100
AcDbViewportTableRecord
  2
*Active
 70
     0
 10
0.0
 20
0.0
 11
1.0
 21
1.0
 12
319.8312479498852
 22
196.7390503156268
 13
0.0
 23
0.0
 14
1.0
 24
1.0
 15
0.0
 25
0.0
 16
0.0
 26
0.0
 36
1.0
 17
0.0
 27
0.0
 37
0.0
 40
278.707612989458
 41
1.794625719769673
 42
50.0
 43
0.0
 44
0.0
 50
0.0
 51
0.0
 71
     0
 72
   100
 73
     1
 74
     1
 75
     0
 76
     0
 77
     0
 78
     0
281
     0
 65
     1
110
0.0
120
0.0
130
0.0
111
1.0
121
0.0
131
0.0
112
0.0
122
1.0
132
0.0
 79
     0
146
0.0
  0
ENDTAB
  0
TABLE
  2
LTYPE
  5
4
330
0
100
AcDbSymbolTable
 70
     8
  0
LTYPE
  5
11
330
4
100
AcDbSymbolTableRecord
100
AcDbLinetypeTableRecord
  2
BYBLOCK
 70
     0
  3

 72
    65
 73
     0
 40
0.0
  0
LTYPE
  5
12
330
4
100
AcDbSymbolTableRecord
100
AcDbLinetypeTableRecord
  2
BYLAYER
 70
     0
  3

 72
    65
 73
     0
 40
0.0
  0
LTYPE
  5
13
330
4
100
AcDbSymbolTableRecord
100
AcDbLinetypeTableRecord
  2
CONTINUOUS
 70
     0
  3
Solid line
 72
    65
 73
     0
 40
0.0
  0
ENDTAB
  0
TABLE
  2
LAYER
  5
2
330
0
100
AcDbSymbolTable
 70
     1
  0
LAYER
  5
14
330
2
100
AcDbSymbolTableRecord
100
AcDbLayerTableRecord
  2
0
 70
     0
 62
     7
  6
CONTINUOUS
370
    -3
390
345E
  0
ENDTAB
  0
TABLE
  2
STYLE
  5
3
330
0
100
AcDbSymbolTable
 70
     1
  0
STYLE
  5
17
330
3
100
AcDbSymbolTableRecord
100
AcDbTextStyleTableRecord
  2
STANDARD
 70
     0
 40
0.0
 41
1.0
 50
0.0
 71
     0
 42
0.0
  3
txt
  4

  0
ENDTAB
  0
TABLE
  2
VIEW
  5
5
330
0
100
AcDbSymbolTable
 70
     0
  0
ENDTAB
  0
TABLE
  2
UCS
  5
6
330
0
100
AcDbSymbolTable
 70
     0
  0
ENDTAB
  0
TABLE
  2
APPID
  5
8
330
0
100
AcDbSymbolTable
 70
     1
  0
APPID
  5
16
330
8
100
AcDbSymbolTableRecord
100
AcDbRegAppTableRecord
  2
ACAD
 70
     0
  0
ENDTAB
  0
TABLE
  2
DIMSTYLE
  5
9
330
0
100
AcDbSymbolTable
 70
     1
100
AcDbDimStyleTable
 71
     0
  0
DIMSTYLE
105
18
330
9
100
AcDbSymbolTableRecord
100
AcDbDimStyleTableRecord
  2
STANDARD
 70
     0
340
17
  0
ENDTAB
  0
TABLE
  2
BLOCK_RECORD
  5
1
330
0
100
AcDbSymbolTable
 70
     0
  0
BLOCK_RECORD
  5
A
330
1
100
AcDbSymbolTableRecord
100
AcDbBlockTableRecord
  2
*MODEL_SPACE
340
3461
  0
BLOCK_RECORD
  5
B
330
1
100
AcDbSymbolTableRecord
100
AcDbBlockTableRecord
  2
*PAPER_SPACE
340
3462
  0
ENDTAB
  0
ENDSEC
  0
SECTION
  2
BLOCKS
  0
BLOCK
  5
D
330
A
100
AcDbEntity
  8
0
100
AcDbBlockBegin
  2
*MODEL_SPACE
 70
     0
 10
0.0
 20
0.0
 30
0.0
  3
*MODEL_SPACE
  1

  0
ENDBLK
  5
E
330
A
100
AcDbEntity
  8
0
100
AcDbBlockEnd
  0
BLOCK
  5
F
330
B
100
AcDbEntity
 67
     1
  8
0
100
AcDbBlockBegin
  2
*PAPER_SPACE
 70
     0
 10
0.0
 20
0.0
 30
0.0
  3
*PAPER_SPACE
  1

  0
ENDBLK
  5
10
330
B
100
AcDbEntity
 67
     1
  8
0
100
AcDbBlockEnd
  0
ENDSEC
  0
SECTION
  2
ENTITIES
  0
LINE
  5
32FE
330
A
100
AcDbEntity
  8
0
 62
     7
 48
0.000625
100
AcDbLine
 10
303.4513324396493
 20
128.0767692368438
 30
0.0
 11
303.4513324396493
 21
128.1267504108082
 31
0.0
  0
LINE
  5
3300
330
A
100
AcDbEntity
  8
0
 62
     7
 48
0.005
100
AcDbLine
 10
304.6512285811975
 20
128.0767692368438
 30
0.0
 11
304.6512285811975
 21
127.6767818584515
 31
0.0
  0
LINE
  5
3301
330
A
100
AcDbEntity
  8
0
 62
     7
100
AcDbLine
 10
304.6512285811975
 20
128.0767692368438
 30
0.0
 11
304.6512285811975
 21
269.6630720787466
 31
0.0
  0
LINE
  5
3302
330
A
100
AcDbEntity
  8
0
 62
     7
 48
0.005
100
AcDbLine
 10
304.6512285811975
 20
269.6630720787466
 30
0.0
 11
304.6512285811975
 21
270.0630594571384
 31
0.0
  0
ARC
  5
3303
330
A
100
AcDbEntity
  8
0
 62
     7
100
AcDbCircle
 10
303.8513178182343
 20
270.0630594571384
 30
0.0
 40
0.7999227618044792
100
AcDbArc
 50
0.0
 51
90.00000300000001
  0
LINE
  5
3304
330
A
100
AcDbEntity
  8
0
 62
     7
 48
0.13375
100
AcDbLine
 10
303.8513178182343
 20
270.8629682202949
 30
0.0
 11
293.1523388802583
 21
270.8629682202949
 31
0.0
  0
LINE
  5
3308
330
A
100
AcDbEntity
  8
0
 62
     7
100
AcDbLine
 10
293.1523388802583
 20
270.8629682202949
 30
0.0
 11
293.1523388802583
 21
126.8768710954885
 31
0.0
  0
LINE
  5
330C
330
A
100
AcDbEntity
  8
0
 62
     7
 48
0.13375
100
AcDbLine
 10
303.8513178182343
 20
126.8768710954885
 30
0.0
 11
293.1523388802583
 21
126.8768710954885
 31
0.0
  0
ARC
  5
330D
330
A
100
AcDbEntity
  8
0
 62
     7
100
AcDbCircle
 10
303.8513178182343
 20
127.6767818584515
 30
0.0
 40
0.7999227618044792
100
AcDbArc
 50
270.000001
 51
0.0
  0
LINE
  5
3312
330
A
100
AcDbEntity
  8
0
 62
     7
 48
0.01875
100
AcDbLine
 10
282.6533526315745
 20
270.8629682202949
 30
0.0
 11
284.1532078099579
 21
270.8629682202949
 31
0.0
  0
LINE
  5
3313
330
A
100
AcDbEntity
  8
0
 62
     7
 48
0.1125
100
AcDbLine
 10
293.1523388802583
 20
270.8629682202949
 30
0.0
 11
284.1532078099579
 21
270.8629682202949
 31
0.0
  0
LINE
  5
3315
330
A
100
AcDbEntity
  8
0
 62
     7
 48
0.1125
100
AcDbLine
 10
293.1523388802583
 20
126.8768710954885
 30
0.0
 11
282.6533526315745
 21
126.8768710954885
 31
0.0
  0
LINE
  5
3316
330
A
100
AcDbEntity
  8
0
 62
     7
 48
0.005569
100
AcDbLine
 10
284.1532078099579
 20
270.4174552377218
 30
0.0
 11
284.1532078099579
 21
270.8629682202949
 31
0.0
  0
LINE
  5
3317
330
A
100
AcDbEntity
  8
0
 62
     7
 48
0.011817
100
AcDbLine
 10
284.1532078099579
 20
127.8221538217612
 30
0.0
 11
284.1532078099579
 21
126.8768710954885
 31
0.0
  0
LINE
  5
3318
330
A
100
AcDbEntity
  8
0
 62
     7
 48
0.006551
100
AcDbLine
 10
282.6533526315745
 20
270.338972815754
 30
0.0
 11
282.6533526315745
 21
270.8629682202949
 31
0.0
  0
LINE
  5
3319
330
A
100
AcDbEntity
  8
0
 62
     7
 48
0.012801
100
AcDbLine
 10
282.6533526315745
 20
126.8768710954885
 30
0.0
 11
282.6533526315745
 21
127.900820225964
 31
0.0
  0
LINE
  5
331A
330
A
100
AcDbEntity
  8
0
 62
     7
100
AcDbLine
 10
304.6512285811975
 20
130.3765331783834
 30
0.0
 11
304.6512285811975
 21
267.3633061374004
 31
0.0
  0
LINE
  5
331B
330
A
100
AcDbEntity
  8
0
 62
     7
 48
0.41875
100
AcDbLine
 10
539.6285698583667
 20
233.8665404868375
 30
0.0
 11
539.6285698583667
 21
267.3633061374004
 31
0.0
  0
LINE
  5
331C
330
A
100
AcDbEntity
  8
0
 62
     7
100
AcDbLine
 10
304.6512285811975
 20
130.3765331783834
 30
0.0
 11
529.6295353358111
 21
130.3765331783834
 31
0.0
  0
LINE
  5
331D
330
A
100
AcDbEntity
  8
0
 62
     7
 48
0.05
100
AcDbLine
 10
538.6286664061112
 20
232.8666370345823
 30
0.0
 11
534.6290525970887
 21
232.8666370345823
 31
0.0
  0
LINE
  5
331E
330
A
100
AcDbEntity
  8
0
 62
     7
100
AcDbLine
 10
534.6290525970887
 20
232.8666370345823
 30
0.0
 11
534.6290525970887
 21
135.376050439661
 31
0.0
  0
ARC
  5
331F
330
A
100
AcDbEntity
  8
0
 62
     7
100
AcDbCircle
 10
529.6295353358111
 20
135.376050439661
 30
0.0
 40
4.999517261277993
100
AcDbArc
 50
270.000001
 51
0.00001
  0
LINE
  5
3320
330
A
100
AcDbEntity
  8
0
 62
     7
100
AcDbLine
 10
304.6512285811975
 20
267.3633061374004
 30
0.0
 11
539.6285698583667
 21
267.3633061374004
 31
0.0
  0
ARC
  5
3321
330
A
100
AcDbEntity
  8
0
 62
     7
100
AcDbCircle
 10
538.6286664061112
 20
233.8665404868375
 30
0.0
 40
0.9999034522555987
100
AcDbArc
 50
270.000001
 51
0.0
  0
LINE
  5
3322
330
A
100
AcDbEntity
  8
0
 62
     7
 48
0.345
100
AcDbLine
 10
498.8324610109726
 20
263.0637352913497
 30
0.0
 11
526.4298322897515
 21
263.0637352913497
 31
0.0
  0
ARC
  5
3323
330
A
100
AcDbEntity
  8
0
 62
     7
100
AcDbCircle
 10
498.8324610109726
 20
261.8638371499946
 30
0.0
 40
1.199884142706717
100
AcDbArc
 50
90.00000300000001
 51
270.000001
  0
LINE
  5
3324
330
A
100
AcDbEntity
  8
0
 62
     7
 48
0.345
100
AcDbLine
 10
526.4298322897515
 20
260.6639410084464
 30
0.0
 11
498.8324610109726
 21
260.6639410084464
 31
0.0
  0
ARC
  5
3325
330
A
100
AcDbEntity
  8
0
 62
     7
100
AcDbCircle
 10
526.4298322897515
 20
261.8638371499946
 30
0.0
 40
1.199884142706717
100
AcDbArc
 50
270.000001
 51
90.00000300000001
  0
LINE
  5
3326
330
A
100
AcDbEntity
  8
0
 62
     7
 48
0.345
100
AcDbLine
 10
460.8361298252598
 20
263.0637352913497
 30
0.0
 11
488.433501104039
 21
263.0637352913497
 31
0.0
  0
ARC
  5
3327
330
A
100
AcDbEntity
  8
0
 62
     7
100
AcDbCircle
 10
460.8361298252598
 20
261.8638371499946
 30
0.0
 40
1.199884142706717
100
AcDbArc
 50
90.00000300000001
 51
270.000001
  0
LINE
  5
3328
330
A
100
AcDbEntity
  8
0
 62
     7
 48
0.345
100
AcDbLine
 10
488.433501104039
 20
260.6639410084464
 30
0.0
 11
460.8361298252598
 21
260.6639410084464
 31
0.0
  0
ARC
  5
3329
330
A
100
AcDbEntity
  8
0
 62
     7
100
AcDbCircle
 10
488.433501104039
 20
261.8638371499946
 30
0.0
 40
1.199884142706717
100
AcDbArc
 50
270.000001
 51
90.00000300000001
  0
LINE
  5
332A
330
A
100
AcDbEntity
  8
0
 62
     7
 48
0.345
100
AcDbLine
 10
422.8397986395473
 20
263.0637352913497
 30
0.0
 11
450.4371699183261
 21
263.0637352913497
 31
0.0
  0
ARC
  5
332B
330
A
100
AcDbEntity
  8
0
 62
     7
100
AcDbCircle
 10
422.8397986395473
 20
261.8638371499946
 30
0.0
 40
1.199884142706717
100
AcDbArc
 50
90.00000300000001
 51
270.000001
  0
LINE
  5
332C
330
A
100
AcDbEntity
  8
0
 62
     7
 48
0.345
100
AcDbLine
 10
450.4371699183261
 20
260.6639410084464
 30
0.0
 11
422.8397986395473
 21
260.6639410084464
 31
0.0
  0
ARC
  5
332D
330
A
100
AcDbEntity
  8
0
 62
     7
100
AcDbCircle
 10
450.4371699183261
 20
261.8638371499946
 30
0.0
 40
1.199884142706717
100
AcDbArc
 50
270.000001
 51
90.00000300000001
  0
LINE
  5
332E
330
A
100
AcDbEntity
  8
0
 62
     7
 48
0.345
100
AcDbLine
 10
498.8324610109726
 20
257.0643145778161
 30
0.0
 11
526.4298322897515
 21
257.0643145778161
 31
0.0
  0
ARC
  5
332F
330
A
100
AcDbEntity
  8
0
 62
     7
100
AcDbCircle
 10
498.8324610109726
 20
255.864416436461
 30
0.0
 40
1.199884142706717
100
AcDbArc
 50
90.00000300000001
 51
270.000001
  0
LINE
  5
3330
330
A
100
AcDbEntity
  8
0
 62
     7
 48
0.345
100
AcDbLine
 10
526.4298322897515
 20
254.6645202949124
 30
0.0
 11
498.8324610109726
 21
254.6645202949124
 31
0.0
  0
ARC
  5
3331
330
A
100
AcDbEntity
  8
0
 62
     7
100
AcDbCircle
 10
526.4298322897515
 20
255.864416436461
 30
0.0
 40
1.199884142706717
100
AcDbArc
 50
270.000001
 51
90.00000300000001
  0
LINE
  5
3332
330
A
100
AcDbEntity
  8
0
 62
     7
 48
0.345
100
AcDbLine
 10
422.8397986395473
 20
257.0643145778161
 30
0.0
 11
450.4371699183261
 21
257.0643145778161
 31
0.0
  0
ARC
  5
3333
330
A
100
AcDbEntity
  8
0
 62
     7
100
AcDbCircle
 10
422.8397986395473
 20
255.864416436461
 30
0.0
 40
1.199884142706717
100
AcDbArc
 50
90.00000300000001
 51
270.000001
  0
LINE
  5
3334
330
A
100
AcDbEntity
  8
0
 62
     7
 48
0.345
100
AcDbLine
 10
450.4371699183261
 20
254.6645202949124
 30
0.0
 11
422.8397986395473
 21
254.6645202949124
 31
0.0
  0
ARC
  5
3335
330
A
100
AcDbEntity
  8
0
 62
     7
100
AcDbCircle
 10
450.4371699183261
 20
255.864416436461
 30
0.0
 40
1.199884142706717
100
AcDbArc
 50
270.000001
 51
90.00000300000001
  0
LINE
  5
3336
330
A
100
AcDbEntity
  8
0
 62
     7
 48
0.345
100
AcDbLine
 10
460.8361298252598
 20
257.0643145778161
 30
0.0
 11
488.433501104039
 21
257.0643145778161
 31
0.0
  0
ARC
  5
3337
330
A
100
AcDbEntity
  8
0
 62
     7
100
AcDbCircle
 10
460.8361298252598
 20
255.864416436461
 30
0.0
 40
1.199884142706717
100
AcDbArc
 50
90.00000300000001
 51
270.000001
  0
LINE
  5
3338
330
A
100
AcDbEntity
  8
0
 62
     7
 48
0.345
100
AcDbLine
 10
488.433501104039
 20
254.6645202949124
 30
0.0
 11
460.8361298252598
 21
254.6645202949124
 31
0.0
  0
ARC
  5
3339
330
A
100
AcDbEntity
  8
0
 62
     7
100
AcDbCircle
 10
488.433501104039
 20
255.864416436461
 30
0.0
 40
1.199884142706717
100
AcDbArc
 50
270.000001
 51
90.00000300000001
  0
LINE
  5
333A
330
A
100
AcDbEntity
  8
0
 62
     7
 48
0.345
100
AcDbLine
 10
460.8361298252598
 20
251.0648938642823
 30
0.0
 11
488.433501104039
 21
251.0648938642823
 31
0.0
  0
ARC
  5
333B
330
A
100
AcDbEntity
  8
0
 62
     7
100
AcDbCircle
 10
460.8361298252598
 20
249.8649957229273
 30
0.0
 40
1.199884142706717
100
AcDbArc
 50
90.00000300000001
 51
270.000001
  0
LINE
  5
333C
330
A
100
AcDbEntity
  8
0
 62
     7
 48
0.345
100
AcDbLine
 10
488.433501104039
 20
248.6650995813791
 30
0.0
 11
460.8361298252598
 21
248.6650995813791
 31
0.0
  0
ARC
  5
333D
330
A
100
AcDbEntity
  8
0
 62
     7
100
AcDbCircle
 10
488.433501104039
 20
249.8649957229273
 30
0.0
 40
1.199884142706717
100
AcDbArc
 50
270.000001
 51
90.00000300000001
  0
LINE
  5
333E
330
A
100
AcDbEntity
  8
0
 62
     7
 48
0.345
100
AcDbLine
 10
422.8397986395473
 20
251.0648938642823
 30
0.0
 11
450.4371699183261
 21
251.0648938642823
 31
0.0
  0
ARC
  5
333F
330
A
100
AcDbEntity
  8
0
 62
     7
100
AcDbCircle
 10
422.8397986395473
 20
249.8649957229273
 30
0.0
 40
1.199884142706717
100
AcDbArc
 50
90.00000300000001
 51
270.000001
  0
LINE
  5
3340
330
A
100
AcDbEntity
  8
0
 62
     7
 48
0.345
100
AcDbLine
 10
450.4371699183261
 20
248.6650995813791
 30
0.0
 11
422.8397986395473
 21
248.6650995813791
 31
0.0
  0
ARC
  5
3341
330
A
100
AcDbEntity
  8
0
 62
     7
100
AcDbCircle
 10
450.4371699183261
 20
249.8649957229273
 30
0.0
 40
1.199884142706717
100
AcDbArc
 50
270.000001
 51
90.00000300000001
  0
LINE
  5
3342
330
A
100
AcDbEntity
  8
0
 62
     7
 48
0.345
100
AcDbLine
 10
498.8324610109726
 20
251.0648938642823
 30
0.0
 11
526.4298322897515
 21
251.0648938642823
 31
0.0
  0
ARC
  5
3343
330
A
100
AcDbEntity
  8
0
 62
     7
100
AcDbCircle
 10
498.8324610109726
 20
249.8649957229273
 30
0.0
 40
1.199884142706717
100
AcDbArc
 50
90.00000300000001
 51
270.000001
  0
LINE
  5
3344
330
A
100
AcDbEntity
  8
0
 62
     7
 48
0.345
100
AcDbLine
 10
526.4298322897515
 20
248.6650995813791
 30
0.0
 11
498.8324610109726
 21
248.6650995813791
 31
0.0
  0
ARC
  5
3345
330
A
100
AcDbEntity
  8
0
 62
     7
100
AcDbCircle
 10
526.4298322897515
 20
249.8649957229273
 30
0.0
 40
1.199884142706717
100
AcDbArc
 50
270.000001
 51
90.00000300000001
  0
LINE
  5
3346
330
A
100
AcDbEntity
  8
0
 62
     7
 48
0.345
100
AcDbLine
 10
460.8361298252598
 20
245.0654731507486
 30
0.0
 11
488.433501104039
 21
245.0654731507486
 31
0.0
  0
ARC
  5
3347
330
A
100
AcDbEntity
  8
0
 62
     7
100
AcDbCircle
 10
460.8361298252598
 20
243.8655750093935
 30
0.0
 40
1.199884142706717
100
AcDbArc
 50
90.00000300000001
 51
270.000001
  0
LINE
  5
3348
330
A
100
AcDbEntity
  8
0
 62
     7
 48
0.345
100
AcDbLine
 10
488.433501104039
 20
242.6656788678456
 30
0.0
 11
460.8361298252598
 21
242.6656788678456
 31
0.0
  0
ARC
  5
3349
330
A
100
AcDbEntity
  8
0
 62
     7
100
AcDbCircle
 10
488.433501104039
 20
243.8655750093935
 30
0.0
 40
1.199884142706717
100
AcDbArc
 50
270.000001
 51
90.00000300000001
  0
LINE
  5
334A
330
A
100
AcDbEntity
  8
0
 62
     7
 48
0.345
100
AcDbLine
 10
422.8397986395473
 20
245.0654731507486
 30
0.0
 11
450.4371699183261
 21
245.0654731507486
 31
0.0
  0
ARC
  5
334B
330
A
100
AcDbEntity
  8
0
 62
     7
100
AcDbCircle
 10
422.8397986395473
 20
243.8655750093935
 30
0.0
 40
1.199884142706717
100
AcDbArc
 50
90.00000300000001
 51
270.000001
  0
LINE
  5
334C
330
A
100
AcDbEntity
  8
0
 62
     7
 48
0.345
100
AcDbLine
 10
450.4371699183261
 20
242.6656788678456
 30
0.0
 11
422.8397986395473
 21
242.6656788678456
 31
0.0
  0
ARC
  5
334D
330
A
100
AcDbEntity
  8
0
 62
     7
100
AcDbCircle
 10
450.4371699183261
 20
243.8655750093935
 30
0.0
 40
1.199884142706717
100
AcDbArc
 50
270.000001
 51
90.00000300000001
  0
LINE
  5
334E
330
A
100
AcDbEntity
  8
0
 62
     7
 48
0.345
100
AcDbLine
 10
498.8324610109726
 20
245.0654731507486
 30
0.0
 11
526.4298322897515
 21
245.0654731507486
 31
0.0
  0
ARC
  5
334F
330
A
100
AcDbEntity
  8
0
 62
     7
100
AcDbCircle
 10
498.8324610109726
 20
243.8655750093935
 30
0.0
 40
1.199884142706717
100
AcDbArc
 50
90.00000300000001
 51
270.000001
  0
LINE
  5
3350
330
A
100
AcDbEntity
  8
0
 62
     7
 48
0.345
100
AcDbLine
 10
526.4298322897515
 20
242.6656788678456
 30
0.0
 11
498.8324610109726
 21
242.6656788678456
 31
0.0
  0
ARC
  5
3351
330
A
100
AcDbEntity
  8
0
 62
     7
100
AcDbCircle
 10
526.4298322897515
 20
243.8655750093935
 30
0.0
 40
1.199884142706717
100
AcDbArc
 50
270.000001
 51
90.00000300000001
  0
LINE
  5
3352
330
A
100
AcDbEntity
  8
0
 62
     7
 48
0.345
100
AcDbLine
 10
460.8361298252598
 20
239.0660524372153
 30
0.0
 11
488.433501104039
 21
239.0660524372153
 31
0.0
  0
ARC
  5
3353
330
A
100
AcDbEntity
  8
0
 62
     7
100
AcDbCircle
 10
460.8361298252598
 20
237.8661542958599
 30
0.0
 40
1.199884142706717
100
AcDbArc
 50
90.00000300000001
 51
270.000001
  0
LINE
  5
3354
330
A
100
AcDbEntity
  8
0
 62
     7
 48
0.345
100
AcDbLine
 10
488.433501104039
 20
236.6662581543119
 30
0.0
 11
460.8361298252598
 21
236.6662581543119
 31
0.0
  0
ARC
  5
3355
330
A
100
AcDbEntity
  8
0
 62
     7
100
AcDbCircle
 10
488.433501104039
 20
237.8661542958599
 30
0.0
 40
1.199884142706717
100
AcDbArc
 50
270.000001
 51
90.00000300000001
  0
LINE
  5
3356
330
A
100
AcDbEntity
  8
0
 62
     7
 48
0.345
100
AcDbLine
 10
422.8397986395473
 20
239.0660524372153
 30
0.0
 11
450.4371699183261
 21
239.0660524372153
 31
0.0
  0
ARC
  5
3357
330
A
100
AcDbEntity
  8
0
 62
     7
100
AcDbCircle
 10
422.8397986395473
 20
237.8661542958599
 30
0.0
 40
1.199884142706717
100
AcDbArc
 50
90.00000300000001
 51
270.000001
  0
LINE
  5
3358
330
A
100
AcDbEntity
  8
0
 62
     7
 48
0.345
100
AcDbLine
 10
450.4371699183261
 20
236.6662581543119
 30
0.0
 11
422.8397986395473
 21
236.6662581543119
 31
0.0
  0
ARC
  5
3359
330
A
100
AcDbEntity
  8
0
 62
     7
100
AcDbCircle
 10
450.4371699183261
 20
237.8661542958599
 30
0.0
 40
1.199884142706717
100
AcDbArc
 50
270.000001
 51
90.00000300000001
  0
LINE
  5
335A
330
A
100
AcDbEntity
  8
0
 62
     7
 48
0.345
100
AcDbLine
 10
498.8324610109726
 20
239.0660524372153
 30
0.0
 11
526.4298322897515
 21
239.0660524372153
 31
0.0
  0
ARC
  5
335B
330
A
100
AcDbEntity
  8
0
 62
     7
100
AcDbCircle
 10
498.8324610109726
 20
237.8661542958599
 30
0.0
 40
1.199884142706717
100
AcDbArc
 50
90.00000300000001
 51
270.000001
  0
LINE
  5
335C
330
A
100
AcDbEntity
  8
0
 62
     7
 48
0.345
100
AcDbLine
 10
526.4298322897515
 20
236.6662581543119
 30
0.0
 11
498.8324610109726
 21
236.6662581543119
 31
0.0
  0
ARC
  5
335D
330
A
100
AcDbEntity
  8
0
 62
     7
100
AcDbCircle
 10
526.4298322897515
 20
237.8661542958599
 30
0.0
 40
1.199884142706717
100
AcDbArc
 50
270.000001
 51
90.00000300000001
  0
LINE
  5
3360
330
A
100
AcDbEntity
  8
0
 62
     7
 48
0.025
100
AcDbLine
 10
416.6404152338246
 20
267.3633061374004
 30
0.0
 11
418.6402221383358
 21
267.3633061374004
 31
0.0
  0
LINE
  5
3364
330
A
100
AcDbEntity
  8
0
 62
     7
 48
0.49375
100
AcDbLine
 10
292.6523871541305
 20
168.8728160902236
 30
0.0
 11
292.6523871541305
 21
126.8768710954885
 31
0.0
  0
LINE
  5
3367
330
A
100
AcDbEntity
  8
0
 62
     7
 48
0.00625
100
AcDbLine
 10
293.1523388802583
 20
168.8728160902236
 30
0.0
 11
292.6523871541305
 21
168.8728160902236
 31
0.0
  0
LINE
  5
3368
330
A
100
AcDbEntity
  8
0
 62
     7
 48
0.05
100
AcDbLine
 10
293.1523388802583
 20
168.8728160902236
 30
0.0
 11
293.1523388802583
 21
172.8724298992463
 31
0.0
  0
LINE
  5
3369
330
A
100
AcDbEntity
  8
0
 62
     7
 48
0.05
100
AcDbLine
 10
293.1523388802583
 20
224.8674094165373
 30
0.0
 11
293.1523388802583
 21
228.8670232255598
 31
0.0
  0
LINE
  5
336A
330
A
100
AcDbEntity
  8
0
 62
     7
 48
0.00625
100
AcDbLine
 10
293.1523388802583
 20
228.8670232255598
 30
0.0
 11
292.6523871541305
 21
228.8670232255598
 31
0.0
  0
LINE
  5
336B
330
A
100
AcDbEntity
  8
0
 62
     7
 48
0.49375
100
AcDbLine
 10
292.6523871541305
 20
228.8670232255598
 30
0.0
 11
292.6523871541305
 21
270.8629682202949
 31
0.0
  0
LINE
  5
336E
330
A
100
AcDbEntity
  8
0
 62
     7
 48
0.0875
100
AcDbLine
 10
285.6530629883411
 20
182.8714644218023
 30
0.0
 11
285.6530629883411
 21
175.8721402560129
 31
0.0
  0
LINE
  5
336F
330
A
100
AcDbEntity
  8
0
 62
     7
 48
0.4
100
AcDbLine
 10
285.6530629883411
 20
214.8683748939813
 30
0.0
 11
285.6530629883411
 21
182.8714644218023
 31
0.0
  0
LINE
  5
3370
330
A
100
AcDbEntity
  8
0
 62
     7
 48
0.0875
100
AcDbLine
 10
285.6530629883411
 20
221.8676990597705
 30
0.0
 11
285.6530629883411
 21
214.8683748939813
 31
0.0
  0
ARC
  5
3371
330
A
100
AcDbEntity
  8
0
 62
     7
100
AcDbCircle
 10
287.6528698928524
 20
221.8676990597705
 30
0.0
 40
1.999806904511195
100
AcDbArc
 50
90.00000300000001
 51
180.000005
  0
LINE
  5
3372
330
A
100
AcDbEntity
  8
0
 62
     7
 48
0.05625
100
AcDbLine
 10
292.1524354280025
 20
223.8675059642819
 30
0.0
 11
287.6528698928524
 21
223.8675059642819
 31
0.0
  0
ARC
  5
3373
330
A
100
AcDbEntity
  8
0
 62
     7
100
AcDbCircle
 10
292.1524354280025
 20
224.8674094165373
 30
0.0
 40
0.9999034522555987
100
AcDbArc
 50
270.000001
 51
0.0
  0
ARC
  5
3377
330
A
100
AcDbEntity
  8
0
 62
     7
100
AcDbCircle
 10
292.1524354280025
 20
172.8724298992463
 30
0.0
 40
0.9999034522555987
100
AcDbArc
 50
0.0
 51
90.00000300000001
  0
LINE
  5
3378
330
A
100
AcDbEntity
  8
0
 62
     7
 48
0.05625
100
AcDbLine
 10
292.1524354280025
 20
173.8723333515019
 30
0.0
 11
287.6528698928524
 21
173.8723333515019
 31
0.0
  0
ARC
  5
3379
330
A
100
AcDbEntity
  8
0
 62
     7
100
AcDbCircle
 10
287.6528698928524
 20
175.8721402560129
 30
0.0
 40
1.999806904511195
100
AcDbArc
 50
180.000005
 51
270.000001
  0
LINE
  5
3380
330
A
100
AcDbEntity
  8
0
 62
     7
 48
0.090652
100
AcDbLine
 10
292.6523871541305
 20
127.3768228216163
 30
0.0
 11
285.4108683739429
 21
127.756334177113
 31
0.0
  0
LINE
  5
3381
330
A
100
AcDbEntity
  8
0
 62
     7
 48
0.017117
100
AcDbLine
 10
284.0435064024038
 20
127.8280132559917
 30
0.0
 11
285.4108383768393
 21
127.756334177113
 31
0.0
  0
LINE
  5
3382
330
A
100
AcDbEntity
  8
0
 62
     7
 48
0.020952
100
AcDbLine
 10
282.3698400067218
 20
127.9157127879821
 30
0.0
 11
284.0435064024038
 21
127.8280132559917
 31
0.0
  0
ARC
  5
3383
330
A
100
AcDbEntity
  8
0
 62
     7
100
AcDbCircle
 10
292.1524354280025
 20
181.8715609695465
 30
0.0
 40
0.9999034522555987
100
AcDbArc
 50
0.0
 51
90.00000300000001
  0
LINE
  5
3384
330
A
100
AcDbEntity
  8
0
 62
     7
 48
0.06875
100
AcDbLine
 10
286.6529664405966
 20
182.8714644218023
 30
0.0
 11
292.1524354280025
 21
182.8714644218023
 31
0.0
  0
ARC
  5
3385
330
A
100
AcDbEntity
  8
0
 62
     7
100
AcDbCircle
 10
286.6529664405966
 20
183.8713678740575
 30
0.0
 40
0.9999034522555987
100
AcDbArc
 50
180.000005
 51
270.000001
  0
ARC
  5
3386
330
A
100
AcDbEntity
  8
0
 62
     7
100
AcDbCircle
 10
292.1524354280025
 20
215.8682783462371
 30
0.0
 40
0.9999034522555987
100
AcDbArc
 50
270.000001
 51
0.0
  0
LINE
  5
3387
330
A
100
AcDbEntity
  8
0
 62
     7
 48
0.06875
100
AcDbLine
 10
286.6529664405966
 20
214.8683748939813
 30
0.0
 11
292.1524354280025
 21
214.8683748939813
 31
0.0
  0
ARC
  5
3388
330
A
100
AcDbEntity
  8
0
 62
     7
100
AcDbCircle
 10
286.6529664405966
 20
213.8684714417259
 30
0.0
 40
0.9999034522555987
100
AcDbArc
 50
90.00000300000001
 51
180.000005
  0
LINE
  5
3389
330
A
100
AcDbEntity
  8
0
 62
     7
 48
0.090652
100
AcDbLine
 10
292.6523871541305
 20
270.8629682202949
 30
0.0
 11
285.4108683739429
 21
270.483458864605
 31
0.0
  0
LINE
  5
3393
330
A
100
AcDbEntity
  8
0
 62
     7
 48
0.020952
100
AcDbLine
 10
282.3698400067218
 20
270.3240802537364
 30
0.0
 11
284.0435064024038
 21
270.4117797857268
 31
0.0
  0
LINE
  5
3394
330
A
100
AcDbEntity
  8
0
 62
     7
 48
0.017117
100
AcDbLine
 10
284.0435064024038
 20
270.4117797857268
 30
0.0
 11
285.4108383768393
 21
270.483458864605
 31
0.0
  0
LINE
  5
3398
330
A
100
AcDbEntity
  8
0
 62
     7
 48
0.028243
100
AcDbLine
 10
282.30399036497
 20
263.9961392611573
 30
0.0
 11
280.9484692501131
 21
265.8035207457027
 31
0.0
  0
LWPOLYLINE
  5
3399
330
A
100
AcDbEntity
  8
0
 62
     7
100
AcDbPolyline
 90
        4
 70
     0
 43
0.0
 10
282.30399036497
 20
263.9961392611573
 10
282.3170191069531
 20
263.968249954067
 10
282.3414627467466
 20
263.7984343509634
 10
282.3473201811701
 20
263.5848329756858
  0
LINE
  5
339F
330
A
100
AcDbEntity
  8
0
 62
     7
100
AcDbLine
 10
282.3473201811701
 20
134.1550083399047
 30
0.0
 11
282.3473201811701
 21
263.5848329756858
 31
0.0
  0
LWPOLYLINE
  5
33A0
330
A
100
AcDbEntity
  8
0
 62
     7
100
AcDbPolyline
 90
        4
 70
     0
 43
0.0
 10
282.30399036497
 20
133.7437020544334
 10
282.3170191069531
 20
133.7715913615235
 10
282.3414627467466
 20
133.9414049648202
 10
282.3473201811701
 20
134.1550083399047
  0
LINE
  5
33A6
330
A
100
AcDbEntity
  8
0
 62
     7
 48
0.028243
100
AcDbLine
 10
280.9484692501131
 20
131.9363205698879
 30
0.0
 11
282.30399036497
 21
133.7437020544334
 31
0.0
  0
LINE
  5
33AB
330
A
100
AcDbEntity
  8
0
 62
     7
 48
0.031538
100
AcDbLine
 10
280.9484692501131
 20
129.4134921667985
 30
0.0
 11
280.9484692501131
 21
131.9363205698879
 31
0.0
  0
LINE
  5
33AC
330
A
100
AcDbEntity
  8
0
 62
     7
 48
0.037788
100
AcDbLine
 10
280.9484692501131
 20
265.8035207457027
 30
0.0
 11
280.9484692501131
 21
268.8263008749198
 31
0.0
  0
ARC
  5
33AD
330
A
100
AcDbEntity
  8
0
 62
     7
100
AcDbCircle
 10
282.4483244284961
 20
129.4134921667985
 30
0.0
 40
1.499855178383396
100
AcDbArc
 50
179.9999909999999
 51
266.9999899999999
  0
ARC
  5
33AE
330
A
100
AcDbEntity
  8
0
 62
     7
100
AcDbCircle
 10
282.4483244284961
 20
268.8263008749198
 30
0.0
 40
1.499855178383396
100
AcDbArc
 50
93.00001299999999
 51
180.000005
  0
CIRCLE
  5
33AF
330
A
100
AcDbEntity
  8
0
 62
     7
100
AcDbCircle
 10
544.7280534671878
 20
200.0698177992469
 30
0.0
 40
1.199884142706717
  0
ARC
  5
33B0
330
A
100
AcDbEntity
  8
0
 62
     7
100
AcDbCircle
 10
544.7280534671878
 20
200.0698177992469
 30
0.0
 40
1.499855178383396
100
AcDbArc
 50
180.000005
 51
0.00001
  0
LINE
  5
33B1
330
A
100
AcDbEntity
  8
0
 62
     7
 48
0.075
100
AcDbLine
 10
538.8285991011967
 20
202.8695334669143
 30
0.0
 11
538.8285991011967
 21
196.8701127533807
 31
0.0
  0
ARC
  5
33B2
330
A
100
AcDbEntity
  8
0
 62
     7
100
AcDbCircle
 10
536.8287921966854
 20
196.867610994943
 30
0.0
 40
1.999806904511195
100
AcDbArc
 50
272.865948
 51
0.071662
  0
LINE
  5
33B3
330
A
100
AcDbEntity
  8
0
 62
     7
 48
0.03125
100
AcDbLine
 10
536.9288185384355
 20
194.8703058488695
 30
0.0
 11
539.4285771690743
 21
194.8703058488695
 31
0.0
  0
LINE
  5
33B5
330
A
100
AcDbEntity
  8
0
 62
     7
 48
0.0575
100
AcDbLine
 10
548.387977944716
 20
203.8694369191698
 30
0.0
 11
539.8285025534522
 21
203.8694369191698
 31
0.0
  0
ARC
  5
33B6
330
A
100
AcDbEntity
  8
0
 62
     7
100
AcDbCircle
 10
539.8285025534522
 20
202.8695334669143
 30
0.0
 40
0.9999034522555987
100
AcDbArc
 50
90.00000300000001
 51
180.000005
  0
ARC
  5
33B7
330
A
100
AcDbEntity
  8
0
 62
     7
100
AcDbCircle
 10
536.8287921966854
 20
196.8701127533807
 30
0.0
 40
1.999806904511195
100
AcDbArc
 50
270.000001
 51
0.0
  0
LINE
  5
33B8
330
A
100
AcDbEntity
  8
0
 62
     7
 48
0.027499
100
AcDbLine
 10
536.8287921966854
 20
194.8703058488695
 30
0.0
 11
534.6290525970887
 21
194.8703058488695
 31
0.0
  0
LINE
  5
33B9
330
A
100
AcDbEntity
  8
0
 62
     7
 48
0.236076
100
AcDbLine
 10
550.8368376209081
 20
201.8713998437689
 30
0.0
 11
554.6271216422011
 21
183.3714161479299
 31
0.0
  0
LINE
  5
33BB
330
A
100
AcDbEntity
  8
0
 62
     7
100
AcDbLine
 10
554.6271216422011
 20
137.8758090703001
 30
0.0
 11
554.6271216422011
 21
183.3714161479299
 31
0.0
  0
LINE
  5
33BF
330
A
100
AcDbEntity
  8
0
 62
     7
 48
0.075001
100
AcDbLine
 10
548.1276892083323
 20
137.8758090703001
 30
0.0
 11
554.6271216422011
 21
137.8758090703001
 31
0.0
  0
LINE
  5
33C0
330
A
100
AcDbEntity
  8
0
 62
     7
100
AcDbLine
 10
539.4285771690743
 20
160.9735248226181
 30
0.0
 11
539.4285771690743
 21
202.8695334669143
 31
0.0
  0
ARC
  5
33C1
330
A
100
AcDbEntity
  8
0
 62
     7
100
AcDbCircle
 10
540.4284806213301
 20
202.8695334669143
 30
0.0
 40
0.9999034522555987
100
AcDbArc
 50
90.00000300000001
 51
180.000005
  0
ARC
  5
33C4
330
A
100
AcDbEntity
  8
0
 62
     7
100
AcDbCircle
 10
544.7280534671878
 20
200.0698177992469
 30
0.0
 40
1.499855178383396
100
AcDbArc
 50
0.0
 51
180.000005
  0
LINE
  5
33C5
330
A
100
AcDbEntity
  8
0
 62
     7
 48
0.050001
100
AcDbLine
 10
543.2003689759211
 20
196.0702039902244
 30
0.0
 11
543.228198288804
 21
200.0698177992469
 31
0.0
  0
ARC
  5
33C6
330
A
100
AcDbEntity
  8
0
 62
     7
100
AcDbCircle
 10
544.7280534671878
 20
196.0702039902244
 30
0.0
 40
1.527710488756333
100
AcDbArc
 50
180.000005
 51
10.95801999999999
  0
LINE
  5
33C7
330
A
100
AcDbEntity
  8
0
 62
     7
 48
0.04637
100
AcDbLine
 10
546.2279086455712
 20
200.0698177992469
 30
0.0
 11
546.2279086455712
 21
196.3605799523733
 31
0.0
  0
ARC
  5
33C9
330
A
100
AcDbEntity
  8
0
 62
     7
100
AcDbCircle
 10
548.3879780756031
 20
201.3696782885308
 30
0.0
 40
2.499758630638996
100
AcDbArc
 50
11.578421
 51
90.00000300000001
  0
LINE
  5
33CC
330
A
100
AcDbEntity
  8
0
 62
     7
 48
0.168228
100
AcDbLine
 10
544.9280461564804
 20
160.9735868166323
 30
0.0
 11
544.9280461564804
 21
147.5166341805063
 31
0.0
  0
LINE
  5
33CD
330
A
100
AcDbEntity
  8
0
 62
     7
 48
0.12875
100
AcDbLine
 10
544.9280461564804
 20
160.9735868166323
 30
0.0
 11
534.6290525970887
 21
160.9735868166323
 31
0.0
  0
LINE
  5
33CE
330
A
100
AcDbEntity
  8
0
 62
     7
 48
0.036247
100
AcDbLine
 10
537.4274883883373
 20
134.3761469874058
 30
0.0
 11
534.5279883555556
 21
134.3761469874058
 31
0.0
  0
CIRCLE
  5
33CF
330
A
100
AcDbEntity
  8
0
 62
     7
100
AcDbCircle
 10
540.9284323474579
 20
156.9739730076099
 30
0.0
 40
1.499855178383396
  0
CIRCLE
  5
33D0
330
A
100
AcDbEntity
  8
0
 62
     7
100
AcDbCircle
 10
540.9284323474579
 20
156.9739730076099
 30
0.0
 40
1.199884142706717
  0
ARC
  5
33D1
330
A
100
AcDbEntity
  8
0
 62
     7
100
AcDbCircle
 10
537.4287702645632
 20
135.376050439661
 30
0.0
 40
0.9999034522555987
100
AcDbArc
 50
180.000005
 51
270.000001
  0
LINE
  5
33D2
330
A
100
AcDbEntity
  8
0
 62
     7
 48
0.26375
100
AcDbLine
 10
536.4288668123077
 20
135.376050439661
 30
0.0
 11
536.4288668123077
 21
156.4740212814819
 31
0.0
  0
ARC
  5
33D3
330
A
100
AcDbEntity
  8
0
 62
     7
100
AcDbCircle
 10
540.4284806213301
 20
156.4740212814819
 30
0.0
 40
3.999613809022393
100
AcDbArc
 50
90.00000300000001
 51
180.000005
  0
LINE
  5
33D4
330
A
100
AcDbEntity
  8
0
 62
     7
 48
0.04
100
AcDbLine
 10
540.4284806213301
 20
160.4736350905042
 30
0.0
 11
543.6281836673895
 21
160.4736350905042
 31
0.0
  0
ARC
  5
33D5
330
A
100
AcDbEntity
  8
0
 62
     7
100
AcDbCircle
 10
543.6281836673895
 20
159.4737316382486
 30
0.0
 40
0.9999034522555987
100
AcDbArc
 50
0.0
 51
90.00000300000001
  0
LINE
  5
33D6
330
A
100
AcDbEntity
  8
0
 62
     7
 48
0.14375
100
AcDbLine
 10
544.6280871196448
 20
159.4737316382486
 30
0.0
 11
544.6280871196448
 21
147.9748419373095
 31
0.0
  0
ARC
  5
33D7
330
A
100
AcDbEntity
  8
0
 62
     7
100
AcDbCircle
 10
545.1280388457728
 20
147.9748419373095
 30
0.0
 40
0.4999517261277995
100
AcDbArc
 50
180.000005
 51
270.000001
  0
LINE
  5
33D8
330
A
100
AcDbEntity
  8
0
 62
     7
 48
0.05
100
AcDbLine
 10
542.4282875258414
 20
152.9743591985875
 30
0.0
 11
542.4282875258414
 21
156.9739730076099
 31
0.0
  0
ARC
  5
33D9
330
A
100
AcDbEntity
  8
0
 62
     7
100
AcDbCircle
 10
540.9284323474579
 20
156.9739730076099
 30
0.0
 40
1.499855178383396
100
AcDbArc
 50
0.0
 51
180.000005
  0
LINE
  5
33DA
330
A
100
AcDbEntity
  8
0
 62
     7
 48
0.05
100
AcDbLine
 10
539.4285771690743
 20
156.9739730076099
 30
0.0
 11
539.4285771690743
 21
152.9743591985875
 31
0.0
  0
ARC
  5
33DB
330
A
100
AcDbEntity
  8
0
 62
     7
100
AcDbCircle
 10
540.9284323474579
 20
152.9743591985875
 30
0.0
 40
1.499855178383396
100
AcDbArc
 50
180.000005
 51
0.0
  0
LINE
  5
33DC
330
A
100
AcDbEntity
  8
0
 62
     7
 48
0.0125
100
AcDbLine
 10
545.1280388457728
 20
147.4748902111814
 30
0.0
 11
546.1279422980285
 21
147.4748902111814
 31
0.0
  0
LINE
  5
33DD
330
A
100
AcDbEntity
  8
0
 62
     7
 48
0.16375
100
AcDbLine
 10
546.1279422980285
 20
158.9737799121209
 30
0.0
 11
546.1279422980285
 21
134.3761469874058
 31
0.0
  0
LINE
  5
33DE
330
A
100
AcDbEntity
  8
0
 62
     7
 48
0.10875
100
AcDbLine
 10
546.1279422980285
 20
134.3761469874058
 30
0.0
 11
537.4287702645632
 21
134.3761469874058
 31
0.0
  0
LINE
  5
33E0
330
A
100
AcDbEntity
  8
0
 62
     7
 48
0.0125
100
AcDbLine
 10
545.1280388457728
 20
147.9748419373095
 30
0.0
 11
546.1279422980285
 21
147.9748419373095
 31
0.0
  0
LINE
  5
33E2
330
A
100
AcDbEntity
  8
0
 62
     7
 48
0.125
100
AcDbLine
 10
545.1280388457728
 20
158.9737799121209
 30
0.0
 11
545.1280388544986
 21
147.4748902111816
 31
0.0
  0
LINE
  5
33E4
330
A
100
AcDbEntity
  8
0
 62
     7
 48
0.0125
100
AcDbLine
 10
545.1280388457728
 20
157.973876459865
 30
0.0
 11
546.1279422980285
 21
157.973876459865
 31
0.0
  0
LINE
  5
33E5
330
A
100
AcDbEntity
  8
0
 62
     7
 48
0.0125
100
AcDbLine
 10
545.1280388457728
 20
158.9737799121209
 30
0.0
 11
546.1279422980285
 21
158.9737799121209
 31
0.0
  0
LINE
  5
33EB
330
A
100
AcDbEntity
  8
0
 62
     7
 48
0.002708
100
AcDbLine
 10
547.6277974764118
 20
140.5255472193568
 30
0.0
 11
547.6277974764118
 21
135.2260729210505
 31
0.0
  0
LINE
  5
33ED
330
A
100
AcDbEntity
  8
0
 62
     7
 48
0.002197
100
AcDbLine
 10
548.1277492025395
 20
140.025595493229
 30
0.0
 11
548.1277492025395
 21
135.7260246471784
 31
0.0
  0
LINE
  5
33EE
330
A
100
AcDbEntity
  8
0
 62
     7
 48
0.01875
100
AcDbLine
 10
547.6277974764118
 20
140.5255472193568
 30
0.0
 11
546.1279422980285
 21
140.5255472193568
 31
0.0
  0
LINE
  5
33EF
330
A
100
AcDbEntity
  8
0
 62
     7
 48
0.01875
100
AcDbLine
 10
547.6277974764118
 20
135.2260729210505
 30
0.0
 11
546.1279422980285
 21
135.2260729210505
 31
0.0
  0
ARC
  5
33F0
330
A
100
AcDbEntity
  8
0
 62
     7
100
AcDbCircle
 10
547.6277974764118
 20
140.025595493229
 30
0.0
 40
0.4999517261277995
100
AcDbArc
 50
0.00001
 51
90.00000300000001
  0
ARC
  5
33F1
330
A
100
AcDbEntity
  8
0
 62
     7
100
AcDbCircle
 10
547.6277974764118
 20
135.7260246471784
 30
0.0
 40
0.4999517261277995
100
AcDbArc
 50
270.000001
 51
0.000001
  0
LINE
  5
34F2
330
A
100
AcDbEntity
  8
0
 62
     7
100
AcDbLine
 10
79.85805688025852
 20
129.3629682202947
 30
0.0
 11
79.85805688025852
 21
268.3629682202949
 31
0.0
  0
LINE
  5
34F3
330
A
100
AcDbEntity
  8
0
 62
     7
 48
0.4
100
AcDbLine
 10
220.3500608802583
 20
214.8629682202948
 30
0.0
 11
220.3500608802583
 21
182.8629682202949
 31
0.0
  0
LINE
  5
34F4
330
A
100
AcDbEntity
  8
0
 62
     7
100
AcDbLine
 10
221.0062508802583
 20
270.8629682202949
 30
0.0
 11
221.0062508802583
 21
126.8629682202948
 31
0.0
  0
LINE
  5
34F5
330
A
100
AcDbEntity
  8
0
 62
     7
100
AcDbLine
 10
220.3243048802583
 20
129.2404722202945
 30
0.0
 11
220.3243048802583
 21
268.985466220295
 31
0.0
  0
LINE
  5
34F6
330
A
100
AcDbEntity
  8
0
 62
     7
100
AcDbLine
 10
86.43479488025851
 20
134.1418082202948
 30
0.0
 11
86.43479488025851
 21
263.5841302202949
 31
0.0
  0
LINE
  5
34F7
330
A
100
AcDbEntity
  8
0
 62
     7
100
AcDbLine
 10
211.5776928802583
 20
134.1418082202948
 30
0.0
 11
211.5776928802583
 21
263.5841302202949
 31
0.0
  0
LINE
  5
34F8
330
A
100
AcDbEntity
  8
0
 62
     7
100
AcDbLine
 10
207.0062508802584
 20
261.862968220295
 30
0.0
 11
207.0062508802584
 21
135.8629682202947
 31
0.0
  0
LINE
  5
34F9
330
A
100
AcDbEntity
  8
0
 62
     7
100
AcDbLine
 10
91.00623488025844
 20
261.862968220295
 30
0.0
 11
91.00623488025844
 21
135.8629682202947
 31
0.0
  0
LINE
  5
34FA
330
A
100
AcDbEntity
  8
0
 62
     7
100
AcDbLine
 10
77.00623488025843
 20
270.8629682202949
 30
0.0
 11
77.00623488025843
 21
126.8629682202948
 31
0.0
  0
LINE
  5
34FB
330
A
100
AcDbEntity
  8
0
 62
     7
 48
0.064952
100
AcDbLine
 10
87.80047088025835
 20
126.8629682202948
 30
0.0
 11
82.60430288025842
 21
126.8629682202948
 31
0.0
  0
LINE
  5
34FC
330
A
100
AcDbEntity
  8
0
 62
     7
 48
0.058777
100
AcDbLine
 10
88.08913688025851
 20
127.3629682202948
 30
0.0
 11
83.4062448802585
 21
127.7880482202947
 31
0.0
  0
ARC
  5
34FD
330
A
100
AcDbEntity
  8
0
 62
     7
100
AcDbCircle
 10
149.0059448802581
 20
-26543.19702777968
 30
0.0
 40
26671.09961
100
AcDbArc
 50
89.85305100000058
 51
90.14092300000006
  0
LINE
  5
34FE
330
A
100
AcDbEntity
  8
0
 62
     7
 48
0.018726
100
AcDbLine
 10
83.4062448802585
 20
127.8212202202949
 30
0.0
 11
83.4062448802585
 21
129.3629682202947
 31
0.0
  0
LINE
  5
34FF
330
A
100
AcDbEntity
  8
0
 62
     7
 48
0.00625
100
AcDbLine
 10
83.00623488025843
 20
129.3629682202947
 30
0.0
 11
83.00623488025843
 21
128.8629682202949
 31
0.0
  0
LINE
  5
3500
330
A
100
AcDbEntity
  8
0
 62
     7
 48
0.069976
100
AcDbLine
 10
82.60430288025842
 20
128.0629822202949
 30
0.0
 11
77.00623488025843
 21
128.0629822202949
 31
0.0
  0
LINE
  5
3501
330
A
100
AcDbEntity
  8
0
 62
     7
 48
0.069976
100
AcDbLine
 10
82.60430288025842
 20
126.8629682202948
 30
0.0
 11
77.00623488025843
 21
126.8629682202948
 31
0.0
  0
LINE
  5
3502
330
A
100
AcDbEntity
  8
0
 62
     7
 48
0.075
100
AcDbLine
 10
77.00623488025843
 20
128.8629682202949
 30
0.0
 11
83.00623488025843
 21
128.8629682202949
 31
0.0
  0
LINE
  5
3503
330
A
100
AcDbEntity
  8
0
 62
     7
 48
0.015
100
AcDbLine
 10
77.00623488025843
 20
128.0629822202949
 30
0.0
 11
77.00623488025843
 21
126.8629682202948
 31
0.0
  0
LINE
  5
3504
330
A
100
AcDbEntity
  8
0
 62
     7
 48
0.01
100
AcDbLine
 10
77.50623488025843
 20
128.0629822202949
 30
0.0
 11
77.50623488025843
 21
128.8629682202949
 31
0.0
  0
LINE
  5
3505
330
A
100
AcDbEntity
  8
0
 62
     7
 48
0.010024
100
AcDbLine
 10
83.4062448802585
 20
128.0629822202949
 30
0.0
 11
82.60430288025842
 21
128.0629822202949
 31
0.0
  0
LINE
  5
3506
330
A
100
AcDbEntity
  8
0
 62
     7
 48
0.015
100
AcDbLine
 10
82.60430288025842
 20
128.0629822202949
 30
0.0
 11
82.60430288025842
 21
126.8629682202948
 31
0.0
  0
LINE
  5
3507
330
A
100
AcDbEntity
  8
0
 62
     7
 48
0.000415
100
AcDbLine
 10
83.4062448802585
 20
127.7880482202947
 30
0.0
 11
83.4062448802585
 21
127.8212202202949
 31
0.0
  0
LINE
  5
3508
330
A
100
AcDbEntity
  8
0
 62
     7
 48
0.01
100
AcDbLine
 10
82.50623488025842
 20
128.0629822202949
 30
0.0
 11
82.50623488025842
 21
128.8629682202949
 31
0.0
  0
LINE
  5
3509
330
A
100
AcDbEntity
  8
0
 62
     7
 48
0.044352
100
AcDbLine
 10
79.85805688025852
 20
129.3629682202947
 30
0.0
 11
83.4062448802585
 21
129.3629682202947
 31
0.0
  0
LINE
  5
350B
330
A
100
AcDbEntity
  8
0
 62
     7
100
AcDbLine
 10
168.1389408802582
 20
127.3629682202948
 30
0.0
 11
88.08913688025851
 21
127.3629682202948
 31
0.0
  0
LINE
  5
350C
330
A
100
AcDbEntity
  8
0
 62
     7
100
AcDbLine
 10
221.0062508802583
 20
126.8629682202948
 30
0.0
 11
87.80047088025835
 21
126.8629682202948
 31
0.0
  0
ARC
  5
350D
330
A
100
AcDbEntity
  8
0
 62
     7
100
AcDbCircle
 10
149.0062348802584
 20
1182.285638220291
 30
0.0
 40
1050.362669999999
100
AcDbArc
 50
266.6381270000008
 51
273.3618740000017
  0
LINE
  5
350E
330
A
100
AcDbEntity
  8
0
 62
     7
100
AcDbLine
 10
205.7844788802579
 20
134.8629682202949
 30
0.0
 11
92.22799088025844
 21
134.8629682202949
 31
0.0
  0
LINE
  5
350F
330
A
100
AcDbEntity
  8
0
 62
     7
 48
0.006577
100
AcDbLine
 10
87.80047088025835
 20
127.3891542202949
 30
0.0
 11
87.80047088025835
 21
126.8629682202948
 31
0.0
  0
ARC
  5
3510
330
A
100
AcDbEntity
  8
0
 62
     7
100
AcDbCircle
 10
92.00623488025845
 20
135.8629682202947
 30
0.0
 40
1.0
100
AcDbArc
 50
180.0000049999995
 51
269.9999730000012
  0
LINE
  5
3511
330
A
100
AcDbEntity
  8
0
 62
     7
 48
0.061856
100
AcDbLine
 10
92.22799088025844
 20
134.8629682202949
 30
0.0
 11
87.41082288025854
 21
133.7304622202949
 31
0.0
  0
LINE
  5
3512
330
A
100
AcDbEntity
  8
0
 62
     7
 48
0.061264
100
AcDbLine
 10
91.20585088025853
 20
135.263482220295
 30
0.0
 11
86.43479488025851
 21
134.1418082202948
 31
0.0
  0
LWPOLYLINE
  5
3513
330
A
100
AcDbEntity
  8
0
 62
     7
100
AcDbPolyline
 90
        5
 70
     0
 43
0.0
 10
87.41082288025854
 20
133.7304622202949
 10
86.84922288025852
 20
133.8096242202949
 10
86.60982688025844
 20
133.9007802202949
 10
86.48827688025852
 20
133.9977342202949
 10
86.43479488025848
 20
134.1418082202948
  0
LINE
  5
3514
330
A
100
AcDbEntity
  8
0
 62
     7
 48
0.002772
100
AcDbLine
 10
92.00623488025845
 20
134.8629682202949
 30
0.0
 11
92.22799088025844
 21
134.8629682202949
 31
0.0
  0
LINE
  5
351C
330
A
100
AcDbEntity
  8
0
 62
     7
 48
0.49375
100
AcDbLine
 10
220.9624888802583
 20
168.8629682202945
 30
0.0
 11
220.9626667715503
 21
128.858188026514
 31
0.0
  0
LINE
  5
351D
330
A
100
AcDbEntity
  8
0
 62
     7
100
AcDbLine
 10
214.1389408802579
 20
127.7298202202949
 30
0.0
 11
170.8735308802584
 21
127.7298202202949
 31
0.0
  0
LWPOLYLINE
  5
3521
330
A
100
AcDbEntity
  8
0
 62
     7
100
AcDbPolyline
 90
       20
 70
     0
 43
0.0
 10
169.1289008802584
 20
127.4079662202949
 10
169.1154878802583
 20
127.4040912202949
 10
169.0965598802583
 20
127.4002762202949
 10
169.072221880258
 20
127.3965532202949
 10
169.0426198802583
 20
127.3929372202949
 10
169.0079058802583
 20
127.389442220295
 10
168.9682788802583
 20
127.3860932202949
 10
168.9239678802583
 20
127.3829112202949
 10
168.8752158802583
 20
127.379913220295
 10
168.8222978802583
 20
127.3771132202949
 10
168.7655128802583
 20
127.3745342202949
 10
168.705171880258
 20
127.3721772202949
 10
168.6416268802584
 20
127.370071220295
 10
168.5752358802583
 20
127.3682172202949
 10
168.506364880258
 20
127.3666302202949
 10
168.4354118802585
 20
127.3653262202949
 10
168.3627798802584
 20
127.3642962202949
 10
168.2888818802584
 20
127.3635632202949
 10
168.2141288802583
 20
127.3631132202949
 10
168.1389488802583
 20
127.3629682202949
  0
LINE
  5
3522
330
A
100
AcDbEntity
  8
0
 62
     7
 48
0.020097
100
AcDbLine
 10
169.1289008802584
 20
127.4079662202949
 30
0.0
 11
169.8835848802584
 21
127.6848302202949
 31
0.0
  0
LWPOLYLINE
  5
3523
330
A
100
AcDbEntity
  8
0
 62
     7
100
AcDbPolyline
 90
       20
 70
     0
 43
0.0
 10
170.8735368802583
 20
127.7298202202949
 10
170.7983568802584
 20
127.7296752202949
 10
170.7236048802583
 20
127.7292332202949
 10
170.6496988802583
 20
127.728493220295
 10
170.5770668802583
 20
127.727470220295
 10
170.5061128802583
 20
127.7261582202949
 10
170.4372498802584
 20
127.7245712202949
 10
170.3708518802583
 20
127.722717220295
 10
170.3073068802584
 20
127.7206112202949
 10
170.2469728802583
 20
127.7182622202949
 10
170.1901878802584
 20
127.715675220295
 10
170.1372628802584
 20
127.7128752202949
 10
170.0885108802584
 20
127.7098772202949
 10
170.0441988802584
 20
127.7066952202949
 10
170.0045718802583
 20
127.7033542202949
 10
169.9698658802581
 20
127.699859220295
 10
169.9402558802583
 20
127.696235220295
 10
169.9159258802584
 20
127.6925122202949
 10
169.8969978802583
 20
127.688698220295
 10
169.8835848802584
 20
127.6848302202949
  0
LWPOLYLINE
  5
3524
330
A
100
AcDbEntity
  8
0
 62
     7
100
AcDbPolyline
 90
        3
 70
     0
 43
0.0
 10
168.1389408802582
 20
127.3629682202948
 10
168.7941528802581
 20
127.3757862202949
 10
169.1289008802581
 20
127.4079522202947
  0
LINE
  5
3525
330
A
100
AcDbEntity
  8
0
 62
     7
 48
0.010048
100
AcDbLine
 10
169.1289008802581
 20
127.4079522202947
 30
0.0
 11
169.8835708802583
 21
127.6848382202949
 31
0.0
  0
LWPOLYLINE
  5
3526
330
A
100
AcDbEntity
  8
0
 62
     7
100
AcDbPolyline
 90
        3
 70
     0
 43
0.0
 10
170.8735308802584
 20
127.7298202202949
 10
170.2183168802583
 20
127.7170042202949
 10
169.8835708802583
 20
127.6848382202949
  0
ARC
  5
3529
330
A
100
AcDbEntity
  8
0
 62
     7
100
AcDbCircle
 10
219.4672808802584
 20
128.8587582202949
 30
0.0
 40
1.495386
100
AcDbArc
 50
269.8603099999981
 51
359.9781530000001
  0
LWPOLYLINE
  5
352A
330
A
100
AcDbEntity
  8
0
 62
     7
100
AcDbPolyline
 90
       10
 70
     0
 43
0.0
 10
218.8300108802583
 20
127.7425162202947
 10
219.0747328802582
 20
127.7638482202948
 10
219.312860880258
 20
127.8250662202949
 10
219.538110880258
 20
127.9246142202949
 10
219.7441968802583
 20
128.0597162202949
 10
219.9256848802582
 20
128.2269222202949
 10
220.0775088802584
 20
128.4215322202949
 10
220.1955828802585
 20
128.6384202202949
 10
220.2766368802581
 20
128.8716362202947
 10
220.3243048802583
 20
129.2404722202945
  0
LWPOLYLINE
  5
352B
330
A
100
AcDbEntity
  8
0
 62
     7
100
AcDbPolyline
 90
        3
 70
     0
 43
0.0
 10
215.1289008802581
 20
127.6848382202949
 10
214.7941528802583
 20
127.7170042202949
 10
214.1389408802579
 20
127.7298202202949
  0
LINE
  5
352C
330
A
100
AcDbEntity
  8
0
 62
     7
 48
0.032376
100
AcDbLine
 10
219.4636488802585
 20
127.3629682202948
 30
0.0
 11
216.8735308802584
 21
127.3629682202948
 31
0.0
  0
LINE
  5
352D
330
A
100
AcDbEntity
  8
0
 62
     7
 48
0.010048
100
AcDbLine
 10
215.8835708802583
 20
127.4079522202947
 30
0.0
 11
215.1289008802581
 21
127.6848382202949
 31
0.0
  0
LWPOLYLINE
  5
352E
330
A
100
AcDbEntity
  8
0
 62
     7
100
AcDbPolyline
 90
        3
 70
     0
 43
0.0
 10
215.8835708802583
 20
127.4079522202947
 10
216.2183488802583
 20
127.3757862202949
 10
216.8735308802584
 20
127.3629682202948
  0
LINE
  5
352F
330
A
100
AcDbEntity
  8
0
 62
     7
 48
0.009233
100
AcDbLine
 10
219.4636488802585
 20
127.3629682202948
 30
0.0
 11
218.8300108802583
 21
127.7425162202947
 31
0.0
  0
LWPOLYLINE
  5
3530
330
A
100
AcDbEntity
  8
0
 62
     7
100
AcDbPolyline
 90
        5
 70
     0
 43
0.0
 10
218.8300108802583
 20
127.7425162202947
 10
218.7917728802583
 20
127.7545702202949
 10
218.5726268802583
 20
127.7801442202949
 10
217.7100468802581
 20
127.811790220295
 10
217.4090828802583
 20
127.8142022202949
  0
LINE
  5
3531
330
A
100
AcDbEntity
  8
0
 62
     7
 48
0.061264
100
AcDbLine
 10
211.5776928802583
 20
134.1418082202948
 30
0.0
 11
206.8066348802581
 21
135.263482220295
 31
0.0
  0
LINE
  5
3532
330
A
100
AcDbEntity
  8
0
 62
     7
 48
0.061856
100
AcDbLine
 10
210.6016488802584
 20
133.7304622202949
 30
0.0
 11
205.7844788802579
 21
134.8629682202949
 31
0.0
  0
ARC
  5
3533
330
A
100
AcDbEntity
  8
0
 62
     7
100
AcDbCircle
 10
206.0062508802584
 20
135.8629682202947
 30
0.0
 40
1.0
100
AcDbArc
 50
270.0000009999978
 51
0.0
  0
LINE
  5
3534
330
A
100
AcDbEntity
  8
0
 62
     7
 48
0.002772
100
AcDbLine
 10
205.7844788802579
 20
134.8629682202949
 30
0.0
 11
206.0062508802584
 21
134.8629682202949
 31
0.0
  0
LWPOLYLINE
  5
3535
330
A
100
AcDbEntity
  8
0
 62
     7
100
AcDbPolyline
 90
        5
 70
     0
 43
0.0
 10
210.6016488802584
 20
133.7304622202949
 10
211.1632628802583
 20
133.8096242202949
 10
211.402642880258
 20
133.9007802202949
 10
211.5241948802584
 20
133.9977342202949
 10
211.5776928802583
 20
134.1418082202948
  0
LINE
  5
3536
330
A
100
AcDbEntity
  8
0
 62
     7
 48
0.009299
100
AcDbLine
 10
220.9624888802583
 20
128.8581782202949
 30
0.0
 11
220.3243048802583
 21
129.2404722202945
 31
0.0
  0
LWPOLYLINE
  5
3537
330
A
100
AcDbEntity
  8
0
 62
     7
100
AcDbPolyline
 90
        4
 70
     0
 43
0.0
 10
220.3500608802583
 20
175.8629682202949
 10
220.4013308802581
 20
174.4487542202949
 10
220.4580948802584
 20
174.0152222202949
 10
220.5250488802584
 20
173.8629682202947
  0
LINE
  5
3538
330
A
100
AcDbEntity
  8
0
 62
     7
 48
0.05
100
AcDbLine
 10
221.0062508802583
 20
168.8629682202945
 30
0.0
 11
221.0062508802583
 21
172.8629682202947
 31
0.0
  0
LINE
  5
3539
330
A
100
AcDbEntity
  8
0
 62
     7
 48
0.000547
100
AcDbLine
 10
221.0062508802583
 20
168.8629682202945
 30
0.0
 11
220.9624888802583
 21
168.8629682202945
 31
0.0
  0
LWPOLYLINE
  5
353A
330
A
100
AcDbEntity
  8
0
 62
     7
100
AcDbPolyline
 90
        4
 70
     0
 43
0.0
 10
221.0062508802583
 20
172.8629682202947
 10
220.9806168802583
 20
173.5700622202946
 10
220.9522348802579
 20
173.7868582202946
 10
220.9187568802584
 20
173.8629682202947
  0
LINE
  5
353B
330
A
100
AcDbEntity
  8
0
 62
     7
 48
0.004921
100
AcDbLine
 10
220.9187568802584
 20
173.8629682202947
 30
0.0
 11
220.5250488802584
 21
173.8629682202947
 31
0.0
  0
LINE
  5
353C
330
A
100
AcDbEntity
  8
0
 62
     7
 48
0.0875
100
AcDbLine
 10
220.3500608802583
 20
182.8629682202949
 30
0.0
 11
220.3500608802583
 21
175.8629682202949
 31
0.0
  0
LINE
  5
353D
330
A
100
AcDbEntity
  8
0
 62
     7
 48
0.058777
100
AcDbLine
 10
88.08913688025851
 20
270.8629682202949
 30
0.0
 11
83.4062448802585
 21
270.4378902202946
 31
0.0
  0
LINE
  5
353E
330
A
100
AcDbEntity
  8
0
 62
     7
 48
0.069976
100
AcDbLine
 10
77.00623488025843
 20
270.8629682202949
 30
0.0
 11
221.0062508802583
 21
270.8629682202949
 31
0.0
  0
LINE
  5
353F
330
A
100
AcDbEntity
  8
0
 62
     7
 48
0.064952
100
AcDbLine
 10
221.0062508802583
 20
270.8629682202949
 30
0.0
 11
82.60430288025842
 21
270.8629682202949
 31
0.0
  0
ARC
  5
3540
330
A
100
AcDbEntity
  8
0
 62
     7
100
AcDbCircle
 10
149.0059448802581
 20
26941.4240662203
 30
0.0
 40
26671.09961
100
AcDbArc
 50
269.85908
 51
270.1469590000005
  0
LINE
  5
3541
330
A
100
AcDbEntity
  8
0
 62
     7
 48
0.069976
100
AcDbLine
 10
82.60430288025842
 20
269.6629562202947
 30
0.0
 11
77.00623488025843
 21
269.6629562202947
 31
0.0
  0
LINE
  5
3542
330
A
100
AcDbEntity
  8
0
 62
     7
 48
0.058674
100
AcDbLine
 10
77.50623488025843
 20
269.1629562202947
 30
0.0
 11
82.50623488025842
 21
269.1629562202947
 31
0.0
  0
LINE
  5
3543
330
A
100
AcDbEntity
  8
0
 62
     7
 48
0.058674
100
AcDbLine
 10
77.00623488025843
 20
268.3629682202949
 30
0.0
 11
83.4062448802585
 21
268.3629682202949
 31
0.0
  0
LINE
  5
3544
330
A
100
AcDbEntity
  8
0
 62
     7
 48
0.01
100
AcDbLine
 10
77.50623488025843
 20
269.1629562202947
 30
0.0
 11
77.50623488025843
 21
268.3629682202949
 31
0.0
  0
LINE
  5
3545
330
A
100
AcDbEntity
  8
0
 62
     7
 48
0.00625
100
AcDbLine
 10
78.35622688025861
 20
269.6629562202947
 30
0.0
 11
78.35622688025861
 21
269.1629562202947
 31
0.0
  0
LINE
  5
3546
330
A
100
AcDbEntity
  8
0
 62
     7
 48
0.010024
100
AcDbLine
 10
83.4062448802585
 20
269.6629562202947
 30
0.0
 11
82.60430288025842
 21
269.6629562202947
 31
0.0
  0
LINE
  5
3547
330
A
100
AcDbEntity
  8
0
 62
     7
 48
0.015
100
AcDbLine
 10
82.60430288025842
 20
269.6629562202947
 30
0.0
 11
82.60430288025842
 21
270.8629682202949
 31
0.0
  0
LINE
  5
3548
330
A
100
AcDbEntity
  8
0
 62
     7
 48
0.000415
100
AcDbLine
 10
83.4062448802585
 20
270.4378902202946
 30
0.0
 11
83.4062448802585
 21
270.4047162202946
 31
0.0
  0
LINE
  5
3549
330
A
100
AcDbEntity
  8
0
 62
     7
 48
0.018726
100
AcDbLine
 10
83.4062448802585
 20
268.3629682202949
 30
0.0
 11
83.4062448802585
 21
270.4047162202946
 31
0.0
  0
LINE
  5
354A
330
A
100
AcDbEntity
  8
0
 62
     7
 48
0.01
100
AcDbLine
 10
82.50623488025842
 20
269.1629562202947
 30
0.0
 11
82.50623488025842
 21
268.3629682202949
 31
0.0
  0
LINE
  5
354B
330
A
100
AcDbEntity
  8
0
 62
     7
 48
0.00625
100
AcDbLine
 10
81.6562448802585
 20
269.6629562202947
 30
0.0
 11
81.6562448802585
 21
269.1629562202947
 31
0.0
  0
ARC
  5
354D
330
A
100
AcDbEntity
  8
0
 62
     7
100
AcDbCircle
 10
149.0062348802584
 20
-784.559637779705
 30
0.0
 40
1050.362669999999
100
AcDbArc
 50
86.63812899999987
 51
93.36186899999795
  0
LINE
  5
354E
330
A
100
AcDbEntity
  8
0
 62
     7
100
AcDbLine
 10
205.7844788802579
 20
262.8629682202948
 30
0.0
 11
92.22799088025844
 21
262.8629682202948
 31
0.0
  0
ARC
  5
354F
330
A
100
AcDbEntity
  8
0
 62
     7
100
AcDbCircle
 10
92.00623488025845
 20
261.862968220295
 30
0.0
 40
1.0
100
AcDbArc
 50
90.00000300000095
 51
180.0000049999995
  0
LINE
  5
3550
330
A
100
AcDbEntity
  8
0
 62
     7
 48
0.061264
100
AcDbLine
 10
91.20585088025853
 20
262.4624562202949
 30
0.0
 11
86.43479488025851
 21
263.5841302202949
 31
0.0
  0
LINE
  5
3551
330
A
100
AcDbEntity
  8
0
 62
     7
 48
0.061856
100
AcDbLine
 10
92.22799088025844
 20
262.8629682202948
 30
0.0
 11
87.41082288025854
 21
263.995476220295
 31
0.0
  0
LWPOLYLINE
  5
3552
330
A
100
AcDbEntity
  8
0
 62
     7
100
AcDbPolyline
 90
        5
 70
     0
 43
0.0
 10
87.41082288025854
 20
263.995476220295
 10
86.84922288025852
 20
263.9163142202949
 10
86.60982688025844
 20
263.825158220295
 10
86.48827688025852
 20
263.7282042202948
 10
86.43479488025848
 20
263.5841302202949
  0
LINE
  5
3553
330
A
100
AcDbEntity
  8
0
 62
     7
 48
0.002772
100
AcDbLine
 10
92.00623488025845
 20
262.8629682202948
 30
0.0
 11
92.22799088025844
 21
262.8629682202948
 31
0.0
  0
LINE
  5
3554
330
A
100
AcDbEntity
  8
0
 62
     7
 48
0.000328
100
AcDbLine
 10
87.80047088025835
 20
270.8367542202949
 30
0.0
 11
87.80047088025835
 21
270.8629682202949
 31
0.0
  0
LINE
  5
355C
330
A
100
AcDbEntity
  8
0
 62
     7
 48
0.49375
100
AcDbLine
 10
220.9624888802583
 20
228.8629682202949
 30
0.0
 11
220.9624888802583
 21
269.3677602202949
 31
0.0
  0
LINE
  5
355D
330
A
100
AcDbEntity
  8
0
 62
     7
 48
0.0875
100
AcDbLine
 10
220.3500608802583
 20
221.862968220295
 30
0.0
 11
220.3500608802583
 21
214.8629682202948
 31
0.0
  0
LINE
  5
355E
330
A
100
AcDbEntity
  8
0
 62
     7
 48
0.05
100
AcDbLine
 10
221.0062508802583
 20
224.8629682202948
 30
0.0
 11
221.0062508802583
 21
228.8629682202949
 31
0.0
  0
LWPOLYLINE
  5
355F
330
A
100
AcDbEntity
  8
0
 62
     7
100
AcDbPolyline
 90
        8
 70
     0
 43
0.0
 10
220.5250488802584
 20
223.862968220295
 10
220.5197388802583
 20
223.8620542202947
 10
220.5146128802581
 20
223.8593982202949
 10
220.5050908802581
 20
223.8499082202948
 10
220.4869948802583
 20
223.8151182202949
 10
220.4476268802584
 20
223.6565482202947
 10
220.3689208802583
 20
222.7658002202947
 10
220.3500608802583
 20
221.862968220295
  0
LINE
  5
3560
330
A
100
AcDbEntity
  8
0
 62
     7
 48
0.004921
100
AcDbLine
 10
220.9187568802584
 20
223.862968220295
 30
0.0
 11
220.5250488802584
 21
223.862968220295
 31
0.0
  0
LWPOLYLINE
  5
3561
330
A
100
AcDbEntity
  8
0
 62
     7
100
AcDbPolyline
 90
        8
 70
     0
 43
0.0
 10
220.9187568802584
 20
223.862968220295
 10
220.9208928802583
 20
223.8632742202949
 10
220.9230288802582
 20
223.864190220295
 10
220.9273328802579
 20
223.8677902202947
 10
220.9349008802584
 20
223.8801502202949
 10
220.9625188802583
 20
223.9970642202949
 10
221.0032608802583
 20
224.6043942202948
 10
221.0062508802583
 20
224.8629682202948
  0
LINE
  5
3562
330
A
100
AcDbEntity
  8
0
 62
     7
 48
0.000547
100
AcDbLine
 10
221.0062508802583
 20
228.8629682202949
 30
0.0
 11
220.9624888802583
 21
228.8629682202949
 31
0.0
  0
ARC
  5
3568
330
A
100
AcDbEntity
  8
0
 62
     7
100
AcDbCircle
 10
219.4672808802584
 20
269.3671802202949
 30
0.0
 40
1.495387999999999
100
AcDbArc
 50
0.0218920000003225
 51
90.13967299999919
  0
LWPOLYLINE
  5
3569
330
A
100
AcDbEntity
  8
0
 62
     7
100
AcDbPolyline
 90
       10
 70
     0
 43
0.0
 10
220.3243048802583
 20
268.985466220295
 10
220.3029728802583
 20
269.231072220295
 10
220.2417548802584
 20
269.4700242202948
 10
220.1422668802579
 20
269.6960082202949
 10
220.0072268802584
 20
269.902702220295
 10
219.8402968802584
 20
270.0845882202946
 10
219.6459608802583
 20
270.2366562202949
 10
219.4296208802581
 20
270.3547902202946
 10
219.1970468802583
 20
270.4358442202948
 10
218.8300108802583
 20
270.4834222202948
  0
LINE
  5
356A
330
A
100
AcDbEntity
  8
0
 62
     7
 48
0.061856
100
AcDbLine
 10
210.6016488802584
 20
263.995476220295
 30
0.0
 11
205.7844788802579
 21
262.8629682202948
 31
0.0
  0
LINE
  5
356B
330
A
100
AcDbEntity
  8
0
 62
     7
 48
0.061264
100
AcDbLine
 10
211.5776928802583
 20
263.5841302202949
 30
0.0
 11
206.8066348802581
 21
262.4624562202949
 31
0.0
  0
ARC
  5
356C
330
A
100
AcDbEntity
  8
0
 62
     7
100
AcDbCircle
 10
206.0062508802584
 20
261.862968220295
 30
0.0
 40
1.0
100
AcDbArc
 50
0.0
 51
90.00000899999959
  0
LINE
  5
356D
330
A
100
AcDbEntity
  8
0
 62
     7
 48
0.002772
100
AcDbLine
 10
205.7844788802579
 20
262.8629682202948
 30
0.0
 11
206.0062508802584
 21
262.8629682202948
 31
0.0
  0
LWPOLYLINE
  5
356E
330
A
100
AcDbEntity
  8
0
 62
     7
100
AcDbPolyline
 90
        5
 70
     0
 43
0.0
 10
210.6016488802584
 20
263.995476220295
 10
211.1632628802583
 20
263.9163142202949
 10
211.402642880258
 20
263.825158220295
 10
211.5241948802584
 20
263.7282042202948
 10
211.5776928802583
 20
263.5841302202949
  0
LINE
  5
356F
330
A
100
AcDbEntity
  8
0
 62
     7
 48
0.009233
100
AcDbLine
 10
219.4636488802585
 20
270.8629682202949
 30
0.0
 11
218.8300108802583
 21
270.4834222202948
 31
0.0
  0
LWPOLYLINE
  5
3570
330
A
100
AcDbEntity
  8
0
 62
     7
100
AcDbPolyline
 90
        4
 70
     0
 43
0.0
 10
217.4090828802583
 20
270.4117362202949
 10
218.3758488802584
 20
270.4336482202949
 10
218.6890508802583
 20
270.4563522202949
 10
218.8300108802583
 20
270.4834222202948
  0
LINE
  5
3571
330
A
100
AcDbEntity
  8
0
 62
     7
 48
0.009299
100
AcDbLine
 10
220.9624888802583
 20
269.3677602202949
 30
0.0
 11
220.3243048802583
 21
268.985466220295
 31
0.0
  0
VIEWPORT
  5
3458
330
B
100
AcDbEntity
 67
     1
  8
0
 62
     0
100
AcDbViewport
 10
0.0
 20
0.0
 30
0.0
 40
1000.0
 41
1000.0
 68
     1
 69
     1
 12
0.0
 22
0.0
 13
0.0
 23
0.0
 14
1.0
 24
1.0
 15
1.0
 25
1.0
 16
0.0
 26
0.0
 36
1.0
 17
0.0
 27
0.0
 37
0.0
 42
50.0
 43
0.0
 44
0.0
 45
1000.0
 50
0.0
 51
0.0
 72
   100
 90
    32800
  1

281
     0
 71
     1
 74
     0
110
0.0
120
0.0
130
0.0
111
1.0
121
0.0
131
0.0
112
0.0
122
1.0
132
0.0
 79
     0
146
0.0
  0
ENDSEC
  0
SECTION
  2
OBJECTS
  0
DICTIONARY
  5
19
330
0
100
AcDbDictionary
281
     1
  3
ACAD_GROUP
350
1A
  3
ACAD_LAYOUT
350
345F
  3
ACAD_MLINESTYLE
350
1B
  3
ACAD_PLOTSETTINGS
350
3460
  3
ACAD_PLOTSTYLENAME
350
345D
  0
DICTIONARY
  5
1A
102
{ACAD_REACTORS
330
19
102
}
330
19
100
AcDbDictionary
281
     1
  0
DICTIONARY
  5
345F
102
{ACAD_REACTORS
330
19
102
}
330
19
100
AcDbDictionary
281
     1
  3
Model
350
3461
  3
ﾚｲｱｳﾄ1
350
3462
  0
DICTIONARY
  5
1B
102
{ACAD_REACTORS
330
19
102
}
330
19
100
AcDbDictionary
281
     1
  3
STANDARD
350
1C
  0
DICTIONARY
  5
3460
102
{ACAD_REACTORS
330
19
102
}
330
19
100
AcDbDictionary
281
     1
  0
ACDBDICTIONARYWDFLT
  5
345D
102
{ACAD_REACTORS
330
19
102
}
330
19
100
AcDbDictionary
281
     1
  3
Normal
350
345E
100
AcDbDictionaryWithDefault
340
345E
  0
LAYOUT
  5
3461
102
{ACAD_REACTORS
330
345F
102
}
330
345F
100
AcDbPlotSettings
  1

  2
Canon iR-ADV C5030/5035 LIPSLX
  4

  6

 40
0.0
 41
0.0
 42
0.0
 43
0.0
 44
0.0
 45
0.0
 46
0.0
 47
0.0
 48
0.0
 49
0.0
140
0.0
141
0.0
142
1.0
143
1.0
 70
  1712
 72
     0
 73
     0
 74
     0
  7

 75
     0
147
1.0
148
0.0
149
0.0
100
AcDbLayout
  1
Model
 70
     1
 71
     0
 10
0.0
 20
0.0
 11
12.0
 21
9.0
 12
0.0
 22
0.0
 32
0.0
 14
0.0
 24
0.0
 34
0.0
 15
0.0
 25
0.0
 35
0.0
146
0.0
 13
0.0
 23
0.0
 33
0.0
 16
1.0
 26
0.0
 36
0.0
 17
0.0
 27
1.0
 37
0.0
 76
     0
330
A
  0
LAYOUT
  5
3462
102
{ACAD_REACTORS
330
345F
102
}
330
345F
100
AcDbPlotSettings
  1

  2
Canon iR-ADV C5030/5035 LIPSLX
  4

  6

 40
0.0
 41
0.0
 42
0.0
 43
0.0
 44
0.0
 45
0.0
 46
0.0
 47
0.0
 48
0.0
 49
0.0
140
0.0
141
0.0
142
1.0
143
1.0
 70
   688
 72
     0
 73
     0
 74
     5
  7

 75
    16
147
1.0
148
0.0
149
0.0
100
AcDbLayout
  1
ﾚｲｱｳﾄ1
 70
     1
 71
     1
 10
0.0
 20
0.0
 11
420.0
 21
297.0
 12
0.0
 22
0.0
 32
0.0
 14
0.0
 24
0.0
 34
0.0
 15
401.4999999999998
 25
275.0
 35
2.0
146
0.0
 13
0.0
 23
0.0
 33
0.0
 16
1.0
 26
0.0
 36
0.0
 17
0.0
 27
1.0
 37
0.0
 76
     0
330
B
331
3458
  0
MLINESTYLE
  5
1C
102
{ACAD_REACTORS
330
1B
102
}
330
1B
100
AcDbMlineStyle
  2
STANDARD
 70
     0
  3

 62
     0
 51
90.0
 52
90.0
 71
     2
 49
0.5
 62
   256
  6
BYLAYER
 49
-0.5
 62
   256
  6
BYLAYER
  0
ACDBPLACEHOLDER
  5
345E
102
{ACAD_REACTORS
330
345D
102
}
330
345D
  0
ENDSEC
  0
EOF
