  0
SECTION
  2
HEADER
  9
$ACADVER
  1
AC1015
  9
$ACADMAINTVER
 70
    10
  9
$DWGCODEPAGE
  3
ANSI_932
  9
$INSBASE
 10
0.0
 20
0.0
 30
0.0
  9
$EXTMIN
 10
76.74128700000057
 20
127.8914315799871
 30
0.0
  9
$EXTMAX
 10
554.4257121936249
 20
272.3676358863038
 30
0.0
  9
$LIMMIN
 10
0.0
 20
0.0
  9
$LIMMAX
 10
420.0
 20
297.0
  9
$ORTHOMODE
 70
     0
  9
$REGENMODE
 70
     1
  9
$FILLMODE
 70
     1
  9
$QTEXTMODE
 70
     0
  9
$MIRRTEXT
 70
     1
  9
$LTSCALE
 40
1.0
  9
$ATTMODE
 70
     1
  9
$TEXTSIZE
 40
0.0
  9
$TRACEWID
 40
1.0
  9
$TEXTSTYLE
  7
STANDARD
  9
$CLAYER
  8
0
  9
$CELTYPE
  6
BYLAYER
  9
$CECOLOR
 62
   256
  9
$CELTSCALE
 40
1.0
  9
$DISPSILH
 70
     0
  9
$DIMSCALE
 40
1.0
  9
$DIMASZ
 40
2.5
  9
$DIMEXO
 40
0.625
  9
$DIMDLI
 40
3.75
  9
$DIMRND
 40
0.0
  9
$DIMDLE
 40
0.0
  9
$DIMEXE
 40
1.25
  9
$DIMTP
 40
0.0
  9
$DIMTM
 40
0.0
  9
$DIMTXT
 40
2.5
  9
$DIMCEN
 40
2.5
  9
$DIMTSZ
 40
0.0
  9
$DIMTOL
 70
     0
  9
$DIMLIM
 70
     0
  9
$DIMTIH
 70
     0
  9
$DIMTOH
 70
     0
  9
$DIMSE1
 70
     0
  9
$DIMSE2
 70
     0
  9
$DIMTAD
 70
     1
  9
$DIMZIN
 70
     8
  9
$DIMBLK
  1

  9
$DIMASO
 70
     1
  9
$DIMSHO
 70
     1
  9
$DIMPOST
  1

  9
$DIMAPOST
  1

  9
$DIMALT
 70
     0
  9
$DIMALTD
 70
     3
  9
$DIMALTF
 40
0.03937
  9
$DIMLFAC
 40
1.0
  9
$DIMTOFL
 70
     1
  9
$DIMTVP
 40
0.0
  9
$DIMTIX
 70
     0
  9
$DIMSOXD
 70
     0
  9
$DIMSAH
 70
     0
  9
$DIMBLK1
  1

  9
$DIMBLK2
  1

  9
$DIMSTYLE
  2
STANDARD
  9
$DIMCLRD
 70
     0
  9
$DIMCLRE
 70
     0
  9
$DIMCLRT
 70
     0
  9
$DIMTFAC
 40
1.0
  9
$DIMGAP
 40
0.625
  9
$DIMJUST
 70
     0
  9
$DIMSD1
 70
     0
  9
$DIMSD2
 70
     0
  9
$DIMTOLJ
 70
     0
  9
$DIMTZIN
 70
     8
  9
$DIMALTZ
 70
     0
  9
$DIMALTTZ
 70
     0
  9
$DIMUPT
 70
     0
  9
$DIMDEC
 70
     2
  9
$DIMTDEC
 70
     2
  9
$DIMALTU
 70
     2
  9
$DIMALTTD
 70
     3
  9
$DIMTXSTY
  7
STANDARD
  9
$DIMAUNIT
 70
     0
  9
$DIMADEC
 70
     0
  9
$DIMALTRND
 40
0.0
  9
$DIMAZIN
 70
     0
  9
$DIMDSEP
 70
    46
  9
$DIMATFIT
 70
     3
  9
$DIMFRAC
 70
     0
  9
$DIMLDRBLK
  1

  9
$DIMLUNIT
 70
     2
  9
$DIMLWD
 70
    -2
  9
$DIMLWE
 70
    -2
  9
$DIMTMOVE
 70
     0
  9
$LUNITS
 70
     2
  9
$LUPREC
 70
     4
  9
$SKETCHINC
 40
1.0
  9
$FILLETRAD
 40
2.5
  9
$AUNITS
 70
     0
  9
$AUPREC
 70
     0
  9
$MENU
  1
.
  9
$ELEVATION
 40
0.0
  9
$PELEVATION
 40
0.0
  9
$THICKNESS
 40
0.0
  9
$LIMCHECK
 70
     0
  9
$CHAMFERA
 40
2.5
  9
$CHAMFERB
 40
2.5
  9
$CHAMFERC
 40
0.0
  9
$CHAMFERD
 40
0.0
  9
$SKPOLY
 70
     0
  9
$TDCREATE
 40
2312275.082421388
  9
$TDUCREATE
 40
2312274.707421388
  9
$TDUPDATE
 40
2456493.756666539
  9
$TDUUPDATE
 40
2456493.381666539
  9
$TDINDWG
 40
0.0201990509
  9
$TDUSRTIMER
 40
0.0201970602
  9
$USRTIMER
 70
     1
  9
$ANGBASE
 50
0.0
  9
$ANGDIR
 70
     0
  9
$PDMODE
 70
     0
  9
$PDSIZE
 40
0.0
  9
$PLINEWID
 40
0.0
  9
$SPLFRAME
 70
     0
  9
$SPLINETYPE
 70
     6
  9
$SPLINESEGS
 70
     8
  9
$HANDSEED
  5
3703
  9
$SURFTAB1
 70
     6
  9
$SURFTAB2
 70
     6
  9
$SURFTYPE
 70
     6
  9
$SURFU
 70
     6
  9
$SURFV
 70
     6
  9
$UCSBASE
  2

  9
$UCSNAME
  2

  9
$UCSORG
 10
0.0
 20
0.0
 30
0.0
  9
$UCSXDIR
 10
1.0
 20
0.0
 30
0.0
  9
$UCSYDIR
 10
0.0
 20
1.0
 30
0.0
  9
$UCSORTHOREF
  2

  9
$UCSORTHOVIEW
 70
     0
  9
$UCSORGTOP
 10
0.0
 20
0.0
 30
0.0
  9
$UCSORGBOTTOM
 10
0.0
 20
0.0
 30
0.0
  9
$UCSORGLEFT
 10
0.0
 20
0.0
 30
0.0
  9
$UCSORGRIGHT
 10
0.0
 20
0.0
 30
0.0
  9
$UCSORGFRONT
 10
0.0
 20
0.0
 30
0.0
  9
$UCSORGBACK
 10
0.0
 20
0.0
 30
0.0
  9
$PUCSBASE
  2

  9
$PUCSNAME
  2

  9
$PUCSORG
 10
0.0
 20
0.0
 30
0.0
  9
$PUCSXDIR
 10
1.0
 20
0.0
 30
0.0
  9
$PUCSYDIR
 10
0.0
 20
1.0
 30
0.0
  9
$PUCSORTHOREF
  2

  9
$PUCSORTHOVIEW
 70
     0
  9
$PUCSORGTOP
 10
0.0
 20
0.0
 30
0.0
  9
$PUCSORGBOTTOM
 10
0.0
 20
0.0
 30
0.0
  9
$PUCSORGLEFT
 10
0.0
 20
0.0
 30
0.0
  9
$PUCSORGRIGHT
 10
0.0
 20
0.0
 30
0.0
  9
$PUCSORGFRONT
 10
0.0
 20
0.0
 30
0.0
  9
$PUCSORGBACK
 10
0.0
 20
0.0
 30
0.0
  9
$USERI1
 70
     0
  9
$USERI2
 70
     0
  9
$USERI3
 70
     0
  9
$USERI4
 70
     0
  9
$USERI5
 70
     0
  9
$USERR1
 40
0.0
  9
$USERR2
 40
0.0
  9
$USERR3
 40
0.0
  9
$USERR4
 40
0.0
  9
$USERR5
 40
0.0
  9
$WORLDVIEW
 70
     1
  9
$SHADEDGE
 70
     3
  9
$SHADEDIF
 70
    70
  9
$TILEMODE
 70
     1
  9
$MAXACTVP
 70
    48
  9
$PINSBASE
 10
0.0
 20
0.0
 30
0.0
  9
$PLIMCHECK
 70
     0
  9
$PEXTMIN
 10
0.0
 20
0.0
 30
0.0
  9
$PEXTMAX
 10
401.4999999999998
 20
275.0
 30
2.0
  9
$PLIMMIN
 10
0.0
 20
0.0
  9
$PLIMMAX
 10
420.0
 20
297.0
  9
$UNITMODE
 70
     0
  9
$VISRETAIN
 70
     0
  9
$PLINEGEN
 70
     0
  9
$PSLTSCALE
 70
     1
  9
$TREEDEPTH
 70
  3020
  9
$CMLSTYLE
  2
STANDARD
  9
$CMLJUST
 70
     0
  9
$CMLSCALE
 40
20.0
  9
$PROXYGRAPHICS
 70
     1
  9
$MEASUREMENT
 70
     1
  9
$CELWEIGHT
370
    -1
  9
$ENDCAPS
280
     0
  9
$JOINSTYLE
280
     0
  9
$LWDISPLAY
290
     0
  9
$INSUNITS
 70
     0
  9
$HYPERLINKBASE
  1

  9
$STYLESHEET
  1

  9
$XEDIT
290
     1
  9
$CEPSNTYPE
380
     0
  9
$PSTYLEMODE
290
     1
  9
$FINGERPRINTGUID
  2
{08D1AA1C-2757-4711-9806-1417CDC2FD2D}
  9
$VERSIONGUID
  2
{A65AC5A4-3AEF-42E0-ADEC-111BE7A646BE}
  9
$EXTNAMES
290
     1
  9
$PSVPSCALE
 40
0.0
  9
$OLESTARTUP
290
     0
  0
ENDSEC
  0
SECTION
  2
CLASSES
  0
CLASS
  1
LWPOLYLINE
  2
AcDbPolyline
  3
AutoCAD 2000
 90
    32768
280
     0
281
     1
  0
CLASS
  1
IMAGE
  2
AcDbRasterImage
  3
ISM
 90
    32895
280
     0
281
     1
  0
CLASS
  1
OLE2FRAME
  2
AcDbOle2Frame
  3
AutoCAD 2000
 90
    32768
280
     0
281
     1
  0
CLASS
  1
HATCH
  2
AcDbHatch
  3
AutoCAD 2000
 90
    32768
280
     0
281
     1
  0
CLASS
  1
DICTIONARYVAR
  2
AcDbDictionaryVar
  3
AutoCAD 2000
 90
    32768
280
     0
281
     0
  0
CLASS
  1
RASTERVARIABLES
  2
AcDbRasterVariables
  3
ISM
 90
    32768
280
     0
281
     0
  0
CLASS
  1
IMAGEDEF
  2
AcDbRasterImageDef
  3
ISM
 90
    32768
280
     0
281
     0
  0
CLASS
  1
IMAGEDEF_REACTOR
  2
AcDbRasterImageDefReactor
  3
ISM
 90
    32769
280
     0
281
     0
  0
CLASS
  1
IDBUFFER
  2
AcDbIdBuffer
  3
AutoCAD 2000
 90
    32768
280
     0
281
     0
  0
CLASS
  1
SPATIAL_FILTER
  2
AcDbSpatialFilter
  3
AutoCAD 2000
 90
    32768
280
     0
281
     0
  0
CLASS
  1
XRECORD
  2
AcDbXrecord
  3
AutoCAD 2000
 90
    32768
280
     0
281
     0
  0
CLASS
  1
SORTENTSTABLE
  2
AcDbSortentsTable
  3
AutoCAD 2000
 90
    32768
280
     0
281
     0
  0
CLASS
  1
LAYER_INDEX
  2
AcDbLayerIndex
  3
AutoCAD 2000
 90
    32768
280
     0
281
     0
  0
CLASS
  1
SPATIAL_INDEX
  2
AcDbSpatialIndex
  3
AutoCAD 2000
 90
    32768
280
     0
281
     0
  0
CLASS
  1
OBJECT_PTR
  2
CAseDLPNTableRecord
  3
"ASE-LPNTableRecord"
 90
    32769
280
     0
281
     0
  0
CLASS
  1
LAYOUT
  2
AcDbLayout
  3
AutoCAD 2000
 90
        0
280
     0
281
     0
  0
CLASS
  1
PLOTSETTINGS
  2
AcDbPlotSettings
  3
AutoCAD 2000
 90
    32768
280
     0
281
     0
  0
CLASS
  1
ACDBDICTIONARYWDFLT
  2
AcDbDictionaryWithDefault
  3
AutoCAD 2000
 90
        0
280
     0
281
     0
  0
CLASS
  1
ACDBPLACEHOLDER
  2
AcDbPlaceHolder
  3
AutoCAD 2000
 90
        0
280
     0
281
     0
  0
CLASS
  1
VBA_PROJECT
  2
AcDbVbaProject
  3
"acadvba"
 90
    32768
280
     0
281
     0
  0
CLASS
  1
WIPEOUT
  2
AcDbWipeout
  3
WipeOut|AutoCAD Express Tool|expresstools@autodesk.com
 90
    32895
280
     0
281
     1
  0
CLASS
  1
WIPEOUTVARIABLES
  2
AcDbWipeoutVariables
  3
WipeOut|AutoCAD Express Tool|expresstools@autodesk.com
 90
    32768
280
     0
281
     0
  0
CLASS
  1
RTEXT
  2
RText
  3
RText|AutoCAD Express Tool|expresstools@autodesk.com
 90
    32768
280
     0
281
     1
  0
CLASS
  1
ARCALIGNEDTEXT
  2
AcDbArcAlignedText
  3
ATEXT|AutoCAD Express Tool|expresstools@autodesk.com
 90
    32768
280
     0
281
     1
  0
ENDSEC
  0
SECTION
  2
TABLES
  0
TABLE
  2
VPORT
  5
7
330
0
100
AcDbSymbolTable
 70
     3
  0
VPORT
  5
3702
330
7
100
AcDbSymbolTableRecord
100
AcDbViewportTableRecord
  2
*Active
 70
     0
 10
0.0
 20
0.0
 11
1.0
 21
1.0
 12
313.9369409738575
 22
196.3277223265524
 13
0.0
 23
0.0
 14
1.0
 24
1.0
 15
0.0
 25
0.0
 16
0.0
 26
0.0
 36
1.0
 17
0.0
 27
0.0
 37
0.0
 40
287.3992424051648
 41
1.794625719769673
 42
50.0
 43
0.0
 44
0.0
 50
0.0
 51
0.0
 71
     0
 72
   100
 73
     1
 74
     1
 75
     0
 76
     0
 77
     0
 78
     0
281
     0
 65
     1
110
0.0
120
0.0
130
0.0
111
1.0
121
0.0
131
0.0
112
0.0
122
1.0
132
0.0
 79
     0
146
0.0
  0
ENDTAB
  0
TABLE
  2
LTYPE
  5
4
330
0
100
AcDbSymbolTable
 70
     2
  0
LTYPE
  5
11
330
4
100
AcDbSymbolTableRecord
100
AcDbLinetypeTableRecord
  2
BYBLOCK
 70
     0
  3

 72
    65
 73
     0
 40
0.0
  0
LTYPE
  5
12
330
4
100
AcDbSymbolTableRecord
100
AcDbLinetypeTableRecord
  2
BYLAYER
 70
     0
  3

 72
    65
 73
     0
 40
0.0
  0
LTYPE
  5
13
330
4
100
AcDbSymbolTableRecord
100
AcDbLinetypeTableRecord
  2
CONTINUOUS
 70
     0
  3
Solid line
 72
    65
 73
     0
 40
0.0
  0
ENDTAB
  0
TABLE
  2
LAYER
  5
2
330
0
100
AcDbSymbolTable
 70
     1
  0
LAYER
  5
14
330
2
100
AcDbSymbolTableRecord
100
AcDbLayerTableRecord
  2
0
 70
     0
 62
     7
  6
CONTINUOUS
370
    -3
390
35F9
  0
ENDTAB
  0
TABLE
  2
STYLE
  5
3
330
0
100
AcDbSymbolTable
 70
     1
  0
STYLE
  5
17
330
3
100
AcDbSymbolTableRecord
100
AcDbTextStyleTableRecord
  2
STANDARD
 70
     0
 40
0.0
 41
1.0
 50
0.0
 71
     0
 42
0.0
  3
txt
  4

  0
ENDTAB
  0
TABLE
  2
VIEW
  5
5
330
0
100
AcDbSymbolTable
 70
     0
  0
ENDTAB
  0
TABLE
  2
UCS
  5
6
330
0
100
AcDbSymbolTable
 70
     0
  0
ENDTAB
  0
TABLE
  2
APPID
  5
8
330
0
100
AcDbSymbolTable
 70
     1
  0
APPID
  5
16
330
8
100
AcDbSymbolTableRecord
100
AcDbRegAppTableRecord
  2
ACAD
 70
     0
  0
ENDTAB
  0
TABLE
  2
DIMSTYLE
  5
9
330
0
100
AcDbSymbolTable
 70
     1
100
AcDbDimStyleTable
 71
     1
340
18
  0
DIMSTYLE
105
18
330
9
100
AcDbSymbolTableRecord
100
AcDbDimStyleTableRecord
  2
STANDARD
 70
     0
340
17
  0
ENDTAB
  0
TABLE
  2
BLOCK_RECORD
  5
1
330
0
100
AcDbSymbolTable
 70
     0
  0
BLOCK_RECORD
  5
A
330
1
100
AcDbSymbolTableRecord
100
AcDbBlockTableRecord
  2
*MODEL_SPACE
340
35FC
  0
BLOCK_RECORD
  5
B
330
1
100
AcDbSymbolTableRecord
100
AcDbBlockTableRecord
  2
*PAPER_SPACE
340
35FD
  0
ENDTAB
  0
ENDSEC
  0
SECTION
  2
BLOCKS
  0
BLOCK
  5
D
330
A
100
AcDbEntity
  8
0
100
AcDbBlockBegin
  2
*MODEL_SPACE
 70
     0
 10
0.0
 20
0.0
 30
0.0
  3
*MODEL_SPACE
  1

  0
ENDBLK
  5
E
330
A
100
AcDbEntity
  8
0
100
AcDbBlockEnd
  0
BLOCK
  5
F
330
B
100
AcDbEntity
 67
     1
  8
0
100
AcDbBlockBegin
  2
*PAPER_SPACE
 70
     0
 10
0.0
 20
0.0
 30
0.0
  3
*PAPER_SPACE
  1

  0
ENDBLK
  5
10
330
B
100
AcDbEntity
 67
     1
  8
0
100
AcDbBlockEnd
  0
ENDSEC
  0
SECTION
  2
ENTITIES
  0
POINT
  5
342F
330
A
100
AcDbEntity
  8
0
 62
     7
100
AcDbPoint
 10
280.682343
 20
130.6471869999994
 30
0.0
  0
LINE
  5
343E
330
A
100
AcDbEntity
  8
0
 62
     7
100
AcDbLine
 10
304.3874030000005
 20
128.8571169999999
 30
0.0
 11
304.3874030000005
 21
271.2571410000003
 31
0.0
  0
ARC
  5
3440
330
A
100
AcDbEntity
  8
0
 62
     7
100
AcDbCircle
 10
303.5874030000005
 20
271.2571410000003
 30
0.0
 40
0.8000000000000021
100
AcDbArc
 50
0.0
 51
90.00000300000001
  0
LINE
  5
3441
330
A
100
AcDbEntity
  8
0
 62
     7
 48
0.13375
100
AcDbLine
 10
303.5874030000005
 20
272.057129
 30
0.0
 11
292.8873910000005
 21
272.057129
 31
0.0
  0
LINE
  5
3449
330
A
100
AcDbEntity
  8
0
 62
     7
 48
0.13375
100
AcDbLine
 10
303.5874030000005
 20
128.057129
 30
0.0
 11
292.8873910000005
 21
128.057129
 31
0.0
  0
ARC
  5
344A
330
A
100
AcDbEntity
  8
0
 62
     7
100
AcDbCircle
 10
303.5874030000005
 20
128.8571169999999
 30
0.0
 40
0.8000000000000021
100
AcDbArc
 50
270.000001
 51
0.0
  0
LINE
  5
344F
330
A
100
AcDbEntity
  8
0
 62
     7
 48
0.01875
100
AcDbLine
 10
282.3873910000003
 20
272.057129
 30
0.0
 11
283.8873910000003
 21
272.057129
 31
0.0
  0
LINE
  5
3450
330
A
100
AcDbEntity
  8
0
 62
     7
 48
0.1125
100
AcDbLine
 10
292.8873910000005
 20
272.057129
 30
0.0
 11
283.8873910000003
 21
272.057129
 31
0.0
  0
LINE
  5
3452
330
A
100
AcDbEntity
  8
0
 62
     7
 48
0.1125
100
AcDbLine
 10
292.8873910000005
 20
128.057129
 30
0.0
 11
282.3873910000003
 21
128.057129
 31
0.0
  0
LINE
  5
3453
330
A
100
AcDbEntity
  8
0
 62
     7
 48
0.005569
100
AcDbLine
 10
283.8873910000003
 20
271.6115730000002
 30
0.0
 11
283.8873910000003
 21
272.057129
 31
0.0
  0
LINE
  5
3454
330
A
100
AcDbEntity
  8
0
 62
     7
 48
0.011817
100
AcDbLine
 10
283.8873910000003
 20
129.0025029999998
 30
0.0
 11
283.8873910000003
 21
128.057129
 31
0.0
  0
LINE
  5
3455
330
A
100
AcDbEntity
  8
0
 62
     7
 48
0.006551
100
AcDbLine
 10
282.3873910000003
 20
271.5330810000003
 30
0.0
 11
282.3873910000003
 21
272.057129
 31
0.0
  0
LINE
  5
3456
330
A
100
AcDbEntity
  8
0
 62
     7
 48
0.012801
100
AcDbLine
 10
282.3873910000003
 20
128.057129
 30
0.0
 11
282.3873910000003
 21
129.0811769999999
 31
0.0
  0
LINE
  5
3457
330
A
100
AcDbEntity
  8
0
 62
     7
100
AcDbLine
 10
304.3873910000003
 20
131.5571289999998
 30
0.0
 11
304.3873910000003
 21
268.5571290000002
 31
0.0
  0
LINE
  5
3458
330
A
100
AcDbEntity
  8
0
 62
     7
 48
0.41875
100
AcDbLine
 10
539.3873910000008
 20
235.0571290000003
 30
0.0
 11
539.3873910000008
 21
268.5571290000002
 31
0.0
  0
LINE
  5
3459
330
A
100
AcDbEntity
  8
0
 62
     7
100
AcDbLine
 10
304.3873910000003
 20
131.5571289999998
 30
0.0
 11
529.3873910000012
 21
131.5571289999998
 31
0.0
  0
LINE
  5
345A
330
A
100
AcDbEntity
  8
0
 62
     7
 48
0.05
100
AcDbLine
 10
538.3873910000012
 20
234.0571290000001
 30
0.0
 11
534.3873910000012
 21
234.0571290000001
 31
0.0
  0
LINE
  5
345B
330
A
100
AcDbEntity
  8
0
 62
     7
100
AcDbLine
 10
534.3873910000012
 20
234.0571290000001
 30
0.0
 11
534.3873910000012
 21
136.557129
 31
0.0
  0
ARC
  5
345C
330
A
100
AcDbEntity
  8
0
 62
     7
100
AcDbCircle
 10
529.3873910000012
 20
136.557129
 30
0.0
 40
5.000000000000011
100
AcDbArc
 50
270.000001
 51
0.00001
  0
LINE
  5
345D
330
A
100
AcDbEntity
  8
0
 62
     7
100
AcDbLine
 10
304.3873910000003
 20
268.5571290000002
 30
0.0
 11
539.3873910000008
 21
268.5571290000002
 31
0.0
  0
ARC
  5
345E
330
A
100
AcDbEntity
  8
0
 62
     7
100
AcDbCircle
 10
538.3873910000012
 20
235.0571290000003
 30
0.0
 40
1.000000000000001
100
AcDbArc
 50
270.000001
 51
0.0
  0
LINE
  5
345F
330
A
100
AcDbEntity
  8
0
 62
     7
 48
0.345
100
AcDbLine
 10
498.5874030000005
 20
264.2571410000003
 30
0.0
 11
526.1873790000012
 21
264.2571410000003
 31
0.0
  0
ARC
  5
3460
330
A
100
AcDbEntity
  8
0
 62
     7
100
AcDbCircle
 10
498.5874030000005
 20
263.0571290000003
 30
0.0
 40
1.200000000000003
100
AcDbArc
 50
90.00000300000001
 51
270.000001
  0
LINE
  5
3461
330
A
100
AcDbEntity
  8
0
 62
     7
 48
0.345
100
AcDbLine
 10
526.1873790000012
 20
261.8571170000003
 30
0.0
 11
498.5874030000005
 21
261.8571170000003
 31
0.0
  0
ARC
  5
3462
330
A
100
AcDbEntity
  8
0
 62
     7
100
AcDbCircle
 10
526.1873790000012
 20
263.0571290000003
 30
0.0
 40
1.200000000000003
100
AcDbArc
 50
270.000001
 51
90.00000300000001
  0
LINE
  5
3463
330
A
100
AcDbEntity
  8
0
 62
     7
 48
0.345
100
AcDbLine
 10
460.5874030000008
 20
264.2571410000003
 30
0.0
 11
488.1873790000007
 21
264.2571410000003
 31
0.0
  0
ARC
  5
3464
330
A
100
AcDbEntity
  8
0
 62
     7
100
AcDbCircle
 10
460.5874030000008
 20
263.0571290000003
 30
0.0
 40
1.200000000000003
100
AcDbArc
 50
90.00000300000001
 51
270.000001
  0
LINE
  5
3465
330
A
100
AcDbEntity
  8
0
 62
     7
 48
0.345
100
AcDbLine
 10
488.1873790000007
 20
261.8571170000003
 30
0.0
 11
460.5874030000008
 21
261.8571170000003
 31
0.0
  0
ARC
  5
3466
330
A
100
AcDbEntity
  8
0
 62
     7
100
AcDbCircle
 10
488.1873790000007
 20
263.0571290000003
 30
0.0
 40
1.200000000000003
100
AcDbArc
 50
270.000001
 51
90.00000300000001
  0
LINE
  5
3467
330
A
100
AcDbEntity
  8
0
 62
     7
 48
0.345
100
AcDbLine
 10
422.5874030000007
 20
264.2571410000003
 30
0.0
 11
450.1873790000008
 21
264.2571410000003
 31
0.0
  0
ARC
  5
3468
330
A
100
AcDbEntity
  8
0
 62
     7
100
AcDbCircle
 10
422.5874030000007
 20
263.0571290000003
 30
0.0
 40
1.200000000000003
100
AcDbArc
 50
90.00000300000001
 51
270.000001
  0
LINE
  5
3469
330
A
100
AcDbEntity
  8
0
 62
     7
 48
0.345
100
AcDbLine
 10
450.1873790000008
 20
261.8571170000003
 30
0.0
 11
422.5874030000007
 21
261.8571170000003
 31
0.0
  0
ARC
  5
346A
330
A
100
AcDbEntity
  8
0
 62
     7
100
AcDbCircle
 10
450.1873790000008
 20
263.0571290000003
 30
0.0
 40
1.200000000000003
100
AcDbArc
 50
270.000001
 51
90.00000300000001
  0
LINE
  5
346B
330
A
100
AcDbEntity
  8
0
 62
     7
 48
0.345
100
AcDbLine
 10
498.5874030000005
 20
258.2571410000003
 30
0.0
 11
526.1873790000012
 21
258.2571410000003
 31
0.0
  0
ARC
  5
346C
330
A
100
AcDbEntity
  8
0
 62
     7
100
AcDbCircle
 10
498.5874030000005
 20
257.0571290000003
 30
0.0
 40
1.200000000000003
100
AcDbArc
 50
90.00000300000001
 51
270.000001
  0
LINE
  5
346D
330
A
100
AcDbEntity
  8
0
 62
     7
 48
0.345
100
AcDbLine
 10
526.1873790000012
 20
255.8571170000003
 30
0.0
 11
498.5874030000005
 21
255.8571170000003
 31
0.0
  0
ARC
  5
346E
330
A
100
AcDbEntity
  8
0
 62
     7
100
AcDbCircle
 10
526.1873790000012
 20
257.0571290000003
 30
0.0
 40
1.200000000000003
100
AcDbArc
 50
270.000001
 51
90.00000300000001
  0
LINE
  5
346F
330
A
100
AcDbEntity
  8
0
 62
     7
 48
0.345
100
AcDbLine
 10
422.5874030000007
 20
258.2571410000003
 30
0.0
 11
450.1873790000008
 21
258.2571410000003
 31
0.0
  0
ARC
  5
3470
330
A
100
AcDbEntity
  8
0
 62
     7
100
AcDbCircle
 10
422.5874030000007
 20
257.0571290000003
 30
0.0
 40
1.200000000000003
100
AcDbArc
 50
90.00000300000001
 51
270.000001
  0
LINE
  5
3471
330
A
100
AcDbEntity
  8
0
 62
     7
 48
0.345
100
AcDbLine
 10
450.1873790000008
 20
255.8571170000003
 30
0.0
 11
422.5874030000007
 21
255.8571170000003
 31
0.0
  0
ARC
  5
3472
330
A
100
AcDbEntity
  8
0
 62
     7
100
AcDbCircle
 10
450.1873790000008
 20
257.0571290000003
 30
0.0
 40
1.200000000000003
100
AcDbArc
 50
270.000001
 51
90.00000300000001
  0
LINE
  5
3473
330
A
100
AcDbEntity
  8
0
 62
     7
 48
0.345
100
AcDbLine
 10
460.5874030000008
 20
258.2571410000003
 30
0.0
 11
488.1873790000007
 21
258.2571410000003
 31
0.0
  0
ARC
  5
3474
330
A
100
AcDbEntity
  8
0
 62
     7
100
AcDbCircle
 10
460.5874030000008
 20
257.0571290000003
 30
0.0
 40
1.200000000000003
100
AcDbArc
 50
90.00000300000001
 51
270.000001
  0
LINE
  5
3475
330
A
100
AcDbEntity
  8
0
 62
     7
 48
0.345
100
AcDbLine
 10
488.1873790000007
 20
255.8571170000003
 30
0.0
 11
460.5874030000008
 21
255.8571170000003
 31
0.0
  0
ARC
  5
3476
330
A
100
AcDbEntity
  8
0
 62
     7
100
AcDbCircle
 10
488.1873790000007
 20
257.0571290000003
 30
0.0
 40
1.200000000000003
100
AcDbArc
 50
270.000001
 51
90.00000300000001
  0
LINE
  5
3477
330
A
100
AcDbEntity
  8
0
 62
     7
 48
0.345
100
AcDbLine
 10
460.5874030000008
 20
252.2571410000002
 30
0.0
 11
488.1873790000007
 21
252.2571410000002
 31
0.0
  0
ARC
  5
3478
330
A
100
AcDbEntity
  8
0
 62
     7
100
AcDbCircle
 10
460.5874030000008
 20
251.0571290000003
 30
0.0
 40
1.200000000000003
100
AcDbArc
 50
90.00000300000001
 51
270.000001
  0
LINE
  5
3479
330
A
100
AcDbEntity
  8
0
 62
     7
 48
0.345
100
AcDbLine
 10
488.1873790000007
 20
249.8571169999999
 30
0.0
 11
460.5874030000008
 21
249.8571169999999
 31
0.0
  0
ARC
  5
347A
330
A
100
AcDbEntity
  8
0
 62
     7
100
AcDbCircle
 10
488.1873790000007
 20
251.0571290000003
 30
0.0
 40
1.200000000000003
100
AcDbArc
 50
270.000001
 51
90.00000300000001
  0
LINE
  5
347B
330
A
100
AcDbEntity
  8
0
 62
     7
 48
0.345
100
AcDbLine
 10
422.5874030000007
 20
252.2571410000002
 30
0.0
 11
450.1873790000008
 21
252.2571410000002
 31
0.0
  0
ARC
  5
347C
330
A
100
AcDbEntity
  8
0
 62
     7
100
AcDbCircle
 10
422.5874030000007
 20
251.0571290000003
 30
0.0
 40
1.200000000000003
100
AcDbArc
 50
90.00000300000001
 51
270.000001
  0
LINE
  5
347D
330
A
100
AcDbEntity
  8
0
 62
     7
 48
0.345
100
AcDbLine
 10
450.1873790000008
 20
249.8571169999999
 30
0.0
 11
422.5874030000007
 21
249.8571169999999
 31
0.0
  0
ARC
  5
347E
330
A
100
AcDbEntity
  8
0
 62
     7
100
AcDbCircle
 10
450.1873790000008
 20
251.0571290000003
 30
0.0
 40
1.200000000000003
100
AcDbArc
 50
270.000001
 51
90.00000300000001
  0
LINE
  5
347F
330
A
100
AcDbEntity
  8
0
 62
     7
 48
0.345
100
AcDbLine
 10
498.5874030000005
 20
252.2571410000002
 30
0.0
 11
526.1873790000012
 21
252.2571410000002
 31
0.0
  0
ARC
  5
3480
330
A
100
AcDbEntity
  8
0
 62
     7
100
AcDbCircle
 10
498.5874030000005
 20
251.0571290000003
 30
0.0
 40
1.200000000000003
100
AcDbArc
 50
90.00000300000001
 51
270.000001
  0
LINE
  5
3481
330
A
100
AcDbEntity
  8
0
 62
     7
 48
0.345
100
AcDbLine
 10
526.1873790000012
 20
249.8571169999999
 30
0.0
 11
498.5874030000005
 21
249.8571169999999
 31
0.0
  0
ARC
  5
3482
330
A
100
AcDbEntity
  8
0
 62
     7
100
AcDbCircle
 10
526.1873790000012
 20
251.0571290000003
 30
0.0
 40
1.200000000000003
100
AcDbArc
 50
270.000001
 51
90.00000300000001
  0
LINE
  5
3483
330
A
100
AcDbEntity
  8
0
 62
     7
 48
0.345
100
AcDbLine
 10
460.5874030000008
 20
246.2571410000002
 30
0.0
 11
488.1873790000007
 21
246.2571410000002
 31
0.0
  0
ARC
  5
3484
330
A
100
AcDbEntity
  8
0
 62
     7
100
AcDbCircle
 10
460.5874030000008
 20
245.0571290000003
 30
0.0
 40
1.200000000000003
100
AcDbArc
 50
90.00000300000001
 51
270.000001
  0
LINE
  5
3485
330
A
100
AcDbEntity
  8
0
 62
     7
 48
0.345
100
AcDbLine
 10
488.1873790000007
 20
243.8571170000003
 30
0.0
 11
460.5874030000008
 21
243.8571170000003
 31
0.0
  0
ARC
  5
3486
330
A
100
AcDbEntity
  8
0
 62
     7
100
AcDbCircle
 10
488.1873790000007
 20
245.0571290000003
 30
0.0
 40
1.200000000000003
100
AcDbArc
 50
270.000001
 51
90.00000300000001
  0
LINE
  5
3487
330
A
100
AcDbEntity
  8
0
 62
     7
 48
0.345
100
AcDbLine
 10
422.5874030000007
 20
246.2571410000002
 30
0.0
 11
450.1873790000008
 21
246.2571410000002
 31
0.0
  0
ARC
  5
3488
330
A
100
AcDbEntity
  8
0
 62
     7
100
AcDbCircle
 10
422.5874030000007
 20
245.0571290000003
 30
0.0
 40
1.200000000000003
100
AcDbArc
 50
90.00000300000001
 51
270.000001
  0
LINE
  5
3489
330
A
100
AcDbEntity
  8
0
 62
     7
 48
0.345
100
AcDbLine
 10
450.1873790000008
 20
243.8571170000003
 30
0.0
 11
422.5874030000007
 21
243.8571170000003
 31
0.0
  0
ARC
  5
348A
330
A
100
AcDbEntity
  8
0
 62
     7
100
AcDbCircle
 10
450.1873790000008
 20
245.0571290000003
 30
0.0
 40
1.200000000000003
100
AcDbArc
 50
270.000001
 51
90.00000300000001
  0
LINE
  5
348B
330
A
100
AcDbEntity
  8
0
 62
     7
 48
0.345
100
AcDbLine
 10
498.5874030000005
 20
246.2571410000002
 30
0.0
 11
526.1873790000012
 21
246.2571410000002
 31
0.0
  0
ARC
  5
348C
330
A
100
AcDbEntity
  8
0
 62
     7
100
AcDbCircle
 10
498.5874030000005
 20
245.0571290000003
 30
0.0
 40
1.200000000000003
100
AcDbArc
 50
90.00000300000001
 51
270.000001
  0
LINE
  5
348D
330
A
100
AcDbEntity
  8
0
 62
     7
 48
0.345
100
AcDbLine
 10
526.1873790000012
 20
243.8571170000003
 30
0.0
 11
498.5874030000005
 21
243.8571170000003
 31
0.0
  0
ARC
  5
348E
330
A
100
AcDbEntity
  8
0
 62
     7
100
AcDbCircle
 10
526.1873790000012
 20
245.0571290000003
 30
0.0
 40
1.200000000000003
100
AcDbArc
 50
270.000001
 51
90.00000300000001
  0
LINE
  5
348F
330
A
100
AcDbEntity
  8
0
 62
     7
 48
0.345
100
AcDbLine
 10
460.5874030000008
 20
240.2571410000003
 30
0.0
 11
488.1873790000007
 21
240.2571410000003
 31
0.0
  0
ARC
  5
3490
330
A
100
AcDbEntity
  8
0
 62
     7
100
AcDbCircle
 10
460.5874030000008
 20
239.0571290000003
 30
0.0
 40
1.200000000000003
100
AcDbArc
 50
90.00000300000001
 51
270.000001
  0
LINE
  5
3491
330
A
100
AcDbEntity
  8
0
 62
     7
 48
0.345
100
AcDbLine
 10
488.1873790000007
 20
237.8571169999999
 30
0.0
 11
460.5874030000008
 21
237.8571169999999
 31
0.0
  0
ARC
  5
3492
330
A
100
AcDbEntity
  8
0
 62
     7
100
AcDbCircle
 10
488.1873790000007
 20
239.0571290000003
 30
0.0
 40
1.200000000000003
100
AcDbArc
 50
270.000001
 51
90.00000300000001
  0
LINE
  5
3493
330
A
100
AcDbEntity
  8
0
 62
     7
 48
0.345
100
AcDbLine
 10
422.5874030000007
 20
240.2571410000003
 30
0.0
 11
450.1873790000008
 21
240.2571410000003
 31
0.0
  0
ARC
  5
3494
330
A
100
AcDbEntity
  8
0
 62
     7
100
AcDbCircle
 10
422.5874030000007
 20
239.0571290000003
 30
0.0
 40
1.200000000000003
100
AcDbArc
 50
90.00000300000001
 51
270.000001
  0
LINE
  5
3495
330
A
100
AcDbEntity
  8
0
 62
     7
 48
0.345
100
AcDbLine
 10
450.1873790000008
 20
237.8571169999999
 30
0.0
 11
422.5874030000007
 21
237.8571169999999
 31
0.0
  0
ARC
  5
3496
330
A
100
AcDbEntity
  8
0
 62
     7
100
AcDbCircle
 10
450.1873790000008
 20
239.0571290000003
 30
0.0
 40
1.200000000000003
100
AcDbArc
 50
270.000001
 51
90.00000300000001
  0
LINE
  5
3497
330
A
100
AcDbEntity
  8
0
 62
     7
 48
0.345
100
AcDbLine
 10
498.5874030000005
 20
240.2571410000003
 30
0.0
 11
526.1873790000012
 21
240.2571410000003
 31
0.0
  0
ARC
  5
3498
330
A
100
AcDbEntity
  8
0
 62
     7
100
AcDbCircle
 10
498.5874030000005
 20
239.0571290000003
 30
0.0
 40
1.200000000000003
100
AcDbArc
 50
90.00000300000001
 51
270.000001
  0
LINE
  5
3499
330
A
100
AcDbEntity
  8
0
 62
     7
 48
0.345
100
AcDbLine
 10
526.1873790000012
 20
237.8571169999999
 30
0.0
 11
498.5874030000005
 21
237.8571169999999
 31
0.0
  0
ARC
  5
349A
330
A
100
AcDbEntity
  8
0
 62
     7
100
AcDbCircle
 10
526.1873790000012
 20
239.0571290000003
 30
0.0
 40
1.200000000000003
100
AcDbArc
 50
270.000001
 51
90.00000300000001
  0
LINE
  5
349E
330
A
100
AcDbEntity
  8
0
 62
     7
 48
0.016583
100
AcDbLine
 10
527.1873790000008
 20
238.3937990000001
 30
0.0
 11
527.1873790000008
 21
239.7204590000002
 31
0.0
  0
LINE
  5
34A1
330
A
100
AcDbEntity
  8
0
 62
     7
 48
0.49375
100
AcDbLine
 10
292.3873910000003
 20
170.057129
 30
0.0
 11
292.3873910000003
 21
128.057129
 31
0.0
  0
LINE
  5
34A4
330
A
100
AcDbEntity
  8
0
 62
     7
 48
0.00625
100
AcDbLine
 10
292.8873910000005
 20
170.057129
 30
0.0
 11
292.3873910000003
 21
170.057129
 31
0.0
  0
LINE
  5
34A7
330
A
100
AcDbEntity
  8
0
 62
     7
 48
0.00625
100
AcDbLine
 10
292.8873910000005
 20
230.0571290000001
 30
0.0
 11
292.3873910000003
 21
230.0571290000001
 31
0.0
  0
LINE
  5
34A8
330
A
100
AcDbEntity
  8
0
 62
     7
 48
0.49375
100
AcDbLine
 10
292.3873910000003
 20
230.0571290000001
 30
0.0
 11
292.3873910000003
 21
272.057129
 31
0.0
  0
LINE
  5
34AB
330
A
100
AcDbEntity
  8
0
 62
     7
 48
0.0875
100
AcDbLine
 10
285.3873910000003
 20
184.0571289999999
 30
0.0
 11
285.3873910000003
 21
177.0571290000001
 31
0.0
  0
LINE
  5
34AC
330
A
100
AcDbEntity
  8
0
 62
     7
 48
0.4
100
AcDbLine
 10
285.3873910000003
 20
216.0571290000002
 30
0.0
 11
285.3873910000003
 21
184.0571289999999
 31
0.0
  0
LINE
  5
34AD
330
A
100
AcDbEntity
  8
0
 62
     7
 48
0.0875
100
AcDbLine
 10
285.3873910000003
 20
223.0571289999999
 30
0.0
 11
285.3873910000003
 21
216.0571290000002
 31
0.0
  0
ARC
  5
34AE
330
A
100
AcDbEntity
  8
0
 62
     7
100
AcDbCircle
 10
287.3873910000003
 20
223.0571289999999
 30
0.0
 40
2.000000000000003
100
AcDbArc
 50
90.00000300000001
 51
180.000005
  0
LINE
  5
34AF
330
A
100
AcDbEntity
  8
0
 62
     7
 48
0.05625
100
AcDbLine
 10
291.8873910000003
 20
225.0571290000002
 30
0.0
 11
287.3873910000003
 21
225.0571290000002
 31
0.0
  0
ARC
  5
34B0
330
A
100
AcDbEntity
  8
0
 62
     7
100
AcDbCircle
 10
291.8873910000003
 20
226.0571290000001
 30
0.0
 40
1.000000000000001
100
AcDbArc
 50
270.000001
 51
0.0
  0
ARC
  5
34B4
330
A
100
AcDbEntity
  8
0
 62
     7
100
AcDbCircle
 10
291.8873910000003
 20
174.057129
 30
0.0
 40
1.000000000000001
100
AcDbArc
 50
0.0
 51
90.00000300000001
  0
LINE
  5
34B5
330
A
100
AcDbEntity
  8
0
 62
     7
 48
0.05625
100
AcDbLine
 10
291.8873910000003
 20
175.057129
 30
0.0
 11
287.3873910000003
 21
175.057129
 31
0.0
  0
ARC
  5
34B6
330
A
100
AcDbEntity
  8
0
 62
     7
100
AcDbCircle
 10
287.3873910000003
 20
177.0571290000001
 30
0.0
 40
2.000000000000003
100
AcDbArc
 50
180.000005
 51
270.000001
  0
LINE
  5
34BD
330
A
100
AcDbEntity
  8
0
 62
     7
 48
0.090652
100
AcDbLine
 10
292.3873910000003
 20
128.557129
 30
0.0
 11
282.1038510000003
 21
129.0960689999998
 31
0.0
  0
ARC
  5
34C0
330
A
100
AcDbEntity
  8
0
 62
     7
100
AcDbCircle
 10
291.8873910000003
 20
183.0571289999999
 30
0.0
 40
1.000000000000001
100
AcDbArc
 50
0.0
 51
90.00000300000001
  0
LINE
  5
34C1
330
A
100
AcDbEntity
  8
0
 62
     7
 48
0.06875
100
AcDbLine
 10
286.3873910000003
 20
184.0571289999999
 30
0.0
 11
291.8873910000003
 21
184.0571289999999
 31
0.0
  0
ARC
  5
34C2
330
A
100
AcDbEntity
  8
0
 62
     7
100
AcDbCircle
 10
286.3873910000003
 20
185.0571289999999
 30
0.0
 40
1.000000000000001
100
AcDbArc
 50
180.000005
 51
270.000001
  0
ARC
  5
34C3
330
A
100
AcDbEntity
  8
0
 62
     7
100
AcDbCircle
 10
291.8873910000003
 20
217.0571290000001
 30
0.0
 40
1.000000000000001
100
AcDbArc
 50
270.000001
 51
0.0
  0
LINE
  5
34C4
330
A
100
AcDbEntity
  8
0
 62
     7
 48
0.06875
100
AcDbLine
 10
286.3873910000003
 20
216.0571290000002
 30
0.0
 11
291.8873910000003
 21
216.0571290000002
 31
0.0
  0
ARC
  5
34C5
330
A
100
AcDbEntity
  8
0
 62
     7
100
AcDbCircle
 10
286.3873910000003
 20
215.057129
 30
0.0
 40
1.000000000000001
100
AcDbArc
 50
90.00000300000001
 51
180.000005
  0
LINE
  5
34C6
330
A
100
AcDbEntity
  8
0
 62
     7
 48
0.090652
100
AcDbLine
 10
292.3873910000003
 20
272.057129
 30
0.0
 11
282.1038510000003
 21
271.5181890000004
 31
0.0
  0
LINE
  5
34D5
330
A
100
AcDbEntity
  8
0
 62
     7
 48
0.028243
100
AcDbLine
 10
282.0379950000003
 20
265.1896370000004
 30
0.0
 11
280.682343
 21
266.9971930000003
 31
0.0
  0
LWPOLYLINE
  5
34D6
330
A
100
AcDbEntity
  8
0
 62
     7
100
AcDbPolyline
 90
        4
 70
     0
 43
0.0
 10
282.0379950000003
 20
265.1896370000004
 10
282.0510250000003
 20
265.1617430000003
 10
282.075471
 20
264.9919130000002
 10
282.0813290000005
 20
264.7782890000001
  0
LINE
  5
34DC
330
A
100
AcDbEntity
  8
0
 62
     7
100
AcDbLine
 10
282.0813290000005
 20
135.3359669999999
 30
0.0
 11
282.0813290000005
 21
264.7782890000001
 31
0.0
  0
LWPOLYLINE
  5
34DD
330
A
100
AcDbEntity
  8
0
 62
     7
100
AcDbPolyline
 90
        4
 70
     0
 43
0.0
 10
282.0379950000003
 20
134.9246209999994
 10
282.0510250000003
 20
134.9525149999996
 10
282.075471
 20
135.1223449999999
 10
282.0813290000005
 20
135.3359669999999
  0
LINE
  5
34E3
330
A
100
AcDbEntity
  8
0
 62
     7
 48
0.028243
100
AcDbLine
 10
280.682343
 20
133.1170649999998
 30
0.0
 11
282.0379950000003
 21
134.9246209999996
 31
0.0
  0
LINE
  5
34E8
330
A
100
AcDbEntity
  8
0
 62
     7
 48
0.031538
100
AcDbLine
 10
280.682343
 20
130.593995
 30
0.0
 11
280.682343
 21
133.1170649999998
 31
0.0
  0
LINE
  5
34E9
330
A
100
AcDbEntity
  8
0
 62
     7
 48
0.037788
100
AcDbLine
 10
280.682343
 20
266.9971930000003
 30
0.0
 11
280.682343
 21
270.020263
 31
0.0
  0
ARC
  5
34EA
330
A
100
AcDbEntity
  8
0
 62
     7
100
AcDbCircle
 10
282.1823430000005
 20
130.593995
 30
0.0
 40
1.500000000000003
100
AcDbArc
 50
179.9999909999999
 51
266.9999899999999
  0
ARC
  5
34EB
330
A
100
AcDbEntity
  8
0
 62
     7
100
AcDbCircle
 10
282.1823430000005
 20
270.020263
 30
0.0
 40
1.500000000000003
100
AcDbArc
 50
93.00001299999999
 51
180.000005
  0
LINE
  5
34EC
330
A
100
AcDbEntity
  8
0
 62
     7
 48
0.000813
100
AcDbLine
 10
538.5874030000012
 20
204.0571290000002
 30
0.0
 11
538.5874030000012
 21
203.9921270000002
 31
0.0
  0
ARC
  5
34EE
330
A
100
AcDbEntity
  8
0
 62
     7
100
AcDbCircle
 10
539.587403000001
 20
204.0571290000002
 30
0.0
 40
1.000000000000001
100
AcDbArc
 50
90.00000300000001
 51
180.000005
  0
LINE
  5
34EF
330
A
100
AcDbEntity
  8
0
 62
     7
 48
0.000412
100
AcDbLine
 10
553.256837000001
 20
190.075225
 30
0.0
 11
553.2634290000008
 21
190.0429689999999
 31
0.0
  0
LINE
  5
34F0
330
A
100
AcDbEntity
  8
0
 62
     7
 48
0.056469
100
AcDbLine
 10
553.4807130000008
 20
188.9826970000001
 30
0.0
 11
554.3873910000012
 21
184.557129
 31
0.0
  0
LINE
  5
34F2
330
A
100
AcDbEntity
  8
0
 62
     7
100
AcDbLine
 10
554.3873910000012
 20
139.057129
 30
0.0
 11
554.3873910000012
 21
184.557129
 31
0.0
  0
LINE
  5
34F5
330
A
100
AcDbEntity
  8
0
 62
     7
 48
0.002802
100
AcDbLine
 10
552.8135370000012
 20
189.747925
 30
0.0
 11
552.8585210000012
 21
189.5283209999999
 31
0.0
  0
LINE
  5
34F7
330
A
100
AcDbEntity
  8
0
 62
     7
 48
0.075
100
AcDbLine
 10
547.8873910000008
 20
139.057129
 30
0.0
 11
554.3873910000012
 21
139.057129
 31
0.0
  0
LINE
  5
34F8
330
A
100
AcDbEntity
  8
0
 62
     7
 48
0.335439
100
AcDbLine
 10
539.1873790000008
 20
162.1570729999999
 30
0.0
 11
539.1873790000008
 21
188.992157
 31
0.0
  0
LINE
  5
34F9
330
A
100
AcDbEntity
  8
0
 62
     7
 48
0.000812
100
AcDbLine
 10
539.1873790000008
 20
203.992157
 30
0.0
 11
539.1873790000008
 21
204.0571290000002
 31
0.0
  0
ARC
  5
34FA
330
A
100
AcDbEntity
  8
0
 62
     7
100
AcDbCircle
 10
540.1873790000008
 20
204.0571290000002
 30
0.0
 40
1.000000000000001
100
AcDbArc
 50
90.00000300000001
 51
180.000005
  0
ARC
  5
34FD
330
A
100
AcDbEntity
  8
0
 62
     7
100
AcDbCircle
 10
548.1476450000013
 20
202.557129
 30
0.0
 40
2.500000000000003
100
AcDbArc
 50
35.02945799999999
 51
90.00000300000001
  0
LINE
  5
34FE
330
A
100
AcDbEntity
  8
0
 62
     7
 48
0.099503
100
AcDbLine
 10
539.5874029476411
 20
205.0571290000001
 30
0.0
 11
548.1476450000013
 21
205.0571290000001
 31
0.0
  0
LINE
  5
3500
330
A
100
AcDbEntity
  8
0
 62
     7
 48
0.168228
100
AcDbLine
 10
544.6873790000008
 20
162.1571350000001
 30
0.0
 11
544.6873790000008
 21
148.698883
 31
0.0
  0
LINE
  5
3501
330
A
100
AcDbEntity
  8
0
 62
     7
 48
0.12875
100
AcDbLine
 10
544.6873790000008
 20
162.1571350000001
 30
0.0
 11
534.3873910000012
 21
162.1571350000001
 31
0.0
  0
LINE
  5
3502
330
A
100
AcDbEntity
  8
0
 62
     7
 48
0.036247
100
AcDbLine
 10
537.1861570000012
 20
135.557129
 30
0.0
 11
534.2863770000012
 21
135.557129
 31
0.0
  0
CIRCLE
  5
3503
330
A
100
AcDbEntity
  8
0
 62
     7
100
AcDbCircle
 10
540.6873790000008
 20
158.157135
 30
0.0
 40
1.500000000000003
  0
CIRCLE
  5
3504
330
A
100
AcDbEntity
  8
0
 62
     7
100
AcDbCircle
 10
540.6873790000008
 20
158.157135
 30
0.0
 40
1.200000000000003
  0
ARC
  5
3505
330
A
100
AcDbEntity
  8
0
 62
     7
100
AcDbCircle
 10
537.1873790000008
 20
136.557129
 30
0.0
 40
1.000000000000001
100
AcDbArc
 50
180.000005
 51
270.000001
  0
LINE
  5
3506
330
A
100
AcDbEntity
  8
0
 62
     7
 48
0.26375
100
AcDbLine
 10
536.1873790000008
 20
136.557129
 30
0.0
 11
536.1873790000008
 21
157.657135
 31
0.0
  0
ARC
  5
3507
330
A
100
AcDbEntity
  8
0
 62
     7
100
AcDbCircle
 10
540.1873790000008
 20
157.657135
 30
0.0
 40
4.000000000000006
100
AcDbArc
 50
90.00000300000001
 51
180.000005
  0
LINE
  5
3508
330
A
100
AcDbEntity
  8
0
 62
     7
 48
0.04
100
AcDbLine
 10
540.1873790000008
 20
161.657135
 30
0.0
 11
543.3873910000008
 21
161.657135
 31
0.0
  0
ARC
  5
3509
330
A
100
AcDbEntity
  8
0
 62
     7
100
AcDbCircle
 10
543.3873910000008
 20
160.657135
 30
0.0
 40
1.000000000000001
100
AcDbArc
 50
0.0
 51
90.00000300000001
  0
LINE
  5
350A
330
A
100
AcDbEntity
  8
0
 62
     7
 48
0.14375
100
AcDbLine
 10
544.3873910000008
 20
160.657135
 30
0.0
 11
544.3873910000008
 21
149.157135
 31
0.0
  0
ARC
  5
350B
330
A
100
AcDbEntity
  8
0
 62
     7
100
AcDbCircle
 10
544.8873910000009
 20
149.157135
 30
0.0
 40
0.5000000000000016
100
AcDbArc
 50
180.000005
 51
270.000001
  0
LINE
  5
350C
330
A
100
AcDbEntity
  8
0
 62
     7
 48
0.05
100
AcDbLine
 10
542.1873790000009
 20
154.157135
 30
0.0
 11
542.1873790000009
 21
158.157135
 31
0.0
  0
ARC
  5
350D
330
A
100
AcDbEntity
  8
0
 62
     7
100
AcDbCircle
 10
540.6873790000008
 20
158.157135
 30
0.0
 40
1.500000000000003
100
AcDbArc
 50
0.0
 51
180.000005
  0
LINE
  5
350E
330
A
100
AcDbEntity
  8
0
 62
     7
 48
0.05
100
AcDbLine
 10
539.1873790000008
 20
158.157135
 30
0.0
 11
539.1873790000008
 21
154.157135
 31
0.0
  0
ARC
  5
350F
330
A
100
AcDbEntity
  8
0
 62
     7
100
AcDbCircle
 10
540.6873790000008
 20
154.157135
 30
0.0
 40
1.500000000000003
100
AcDbArc
 50
180.000005
 51
0.0
  0
LINE
  5
3510
330
A
100
AcDbEntity
  8
0
 62
     7
 48
0.0125
100
AcDbLine
 10
544.8873910000009
 20
148.657135
 30
0.0
 11
545.8873910000012
 21
148.657135
 31
0.0
  0
LINE
  5
3511
330
A
100
AcDbEntity
  8
0
 62
     7
 48
0.16375
100
AcDbLine
 10
545.8873910000012
 20
160.1571350000001
 30
0.0
 11
545.8873910000012
 21
135.557129
 31
0.0
  0
LINE
  5
3512
330
A
100
AcDbEntity
  8
0
 62
     7
 48
0.10875
100
AcDbLine
 10
545.8873910000012
 20
135.557129
 30
0.0
 11
537.1873790000008
 21
135.557129
 31
0.0
  0
LINE
  5
3514
330
A
100
AcDbEntity
  8
0
 62
     7
 48
0.0125
100
AcDbLine
 10
544.8873910000009
 20
149.157135
 30
0.0
 11
545.8873910000012
 21
149.157135
 31
0.0
  0
LINE
  5
3516
330
A
100
AcDbEntity
  8
0
 62
     7
 48
0.125
100
AcDbLine
 10
544.8873910000009
 20
160.1571350000001
 30
0.0
 11
544.8873910000009
 21
148.657135
 31
0.0
  0
LINE
  5
3518
330
A
100
AcDbEntity
  8
0
 62
     7
 48
0.0125
100
AcDbLine
 10
544.8873910000009
 20
159.1571350000001
 30
0.0
 11
545.8873910000012
 21
159.1571350000001
 31
0.0
  0
LINE
  5
3519
330
A
100
AcDbEntity
  8
0
 62
     7
 48
0.0125
100
AcDbLine
 10
544.8873910000009
 20
160.1571350000001
 30
0.0
 11
545.8873910000012
 21
160.1571350000001
 31
0.0
  0
LINE
  5
351F
330
A
100
AcDbEntity
  8
0
 62
     7
 48
0.002708
100
AcDbLine
 10
547.3873910000008
 20
141.7071229999999
 30
0.0
 11
547.3873910000008
 21
136.407135
 31
0.0
  0
LINE
  5
3521
330
A
100
AcDbEntity
  8
0
 62
     7
 48
0.002197
100
AcDbLine
 10
547.8873910000008
 20
141.207123
 30
0.0
 11
547.8873910000008
 21
136.907135
 31
0.0
  0
LINE
  5
3522
330
A
100
AcDbEntity
  8
0
 62
     7
 48
0.01875
100
AcDbLine
 10
547.3873910000008
 20
141.7071229999999
 30
0.0
 11
545.8873910000012
 21
141.7071229999999
 31
0.0
  0
LINE
  5
3523
330
A
100
AcDbEntity
  8
0
 62
     7
 48
0.01875
100
AcDbLine
 10
547.3873910000008
 20
136.407135
 30
0.0
 11
545.8873910000012
 21
136.407135
 31
0.0
  0
ARC
  5
3524
330
A
100
AcDbEntity
  8
0
 62
     7
100
AcDbCircle
 10
547.3873910000008
 20
141.207123
 30
0.0
 40
0.5000000000000016
100
AcDbArc
 50
0.00001
 51
90.00000300000001
  0
ARC
  5
3525
330
A
100
AcDbEntity
  8
0
 62
     7
100
AcDbCircle
 10
547.3873910000008
 20
136.907135
 30
0.0
 40
0.5000000000000016
100
AcDbArc
 50
270.000001
 51
0.000001
  0
LINE
  5
3526
330
A
100
AcDbEntity
  8
0
 62
     7
 48
0.005
100
AcDbLine
 10
534.7873530000013
 20
166.557129
 30
0.0
 11
534.3873910000012
 21
166.557129
 31
0.0
  0
LINE
  5
3527
330
A
100
AcDbEntity
  8
0
 62
     7
100
AcDbLine
 10
534.7873530000013
 20
166.557129
 30
0.0
 11
534.7873530000013
 21
234.0571290000001
 31
0.0
  0
ARC
  5
3528
330
A
100
AcDbEntity
  8
0
 62
     7
100
AcDbCircle
 10
534.7873530000013
 20
166.9571229999999
 30
0.0
 40
0.4000000000000011
100
AcDbArc
 50
270.000001
 51
0.0
  0
LINE
  5
3529
330
A
100
AcDbEntity
  8
0
 62
     7
100
AcDbLine
 10
535.1873790000008
 20
166.9571229999999
 30
0.0
 11
535.1873790000008
 21
234.0571290000001
 31
0.0
  0
LINE
  5
352A
330
A
100
AcDbEntity
  8
0
 62
     7
 48
0.036686
100
AcDbLine
 10
535.1873790000008
 20
188.991973
 30
0.0
 11
535.1873790000008
 21
186.057129
 31
0.0
  0
LINE
  5
352B
330
A
100
AcDbEntity
  8
0
 62
     7
 48
0.036686
100
AcDbLine
 10
536.9874270000012
 20
188.991973
 30
0.0
 11
536.9874270000012
 21
186.057129
 31
0.0
  0
LINE
  5
352C
330
A
100
AcDbEntity
  8
0
 62
     7
 48
0.000298
100
AcDbLine
 10
537.1873790000008
 20
188.8571169999999
 30
0.0
 11
537.1873790000008
 21
188.8332509999999
 31
0.0
  0
LINE
  5
352D
330
A
100
AcDbEntity
  8
0
 62
     7
 48
0.032201
100
AcDbLine
 10
537.1873790000008
 20
188.8332509999999
 30
0.0
 11
537.1873790000008
 21
186.2571409999999
 31
0.0
  0
LINE
  5
352E
330
A
100
AcDbEntity
  8
0
 62
     7
 48
0.022501
100
AcDbLine
 10
536.9874270000012
 20
186.057129
 30
0.0
 11
535.1873790000008
 21
186.057129
 31
0.0
  0
LINE
  5
352F
330
A
100
AcDbEntity
  8
0
 62
     7
 48
0.003535
100
AcDbLine
 10
537.1873790000008
 20
186.2571409999999
 30
0.0
 11
536.9874270000012
 21
186.057129
 31
0.0
  0
LINE
  5
3530
330
A
100
AcDbEntity
  8
0
 62
     7
 48
0.002387
100
AcDbLine
 10
537.1873790000008
 20
188.8571169999999
 30
0.0
 11
537.0523690000005
 21
188.992157
 31
0.0
  0
LINE
  5
3533
330
A
100
AcDbEntity
  8
0
 62
     7
 48
0.000344
100
AcDbLine
 10
536.9874270000012
 20
219.0571290000002
 30
0.0
 11
536.9874270000012
 21
219.0295710000002
 31
0.0
  0
LINE
  5
3534
330
A
100
AcDbEntity
  8
0
 62
     7
 48
0.037156
100
AcDbLine
 10
536.9874270000012
 20
219.0295710000002
 30
0.0
 11
536.9874270000012
 21
216.0571290000002
 31
0.0
  0
LINE
  5
3535
330
A
100
AcDbEntity
  8
0
 62
     7
 48
0.000298
100
AcDbLine
 10
537.1873790000008
 20
218.8571170000002
 30
0.0
 11
537.1873790000008
 21
218.8332509999999
 31
0.0
  0
LINE
  5
3536
330
A
100
AcDbEntity
  8
0
 62
     7
 48
0.032201
100
AcDbLine
 10
537.1873790000008
 20
218.8332509999999
 30
0.0
 11
537.1873790000008
 21
211.907135
 31
0.0
  0
LINE
  5
3537
330
A
100
AcDbEntity
  8
0
 62
     7
 48
0.022501
100
AcDbLine
 10
536.9874270000012
 20
216.0571290000002
 30
0.0
 11
535.1873790000008
 21
216.0571290000002
 31
0.0
  0
LINE
  5
3538
330
A
100
AcDbEntity
  8
0
 62
     7
 48
0.003535
100
AcDbLine
 10
537.1873790000008
 20
216.257141
 30
0.0
 11
536.9874270000012
 21
216.0571290000002
 31
0.0
  0
LINE
  5
3539
330
A
100
AcDbEntity
  8
0
 62
     7
 48
0.003535
100
AcDbLine
 10
537.1873790000008
 20
218.8571170000002
 30
0.0
 11
536.9874270000012
 21
219.0571290000002
 31
0.0
  0
LINE
  5
353D
330
A
100
AcDbEntity
  8
0
 62
     7
 48
0.15
100
AcDbLine
 10
535.2374270000012
 20
216.0571290000002
 30
0.0
 11
535.2374270000012
 21
204.0571290000002
 31
0.0
  0
LINE
  5
353E
330
A
100
AcDbEntity
  8
0
 62
     7
 48
0.000626
100
AcDbLine
 10
535.2374270000012
 20
204.0571290000002
 30
0.0
 11
535.1873790000008
 21
204.0571290000002
 31
0.0
  0
LINE
  5
353F
330
A
100
AcDbEntity
  8
0
 62
     7
 48
0.15
100
AcDbLine
 10
535.1873790000008
 20
216.0571290000002
 30
0.0
 11
535.1873790000008
 21
204.0571290000002
 31
0.0
  0
LINE
  5
3540
330
A
100
AcDbEntity
  8
0
 62
     7
 48
0.03375
100
AcDbLine
 10
535.1873790000008
 20
219.0571290000002
 30
0.0
 11
537.8873910000012
 21
219.0571290000002
 31
0.0
  0
LINE
  5
3541
330
A
100
AcDbEntity
  8
0
 62
     7
 48
0.155
100
AcDbLine
 10
537.8873910000012
 20
219.0571290000002
 30
0.0
 11
550.2873530000012
 21
219.0571290000002
 31
0.0
  0
LINE
  5
3542
330
A
100
AcDbEntity
  8
0
 62
     7
 48
0.148724
100
AcDbLine
 10
550.2873530000012
 20
234.0571290000001
 30
0.0
 11
538.3894050000012
 21
234.0571290000001
 31
0.0
  0
LINE
  5
3543
330
A
100
AcDbEntity
  8
0
 62
     7
 48
0.026926
100
AcDbLine
 10
550.2873530000012
 20
219.0571290000002
 30
0.0
 11
551.0874030000012
 21
221.057129
 31
0.0
  0
ARC
  5
3544
330
A
100
AcDbEntity
  8
0
 62
     7
100
AcDbCircle
 10
552.7873530000013
 20
220.3122549999999
 30
0.0
 40
0.5000000000000016
100
AcDbArc
 50
230.710594
 51
0.0
  0
LINE
  5
3545
330
A
100
AcDbEntity
  8
0
 62
     7
 48
0.022343
100
AcDbLine
 10
551.0874030000012
 20
221.057129
 30
0.0
 11
552.4707650000013
 21
219.9252630000001
 31
0.0
  0
LINE
  5
3546
330
A
100
AcDbEntity
  8
0
 62
     7
 48
0.11125
100
AcDbLine
 10
553.2873530000013
 20
225.0571290000002
 30
0.0
 11
544.3873910000008
 21
225.0571290000002
 31
0.0
  0
LINE
  5
3547
330
A
100
AcDbEntity
  8
0
 62
     7
 48
0.036443
100
AcDbLine
 10
537.8873910000012
 20
219.0571290000002
 30
0.0
 11
539.3873910000008
 21
221.5571290000001
 31
0.0
  0
LINE
  5
3549
330
A
100
AcDbEntity
  8
0
 62
     7
 48
0.036443
100
AcDbLine
 10
539.3873910000008
 20
231.5571290000002
 30
0.0
 11
537.8873910000012
 21
234.0571290000001
 31
0.0
  0
LINE
  5
354A
330
A
100
AcDbEntity
  8
0
 62
     7
 48
0.0625
100
AcDbLine
 10
544.3873910000008
 20
231.5571290000002
 30
0.0
 11
539.3873910000008
 21
231.5571290000002
 31
0.0
  0
LINE
  5
354B
330
A
100
AcDbEntity
  8
0
 62
     7
 48
0.125
100
AcDbLine
 10
544.3873910000008
 20
221.5571290000001
 30
0.0
 11
544.3873910000008
 21
231.5571290000002
 31
0.0
  0
LINE
  5
354C
330
A
100
AcDbEntity
  8
0
 62
     7
 48
0.0625
100
AcDbLine
 10
539.3873910000008
 20
221.5571290000001
 30
0.0
 11
544.3873910000008
 21
221.5571290000001
 31
0.0
  0
LINE
  5
354D
330
A
100
AcDbEntity
  8
0
 62
     7
 48
0.026926
100
AcDbLine
 10
551.0874030000012
 20
232.0571290000001
 30
0.0
 11
550.2873530000012
 21
234.0571290000001
 31
0.0
  0
LINE
  5
354E
330
A
100
AcDbEntity
  8
0
 62
     7
 48
0.022343
100
AcDbLine
 10
552.4707650000013
 20
233.1889950000002
 30
0.0
 11
551.0874030000012
 21
232.0571290000001
 31
0.0
  0
ARC
  5
354F
330
A
100
AcDbEntity
  8
0
 62
     7
100
AcDbCircle
 10
552.7873530000013
 20
232.8020010000002
 30
0.0
 40
0.5000000000000016
100
AcDbArc
 50
0.00001
 51
129.2894009999999
  0
LINE
  5
3550
330
A
100
AcDbEntity
  8
0
 62
     7
 48
0.11125
100
AcDbLine
 10
553.2873530000013
 20
228.0571290000001
 30
0.0
 11
544.3873910000008
 21
228.0571290000001
 31
0.0
  0
LINE
  5
3551
330
A
100
AcDbEntity
  8
0
 62
     7
 48
0.078125
100
AcDbLine
 10
553.2874270000012
 20
232.8020010000002
 30
0.0
 11
553.2873530000013
 21
220.3020010000002
 31
0.0
  0
ARC
  5
3552
330
A
100
AcDbEntity
  8
0
 62
     7
100
AcDbCircle
 10
552.4874270000013
 20
220.3020010000002
 30
0.0
 40
0.8000000000000021
100
AcDbArc
 50
215.3482819999999
 51
0.0
  0
LINE
  5
3553
330
A
100
AcDbEntity
  8
0
 62
     7
 48
0.013989
100
AcDbLine
 10
551.1873790000012
 20
220.7520150000001
 30
0.0
 11
551.834839000001
 21
219.8391729999999
 31
0.0
  0
LINE
  5
3554
330
A
100
AcDbEntity
  8
0
 62
     7
 48
0.011119
100
AcDbLine
 10
550.7598270000008
 20
219.972015
 30
0.0
 11
551.1873790000012
 21
220.7520150000001
 31
0.0
  0
LINE
  5
3555
330
A
100
AcDbEntity
  8
0
 62
     7
 48
0.009129
100
AcDbLine
 10
550.7598270000008
 20
219.972015
 30
0.0
 11
551.1823730000009
 21
219.376343
 31
0.0
  0
ARC
  5
3556
330
A
100
AcDbEntity
  8
0
 62
     7
100
AcDbCircle
 10
552.4874270000013
 20
220.3020010000002
 30
0.0
 40
1.600000000000004
100
AcDbArc
 50
215.3482819999999
 51
0.0
  0
LINE
  5
3557
330
A
100
AcDbEntity
  8
0
 62
     7
 48
0.078125
100
AcDbLine
 10
554.0874270000013
 20
232.8020012792527
 30
0.0
 11
554.0874030000012
 21
220.3020010000002
 31
0.0
  0
ARC
  5
3559
330
A
100
AcDbEntity
  8
0
 62
     7
100
AcDbCircle
 10
552.4874270000013
 20
232.8020010000002
 30
0.0
 40
1.600000000000004
100
AcDbArc
 50
0.00001
 51
144.6517129999999
  0
LINE
  5
355A
330
A
100
AcDbEntity
  8
0
 62
     7
 48
0.009129
100
AcDbLine
 10
550.7598270000008
 20
233.132019
 30
0.0
 11
551.1823730000009
 21
233.7276609999999
 31
0.0
  0
LINE
  5
355B
330
A
100
AcDbEntity
  8
0
 62
     7
 48
0.011119
100
AcDbLine
 10
550.7598270000008
 20
233.132019
 30
0.0
 11
551.1873790000012
 21
232.3519890000003
 31
0.0
  0
LINE
  5
355C
330
A
100
AcDbEntity
  8
0
 62
     7
 48
0.013989
100
AcDbLine
 10
551.1873790000012
 20
232.3519890000003
 30
0.0
 11
551.834839000001
 21
233.264831
 31
0.0
  0
ARC
  5
355D
330
A
100
AcDbEntity
  8
0
 62
     7
100
AcDbCircle
 10
552.4874270000013
 20
232.8020010000002
 30
0.0
 40
0.8000000000000021
100
AcDbArc
 50
0.0
 51
144.6517129999999
  0
LINE
  5
355F
330
A
100
AcDbEntity
  8
0
 62
     7
 48
0.03375
100
AcDbLine
 10
535.1873790000008
 20
188.992157
 30
0.0
 11
537.8873910000012
 21
188.992157
 31
0.0
  0
LINE
  5
3560
330
A
100
AcDbEntity
  8
0
 62
     7
 48
0.155
100
AcDbLine
 10
537.8873910000012
 20
188.992157
 30
0.0
 11
550.2873530000012
 21
188.992157
 31
0.0
  0
LINE
  5
3561
330
A
100
AcDbEntity
  8
0
 62
     7
 48
0.155
100
AcDbLine
 10
550.2873530000012
 20
203.992157
 30
0.0
 11
535.1873790000008
 21
203.9921569999999
 31
0.0
  0
LINE
  5
3563
330
A
100
AcDbEntity
  8
0
 62
     7
 48
0.026926
100
AcDbLine
 10
550.2873530000012
 20
188.992157
 30
0.0
 11
551.0874030000012
 21
190.9921569999999
 31
0.0
  0
ARC
  5
3564
330
A
100
AcDbEntity
  8
0
 62
     7
100
AcDbCircle
 10
552.7873530000013
 20
190.247283
 30
0.0
 40
0.5000000000000016
100
AcDbArc
 50
230.710594
 51
0.0
  0
LINE
  5
3565
330
A
100
AcDbEntity
  8
0
 62
     7
 48
0.022342
100
AcDbLine
 10
551.0874030000012
 20
190.9921569999999
 30
0.0
 11
552.4707650000013
 21
189.8603209999999
 31
0.0
  0
LINE
  5
3566
330
A
100
AcDbEntity
  8
0
 62
     7
 48
0.11125
100
AcDbLine
 10
553.2873530000013
 20
194.992157
 30
0.0
 11
544.3873910000008
 21
194.992157
 31
0.0
  0
LINE
  5
3567
330
A
100
AcDbEntity
  8
0
 62
     7
 48
0.036443
100
AcDbLine
 10
537.8873910000012
 20
188.992157
 30
0.0
 11
539.3873910000008
 21
191.4921569999999
 31
0.0
  0
LINE
  5
3569
330
A
100
AcDbEntity
  8
0
 62
     7
 48
0.036443
100
AcDbLine
 10
539.3873910000008
 20
201.492157
 30
0.0
 11
537.8873910000012
 21
203.992157
 31
0.0
  0
LINE
  5
356A
330
A
100
AcDbEntity
  8
0
 62
     7
 48
0.0625
100
AcDbLine
 10
544.3873910000008
 20
201.492157
 30
0.0
 11
539.3873910000008
 21
201.492157
 31
0.0
  0
LINE
  5
356B
330
A
100
AcDbEntity
  8
0
 62
     7
 48
0.125
100
AcDbLine
 10
544.3873910000008
 20
191.4921569999999
 30
0.0
 11
544.3873910000008
 21
201.492157
 31
0.0
  0
LINE
  5
356C
330
A
100
AcDbEntity
  8
0
 62
     7
 48
0.0625
100
AcDbLine
 10
539.3873910000008
 20
191.4921569999999
 30
0.0
 11
544.3873910000008
 21
191.4921569999999
 31
0.0
  0
LINE
  5
356D
330
A
100
AcDbEntity
  8
0
 62
     7
 48
0.026926
100
AcDbLine
 10
551.0874030000012
 20
201.992157
 30
0.0
 11
550.2873530000012
 21
203.992157
 31
0.0
  0
LINE
  5
356E
330
A
100
AcDbEntity
  8
0
 62
     7
 48
0.022343
100
AcDbLine
 10
552.4707650000013
 20
203.1240230000002
 30
0.0
 11
551.0874030000012
 21
201.992157
 31
0.0
  0
ARC
  5
356F
330
A
100
AcDbEntity
  8
0
 62
     7
100
AcDbCircle
 10
552.7873530000013
 20
202.737061
 30
0.0
 40
0.5000000000000016
100
AcDbArc
 50
0.00001
 51
129.2894009999999
  0
LINE
  5
3570
330
A
100
AcDbEntity
  8
0
 62
     7
 48
0.11125
100
AcDbLine
 10
553.2873530000013
 20
197.992157
 30
0.0
 11
544.3873910000008
 21
197.992157
 31
0.0
  0
LINE
  5
3571
330
A
100
AcDbEntity
  8
0
 62
     7
 48
0.078125
100
AcDbLine
 10
553.2874270000012
 20
202.7370289999999
 30
0.0
 11
553.2873530000013
 21
190.2370289999999
 31
0.0
  0
ARC
  5
3572
330
A
100
AcDbEntity
  8
0
 62
     7
100
AcDbCircle
 10
552.4874270000013
 20
190.2370289999999
 30
0.0
 40
0.8000000000000021
100
AcDbArc
 50
215.3482819999999
 51
0.0
  0
LINE
  5
3573
330
A
100
AcDbEntity
  8
0
 62
     7
 48
0.013989
100
AcDbLine
 10
551.1873790000012
 20
190.6870429999999
 30
0.0
 11
551.834839000001
 21
189.7742009999999
 31
0.0
  0
LINE
  5
3574
330
A
100
AcDbEntity
  8
0
 62
     7
 48
0.011119
100
AcDbLine
 10
550.7598270000008
 20
189.9070429999999
 30
0.0
 11
551.1873790000012
 21
190.6870429999999
 31
0.0
  0
LINE
  5
3575
330
A
100
AcDbEntity
  8
0
 62
     7
 48
0.009129
100
AcDbLine
 10
550.7598270000008
 20
189.9070429999999
 30
0.0
 11
551.1823730000009
 21
189.3113709999999
 31
0.0
  0
ARC
  5
3576
330
A
100
AcDbEntity
  8
0
 62
     7
100
AcDbCircle
 10
552.4874270000013
 20
190.2370289999999
 30
0.0
 40
1.600000000000004
100
AcDbArc
 50
215.3482819999999
 51
0.0
  0
LINE
  5
3577
330
A
100
AcDbEntity
  8
0
 62
     7
 48
0.078125
100
AcDbLine
 10
554.0874270000013
 20
202.7370292792526
 30
0.0
 11
554.0874030000012
 21
190.2370289999999
 31
0.0
  0
ARC
  5
3579
330
A
100
AcDbEntity
  8
0
 62
     7
100
AcDbCircle
 10
552.4874270000013
 20
202.7370289999999
 30
0.0
 40
1.600000000000004
100
AcDbArc
 50
0.00001
 51
144.6517129999999
  0
LINE
  5
357A
330
A
100
AcDbEntity
  8
0
 62
     7
 48
0.009129
100
AcDbLine
 10
550.7598270000008
 20
203.0670469999998
 30
0.0
 11
551.1823730000009
 21
203.6627189999999
 31
0.0
  0
LINE
  5
357B
330
A
100
AcDbEntity
  8
0
 62
     7
 48
0.011119
100
AcDbLine
 10
550.7598270000008
 20
203.0670469999998
 30
0.0
 11
551.1873790000012
 21
202.2870489999998
 31
0.0
  0
LINE
  5
357C
330
A
100
AcDbEntity
  8
0
 62
     7
 48
0.013989
100
AcDbLine
 10
551.1873790000012
 20
202.2870489999998
 30
0.0
 11
551.834839000001
 21
203.1998909999999
 31
0.0
  0
ARC
  5
357D
330
A
100
AcDbEntity
  8
0
 62
     7
100
AcDbCircle
 10
552.4874270000013
 20
202.7370289999999
 30
0.0
 40
0.8000000000000021
100
AcDbArc
 50
0.0
 51
144.6517129999999
  0
LINE
  5
3580
330
A
100
AcDbEntity
  8
0
 62
     7
 48
0.049006
100
AcDbLine
 10
536.6873790000008
 20
216.0571290000002
 30
0.0
 11
536.6873790000008
 21
211.407135
 31
0.0
  0
LINE
  5
3583
330
A
100
AcDbEntity
  8
0
 62
     7
 48
0.018125
100
AcDbLine
 10
536.6873790000008
 20
211.407135
 30
0.0
 11
535.2373670000011
 21
211.407135
 31
0.0
  0
LINE
  5
3584
330
A
100
AcDbEntity
  8
0
 62
     7
 48
0.000597
100
AcDbLine
 10
537.1873790000008
 20
216.207123
 30
0.0
 11
537.1851190000012
 21
216.2548529999999
 31
0.0
  0
ARC
  5
3585
330
A
100
AcDbEntity
  8
0
 62
     7
100
AcDbCircle
 10
536.6873790000008
 20
211.907135
 30
0.0
 40
0.5000000000000016
100
AcDbArc
 50
270.000001
 51
0.0
  0
LINE
  5
3589
330
A
100
AcDbEntity
  8
0
 62
     7
 48
0.049006
100
AcDbLine
 10
536.6873789738208
 20
185.707123
 30
0.0
 11
536.6873790000008
 21
180.407135
 31
0.0
  0
LINE
  5
358B
330
A
100
AcDbEntity
  8
0
 62
     7
 48
0.039759
100
AcDbLine
 10
537.1873790000008
 20
185.2071230872665
 30
0.0
 11
537.1873790000008
 21
180.907135
 31
0.0
  0
LINE
  5
358C
330
A
100
AcDbEntity
  8
0
 62
     7
 48
0.01875
100
AcDbLine
 10
536.6873790000008
 20
185.7071229999999
 30
0.0
 11
535.1873790000008
 21
185.7071229999999
 31
0.0
  0
LINE
  5
358D
330
A
100
AcDbEntity
  8
0
 62
     7
 48
0.01875
100
AcDbLine
 10
536.6873790000008
 20
180.407135
 30
0.0
 11
535.1873790000008
 21
180.407135
 31
0.0
  0
ARC
  5
358E
330
A
100
AcDbEntity
  8
0
 62
     7
100
AcDbCircle
 10
536.6873790000008
 20
185.2071229999999
 30
0.0
 40
0.5000000000000016
100
AcDbArc
 50
0.00001
 51
90.00000300000001
  0
ARC
  5
358F
330
A
100
AcDbEntity
  8
0
 62
     7
100
AcDbCircle
 10
536.6873790000008
 20
180.907135
 30
0.0
 40
0.5000000000000016
100
AcDbArc
 50
270.000001
 51
0.0
  0
LINE
  5
3679
330
A
100
AcDbEntity
  8
0
 62
     7
100
AcDbLine
 10
205.5195310000003
 20
264.057129
 30
0.0
 11
91.96304300000059
 21
264.057129
 31
0.0
  0
ARC
  5
367A
330
A
100
AcDbEntity
  8
0
 62
     7
100
AcDbCircle
 10
148.7412870000003
 20
-783.3654769999997
 30
0.0
 40
1050.362669999999
100
AcDbArc
 50
86.63812899999987
 51
93.36186899999798
  0
ARC
  5
367B
330
A
100
AcDbEntity
  8
0
 62
     7
100
AcDbCircle
 10
148.7409970000003
 20
26942.618227
 30
0.0
 40
26671.09961
100
AcDbArc
 50
269.85908
 51
270.1469590000006
  0
LINE
  5
367C
330
A
100
AcDbEntity
  8
0
 62
     7
 48
0.064952
100
AcDbLine
 10
220.7413030000004
 20
272.057129
 30
0.0
 11
82.33935500000058
 21
272.057129
 31
0.0
  0
LINE
  5
367D
330
A
100
AcDbEntity
  8
0
 62
     7
 48
0.069976
100
AcDbLine
 10
76.74128700000057
 20
272.057129
 30
0.0
 11
220.7413030000004
 21
272.057129
 31
0.0
  0
LINE
  5
367E
330
A
100
AcDbEntity
  8
0
 62
     7
100
AcDbLine
 10
205.5195310000003
 20
136.0571289999999
 30
0.0
 11
91.96304300000059
 21
136.0571289999999
 31
0.0
  0
ARC
  5
367F
330
A
100
AcDbEntity
  8
0
 62
     7
100
AcDbCircle
 10
148.7412870000003
 20
1183.479798999997
 30
0.0
 40
1050.362669999999
100
AcDbArc
 50
266.6381270000008
 51
273.3618740000017
  0
LINE
  5
3680
330
A
100
AcDbEntity
  8
0
 62
     7
100
AcDbLine
 10
220.7413030000004
 20
128.057129
 30
0.0
 11
87.5355230000005
 21
128.057129
 31
0.0
  0
LINE
  5
3681
330
A
100
AcDbEntity
  8
0
 62
     7
100
AcDbLine
 10
167.8739929999999
 20
128.557129
 30
0.0
 11
87.82418900000067
 21
128.557129
 31
0.0
  0
ARC
  5
3682
330
A
100
AcDbEntity
  8
0
 62
     7
100
AcDbCircle
 10
148.7409970000003
 20
-26542.00286699996
 30
0.0
 40
26671.09961
100
AcDbArc
 50
89.85305100000058
 51
90.14092300000006
  0
LINE
  5
3683
330
A
100
AcDbEntity
  8
0
 62
     7
100
AcDbLine
 10
76.74128700000057
 20
272.057129
 30
0.0
 11
76.74128700000057
 21
128.057129
 31
0.0
  0
LINE
  5
3684
330
A
100
AcDbEntity
  8
0
 62
     7
100
AcDbLine
 10
90.74128700000056
 20
263.0571290000002
 30
0.0
 11
90.74128700000056
 21
137.0571289999999
 31
0.0
  0
LINE
  5
3685
330
A
100
AcDbEntity
  8
0
 62
     7
100
AcDbLine
 10
86.16984700000063
 20
135.335969
 30
0.0
 11
86.16984700000063
 21
264.778291
 31
0.0
  0
LINE
  5
3686
330
A
100
AcDbEntity
  8
0
 62
     7
100
AcDbLine
 10
79.59310900000065
 20
130.557129
 30
0.0
 11
79.59310900000065
 21
269.5571290000001
 31
0.0
  0
LINE
  5
3687
330
A
100
AcDbEntity
  8
0
 62
     7
 48
0.044352
100
AcDbLine
 10
79.59310900000065
 20
130.557129
 30
0.0
 11
83.14129700000064
 21
130.557129
 31
0.0
  0
LINE
  5
3688
330
A
100
AcDbEntity
  8
0
 62
     7
 48
0.075
100
AcDbLine
 10
76.74128700000057
 20
130.0571290000002
 30
0.0
 11
82.74128700000057
 21
130.0571290000002
 31
0.0
  0
LINE
  5
3689
330
A
100
AcDbEntity
  8
0
 62
     7
 48
0.069976
100
AcDbLine
 10
82.33935500000058
 20
128.057129
 30
0.0
 11
76.74128700000057
 21
128.057129
 31
0.0
  0
LINE
  5
368A
330
A
100
AcDbEntity
  8
0
 62
     7
 48
0.069976
100
AcDbLine
 10
82.33935500000058
 20
129.2571430000002
 30
0.0
 11
76.74128700000057
 21
129.2571430000002
 31
0.0
  0
LINE
  5
368B
330
A
100
AcDbEntity
  8
0
 62
     7
 48
0.01
100
AcDbLine
 10
77.24128700000057
 20
129.2571430000002
 30
0.0
 11
77.24128700000057
 21
130.0571290000002
 31
0.0
  0
LINE
  5
368C
330
A
100
AcDbEntity
  8
0
 62
     7
 48
0.015
100
AcDbLine
 10
76.74128700000057
 20
129.2571430000002
 30
0.0
 11
76.74128700000057
 21
128.057129
 31
0.0
  0
LINE
  5
368D
330
A
100
AcDbEntity
  8
0
 62
     7
 48
0.058777
100
AcDbLine
 10
87.82418900000067
 20
128.557129
 30
0.0
 11
83.14129700000064
 21
128.982209
 31
0.0
  0
LINE
  5
368E
330
A
100
AcDbEntity
  8
0
 62
     7
 48
0.064952
100
AcDbLine
 10
87.5355230000005
 20
128.057129
 30
0.0
 11
82.33935500000058
 21
128.057129
 31
0.0
  0
LINE
  5
368F
330
A
100
AcDbEntity
  8
0
 62
     7
 48
0.01
100
AcDbLine
 10
82.24128700000056
 20
129.2571430000002
 30
0.0
 11
82.24128700000056
 21
130.0571290000002
 31
0.0
  0
LINE
  5
3690
330
A
100
AcDbEntity
  8
0
 62
     7
 48
0.000415
100
AcDbLine
 10
83.14129700000064
 20
128.982209
 30
0.0
 11
83.14129700000064
 21
129.0153810000002
 31
0.0
  0
LINE
  5
3691
330
A
100
AcDbEntity
  8
0
 62
     7
 48
0.015
100
AcDbLine
 10
82.33935500000058
 20
129.2571430000002
 30
0.0
 11
82.33935500000058
 21
128.057129
 31
0.0
  0
LINE
  5
3692
330
A
100
AcDbEntity
  8
0
 62
     7
 48
0.010024
100
AcDbLine
 10
83.14129700000064
 20
129.2571430000002
 30
0.0
 11
82.33935500000058
 21
129.2571430000002
 31
0.0
  0
LINE
  5
3693
330
A
100
AcDbEntity
  8
0
 62
     7
 48
0.00625
100
AcDbLine
 10
82.74128700000057
 20
130.557129
 30
0.0
 11
82.74128700000057
 21
130.0571290000002
 31
0.0
  0
LINE
  5
3694
330
A
100
AcDbEntity
  8
0
 62
     7
 48
0.018726
100
AcDbLine
 10
83.14129700000064
 20
129.0153810000002
 30
0.0
 11
83.14129700000064
 21
130.557129
 31
0.0
  0
LINE
  5
3695
330
A
100
AcDbEntity
  8
0
 62
     7
 48
0.006577
100
AcDbLine
 10
87.5355230000005
 20
128.5833149999999
 30
0.0
 11
87.5355230000005
 21
128.057129
 31
0.0
  0
LINE
  5
3696
330
A
100
AcDbEntity
  8
0
 62
     7
 48
0.061264
100
AcDbLine
 10
90.94090300000068
 20
136.4576430000002
 30
0.0
 11
86.16984700000063
 21
135.335969
 31
0.0
  0
LINE
  5
3697
330
A
100
AcDbEntity
  8
0
 62
     7
 48
0.061856
100
AcDbLine
 10
91.96304300000059
 20
136.0571289999999
 30
0.0
 11
87.14587500000067
 21
134.924623
 31
0.0
  0
LWPOLYLINE
  5
3698
330
A
100
AcDbEntity
  8
0
 62
     7
100
AcDbPolyline
 90
        5
 70
     0
 43
0.0
 10
87.14587500000067
 20
134.924623
 10
86.58427500000064
 20
135.0037850000002
 10
86.34487900000058
 20
135.0949410000002
 10
86.22332900000065
 20
135.1918950000002
 10
86.16984700000061
 20
135.335969
  0
LINE
  5
3699
330
A
100
AcDbEntity
  8
0
 62
     7
 48
0.002772
100
AcDbLine
 10
91.74128700000055
 20
136.0571289999999
 30
0.0
 11
91.96304300000059
 21
136.0571289999999
 31
0.0
  0
ARC
  5
369A
330
A
100
AcDbEntity
  8
0
 62
     7
100
AcDbCircle
 10
91.74128700000055
 20
137.0571289999999
 30
0.0
 40
1.0
100
AcDbArc
 50
180.0000049999995
 51
269.9999730000012
  0
LINE
  5
369B
330
A
100
AcDbEntity
  8
0
 62
     7
 48
0.058674
100
AcDbLine
 10
76.74128700000057
 20
269.5571290000001
 30
0.0
 11
83.14129700000064
 21
269.5571290000001
 31
0.0
  0
LINE
  5
369C
330
A
100
AcDbEntity
  8
0
 62
     7
 48
0.058674
100
AcDbLine
 10
77.24128700000057
 20
270.3571169999999
 30
0.0
 11
82.24128700000056
 21
270.3571169999999
 31
0.0
  0
LINE
  5
369D
330
A
100
AcDbEntity
  8
0
 62
     7
 48
0.069976
100
AcDbLine
 10
82.33935500000058
 20
270.857117
 30
0.0
 11
76.74128700000057
 21
270.857117
 31
0.0
  0
LINE
  5
369E
330
A
100
AcDbEntity
  8
0
 62
     7
 48
0.00625
100
AcDbLine
 10
81.39129700000063
 20
270.857117
 30
0.0
 11
81.39129700000063
 21
270.3571169999999
 31
0.0
  0
LINE
  5
369F
330
A
100
AcDbEntity
  8
0
 62
     7
 48
0.00625
100
AcDbLine
 10
78.09127900000071
 20
270.857117
 30
0.0
 11
78.09127900000071
 21
270.3571169999999
 31
0.0
  0
LINE
  5
36A0
330
A
100
AcDbEntity
  8
0
 62
     7
 48
0.01
100
AcDbLine
 10
77.24128700000057
 20
270.3571169999999
 30
0.0
 11
77.24128700000057
 21
269.5571290000001
 31
0.0
  0
LINE
  5
36A1
330
A
100
AcDbEntity
  8
0
 62
     7
 48
0.015
100
AcDbLine
 10
82.33935500000058
 20
270.857117
 30
0.0
 11
82.33935500000058
 21
272.057129
 31
0.0
  0
LINE
  5
36A2
330
A
100
AcDbEntity
  8
0
 62
     7
 48
0.058777
100
AcDbLine
 10
87.82418900000067
 20
272.057129
 30
0.0
 11
83.14129700000064
 21
271.6320509999998
 31
0.0
  0
LINE
  5
36A3
330
A
100
AcDbEntity
  8
0
 62
     7
 48
0.061856
100
AcDbLine
 10
91.96304300000059
 20
264.057129
 30
0.0
 11
87.14587500000067
 21
265.1896370000002
 31
0.0
  0
LINE
  5
36A4
330
A
100
AcDbEntity
  8
0
 62
     7
 48
0.061264
100
AcDbLine
 10
90.94090300000068
 20
263.6566170000002
 30
0.0
 11
86.16984700000063
 21
264.778291
 31
0.0
  0
LINE
  5
36A5
330
A
100
AcDbEntity
  8
0
 62
     7
 48
0.002772
100
AcDbLine
 10
91.74128700000055
 20
264.057129
 30
0.0
 11
91.96304300000059
 21
264.057129
 31
0.0
  0
ARC
  5
36A6
330
A
100
AcDbEntity
  8
0
 62
     7
100
AcDbCircle
 10
91.74128700000055
 20
263.0571290000002
 30
0.0
 40
1.0
100
AcDbArc
 50
90.00000300000095
 51
180.0000049999995
  0
LWPOLYLINE
  5
36A7
330
A
100
AcDbEntity
  8
0
 62
     7
100
AcDbPolyline
 90
        5
 70
     0
 43
0.0
 10
87.14587500000067
 20
265.1896370000002
 10
86.58427500000064
 20
265.110475
 10
86.34487900000058
 20
265.0193189999999
 10
86.22332900000065
 20
264.922365
 10
86.16984700000061
 20
264.778291
  0
LINE
  5
36A8
330
A
100
AcDbEntity
  8
0
 62
     7
 48
0.01
100
AcDbLine
 10
82.24128700000056
 20
270.3571169999999
 30
0.0
 11
82.24128700000056
 21
269.5571290000001
 31
0.0
  0
LINE
  5
36A9
330
A
100
AcDbEntity
  8
0
 62
     7
 48
0.018726
100
AcDbLine
 10
83.14129700000064
 20
269.5571290000001
 30
0.0
 11
83.14129700000064
 21
271.5988769999999
 31
0.0
  0
LINE
  5
36AA
330
A
100
AcDbEntity
  8
0
 62
     7
 48
0.000415
100
AcDbLine
 10
83.14129700000064
 20
271.6320509999998
 30
0.0
 11
83.14129700000064
 21
271.5988769999999
 31
0.0
  0
LINE
  5
36AB
330
A
100
AcDbEntity
  8
0
 62
     7
 48
0.010024
100
AcDbLine
 10
83.14129700000064
 20
270.857117
 30
0.0
 11
82.33935500000058
 21
270.857117
 31
0.0
  0
LINE
  5
36AC
330
A
100
AcDbEntity
  8
0
 62
     7
 48
0.000328
100
AcDbLine
 10
87.5355230000005
 20
272.0309149999999
 30
0.0
 11
87.5355230000005
 21
272.057129
 31
0.0
  0
LINE
  5
36AE
330
A
100
AcDbEntity
  8
0
 62
     7
100
AcDbLine
 10
206.7413030000003
 20
263.0571290000002
 30
0.0
 11
206.7413030000003
 21
137.0571289999999
 31
0.0
  0
LINE
  5
36AF
330
A
100
AcDbEntity
  8
0
 62
     7
100
AcDbLine
 10
211.3127450000004
 20
135.335969
 30
0.0
 11
211.3127450000004
 21
264.778291
 31
0.0
  0
LINE
  5
36B0
330
A
100
AcDbEntity
  8
0
 62
     7
100
AcDbLine
 10
220.0593570000004
 20
130.434633
 30
0.0
 11
220.0593570000004
 21
270.1796270000002
 31
0.0
  0
LINE
  5
36B1
330
A
100
AcDbEntity
  8
0
 62
     7
100
AcDbLine
 10
220.7413030000004
 20
272.057129
 30
0.0
 11
220.7413030000004
 21
128.057129
 31
0.0
  0
LINE
  5
36B2
330
A
100
AcDbEntity
  8
0
 62
     7
100
AcDbLine
 10
213.8739930000002
 20
128.9239809999999
 30
0.0
 11
170.6085830000005
 21
128.9239809999999
 31
0.0
  0
LWPOLYLINE
  5
36B3
330
A
100
AcDbEntity
  8
0
 62
     7
100
AcDbPolyline
 90
        3
 70
     0
 43
0.0
 10
167.8739929999999
 20
128.557129
 10
168.5292050000001
 20
128.5699470000002
 10
168.8639530000003
 20
128.6021129999999
  0
LWPOLYLINE
  5
36B4
330
A
100
AcDbEntity
  8
0
 62
     7
100
AcDbPolyline
 90
       20
 70
     0
 43
0.0
 10
168.8639530000004
 20
128.6021270000001
 10
168.8505400000003
 20
128.5982520000002
 10
168.8316120000004
 20
128.5944369999999
 10
168.807274
 20
128.5907140000002
 10
168.7776720000004
 20
128.587098
 10
168.7429580000004
 20
128.5836030000002
 10
168.7033310000003
 20
128.5802540000002
 10
168.6590200000003
 20
128.5770720000002
 10
168.6102680000001
 20
128.5740740000002
 10
168.5573500000004
 20
128.5712740000002
 10
168.5005650000003
 20
128.5686950000002
 10
168.4402240000003
 20
128.5663380000002
 10
168.3766790000005
 20
128.564232
 10
168.3102880000004
 20
128.5623780000002
 10
168.2414170000004
 20
128.5607910000002
 10
168.1704640000004
 20
128.5594870000002
 10
168.0978320000004
 20
128.5584570000002
 10
168.0239340000005
 20
128.557724
 10
167.9491810000004
 20
128.5572740000002
 10
167.8740010000003
 20
128.5571290000002
  0
LWPOLYLINE
  5
36B5
330
A
100
AcDbEntity
  8
0
 62
     7
100
AcDbPolyline
 90
        3
 70
     0
 43
0.0
 10
170.6085830000005
 20
128.9239809999999
 10
169.9533690000004
 20
128.9111650000002
 10
169.6186230000004
 20
128.8789990000002
  0
LINE
  5
36B6
330
A
100
AcDbEntity
  8
0
 62
     7
 48
0.010048
100
AcDbLine
 10
168.8639530000003
 20
128.6021129999999
 30
0.0
 11
169.6186230000004
 21
128.8789990000002
 31
0.0
  0
LWPOLYLINE
  5
36B7
330
A
100
AcDbEntity
  8
0
 62
     7
100
AcDbPolyline
 90
       20
 70
     0
 43
0.0
 10
170.6085890000004
 20
128.9239809999999
 10
170.5334090000004
 20
128.9238360000001
 10
170.4586570000004
 20
128.9233940000002
 10
170.3847510000001
 20
128.9226540000002
 10
170.3121190000004
 20
128.9216310000002
 10
170.2411650000003
 20
128.9203190000002
 10
170.1723020000003
 20
128.9187320000002
 10
170.1059040000004
 20
128.9168780000002
 10
170.0423590000004
 20
128.9147720000002
 10
169.9820250000001
 20
128.9124230000002
 10
169.9252400000004
 20
128.9098360000002
 10
169.8723150000005
 20
128.9070359999998
 10
169.8235630000006
 20
128.9040380000002
 10
169.7792510000005
 20
128.9008560000002
 10
169.7396240000005
 20
128.8975149999999
 10
169.7049180000003
 20
128.8940200000002
 10
169.6753080000004
 20
128.8903960000002
 10
169.6509780000004
 20
128.8866730000002
 10
169.6320500000003
 20
128.8828590000002
 10
169.6186370000006
 20
128.8789910000001
  0
LINE
  5
36B8
330
A
100
AcDbEntity
  8
0
 62
     7
 48
0.020097
100
AcDbLine
 10
168.8639530000004
 20
128.6021270000002
 30
0.0
 11
169.6186370000006
 21
128.8789910000001
 31
0.0
  0
LINE
  5
36B9
330
A
100
AcDbEntity
  8
0
 62
     7
 48
0.49375
100
AcDbLine
 10
220.6975410000004
 20
170.0571289999999
 30
0.0
 11
220.6977188912925
 21
130.052348806219
 31
0.0
  0
ARC
  5
36BA
330
A
100
AcDbEntity
  8
0
 62
     7
100
AcDbCircle
 10
205.7413030000005
 20
137.0571289999999
 30
0.0
 40
1.0
100
AcDbArc
 50
270.0000009999981
 51
0.0
  0
LINE
  5
36BB
330
A
100
AcDbEntity
  8
0
 62
     7
 48
0.061856
100
AcDbLine
 10
210.3367010000006
 20
134.924623
 30
0.0
 11
205.5195310000003
 21
136.0571289999999
 31
0.0
  0
LINE
  5
36BC
330
A
100
AcDbEntity
  8
0
 62
     7
 48
0.061264
100
AcDbLine
 10
211.3127450000004
 20
135.335969
 30
0.0
 11
206.5416870000003
 21
136.4576430000002
 31
0.0
  0
LINE
  5
36BD
330
A
100
AcDbEntity
  8
0
 62
     7
 48
0.002772
100
AcDbLine
 10
205.5195310000003
 20
136.0571289999999
 30
0.0
 11
205.7413030000005
 21
136.0571289999999
 31
0.0
  0
LWPOLYLINE
  5
36BE
330
A
100
AcDbEntity
  8
0
 62
     7
100
AcDbPolyline
 90
        5
 70
     0
 43
0.0
 10
210.3367010000006
 20
134.924623
 10
210.8983150000006
 20
135.0037850000002
 10
211.1376950000003
 20
135.0949410000002
 10
211.2592470000004
 20
135.1918950000002
 10
211.3127450000004
 20
135.335969
  0
LWPOLYLINE
  5
36BF
330
A
100
AcDbEntity
  8
0
 62
     7
100
AcDbPolyline
 90
        5
 70
     0
 43
0.0
 10
218.5650630000004
 20
128.9366769999999
 10
218.5268250000004
 20
128.9487310000002
 10
218.3076790000004
 20
128.9743050000001
 10
217.4450990000002
 20
129.0059510000002
 10
217.1441350000004
 20
129.0083630000002
  0
LINE
  5
36C0
330
A
100
AcDbEntity
  8
0
 62
     7
 48
0.032376
100
AcDbLine
 10
219.1987010000004
 20
128.557129
 30
0.0
 11
216.6085830000006
 21
128.557129
 31
0.0
  0
LWPOLYLINE
  5
36C1
330
A
100
AcDbEntity
  8
0
 62
     7
100
AcDbPolyline
 90
        3
 70
     0
 43
0.0
 10
215.6186230000004
 20
128.6021129999999
 10
215.9534010000004
 20
128.5699470000002
 10
216.6085830000006
 20
128.557129
  0
LINE
  5
36C2
330
A
100
AcDbEntity
  8
0
 62
     7
 48
0.010048
100
AcDbLine
 10
215.6186230000004
 20
128.6021129999999
 30
0.0
 11
214.863953
 21
128.8789990000002
 31
0.0
  0
LWPOLYLINE
  5
36C3
330
A
100
AcDbEntity
  8
0
 62
     7
100
AcDbPolyline
 90
        3
 70
     0
 43
0.0
 10
214.863953
 20
128.8789990000002
 10
214.5292050000005
 20
128.9111650000002
 10
213.8739930000002
 20
128.9239809999999
  0
LINE
  5
36C4
330
A
100
AcDbEntity
  8
0
 62
     7
 48
0.009299
100
AcDbLine
 10
220.6975410000004
 20
130.0523390000002
 30
0.0
 11
220.0593570000004
 21
130.434633
 31
0.0
  0
LINE
  5
36C5
330
A
100
AcDbEntity
  8
0
 62
     7
 48
0.009233
100
AcDbLine
 10
219.1987010000004
 20
128.557129
 30
0.0
 11
218.5650630000004
 21
128.9366769999999
 31
0.0
  0
LWPOLYLINE
  5
36C6
330
A
100
AcDbEntity
  8
0
 62
     7
100
AcDbPolyline
 90
       10
 70
     0
 43
0.0
 10
218.5650630000004
 20
128.9366769999999
 10
218.8097850000003
 20
128.958009
 10
219.0479130000003
 20
129.019227
 10
219.2731630000003
 20
129.1187749999999
 10
219.4792490000004
 20
129.2538770000002
 10
219.660737
 20
129.4210830000002
 10
219.8125610000004
 20
129.6156930000001
 10
219.9306350000006
 20
129.8325810000002
 10
220.0116890000002
 20
130.065797
 10
220.0593570000004
 20
130.434633
  0
ARC
  5
36C7
330
A
100
AcDbEntity
  8
0
 62
     7
100
AcDbCircle
 10
219.2023330000004
 20
130.0529190000002
 30
0.0
 40
1.495386
100
AcDbArc
 50
269.8603099999981
 51
359.9781530000001
  0
LINE
  5
36C8
330
A
100
AcDbEntity
  8
0
 62
     7
 48
0.4
100
AcDbLine
 10
220.0851130000004
 20
216.057129
 30
0.0
 11
220.0851130000004
 21
184.0571289999999
 31
0.0
  0
LINE
  5
36C9
330
A
100
AcDbEntity
  8
0
 62
     7
 48
0.0875
100
AcDbLine
 10
220.0851130000004
 20
184.0571289999999
 30
0.0
 11
220.0851130000004
 21
177.0571290000002
 31
0.0
  0
LWPOLYLINE
  5
36CA
330
A
100
AcDbEntity
  8
0
 62
     7
100
AcDbPolyline
 90
        4
 70
     0
 43
0.0
 10
220.0851130000004
 20
177.0571290000002
 10
220.1363830000003
 20
175.6429149999999
 10
220.1931470000006
 20
175.2093829999999
 10
220.2601010000005
 20
175.0571290000002
  0
LINE
  5
36CB
330
A
100
AcDbEntity
  8
0
 62
     7
 48
0.004921
100
AcDbLine
 10
220.6538090000005
 20
175.0571290000002
 30
0.0
 11
220.2601010000005
 21
175.0571290000002
 31
0.0
  0
LWPOLYLINE
  5
36CC
330
A
100
AcDbEntity
  8
0
 62
     7
100
AcDbPolyline
 90
        4
 70
     0
 43
0.0
 10
220.7413030000004
 20
174.0571290000002
 10
220.7156690000005
 20
174.7642229999998
 10
220.6872870000003
 20
174.9810189999998
 10
220.6538090000005
 20
175.0571290000002
  0
LINE
  5
36CD
330
A
100
AcDbEntity
  8
0
 62
     7
 48
0.000547
100
AcDbLine
 10
220.7413030000004
 20
170.0571289999999
 30
0.0
 11
220.6975410000004
 21
170.0571289999999
 31
0.0
  0
LINE
  5
36CF
330
A
100
AcDbEntity
  8
0
 62
     7
 48
0.0875
100
AcDbLine
 10
220.0851130000004
 20
223.0571290000002
 30
0.0
 11
220.0851130000004
 21
216.057129
 31
0.0
  0
LWPOLYLINE
  5
36D0
330
A
100
AcDbEntity
  8
0
 62
     7
100
AcDbPolyline
 90
        8
 70
     0
 43
0.0
 10
220.6538090000005
 20
225.0571290000002
 10
220.6559450000004
 20
225.0574350000002
 10
220.658081
 20
225.0583510000002
 10
220.6623850000003
 20
225.0619509999999
 10
220.6699530000005
 20
225.0743110000001
 10
220.6975710000004
 20
225.1912250000001
 10
220.7383130000004
 20
225.7985549999999
 10
220.7413030000004
 20
226.057129
  0
LINE
  5
36D1
330
A
100
AcDbEntity
  8
0
 62
     7
 48
0.004921
100
AcDbLine
 10
220.6538090000005
 20
225.0571290000002
 30
0.0
 11
220.2601010000005
 21
225.0571290000002
 31
0.0
  0
LWPOLYLINE
  5
36D2
330
A
100
AcDbEntity
  8
0
 62
     7
100
AcDbPolyline
 90
        8
 70
     0
 43
0.0
 10
220.2601010000005
 20
225.0571290000002
 10
220.2547910000004
 20
225.0562149999999
 10
220.2496650000003
 20
225.0535589999999
 10
220.2401430000003
 20
225.044069
 10
220.2220470000004
 20
225.009279
 10
220.1826790000005
 20
224.8507089999999
 10
220.1039730000004
 20
223.9599609999999
 10
220.0851130000004
 20
223.0571290000002
  0
LINE
  5
36D3
330
A
100
AcDbEntity
  8
0
 62
     7
 48
0.49375
100
AcDbLine
 10
220.6975410000004
 20
230.0571290000001
 30
0.0
 11
220.6975410000004
 21
270.5619210000002
 31
0.0
  0
LINE
  5
36D4
330
A
100
AcDbEntity
  8
0
 62
     7
 48
0.000547
100
AcDbLine
 10
220.7413030000004
 20
230.0571290000001
 30
0.0
 11
220.6975410000004
 21
230.0571290000001
 31
0.0
  0
LINE
  5
36D5
330
A
100
AcDbEntity
  8
0
 62
     7
 48
0.061264
100
AcDbLine
 10
211.3127450000004
 20
264.778291
 30
0.0
 11
206.5416870000003
 21
263.6566170000002
 31
0.0
  0
LINE
  5
36D6
330
A
100
AcDbEntity
  8
0
 62
     7
 48
0.061856
100
AcDbLine
 10
210.3367010000006
 20
265.1896370000002
 30
0.0
 11
205.5195310000003
 21
264.057129
 31
0.0
  0
ARC
  5
36D7
330
A
100
AcDbEntity
  8
0
 62
     7
100
AcDbCircle
 10
205.7413030000005
 20
263.0571290000002
 30
0.0
 40
1.0
100
AcDbArc
 50
0.0
 51
90.00000899999959
  0
LINE
  5
36D8
330
A
100
AcDbEntity
  8
0
 62
     7
 48
0.002772
100
AcDbLine
 10
205.5195310000003
 20
264.057129
 30
0.0
 11
205.7413030000005
 21
264.057129
 31
0.0
  0
LWPOLYLINE
  5
36D9
330
A
100
AcDbEntity
  8
0
 62
     7
100
AcDbPolyline
 90
        5
 70
     0
 43
0.0
 10
210.3367010000006
 20
265.1896370000002
 10
210.8983150000006
 20
265.110475
 10
211.1376950000003
 20
265.0193189999999
 10
211.2592470000004
 20
264.922365
 10
211.3127450000004
 20
264.778291
  0
LINE
  5
36DA
330
A
100
AcDbEntity
  8
0
 62
     7
 48
0.009233
100
AcDbLine
 10
219.1987010000004
 20
272.057129
 30
0.0
 11
218.5650630000004
 21
271.677583
 31
0.0
  0
ARC
  5
36DB
330
A
100
AcDbEntity
  8
0
 62
     7
100
AcDbCircle
 10
219.2023330000004
 20
270.5613410000001
 30
0.0
 40
1.495387999999999
100
AcDbArc
 50
0.0218920000003225
 51
90.13967299999919
  0
LWPOLYLINE
  5
36DC
330
A
100
AcDbEntity
  8
0
 62
     7
100
AcDbPolyline
 90
        4
 70
     0
 43
0.0
 10
217.1441350000004
 20
271.6058970000001
 10
218.1109010000005
 20
271.627809
 10
218.4241030000004
 20
271.6505130000001
 10
218.5650630000004
 20
271.677583
  0
LINE
  5
36DD
330
A
100
AcDbEntity
  8
0
 62
     7
 48
0.009299
100
AcDbLine
 10
220.6975410000004
 20
270.5619210000002
 30
0.0
 11
220.0593570000004
 21
270.1796270000002
 31
0.0
  0
LWPOLYLINE
  5
36DE
330
A
100
AcDbEntity
  8
0
 62
     7
100
AcDbPolyline
 90
       10
 70
     0
 43
0.0
 10
220.0593570000004
 20
270.1796270000002
 10
220.0380250000004
 20
270.4252330000002
 10
219.9768070000005
 20
270.664185
 10
219.8773190000003
 20
270.890169
 10
219.7422790000004
 20
271.0968630000002
 10
219.5753490000004
 20
271.278749
 10
219.3810130000005
 20
271.4308170000001
 10
219.1646730000003
 20
271.5489509999999
 10
218.9320990000005
 20
271.630005
 10
218.5650630000004
 20
271.677583
  0
LINE
  5
36DF
330
A
100
AcDbEntity
  8
0
 62
     7
100
AcDbLine
 10
292.8873910000005
 20
272.057129
 30
0.0
 11
292.8873910000005
 21
128.057129
 31
0.0
  0
VIEWPORT
  5
35F3
330
B
100
AcDbEntity
 67
     1
  8
0
 62
     0
100
AcDbViewport
 10
0.0
 20
0.0
 30
0.0
 40
1000.0
 41
1000.0
 68
     1
 69
     1
 12
0.0
 22
0.0
 13
0.0
 23
0.0
 14
1.0
 24
1.0
 15
1.0
 25
1.0
 16
0.0
 26
0.0
 36
1.0
 17
0.0
 27
0.0
 37
0.0
 42
50.0
 43
0.0
 44
0.0
 45
1000.0
 50
0.0
 51
0.0
 72
   100
 90
    32800
  1

281
     0
 71
     1
 74
     0
110
0.0
120
0.0
130
0.0
111
1.0
121
0.0
131
0.0
112
0.0
122
1.0
132
0.0
 79
     0
146
0.0
  0
ENDSEC
  0
SECTION
  2
OBJECTS
  0
DICTIONARY
  5
19
330
0
100
AcDbDictionary
281
     1
  3
ACAD_GROUP
350
1A
  3
ACAD_LAYOUT
350
35FA
  3
ACAD_MLINESTYLE
350
1B
  3
ACAD_PLOTSETTINGS
350
35FB
  3
ACAD_PLOTSTYLENAME
350
35F8
  0
DICTIONARY
  5
1A
102
{ACAD_REACTORS
330
19
102
}
330
19
100
AcDbDictionary
281
     1
  0
DICTIONARY
  5
35FA
102
{ACAD_REACTORS
330
19
102
}
330
19
100
AcDbDictionary
281
     1
  3
Model
350
35FC
  3
ﾚｲｱｳﾄ1
350
35FD
  0
DICTIONARY
  5
1B
102
{ACAD_REACTORS
330
19
102
}
330
19
100
AcDbDictionary
281
     1
  3
STANDARD
350
1C
  0
DICTIONARY
  5
35FB
102
{ACAD_REACTORS
330
19
102
}
330
19
100
AcDbDictionary
281
     1
  0
ACDBDICTIONARYWDFLT
  5
35F8
102
{ACAD_REACTORS
330
19
102
}
330
19
100
AcDbDictionary
281
     1
  3
Normal
350
35F9
100
AcDbDictionaryWithDefault
340
35F9
  0
LAYOUT
  5
35FC
102
{ACAD_REACTORS
330
35FA
102
}
330
35FA
100
AcDbPlotSettings
  1

  2
Canon iR-ADV C5030/5035 LIPSLX
  4

  6

 40
0.0
 41
0.0
 42
0.0
 43
0.0
 44
0.0
 45
0.0
 46
0.0
 47
0.0
 48
0.0
 49
0.0
140
0.0
141
0.0
142
1.0
143
1.0
 70
  1712
 72
     0
 73
     0
 74
     0
  7

 75
     0
147
1.0
148
0.0
149
0.0
100
AcDbLayout
  1
Model
 70
     1
 71
     0
 10
0.0
 20
0.0
 11
12.0
 21
9.0
 12
0.0
 22
0.0
 32
0.0
 14
0.0
 24
0.0
 34
0.0
 15
0.0
 25
0.0
 35
0.0
146
0.0
 13
0.0
 23
0.0
 33
0.0
 16
1.0
 26
0.0
 36
0.0
 17
0.0
 27
1.0
 37
0.0
 76
     0
330
A
  0
LAYOUT
  5
35FD
102
{ACAD_REACTORS
330
35FA
102
}
330
35FA
100
AcDbPlotSettings
  1

  2
Canon iR-ADV C5030/5035 LIPSLX
  4

  6

 40
0.0
 41
0.0
 42
0.0
 43
0.0
 44
0.0
 45
0.0
 46
0.0
 47
0.0
 48
0.0
 49
0.0
140
0.0
141
0.0
142
1.0
143
1.0
 70
   688
 72
     0
 73
     0
 74
     5
  7

 75
    16
147
1.0
148
0.0
149
0.0
100
AcDbLayout
  1
ﾚｲｱｳﾄ1
 70
     1
 71
     1
 10
0.0
 20
0.0
 11
420.0
 21
297.0
 12
0.0
 22
0.0
 32
0.0
 14
0.0
 24
0.0
 34
0.0
 15
401.4999999999998
 25
275.0
 35
2.0
146
0.0
 13
0.0
 23
0.0
 33
0.0
 16
1.0
 26
0.0
 36
0.0
 17
0.0
 27
1.0
 37
0.0
 76
     0
330
B
331
35F3
  0
MLINESTYLE
  5
1C
102
{ACAD_REACTORS
330
1B
102
}
330
1B
100
AcDbMlineStyle
  2
STANDARD
 70
     0
  3

 62
     0
 51
90.0
 52
90.0
 71
     2
 49
0.5
 62
   256
  6
BYLAYER
 49
-0.5
 62
   256
  6
BYLAYER
  0
ACDBPLACEHOLDER
  5
35F9
102
{ACAD_REACTORS
330
35F8
102
}
330
35F8
  0
ENDSEC
  0
EOF
