  0
SECTION
  2
HEADER
  9
$ACADVER
  1
AC1015
  9
$ACADMAINTVER
 70
     6
  9
$DWGCODEPAGE
  3
ANSI_1252
  9
$INSBASE
 10
0.0
 20
0.0
 30
0.0
  9
$EXTMIN
 10
0.0
 20
0.0
 30
0.0
  9
$EXTMAX
 10
733.310852
 20
709.699158
 30
2.0
  9
$LIMMIN
 10
0.0
 20
0.0
  9
$LIMMAX
 10
420.0
 20
297.0
  9
$ORTHOMODE
 70
     0
  9
$REGENMODE
 70
     1
  9
$FILLMODE
 70
     1
  9
$QTEXTMODE
 70
     0
  9
$MIRRTEXT
 70
     1
  9
$LTSCALE
 40
1.0
  9
$ATTMODE
 70
     1
  9
$TEXTSIZE
 40
2.5
  9
$TRACEWID
 40
1.0
  9
$TEXTSTYLE
  7
Standard
  9
$CLAYER
  8
0
  9
$CELTYPE
  6
ByLayer
  9
$CECOLOR
 62
   256
  9
$CELTSCALE
 40
1.0
  9
$DISPSILH
 70
     0
  9
$DIMSCALE
 40
1.0
  9
$DIMASZ
 40
2.5
  9
$DIMEXO
 40
0.625
  9
$DIMDLI
 40
3.75
  9
$DIMRND
 40
0.0
  9
$DIMDLE
 40
0.0
  9
$DIMEXE
 40
1.25
  9
$DIMTP
 40
0.0
  9
$DIMTM
 40
0.0
  9
$DIMTXT
 40
2.5
  9
$DIMCEN
 40
2.5
  9
$DIMTSZ
 40
0.0
  9
$DIMTOL
 70
     0
  9
$DIMLIM
 70
     0
  9
$DIMTIH
 70
     0
  9
$DIMTOH
 70
     0
  9
$DIMSE1
 70
     0
  9
$DIMSE2
 70
     0
  9
$DIMTAD
 70
     1
  9
$DIMZIN
 70
     8
  9
$DIMBLK
  1

  9
$DIMASO
 70
     1
  9
$DIMSHO
 70
     1
  9
$DIMPOST
  1

  9
$DIMAPOST
  1

  9
$DIMALT
 70
     0
  9
$DIMALTD
 70
     3
  9
$DIMALTF
 40
0.03937
  9
$DIMLFAC
 40
1.0
  9
$DIMTOFL
 70
     1
  9
$DIMTVP
 40
0.0
  9
$DIMTIX
 70
     0
  9
$DIMSOXD
 70
     0
  9
$DIMSAH
 70
     0
  9
$DIMBLK1
  1

  9
$DIMBLK2
  1

  9
$DIMSTYLE
  2
Standard
  9
$DIMCLRD
 70
     0
  9
$DIMCLRE
 70
     0
  9
$DIMCLRT
 70
     0
  9
$DIMTFAC
 40
1.0
  9
$DIMGAP
 40
0.625
  9
$DIMJUST
 70
     0
  9
$DIMSD1
 70
     0
  9
$DIMSD2
 70
     0
  9
$DIMTOLJ
 70
     0
  9
$DIMTZIN
 70
     8
  9
$DIMALTZ
 70
     0
  9
$DIMALTTZ
 70
     0
  9
$DIMUPT
 70
     0
  9
$DIMDEC
 70
     2
  9
$DIMTDEC
 70
     2
  9
$DIMALTU
 70
     2
  9
$DIMALTTD
 70
     3
  9
$DIMTXSTY
  7
Standard
  9
$DIMAUNIT
 70
     0
  9
$DIMADEC
 70
     0
  9
$DIMALTRND
 40
0.0
  9
$DIMAZIN
 70
     0
  9
$DIMDSEP
 70
    44
  9
$DIMATFIT
 70
     0
  9
$DIMFRAC
 70
     0
  9
$DIMLDRBLK
  1

  9
$DIMLUNIT
 70
     2
  9
$DIMLWD
 70
    -2
  9
$DIMLWE
 70
    -2
  9
$DIMTMOVE
 70
     0
  9
$LUNITS
 70
     2
  9
$LUPREC
 70
     4
  9
$SKETCHINC
 40
1.0
  9
$FILLETRAD
 40
2.5
  9
$AUNITS
 70
     0
  9
$AUPREC
 70
     0
  9
$MENU
  1
.
  9
$ELEVATION
 40
0.0
  9
$PELEVATION
 40
0.0
  9
$THICKNESS
 40
0.0
  9
$LIMCHECK
 70
     0
  9
$CHAMFERA
 40
2.5
  9
$CHAMFERB
 40
2.5
  9
$CHAMFERC
 40
0.0
  9
$CHAMFERD
 40
0.0
  9
$SKPOLY
 70
     0
  9
$TDCREATE
 40
2447893.375
  9
$TDUCREATE
 40
0.0
  9
$TDUPDATE
 40
2459513.498237454
  9
$TDUUPDATE
 40
2459513.123237454
  9
$TDINDWG
 40
0.0
  9
$TDUSRTIMER
 40
0.0
  9
$USRTIMER
 70
     1
  9
$ANGBASE
 50
0.0
  9
$ANGDIR
 70
     0
  9
$PDMODE
 70
     0
  9
$PDSIZE
 40
0.0
  9
$PLINEWID
 40
0.0
  9
$SPLFRAME
 70
     0
  9
$SPLINETYPE
 70
     6
  9
$SPLINESEGS
 70
     8
  9
$HANDSEED
  5
3B4
  9
$SURFTAB1
 70
     6
  9
$SURFTAB2
 70
     6
  9
$SURFTYPE
 70
     6
  9
$SURFU
 70
     6
  9
$SURFV
 70
     6
  9
$UCSBASE
  2

  9
$UCSNAME
  2

  9
$UCSORG
 10
0.0
 20
0.0
 30
0.0
  9
$UCSXDIR
 10
1.0
 20
0.0
 30
0.0
  9
$UCSYDIR
 10
0.0
 20
1.0
 30
0.0
  9
$UCSORTHOREF
  2

  9
$UCSORTHOVIEW
 70
     1
  9
$UCSORGTOP
 10
0.0
 20
0.0
 30
0.0
  9
$UCSORGBOTTOM
 10
0.0
 20
0.0
 30
0.0
  9
$UCSORGLEFT
 10
0.0
 20
0.0
 30
0.0
  9
$UCSORGRIGHT
 10
0.0
 20
0.0
 30
0.0
  9
$UCSORGFRONT
 10
0.0
 20
0.0
 30
0.0
  9
$UCSORGBACK
 10
0.0
 20
0.0
 30
0.0
  9
$PUCSBASE
  2

  9
$PUCSNAME
  2

  9
$PUCSORG
 10
0.0
 20
0.0
 30
0.0
  9
$PUCSXDIR
 10
1.0
 20
0.0
 30
0.0
  9
$PUCSYDIR
 10
0.0
 20
1.0
 30
0.0
  9
$PUCSORTHOREF
  2

  9
$PUCSORTHOVIEW
 70
     0
  9
$PUCSORGTOP
 10
0.0
 20
0.0
 30
0.0
  9
$PUCSORGBOTTOM
 10
0.0
 20
0.0
 30
0.0
  9
$PUCSORGLEFT
 10
0.0
 20
0.0
 30
0.0
  9
$PUCSORGRIGHT
 10
0.0
 20
0.0
 30
0.0
  9
$PUCSORGFRONT
 10
0.0
 20
0.0
 30
0.0
  9
$PUCSORGBACK
 10
0.0
 20
0.0
 30
0.0
  9
$USERI1
 70
     0
  9
$USERI2
 70
     0
  9
$USERI3
 70
     0
  9
$USERI4
 70
     0
  9
$USERI5
 70
     0
  9
$USERR1
 40
0.0
  9
$USERR2
 40
0.0
  9
$USERR3
 40
0.0
  9
$USERR4
 40
0.0
  9
$USERR5
 40
0.0
  9
$WORLDVIEW
 70
     1
  9
$SHADEDGE
 70
     3
  9
$SHADEDIF
 70
    70
  9
$TILEMODE
 70
     1
  9
$MAXACTVP
 70
    64
  9
$PINSBASE
 10
0.0
 20
0.0
 30
0.0
  9
$PLIMCHECK
 70
     0
  9
$PEXTMIN
 10
0.0
 20
0.0
 30
0.0
  9
$PEXTMAX
 10
733.310852
 20
709.699158
 30
2.0
  9
$PLIMMIN
 10
0.0
 20
0.0
  9
$PLIMMAX
 10
420.0
 20
297.0
  9
$UNITMODE
 70
     0
  9
$VISRETAIN
 70
     0
  9
$PLINEGEN
 70
     0
  9
$PSLTSCALE
 70
     1
  9
$TREEDEPTH
 70
  3020
  9
$CMLSTYLE
  2
Standard
  9
$CMLJUST
 70
     0
  9
$CMLSCALE
 40
20.0
  9
$PROXYGRAPHICS
 70
     1
  9
$MEASUREMENT
 70
     1
  9
$CELWEIGHT
370
    -1
  9
$ENDCAPS
280
     0
  9
$JOINSTYLE
280
     0
  9
$LWDISPLAY
290
     0
  9
$INSUNITS
 70
     0
  9
$HYPERLINKBASE
  1

  9
$STYLESHEET
  1

  9
$XEDIT
290
     1
  9
$CEPSNTYPE
380
     0
  9
$PSTYLEMODE
290
     0
  9
$FINGERPRINTGUID
  2
{F10CFEA0-26FB-4382-B52F-98CE30388D5A}
  9
$VERSIONGUID
  2
{FAEB1C32-E019-11D5-929B-00C0DF256EC4}
  9
$EXTNAMES
290
     1
  9
$PSVPSCALE
 40
0.0
  9
$OLESTARTUP
290
     0
  0
ENDSEC
  0
SECTION
  2
CLASSES
  0
CLASS
  1
ACDBDICTIONARYWDFLT
  2
AcDbDictionaryWithDefault
  3
ObjectDBX Classes
 90
        0
280
     0
281
     0
  0
CLASS
  1
VISUALSTYLE
  2
AcDbVisualStyle
  3
ObjectDBX Classes
 90
     4095
280
     0
281
     0
  0
CLASS
  1
MATERIAL
  2
AcDbMaterial
  3
ObjectDBX Classes
 90
     1153
280
     0
281
     0
  0
CLASS
  1
SCALE
  2
AcDbScale
  3
ObjectDBX Classes
 90
     1153
280
     0
281
     0
  0
CLASS
  1
TABLESTYLE
  2
AcDbTableStyle
  3
ObjectDBX Classes
 90
     4095
280
     0
281
     0
  0
CLASS
  1
MLEADERSTYLE
  2
AcDbMLeaderStyle
  3
ACDB_MLEADERSTYLE_CLASS
 90
     4095
280
     0
281
     0
  0
CLASS
  1
SUN
  2
AcDbSun
  3
SCENEOE
 90
     1153
280
     0
281
     0
  0
CLASS
  1
ACDBPLACEHOLDER
  2
AcDbPlaceHolder
  3
ObjectDBX Classes
 90
        0
280
     0
281
     0
  0
CLASS
  1
LAYOUT
  2
AcDbLayout
  3
ObjectDBX Classes
 90
        0
280
     0
281
     0
  0
ENDSEC
  0
SECTION
  2
TABLES
  0
TABLE
  2
VPORT
  5
8
330
0
100
AcDbSymbolTable
 70
     1
  0
VPORT
  5
29
330
8
100
AcDbSymbolTableRecord
100
AcDbViewportTableRecord
  2
*Active
 70
     0
 10
0.0
 20
0.0
 11
1.0
 21
1.0
 12
10.429907
 22
4.5
 13
0.0
 23
0.0
 14
0.5
 24
0.5
 15
0.5
 25
0.5
 16
0.0
 26
0.0
 36
1.0
 17
0.0
 27
0.0
 37
0.0
 40
9.0
 41
1.972973
 42
50.0
 43
0.0
 44
0.0
 50
0.0
 51
0.0
 71
     0
 72
   100
 73
     1
 74
     3
 75
     0
 76
     0
 77
     0
 78
     0
281
     0
 65
     1
110
0.0
120
0.0
130
0.0
111
1.0
121
0.0
131
0.0
112
0.0
122
1.0
132
0.0
 79
     0
146
0.0
  0
ENDTAB
  0
TABLE
  2
LTYPE
  5
5
330
0
100
AcDbSymbolTable
 70
     2
  0
LTYPE
  5
14
330
5
100
AcDbSymbolTableRecord
100
AcDbLinetypeTableRecord
  2
ByBlock
 70
     0
  3

 72
    65
 73
     0
 40
0.0
  0
LTYPE
  5
15
330
5
100
AcDbSymbolTableRecord
100
AcDbLinetypeTableRecord
  2
ByLayer
 70
     0
  3

 72
    65
 73
     0
 40
0.0
  0
LTYPE
  5
16
330
5
100
AcDbSymbolTableRecord
100
AcDbLinetypeTableRecord
  2
Continuous
 70
     0
  3
Solid line
 72
    65
 73
     0
 40
0.0
  0
LTYPE
  5
6E
330
5
100
AcDbSymbolTableRecord
100
AcDbLinetypeTableRecord
  2
PHANTOM
 70
     0
  3
____________    ____    ____   _
 72
    65
 73
     6
 40
20.0
 49
10.0
 74
     0
 49
-2.0
 74
     0
 49
2.0
 74
     0
 49
-2.0
 74
     0
 49
2.0
 74
     0
 49
-2.0
 74
     0
  0
ENDTAB
  0
TABLE
  2
LAYER
  5
2
330
0
100
AcDbSymbolTable
 70
     1
  0
LAYER
  5
10
330
2
100
AcDbSymbolTableRecord
100
AcDbLayerTableRecord
  2
0
 70
     0
 62
     7
  6
Continuous
370
    -3
390
F
  0
ENDTAB
  0
TABLE
  2
STYLE
  5
3
330
0
100
AcDbSymbolTable
 70
     1
  0
STYLE
  5
11
330
3
100
AcDbSymbolTableRecord
100
AcDbTextStyleTableRecord
  2
Standard
 70
     0
 40
0.0
 41
1.0
 50
0.0
 71
     0
 42
2.5
  3
txt
  4

  0
ENDTAB
  0
TABLE
  2
VIEW
  5
6
330
0
100
AcDbSymbolTable
 70
     0
  0
ENDTAB
  0
TABLE
  2
UCS
  5
7
330
0
100
AcDbSymbolTable
 70
     0
  0
ENDTAB
  0
TABLE
  2
APPID
  5
9
330
0
100
AcDbSymbolTable
 70
     1
  0
APPID
  5
12
330
9
100
AcDbSymbolTableRecord
100
AcDbRegAppTableRecord
  2
ACAD
 70
     0
  0
ENDTAB
  0
TABLE
  2
DIMSTYLE
  5
A
330
0
100
AcDbSymbolTable
 70
     1
100
AcDbDimStyleTable
  0
DIMSTYLE
105
27
330
A
100
AcDbSymbolTableRecord
100
AcDbDimStyleTableRecord
  2
Standard
 70
     0
178
     0
340
11
  0
ENDTAB
  0
TABLE
  2
BLOCK_RECORD
  5
1
330
0
100
AcDbSymbolTable
 70
     1
  0
BLOCK_RECORD
  5
1F
330
1
100
AcDbSymbolTableRecord
100
AcDbBlockTableRecord
  2
*Model_Space
340
22
  0
BLOCK_RECORD
  5
1B
330
1
100
AcDbSymbolTableRecord
100
AcDbBlockTableRecord
  2
*Paper_Space
340
1E
  0
BLOCK_RECORD
  5
23
330
1
100
AcDbSymbolTableRecord
100
AcDbBlockTableRecord
  2
*Paper_Space0
340
26
  0
ENDTAB
  0
ENDSEC
  0
SECTION
  2
BLOCKS
  0
BLOCK
  5
20
330
1F
100
AcDbEntity
  8
0
100
AcDbBlockBegin
  2
*Model_Space
 70
     0
 10
0.0
 20
0.0
 30
0.0
  3
*Model_Space
  1

  0
ENDBLK
  5
21
330
1F
100
AcDbEntity
  8
0
100
AcDbBlockEnd
  0
BLOCK
  5
1C
330
1B
100
AcDbEntity
 67
     1
  8
0
100
AcDbBlockBegin
  2
*Paper_Space
 70
     0
 10
0.0
 20
0.0
 30
0.0
  3
*Paper_Space
  1

  0
ENDBLK
  5
1D
330
1B
100
AcDbEntity
 67
     1
  8
0
100
AcDbBlockEnd
  0
BLOCK
  5
24
330
23
100
AcDbEntity
  8
0
100
AcDbBlockBegin
  2
*Paper_Space0
 70
     0
 10
0.0
 20
0.0
 30
0.0
  3
*Paper_Space0
  1

  0
ENDBLK
  5
25
330
23
100
AcDbEntity
  8
0
100
AcDbBlockEnd
  0
ENDSEC
  0
SECTION
  2
ENTITIES
  0
LINE
  5
6F
330
1F
100
AcDbEntity
  8
0
 62
     7
370
    35
100
AcDbLine
 10
319.897217
 20
257.403442
 30
0.0
 11
319.897217
 21
397.403442
 31
0.0
  0
ARC
  5
70
330
1F
100
AcDbEntity
  8
0
 62
     7
370
    35
100
AcDbCircle
 10
321.897217
 20
257.403442
 30
0.0
 40
2.0
100
AcDbArc
 50
180.000005
 51
269.999997
  0
ARC
  5
71
330
1F
100
AcDbEntity
  8
0
 62
     7
370
    35
100
AcDbCircle
 10
321.897217
 20
397.403442
 30
0.0
 40
2.0
100
AcDbArc
 50
90.000003
 51
180.000005
  0
LINE
  5
72
330
1F
100
AcDbEntity
  8
0
 62
     7
370
    35
100
AcDbLine
 10
413.897217
 20
255.403442
 30
0.0
 11
321.897217
 21
255.403442
 31
0.0
  0
ARC
  5
73
330
1F
100
AcDbEntity
  8
0
 62
     7
370
    35
100
AcDbCircle
 10
413.897217
 20
257.403442
 30
0.0
 40
1.999999999999996
100
AcDbArc
 50
269.999997
 51
360.0
  0
LINE
  5
74
330
1F
100
AcDbEntity
  8
0
 62
     7
370
    35
100
AcDbLine
 10
415.897217
 20
397.403442
 30
0.0
 11
415.897217
 21
257.403442
 31
0.0
  0
ARC
  5
75
330
1F
100
AcDbEntity
  8
0
 62
     7
370
    35
100
AcDbCircle
 10
413.897217
 20
397.403442
 30
0.0
 40
2.0
100
AcDbArc
 50
0.0
 51
90.000003
  0
LINE
  5
76
330
1F
100
AcDbEntity
  8
0
 62
     7
370
    35
100
AcDbLine
 10
321.897217
 20
399.403442
 30
0.0
 11
413.897217
 21
399.403442
 31
0.0
  0
ARC
  5
77
330
1F
100
AcDbEntity
  8
0
 62
     7
370
    35
100
AcDbCircle
 10
409.397217
 20
271.403442
 30
0.0
 40
1.0
100
AcDbArc
 50
269.999997
 51
360.0
  0
LINE
  5
78
330
1F
100
AcDbEntity
  8
0
 62
     7
370
    35
100
AcDbLine
 10
409.397217
 20
270.403442
 30
0.0
 11
326.397217
 21
270.403442
 31
0.0
  0
ARC
  5
79
330
1F
100
AcDbEntity
  8
0
 62
     7
370
    35
100
AcDbCircle
 10
326.397217
 20
271.403442
 30
0.0
 40
1.0
100
AcDbArc
 50
180.000005
 51
269.999997
  0
LINE
  5
7A
330
1F
100
AcDbEntity
  8
0
 62
     7
370
    35
100
AcDbLine
 10
325.397217
 20
392.903442
 30
0.0
 11
325.397217
 21
271.403442
 31
0.0
  0
ARC
  5
7B
330
1F
100
AcDbEntity
  8
0
 62
     7
370
    35
100
AcDbCircle
 10
326.397217
 20
392.903442
 30
0.0
 40
1.0
100
AcDbArc
 50
90.000003
 51
180.000005
  0
LINE
  5
7C
330
1F
100
AcDbEntity
  8
0
 62
     7
370
    35
100
AcDbLine
 10
326.397217
 20
393.903442
 30
0.0
 11
409.397217
 21
393.903442
 31
0.0
  0
ARC
  5
7D
330
1F
100
AcDbEntity
  8
0
 62
     7
370
    35
100
AcDbCircle
 10
409.397217
 20
392.903442
 30
0.0
 40
1.0
100
AcDbArc
 50
0.0
 51
90.000003
  0
LINE
  5
7E
330
1F
100
AcDbEntity
  8
0
 62
     7
370
    35
100
AcDbLine
 10
410.397217
 20
271.403442
 30
0.0
 11
410.397217
 21
392.903442
 31
0.0
  0
CIRCLE
  5
7F
330
1F
100
AcDbEntity
  8
0
  6
PHANTOM
 62
     4
 48
0.009561
370
    35
100
AcDbCircle
 10
367.897217
 20
251.903442
 30
0.0
 40
0.1434075912352641
  0
CIRCLE
  5
80
330
1F
100
AcDbEntity
  8
0
  6
PHANTOM
 62
     4
 48
0.133333
370
    35
100
AcDbCircle
 10
367.897217
 20
251.903442
 30
0.0
 40
2.000000000000007
  0
LINE
  5
81
330
1F
100
AcDbEntity
  8
0
  6
PHANTOM
 62
     4
 48
0.187499
370
    35
100
AcDbLine
 10
364.897217
 20
247.903442
 30
0.0
 11
364.897217
 21
255.403412
 31
0.0
  0
LINE
  5
82
330
1F
100
AcDbEntity
  8
0
  6
PHANTOM
 62
     4
 48
0.187499
370
    35
100
AcDbLine
 10
361.397217
 20
255.403412
 30
0.0
 11
361.397217
 21
247.903442
 31
0.0
  0
LINE
  5
83
330
1F
100
AcDbEntity
  8
0
  6
PHANTOM
 62
     4
 48
0.0875
370
    35
100
AcDbLine
 10
361.397217
 20
247.903442
 30
0.0
 11
364.897217
 21
247.903442
 31
0.0
  0
LINE
  5
84
330
1F
100
AcDbEntity
  8
0
  6
PHANTOM
 62
     4
 48
0.0875
370
    35
100
AcDbLine
 10
370.897217
 20
247.903442
 30
0.0
 11
374.397217
 21
247.903442
 31
0.0
  0
LINE
  5
85
330
1F
100
AcDbEntity
  8
0
  6
PHANTOM
 62
     4
 48
0.187499
370
    35
100
AcDbLine
 10
374.397217
 20
255.403412
 30
0.0
 11
374.397217
 21
247.903442
 31
0.0
  0
LINE
  5
86
330
1F
100
AcDbEntity
  8
0
  6
PHANTOM
 62
     4
 48
0.187499
370
    35
100
AcDbLine
 10
370.897217
 20
247.903442
 30
0.0
 11
370.897217
 21
255.403412
 31
0.0
  0
LINE
  5
87
330
1F
100
AcDbEntity
  8
0
  6
PHANTOM
 62
     4
 48
0.15
370
    35
100
AcDbLine
 10
364.897217
 20
247.903442
 30
0.0
 11
370.897217
 21
247.903442
 31
0.0
  0
CIRCLE
  5
88
330
1F
100
AcDbEntity
  8
0
  6
PHANTOM
 62
     4
 48
0.133333
370
    35
100
AcDbCircle
 10
367.897217
 20
251.903442
 30
0.0
 40
2.0
  0
ARC
  5
89
330
1F
100
AcDbEntity
  8
0
  6
PHANTOM
 62
     4
370
    35
100
AcDbCircle
 10
367.897217
 20
402.903442
 30
0.0
 40
4.0
100
AcDbArc
 50
89.904578
 51
90.09542
  0
CIRCLE
  5
8A
330
1F
100
AcDbEntity
  8
0
  6
PHANTOM
 62
     4
 48
0.009561
370
    35
100
AcDbCircle
 10
367.897217
 20
402.903442
 30
0.0
 40
0.1434075912352641
  0
CIRCLE
  5
8B
330
1F
100
AcDbEntity
  8
0
  6
PHANTOM
 62
     4
 48
0.133333
370
    35
100
AcDbCircle
 10
367.897217
 20
402.903442
 30
0.0
 40
2.000000000000007
  0
LINE
  5
8C
330
1F
100
AcDbEntity
  8
0
  6
PHANTOM
 62
     4
 48
0.187501
370
    35
100
AcDbLine
 10
370.897217
 20
406.903442
 30
0.0
 11
370.897217
 21
399.403412
 31
0.0
  0
LINE
  5
8D
330
1F
100
AcDbEntity
  8
0
  6
PHANTOM
 62
     4
 48
0.187501
370
    35
100
AcDbLine
 10
374.397217
 20
399.403412
 30
0.0
 11
374.397217
 21
406.903442
 31
0.0
  0
LINE
  5
8E
330
1F
100
AcDbEntity
  8
0
  6
PHANTOM
 62
     4
 48
0.0875
370
    35
100
AcDbLine
 10
374.397217
 20
406.903442
 30
0.0
 11
370.897217
 21
406.903442
 31
0.0
  0
LINE
  5
8F
330
1F
100
AcDbEntity
  8
0
  6
PHANTOM
 62
     4
 48
0.0875
370
    35
100
AcDbLine
 10
364.897217
 20
406.903442
 30
0.0
 11
361.397217
 21
406.903442
 31
0.0
  0
LINE
  5
90
330
1F
100
AcDbEntity
  8
0
  6
PHANTOM
 62
     4
 48
0.187501
370
    35
100
AcDbLine
 10
361.397217
 20
399.403412
 30
0.0
 11
361.397217
 21
406.903442
 31
0.0
  0
LINE
  5
91
330
1F
100
AcDbEntity
  8
0
  6
PHANTOM
 62
     4
 48
0.187501
370
    35
100
AcDbLine
 10
364.897217
 20
406.903442
 30
0.0
 11
364.897217
 21
399.403412
 31
0.0
  0
LINE
  5
92
330
1F
100
AcDbEntity
  8
0
  6
PHANTOM
 62
     4
 48
0.15
370
    35
100
AcDbLine
 10
370.897217
 20
406.903442
 30
0.0
 11
364.897217
 21
406.903442
 31
0.0
  0
CIRCLE
  5
93
330
1F
100
AcDbEntity
  8
0
  6
PHANTOM
 62
     4
 48
0.133333
370
    35
100
AcDbCircle
 10
367.897217
 20
402.903442
 30
0.0
 40
2.0
  0
LINE
  5
94
330
1F
100
AcDbEntity
  8
0
 62
     7
370
    35
100
AcDbLine
 10
533.310852
 20
257.403442
 30
0.0
 11
533.310852
 21
255.403442
 31
0.0
  0
LINE
  5
95
330
1F
100
AcDbEntity
  8
0
 62
     7
370
    35
100
AcDbLine
 10
533.310852
 20
397.403442
 30
0.0
 11
533.310852
 21
257.403442
 31
0.0
  0
LINE
  5
96
330
1F
100
AcDbEntity
  8
0
 62
     7
370
    35
100
AcDbLine
 10
533.310852
 20
399.403442
 30
0.0
 11
533.310852
 21
397.403442
 31
0.0
  0
LINE
  5
97
330
1F
100
AcDbEntity
  8
0
 62
     7
370
    35
100
AcDbLine
 10
533.310852
 20
255.403442
 30
0.0
 11
520.310852
 21
255.403442
 31
0.0
  0
ARC
  5
98
330
1F
100
AcDbEntity
  8
0
 62
     7
370
    35
100
AcDbCircle
 10
520.310852
 20
257.403442
 30
0.0
 40
2.0
100
AcDbArc
 50
180.000005
 51
269.999997
  0
LINE
  5
99
330
1F
100
AcDbEntity
  8
0
 62
     7
370
    35
100
AcDbLine
 10
533.310852
 20
399.403442
 30
0.0
 11
520.310852
 21
399.403442
 31
0.0
  0
ARC
  5
9A
330
1F
100
AcDbEntity
  8
0
 62
     7
370
    35
100
AcDbCircle
 10
520.310852
 20
397.403442
 30
0.0
 40
2.0
100
AcDbArc
 50
90.000003
 51
180.000005
  0
LINE
  5
9B
330
1F
100
AcDbEntity
  8
0
 62
     7
370
    35
100
AcDbLine
 10
518.310852
 20
397.403442
 30
0.0
 11
518.310852
 21
257.403442
 31
0.0
  0
LINE
  5
9C
330
1F
100
AcDbEntity
  8
0
 62
     7
370
    35
100
AcDbLine
 10
715.310852
 20
395.903442
 30
0.0
 11
715.310852
 21
258.903442
 31
0.0
  0
LINE
  5
9D
330
1F
100
AcDbEntity
  8
0
 62
     7
370
    35
100
AcDbLine
 10
533.310852
 20
258.903442
 30
0.0
 11
715.310852
 21
258.903442
 31
0.0
  0
LINE
  5
9E
330
1F
100
AcDbEntity
  8
0
 62
     7
370
    35
100
AcDbLine
 10
533.310852
 20
395.903442
 30
0.0
 11
715.310852
 21
395.903442
 31
0.0
  0
LINE
  5
9F
330
1F
100
AcDbEntity
  8
0
 62
     7
370
    35
100
AcDbLine
 10
715.310852
 20
386.403442
 30
0.0
 11
715.310852
 21
386.103455
 31
0.0
  0
LINE
  5
A0
330
1F
100
AcDbEntity
  8
0
 62
     7
370
    35
100
AcDbLine
 10
726.310852
 20
386.403442
 30
0.0
 11
726.310852
 21
386.103455
 31
0.0
  0
LINE
  5
A1
330
1F
100
AcDbEntity
  8
0
 62
     7
370
    35
100
AcDbLine
 10
715.310852
 20
386.403442
 30
0.0
 11
726.310852
 21
386.403442
 31
0.0
  0
LINE
  5
A2
330
1F
100
AcDbEntity
  8
0
 62
     7
370
    35
100
AcDbLine
 10
715.310852
 20
386.403442
 30
0.0
 11
715.310852
 21
391.403442
 31
0.0
  0
LINE
  5
A3
330
1F
100
AcDbEntity
  8
0
 62
     7
370
    35
100
AcDbLine
 10
726.310852
 20
386.403442
 30
0.0
 11
726.310852
 21
391.403442
 31
0.0
  0
LINE
  5
A4
330
1F
100
AcDbEntity
  8
0
 62
     7
370
    35
100
AcDbLine
 10
715.310852
 20
391.403442
 30
0.0
 11
726.310852
 21
391.403442
 31
0.0
  0
LINE
  5
A5
330
1F
100
AcDbEntity
  8
0
  6
PHANTOM
 62
     4
 48
0.45
370
    35
100
AcDbLine
 10
733.310852
 20
386.103455
 30
0.0
 11
715.310852
 21
386.103455
 31
0.0
  0
LINE
  5
A6
330
1F
100
AcDbEntity
  8
0
  6
PHANTOM
 62
     4
370
    35
100
AcDbLine
 10
733.310852
 20
386.103455
 30
0.0
 11
733.310852
 21
273.403442
 31
0.0
  0
LINE
  5
A7
330
1F
100
AcDbEntity
  8
0
  6
PHANTOM
 62
     4
 48
0.45
370
    35
100
AcDbLine
 10
733.310852
 20
273.403442
 30
0.0
 11
715.310852
 21
273.403442
 31
0.0
  0
LINE
  5
A8
330
1F
100
AcDbEntity
  8
0
  6
PHANTOM
 62
     4
370
    35
100
AcDbLine
 10
715.310852
 20
386.103455
 30
0.0
 11
715.310852
 21
273.403442
 31
0.0
  0
LINE
  5
A9
330
1F
100
AcDbEntity
  8
0
  6
PHANTOM
 62
     4
 48
0.05
370
    35
100
AcDbLine
 10
729.310852
 20
391.403442
 30
0.0
 11
731.310852
 21
391.403442
 31
0.0
  0
ARC
  5
AA
330
1F
100
AcDbEntity
  8
0
  6
PHANTOM
 62
     4
370
    35
100
AcDbCircle
 10
729.310852
 20
389.403442
 30
0.0
 40
1.999999999999999
100
AcDbArc
 50
0.0
 51
90.000003
  0
LINE
  5
AB
330
1F
100
AcDbEntity
  8
0
  6
PHANTOM
 62
     4
 48
0.0825
370
    35
100
AcDbLine
 10
731.310852
 20
389.403442
 30
0.0
 11
731.310852
 21
386.103455
 31
0.0
  0
LINE
  5
AC
330
1F
100
AcDbEntity
  8
0
  6
PHANTOM
 62
     4
 48
0.1325
370
    35
100
AcDbLine
 10
733.310852
 20
391.403442
 30
0.0
 11
733.310852
 21
386.103455
 31
0.0
  0
LINE
  5
AD
330
1F
100
AcDbEntity
  8
0
  6
PHANTOM
 62
     4
 48
0.05
370
    35
100
AcDbLine
 10
731.310852
 20
391.403442
 30
0.0
 11
733.310852
 21
391.403442
 31
0.0
  0
LINE
  5
AE
330
1F
100
AcDbEntity
  8
0
  6
PHANTOM
 62
     4
 48
0.4
370
    35
100
AcDbLine
 10
731.310852
 20
393.403442
 30
0.0
 11
715.310852
 21
393.403442
 31
0.0
  0
ARC
  5
AF
330
1F
100
AcDbEntity
  8
0
  6
PHANTOM
 62
     4
370
    35
100
AcDbCircle
 10
731.310852
 20
391.403442
 30
0.0
 40
1.999999999999999
100
AcDbArc
 50
0.0
 51
90.000003
  0
LINE
  5
B0
330
1F
100
AcDbEntity
  8
0
  6
PHANTOM
 62
     4
 48
0.35
370
    35
100
AcDbLine
 10
729.310852
 20
391.403442
 30
0.0
 11
715.310852
 21
391.403442
 31
0.0
  0
LINE
  5
B1
330
1F
100
AcDbEntity
  8
0
  6
PHANTOM
 62
     4
 48
0.05
370
    35
100
AcDbLine
 10
715.310852
 20
393.403442
 30
0.0
 11
715.310852
 21
391.403442
 31
0.0
  0
LINE
  5
B2
330
1F
100
AcDbEntity
  8
0
  6
PHANTOM
 62
     4
 48
0.1
370
    35
100
AcDbLine
 10
731.310852
 20
269.403442
 30
0.0
 11
731.310852
 21
273.403442
 31
0.0
  0
ARC
  5
B3
330
1F
100
AcDbEntity
  8
0
  6
PHANTOM
 62
     4
370
    35
100
AcDbCircle
 10
729.310852
 20
269.403442
 30
0.0
 40
1.999999999999999
100
AcDbArc
 50
269.999997
 51
360.0
  0
LINE
  5
B4
330
1F
100
AcDbEntity
  8
0
  6
PHANTOM
 62
     4
 48
0.05
370
    35
100
AcDbLine
 10
728.310852
 20
265.403442
 30
0.0
 11
728.310852
 21
267.403442
 31
0.0
  0
LINE
  5
B5
330
1F
100
AcDbEntity
  8
0
  6
PHANTOM
 62
     4
 48
0.025
370
    35
100
AcDbLine
 10
729.310852
 20
267.403442
 30
0.0
 11
728.310852
 21
267.403442
 31
0.0
  0
LINE
  5
B6
330
1F
100
AcDbEntity
  8
0
  6
PHANTOM
 62
     4
 48
0.15
370
    35
100
AcDbLine
 10
733.310852
 20
267.403442
 30
0.0
 11
733.310852
 21
273.403442
 31
0.0
  0
ARC
  5
B7
330
1F
100
AcDbEntity
  8
0
  6
PHANTOM
 62
     4
370
    35
100
AcDbCircle
 10
731.310852
 20
267.403442
 30
0.0
 40
1.999999999999999
100
AcDbArc
 50
269.999997
 51
360.0
  0
LINE
  5
B8
330
1F
100
AcDbEntity
  8
0
  6
PHANTOM
 62
     4
 48
0.075
370
    35
100
AcDbLine
 10
731.310852
 20
265.403442
 30
0.0
 11
728.310852
 21
265.403442
 31
0.0
  0
LINE
  5
B9
330
1F
100
AcDbEntity
  8
0
  6
PHANTOM
 62
     4
 48
0.006731
370
    35
100
AcDbLine
 10
537.810852
 20
252.046844
 30
0.0
 11
537.810852
 21
251.777588
 31
0.0
  0
LINE
  5
BA
330
1F
100
AcDbEntity
  8
0
  6
PHANTOM
 62
     4
 48
0.093879
370
    35
100
AcDbLine
 10
539.11084
 20
253.903442
 30
0.0
 11
539.11084
 21
250.148285
 31
0.0
  0
LINE
  5
BB
330
1F
100
AcDbEntity
  8
0
  6
PHANTOM
 62
     4
 48
0.000439
370
    35
100
AcDbLine
 10
537.810852
 20
251.777588
 30
0.0
 11
537.810852
 21
251.76004
 31
0.0
  0
LINE
  5
BC
330
1F
100
AcDbEntity
  8
0
  6
PHANTOM
 62
     4
 48
0.006121
370
    35
100
AcDbLine
 10
539.11084
 20
250.148285
 30
0.0
 11
539.11084
 21
249.903442
 31
0.0
  0
LINE
  5
BD
330
1F
100
AcDbEntity
  8
0
  6
PHANTOM
 62
     4
 48
0.009946
370
    35
100
AcDbLine
 10
657.810852
 20
249.0513
 30
0.0
 11
657.810852
 21
248.653442
 31
0.0
  0
LINE
  5
BE
330
1F
100
AcDbEntity
  8
0
  6
PHANTOM
 62
     4
 48
0.152554
370
    35
100
AcDbLine
 10
657.810852
 20
255.153442
 30
0.0
 11
657.810852
 21
249.0513
 31
0.0
  0
LINE
  5
BF
330
1F
100
AcDbEntity
  8
0
  6
PHANTOM
 62
     4
 48
0.025
370
    35
100
AcDbLine
 10
659.310852
 20
251.403442
 30
0.0
 11
659.310852
 21
252.403442
 31
0.0
  0
LINE
  5
C0
330
1F
100
AcDbEntity
  8
0
  6
PHANTOM
 62
     4
 48
0.04375
370
    35
100
AcDbLine
 10
660.310852
 20
254.153442
 30
0.0
 11
660.310852
 21
252.403442
 31
0.0
  0
LINE
  5
C1
330
1F
100
AcDbEntity
  8
0
  6
PHANTOM
 62
     4
 48
0.025
370
    35
100
AcDbLine
 10
660.310852
 20
252.403442
 30
0.0
 11
659.310852
 21
252.403442
 31
0.0
  0
LINE
  5
C2
330
1F
100
AcDbEntity
  8
0
  6
PHANTOM
 62
     4
 48
0.036864
370
    35
100
AcDbLine
 10
660.310852
 20
251.403442
 30
0.0
 11
660.310852
 21
249.928879
 31
0.0
  0
LINE
  5
C3
330
1F
100
AcDbEntity
  8
0
  6
PHANTOM
 62
     4
 48
0.025
370
    35
100
AcDbLine
 10
660.310852
 20
251.403442
 30
0.0
 11
659.310852
 21
251.403442
 31
0.0
  0
LINE
  5
C4
330
1F
100
AcDbEntity
  8
0
  6
PHANTOM
 62
     4
 48
0.006886
370
    35
100
AcDbLine
 10
660.310852
 20
249.928879
 30
0.0
 11
660.310852
 21
249.653442
 31
0.0
  0
LINE
  5
C5
330
1F
100
AcDbEntity
  8
0
  6
PHANTOM
 62
     4
 48
0.056662
370
    35
100
AcDbLine
 10
537.810852
 20
252.046844
 30
0.0
 11
539.11084
 21
253.903442
 31
0.0
  0
LINE
  5
C6
330
1F
100
AcDbEntity
  8
0
  6
PHANTOM
 62
     4
 48
0.056662
370
    35
100
AcDbLine
 10
537.810852
 20
251.76004
 30
0.0
 11
539.11084
 21
249.903442
 31
0.0
  0
LINE
  5
C7
330
1F
100
AcDbEntity
  8
0
  6
PHANTOM
 62
     4
370
    35
100
AcDbLine
 10
657.810852
 20
253.903442
 30
0.0
 11
617.060852
 21
253.903442
 31
0.0
  0
LINE
  5
C8
330
1F
100
AcDbEntity
  8
0
  6
PHANTOM
 62
     4
370
    35
100
AcDbLine
 10
560.685852
 20
253.903442
 30
0.0
 11
539.11084
 21
253.903442
 31
0.0
  0
LINE
  5
C9
330
1F
100
AcDbEntity
  8
0
  6
PHANTOM
 62
     4
370
    35
100
AcDbLine
 10
657.810852
 20
249.903442
 30
0.0
 11
611.560852
 21
249.903442
 31
0.0
  0
LINE
  5
CA
330
1F
100
AcDbEntity
  8
0
  6
PHANTOM
 62
     4
370
    35
100
AcDbLine
 10
567.435852
 20
249.903442
 30
0.0
 11
539.11084
 21
249.903442
 31
0.0
  0
LINE
  5
CB
330
1F
100
AcDbEntity
  8
0
  6
PHANTOM
 62
     4
 48
0.0375
370
    35
100
AcDbLine
 10
659.310852
 20
255.153442
 30
0.0
 11
657.810852
 21
255.153442
 31
0.0
  0
LINE
  5
CC
330
1F
100
AcDbEntity
  8
0
  6
PHANTOM
 62
     4
 48
0.0375
370
    35
100
AcDbLine
 10
659.310852
 20
248.653442
 30
0.0
 11
657.810852
 21
248.653442
 31
0.0
  0
ARC
  5
CD
330
1F
100
AcDbEntity
  8
0
  6
PHANTOM
 62
     4
370
    35
100
AcDbCircle
 10
659.310852
 20
254.153442
 30
0.0
 40
1.000000002699138
100
AcDbArc
 50
0.0
 51
90.000003
  0
ARC
  5
CE
330
1F
100
AcDbEntity
  8
0
  6
PHANTOM
 62
     4
370
    35
100
AcDbCircle
 10
659.310852
 20
249.653442
 30
0.0
 40
1.000000002699157
100
AcDbArc
 50
269.999997
 51
360.0
  0
LINE
  5
CF
330
1F
100
AcDbEntity
  8
0
  6
PHANTOM
 62
     4
 48
0.392309
370
    35
100
AcDbLine
 10
557.310852
 20
255.903442
 30
0.0
 11
570.810852
 21
247.903442
 31
0.0
  0
LINE
  5
D0
330
1F
100
AcDbEntity
  8
0
  6
PHANTOM
 62
     4
 48
0.075
370
    35
100
AcDbLine
 10
557.310852
 20
255.903442
 30
0.0
 11
557.310852
 21
258.903442
 31
0.0
  0
LINE
  5
D1
330
1F
100
AcDbEntity
  8
0
  6
PHANTOM
 62
     4
 48
0.075
370
    35
100
AcDbLine
 10
619.810852
 20
258.903442
 30
0.0
 11
619.810852
 21
255.903442
 31
0.0
  0
LINE
  5
D2
330
1F
100
AcDbEntity
  8
0
  6
PHANTOM
 62
     4
 48
0.340037
370
    35
100
AcDbLine
 10
608.810852
 20
247.903442
 30
0.0
 11
619.810852
 21
255.903442
 31
0.0
  0
LINE
  5
D3
330
1F
100
AcDbEntity
  8
0
  6
PHANTOM
 62
     4
370
    35
100
AcDbLine
 10
570.810852
 20
247.903442
 30
0.0
 11
608.810852
 21
247.903442
 31
0.0
  0
LINE
  5
D4
330
1F
100
AcDbEntity
  8
0
  6
PHANTOM
 62
     4
 48
0.0125
370
    35
100
AcDbLine
 10
580.310852
 20
406.903442
 30
0.0
 11
580.810852
 21
406.903442
 31
0.0
  0
LINE
  5
D5
330
1F
100
AcDbEntity
  8
0
  6
PHANTOM
 62
     4
 48
0.006731
370
    35
100
AcDbLine
 10
537.810852
 20
403.046844
 30
0.0
 11
537.810852
 21
402.777588
 31
0.0
  0
LINE
  5
D6
330
1F
100
AcDbEntity
  8
0
  6
PHANTOM
 62
     4
 48
0.093879
370
    35
100
AcDbLine
 10
539.11084
 20
404.903442
 30
0.0
 11
539.11084
 21
401.148285
 31
0.0
  0
LINE
  5
D7
330
1F
100
AcDbEntity
  8
0
  6
PHANTOM
 62
     4
 48
0.000439
370
    35
100
AcDbLine
 10
537.810852
 20
402.777588
 30
0.0
 11
537.810852
 21
402.76004
 31
0.0
  0
LINE
  5
D8
330
1F
100
AcDbEntity
  8
0
  6
PHANTOM
 62
     4
 48
0.006121
370
    35
100
AcDbLine
 10
539.11084
 20
401.148285
 30
0.0
 11
539.11084
 21
400.903442
 31
0.0
  0
LINE
  5
D9
330
1F
100
AcDbEntity
  8
0
  6
PHANTOM
 62
     4
 48
0.009946
370
    35
100
AcDbLine
 10
657.810852
 20
400.0513
 30
0.0
 11
657.810852
 21
399.653442
 31
0.0
  0
LINE
  5
DA
330
1F
100
AcDbEntity
  8
0
  6
PHANTOM
 62
     4
 48
0.152554
370
    35
100
AcDbLine
 10
657.810852
 20
406.153442
 30
0.0
 11
657.810852
 21
400.0513
 31
0.0
  0
LINE
  5
DB
330
1F
100
AcDbEntity
  8
0
  6
PHANTOM
 62
     4
 48
0.025
370
    35
100
AcDbLine
 10
659.310852
 20
402.403442
 30
0.0
 11
659.310852
 21
403.403442
 31
0.0
  0
LINE
  5
DC
330
1F
100
AcDbEntity
  8
0
  6
PHANTOM
 62
     4
 48
0.04375
370
    35
100
AcDbLine
 10
660.310852
 20
405.153442
 30
0.0
 11
660.310852
 21
403.403442
 31
0.0
  0
LINE
  5
DD
330
1F
100
AcDbEntity
  8
0
  6
PHANTOM
 62
     4
 48
0.025
370
    35
100
AcDbLine
 10
660.310852
 20
403.403442
 30
0.0
 11
659.310852
 21
403.403442
 31
0.0
  0
LINE
  5
DE
330
1F
100
AcDbEntity
  8
0
  6
PHANTOM
 62
     4
 48
0.036864
370
    35
100
AcDbLine
 10
660.310852
 20
402.403442
 30
0.0
 11
660.310852
 21
400.928894
 31
0.0
  0
LINE
  5
DF
330
1F
100
AcDbEntity
  8
0
  6
PHANTOM
 62
     4
 48
0.025
370
    35
100
AcDbLine
 10
660.310852
 20
402.403442
 30
0.0
 11
659.310852
 21
402.403442
 31
0.0
  0
LINE
  5
E0
330
1F
100
AcDbEntity
  8
0
  6
PHANTOM
 62
     4
 48
0.006886
370
    35
100
AcDbLine
 10
660.310852
 20
400.928894
 30
0.0
 11
660.310852
 21
400.653442
 31
0.0
  0
LINE
  5
E1
330
1F
100
AcDbEntity
  8
0
  6
PHANTOM
 62
     4
 48
0.056662
370
    35
100
AcDbLine
 10
537.810852
 20
403.046844
 30
0.0
 11
539.11084
 21
404.903442
 31
0.0
  0
LINE
  5
E2
330
1F
100
AcDbEntity
  8
0
  6
PHANTOM
 62
     4
 48
0.056662
370
    35
100
AcDbLine
 10
537.810852
 20
402.76004
 30
0.0
 11
539.11084
 21
400.903442
 31
0.0
  0
LINE
  5
E3
330
1F
100
AcDbEntity
  8
0
  6
PHANTOM
 62
     4
370
    35
100
AcDbLine
 10
657.810852
 20
404.903442
 30
0.0
 11
611.560852
 21
404.903442
 31
0.0
  0
LINE
  5
E4
330
1F
100
AcDbEntity
  8
0
  6
PHANTOM
 62
     4
370
    35
100
AcDbLine
 10
567.435852
 20
404.903442
 30
0.0
 11
539.11084
 21
404.903442
 31
0.0
  0
LINE
  5
E5
330
1F
100
AcDbEntity
  8
0
  6
PHANTOM
 62
     4
370
    35
100
AcDbLine
 10
657.810852
 20
400.903442
 30
0.0
 11
617.060852
 21
400.903442
 31
0.0
  0
LINE
  5
E6
330
1F
100
AcDbEntity
  8
0
  6
PHANTOM
 62
     4
370
    35
100
AcDbLine
 10
560.685852
 20
400.903442
 30
0.0
 11
539.11084
 21
400.903442
 31
0.0
  0
LINE
  5
E7
330
1F
100
AcDbEntity
  8
0
  6
PHANTOM
 62
     4
 48
0.0375
370
    35
100
AcDbLine
 10
659.310852
 20
406.153442
 30
0.0
 11
657.810852
 21
406.153442
 31
0.0
  0
LINE
  5
E8
330
1F
100
AcDbEntity
  8
0
  6
PHANTOM
 62
     4
 48
0.0375
370
    35
100
AcDbLine
 10
659.310852
 20
399.653442
 30
0.0
 11
657.810852
 21
399.653442
 31
0.0
  0
ARC
  5
E9
330
1F
100
AcDbEntity
  8
0
  6
PHANTOM
 62
     4
370
    35
100
AcDbCircle
 10
659.310852
 20
405.153442
 30
0.0
 40
1.00000000269914
100
AcDbArc
 50
0.0
 51
90.000003
  0
ARC
  5
EA
330
1F
100
AcDbEntity
  8
0
  6
PHANTOM
 62
     4
370
    35
100
AcDbCircle
 10
659.310852
 20
400.653442
 30
0.0
 40
1.000000002699169
100
AcDbArc
 50
269.999997
 51
360.0
  0
LINE
  5
EB
330
1F
100
AcDbEntity
  8
0
  6
PHANTOM
 62
     4
370
    35
100
AcDbLine
 10
619.810852
 20
395.903442
 30
0.0
 11
557.310852
 21
395.903442
 31
0.0
  0
LINE
  5
EC
330
1F
100
AcDbEntity
  8
0
  6
PHANTOM
 62
     4
 48
0.392309
370
    35
100
AcDbLine
 10
557.310852
 20
398.903442
 30
0.0
 11
570.810852
 21
406.903442
 31
0.0
  0
LINE
  5
ED
330
1F
100
AcDbEntity
  8
0
  6
PHANTOM
 62
     4
 48
0.340037
370
    35
100
AcDbLine
 10
608.810852
 20
406.903442
 30
0.0
 11
619.810852
 21
398.903442
 31
0.0
  0
LINE
  5
EE
330
1F
100
AcDbEntity
  8
0
  6
PHANTOM
 62
     4
370
    35
100
AcDbLine
 10
570.810852
 20
406.903442
 30
0.0
 11
608.810852
 21
406.903442
 31
0.0
  0
LINE
  5
EF
330
1F
100
AcDbEntity
  8
0
  6
PHANTOM
 62
     4
 48
0.075
370
    35
100
AcDbLine
 10
557.310852
 20
398.903442
 30
0.0
 11
557.310852
 21
395.903442
 31
0.0
  0
LINE
  5
F0
330
1F
100
AcDbEntity
  8
0
  6
PHANTOM
 62
     4
 48
0.075
370
    35
100
AcDbLine
 10
619.810852
 20
395.903442
 30
0.0
 11
619.810852
 21
398.903442
 31
0.0
  0
LINE
  5
F1
330
1F
100
AcDbEntity
  8
0
 62
     7
370
    35
100
AcDbLine
 10
413.897217
 20
509.699158
 30
0.0
 11
415.897217
 21
509.699158
 31
0.0
  0
LINE
  5
F2
330
1F
100
AcDbEntity
  8
0
 62
     7
370
    35
100
AcDbLine
 10
321.897217
 20
509.699158
 30
0.0
 11
413.897217
 21
509.699158
 31
0.0
  0
LINE
  5
F3
330
1F
100
AcDbEntity
  8
0
 62
     7
370
    35
100
AcDbLine
 10
319.897217
 20
509.699158
 30
0.0
 11
321.897217
 21
509.699158
 31
0.0
  0
LINE
  5
F4
330
1F
100
AcDbEntity
  8
0
 62
     7
370
    35
100
AcDbLine
 10
319.897217
 20
509.699158
 30
0.0
 11
319.897217
 21
496.699158
 31
0.0
  0
ARC
  5
F5
330
1F
100
AcDbEntity
  8
0
 62
     7
370
    35
100
AcDbCircle
 10
321.897217
 20
496.699158
 30
0.0
 40
1.999999999999996
100
AcDbArc
 50
180.000005
 51
269.999997
  0
LINE
  5
F6
330
1F
100
AcDbEntity
  8
0
 62
     7
370
    35
100
AcDbLine
 10
415.897217
 20
509.699158
 30
0.0
 11
415.897217
 21
496.699158
 31
0.0
  0
ARC
  5
F7
330
1F
100
AcDbEntity
  8
0
 62
     7
370
    35
100
AcDbCircle
 10
413.897217
 20
496.699158
 30
0.0
 40
2.0
100
AcDbArc
 50
269.999997
 51
360.0
  0
LINE
  5
F8
330
1F
100
AcDbEntity
  8
0
 62
     7
370
    35
100
AcDbLine
 10
321.897217
 20
494.699158
 30
0.0
 11
413.897217
 21
494.699158
 31
0.0
  0
LINE
  5
F9
330
1F
100
AcDbEntity
  8
0
 62
     7
370
    35
100
AcDbLine
 10
322.147217
 20
691.699158
 30
0.0
 11
413.647217
 21
691.699158
 31
0.0
  0
LINE
  5
FA
330
1F
100
AcDbEntity
  8
0
 62
     7
370
    35
100
AcDbLine
 10
413.647217
 20
509.699158
 30
0.0
 11
413.647217
 21
691.699158
 31
0.0
  0
LINE
  5
FB
330
1F
100
AcDbEntity
  8
0
 62
     7
370
    35
100
AcDbLine
 10
322.147217
 20
509.699158
 30
0.0
 11
322.147217
 21
691.699158
 31
0.0
  0
LINE
  5
FC
330
1F
100
AcDbEntity
  8
0
 62
     7
370
    35
100
AcDbLine
 10
407.897217
 20
691.699158
 30
0.0
 11
407.897217
 21
702.699158
 31
0.0
  0
LINE
  5
FD
330
1F
100
AcDbEntity
  8
0
 62
     7
370
    35
100
AcDbLine
 10
332.897217
 20
691.699158
 30
0.0
 11
327.897217
 21
691.699158
 31
0.0
  0
LINE
  5
FE
330
1F
100
AcDbEntity
  8
0
 62
     7
370
    35
100
AcDbLine
 10
333.197205
 20
691.699158
 30
0.0
 11
332.897217
 21
691.699158
 31
0.0
  0
LINE
  5
FF
330
1F
100
AcDbEntity
  8
0
 62
     7
370
    35
100
AcDbLine
 10
402.897217
 20
691.699158
 30
0.0
 11
402.597229
 21
691.699158
 31
0.0
  0
LINE
  5
100
330
1F
100
AcDbEntity
  8
0
 62
     7
370
    35
100
AcDbLine
 10
407.897217
 20
691.699158
 30
0.0
 11
402.897217
 21
691.699158
 31
0.0
  0
LINE
  5
101
330
1F
100
AcDbEntity
  8
0
 62
     7
370
    35
100
AcDbLine
 10
327.897217
 20
691.699158
 30
0.0
 11
327.897217
 21
702.699158
 31
0.0
  0
LINE
  5
102
330
1F
100
AcDbEntity
  8
0
 62
     7
370
    35
100
AcDbLine
 10
332.897217
 20
702.699158
 30
0.0
 11
327.897217
 21
702.699158
 31
0.0
  0
LINE
  5
103
330
1F
100
AcDbEntity
  8
0
 62
     7
370
    35
100
AcDbLine
 10
333.197205
 20
702.699158
 30
0.0
 11
332.897217
 21
702.699158
 31
0.0
  0
LINE
  5
104
330
1F
100
AcDbEntity
  8
0
 62
     7
370
    35
100
AcDbLine
 10
402.897217
 20
702.699158
 30
0.0
 11
402.597229
 21
702.699158
 31
0.0
  0
LINE
  5
105
330
1F
100
AcDbEntity
  8
0
 62
     7
370
    35
100
AcDbLine
 10
407.897217
 20
702.699158
 30
0.0
 11
402.897217
 21
702.699158
 31
0.0
  0
LINE
  5
106
330
1F
100
AcDbEntity
  8
0
 62
     7
370
    35
100
AcDbLine
 10
332.897217
 20
691.699158
 30
0.0
 11
332.897217
 21
702.699158
 31
0.0
  0
LINE
  5
107
330
1F
100
AcDbEntity
  8
0
 62
     7
370
    35
100
AcDbLine
 10
402.897217
 20
691.699158
 30
0.0
 11
402.897217
 21
702.699158
 31
0.0
  0
LINE
  5
108
330
1F
100
AcDbEntity
  8
0
  6
PHANTOM
 62
     4
 48
0.45
370
    35
100
AcDbLine
 10
409.897217
 20
709.699158
 30
0.0
 11
409.897217
 21
691.699158
 31
0.0
  0
LINE
  5
109
330
1F
100
AcDbEntity
  8
0
  6
PHANTOM
 62
     4
 48
0.125
370
    35
100
AcDbLine
 10
407.897217
 20
707.699158
 30
0.0
 11
407.897217
 21
702.699158
 31
0.0
  0
LINE
  5
10A
330
1F
100
AcDbEntity
  8
0
  6
PHANTOM
 62
     4
 48
0.05
370
    35
100
AcDbLine
 10
407.897217
 20
709.699158
 30
0.0
 11
407.897217
 21
707.699158
 31
0.0
  0
LINE
  5
10B
330
1F
100
AcDbEntity
  8
0
  6
PHANTOM
 62
     4
 48
0.05
370
    35
100
AcDbLine
 10
409.897217
 20
709.699158
 30
0.0
 11
407.897217
 21
709.699158
 31
0.0
  0
LINE
  5
10C
330
1F
100
AcDbEntity
  8
0
  6
PHANTOM
 62
     4
 48
0.05
370
    35
100
AcDbLine
 10
409.897217
 20
691.699158
 30
0.0
 11
407.897217
 21
691.699158
 31
0.0
  0
ARC
  5
10D
330
1F
100
AcDbEntity
  8
0
  6
PHANTOM
 62
     4
370
    35
100
AcDbCircle
 10
404.597229
 20
705.699158
 30
0.0
 40
2.000000291573941
100
AcDbArc
 50
90.000009
 51
179.999991
  0
LINE
  5
10E
330
1F
100
AcDbEntity
  8
0
  6
PHANTOM
 62
     4
 48
0.0825
370
    35
100
AcDbLine
 10
404.597229
 20
707.699158
 30
0.0
 11
407.897217
 21
707.699158
 31
0.0
  0
LINE
  5
10F
330
1F
100
AcDbEntity
  8
0
  6
PHANTOM
 62
     4
 48
0.1325
370
    35
100
AcDbLine
 10
402.597229
 20
709.699158
 30
0.0
 11
407.897217
 21
709.699158
 31
0.0
  0
LINE
  5
110
330
1F
100
AcDbEntity
  8
0
  6
PHANTOM
 62
     4
 48
0.45
370
    35
100
AcDbLine
 10
325.897217
 20
709.699158
 30
0.0
 11
325.897217
 21
691.699158
 31
0.0
  0
LINE
  5
111
330
1F
100
AcDbEntity
  8
0
  6
PHANTOM
 62
     4
 48
0.05
370
    35
100
AcDbLine
 10
327.897217
 20
709.699158
 30
0.0
 11
325.897217
 21
709.699158
 31
0.0
  0
LINE
  5
112
330
1F
100
AcDbEntity
  8
0
  6
PHANTOM
 62
     4
 48
0.05
370
    35
100
AcDbLine
 10
327.897217
 20
707.699158
 30
0.0
 11
327.897217
 21
709.699158
 31
0.0
  0
LINE
  5
113
330
1F
100
AcDbEntity
  8
0
  6
PHANTOM
 62
     4
 48
0.4
370
    35
100
AcDbLine
 10
327.897217
 20
707.699158
 30
0.0
 11
327.897217
 21
691.699158
 31
0.0
  0
LINE
  5
114
330
1F
100
AcDbEntity
  8
0
  6
PHANTOM
 62
     4
 48
0.05
370
    35
100
AcDbLine
 10
327.897217
 20
691.699158
 30
0.0
 11
325.897217
 21
691.699158
 31
0.0
  0
LINE
  5
115
330
1F
100
AcDbEntity
  8
0
  6
PHANTOM
 62
     4
 48
0.1325
370
    35
100
AcDbLine
 10
333.197205
 20
709.699158
 30
0.0
 11
327.897217
 21
709.699158
 31
0.0
  0
LINE
  5
116
330
1F
100
AcDbEntity
  8
0
  6
PHANTOM
 62
     4
 48
0.0825
370
    35
100
AcDbLine
 10
331.197205
 20
707.699158
 30
0.0
 11
327.897217
 21
707.699158
 31
0.0
  0
ARC
  5
117
330
1F
100
AcDbEntity
  8
0
  6
PHANTOM
 62
     4
370
    35
100
AcDbCircle
 10
331.197205
 20
705.699158
 30
0.0
 40
2.000000291573875
100
AcDbArc
 50
0.00001
 51
89.999989
  0
LINE
  5
118
330
1F
100
AcDbEntity
  8
0
  6
PHANTOM
 62
     4
 48
0.4
370
    35
100
AcDbLine
 10
333.197205
 20
707.699158
 30
0.0
 11
333.197205
 21
691.699158
 31
0.0
  0
LINE
  5
119
330
1F
100
AcDbEntity
  8
0
  6
PHANTOM
 62
     4
 48
0.05
370
    35
100
AcDbLine
 10
333.197205
 20
707.699158
 30
0.0
 11
333.197205
 21
709.699158
 31
0.0
  0
LINE
  5
11A
330
1F
100
AcDbEntity
  8
0
  6
PHANTOM
 62
     4
 48
0.4
370
    35
100
AcDbLine
 10
402.597229
 20
707.699158
 30
0.0
 11
402.597229
 21
691.699158
 31
0.0
  0
LINE
  5
11B
330
1F
100
AcDbEntity
  8
0
  6
PHANTOM
 62
     4
370
    35
100
AcDbLine
 10
402.597229
 20
691.699158
 30
0.0
 11
333.197205
 21
691.699158
 31
0.0
  0
LINE
  5
11C
330
1F
100
AcDbEntity
  8
0
  6
PHANTOM
 62
     4
 48
0.05
370
    35
100
AcDbLine
 10
402.597229
 20
709.699158
 30
0.0
 11
402.597229
 21
707.699158
 31
0.0
  0
LINE
  5
11D
330
1F
100
AcDbEntity
  8
0
  6
PHANTOM
 62
     4
370
    35
100
AcDbLine
 10
402.597229
 20
709.699158
 30
0.0
 11
333.197205
 21
709.699158
 31
0.0
  0
LINE
  5
11E
330
1F
100
AcDbEntity
  8
0
  6
PHANTOM
 62
     4
 48
0.05
370
    35
100
AcDbLine
 10
407.897217
 20
707.699158
 30
0.0
 11
407.897217
 21
705.699158
 31
0.0
  0
LINE
  5
11F
330
1F
100
AcDbEntity
  8
0
  6
PHANTOM
 62
     4
 48
0.132498
370
    35
100
AcDbLine
 10
407.897217
 20
704.699158
 30
0.0
 11
402.59729
 21
704.699158
 31
0.0
  0
LINE
  5
120
330
1F
100
AcDbEntity
  8
0
  6
PHANTOM
 62
     4
 48
0.025
370
    35
100
AcDbLine
 10
407.897217
 20
705.699158
 30
0.0
 11
407.897217
 21
704.699158
 31
0.0
  0
LINE
  5
121
330
1F
100
AcDbEntity
  8
0
  6
PHANTOM
 62
     4
 48
0.0125
370
    35
100
AcDbLine
 10
364.647217
 20
556.199158
 30
0.0
 11
364.647217
 21
556.699158
 31
0.0
  0
LINE
  5
122
330
1F
100
AcDbEntity
  8
0
  6
PHANTOM
 62
     4
 48
0.1625
370
    35
100
AcDbLine
 10
371.147217
 20
556.199158
 30
0.0
 11
364.647217
 21
556.199158
 31
0.0
  0
LINE
  5
123
330
1F
100
AcDbEntity
  8
0
  6
PHANTOM
 62
     4
 48
0.0125
370
    35
100
AcDbLine
 10
371.147217
 20
556.199158
 30
0.0
 11
371.147217
 21
556.699158
 31
0.0
  0
LINE
  5
124
330
1F
100
AcDbEntity
  8
0
  6
PHANTOM
 62
     4
 48
0.0125
370
    35
100
AcDbLine
 10
363.897217
 20
556.699158
 30
0.0
 11
363.897217
 21
557.199158
 31
0.0
  0
LINE
  5
125
330
1F
100
AcDbEntity
  8
0
  6
PHANTOM
 62
     4
 48
0.2
370
    35
100
AcDbLine
 10
371.897217
 20
556.699158
 30
0.0
 11
363.897217
 21
556.699158
 31
0.0
  0
LINE
  5
126
330
1F
100
AcDbEntity
  8
0
  6
PHANTOM
 62
     4
 48
0.0125
370
    35
100
AcDbLine
 10
371.897217
 20
556.699158
 30
0.0
 11
371.897217
 21
557.199158
 31
0.0
  0
LINE
  5
127
330
1F
100
AcDbEntity
  8
0
  6
PHANTOM
 62
     4
 48
0.2
370
    35
100
AcDbLine
 10
371.897217
 20
557.199158
 30
0.0
 11
363.897217
 21
557.199158
 31
0.0
  0
LINE
  5
128
330
1F
100
AcDbEntity
  8
0
  6
PHANTOM
 62
     4
 48
0.0375
370
    35
100
AcDbLine
 10
370.897217
 20
550.199158
 30
0.0
 11
369.397217
 21
550.199158
 31
0.0
  0
LINE
  5
129
330
1F
100
AcDbEntity
  8
0
  6
PHANTOM
 62
     4
 48
0.011
370
    35
100
AcDbLine
 10
370.897217
 20
550.199158
 30
0.0
 11
370.572601
 21
550.496155
 31
0.0
  0
LINE
  5
12A
330
1F
100
AcDbEntity
  8
0
  6
PHANTOM
 62
     4
 48
0.075
370
    35
100
AcDbLine
 10
369.397217
 20
550.199158
 30
0.0
 11
366.397217
 21
550.199158
 31
0.0
  0
POLYLINE
  5
12B
330
1F
100
AcDbEntity
  8
0
  6
PHANTOM
 62
     4
370
    35
100
AcDb2dPolyline
 66
     1
 10
0.0
 20
0.0
 30
0.0
  0
VERTEX
  5
12C
330
12B
100
AcDbEntity
  8
0
370
     0
100
AcDbVertex
100
AcDb2dVertex
 10
369.397217
 20
550.199158
 30
0.0
  0
VERTEX
  5
12D
330
12B
100
AcDbEntity
  8
0
370
     0
100
AcDbVertex
100
AcDb2dVertex
 10
369.026672
 20
550.225342
 30
0.0
  0
VERTEX
  5
12E
330
12B
100
AcDbEntity
  8
0
370
     0
100
AcDbVertex
100
AcDb2dVertex
 10
368.64679
 20
550.299988
 30
0.0
  0
VERTEX
  5
12F
330
12B
100
AcDbEntity
  8
0
370
     0
100
AcDbVertex
100
AcDb2dVertex
 10
368.267822
 20
550.416138
 30
0.0
  0
VERTEX
  5
130
330
12B
100
AcDbEntity
  8
0
370
     0
100
AcDbVertex
100
AcDb2dVertex
 10
367.897217
 20
550.56604
 30
0.0
  0
SEQEND
  5
131
330
12B
100
AcDbEntity
  8
0
  6
PHANTOM
 62
     4
370
    35
  0
POLYLINE
  5
132
330
1F
100
AcDbEntity
  8
0
  6
PHANTOM
 62
     4
370
    35
100
AcDb2dPolyline
 66
     1
 10
0.0
 20
0.0
 30
0.0
  0
VERTEX
  5
133
330
132
100
AcDbEntity
  8
0
370
     0
100
AcDbVertex
100
AcDb2dVertex
 10
366.397217
 20
550.199158
 30
0.0
  0
VERTEX
  5
134
330
132
100
AcDbEntity
  8
0
370
     0
100
AcDbVertex
100
AcDb2dVertex
 10
366.767761
 20
550.225342
 30
0.0
  0
VERTEX
  5
135
330
132
100
AcDbEntity
  8
0
370
     0
100
AcDbVertex
100
AcDb2dVertex
 10
367.147644
 20
550.299988
 30
0.0
  0
VERTEX
  5
136
330
132
100
AcDbEntity
  8
0
370
     0
100
AcDbVertex
100
AcDb2dVertex
 10
367.526611
 20
550.416138
 30
0.0
  0
VERTEX
  5
137
330
132
100
AcDbEntity
  8
0
370
     0
100
AcDbVertex
100
AcDb2dVertex
 10
367.897217
 20
550.56604
 30
0.0
  0
SEQEND
  5
138
330
132
100
AcDbEntity
  8
0
  6
PHANTOM
 62
     4
370
    35
  0
LINE
  5
139
330
1F
100
AcDbEntity
  8
0
  6
PHANTOM
 62
     4
 48
0.0375
370
    35
100
AcDbLine
 10
366.397217
 20
550.199158
 30
0.0
 11
364.897217
 21
550.199158
 31
0.0
  0
LINE
  5
13A
330
1F
100
AcDbEntity
  8
0
  6
PHANTOM
 62
     4
 48
0.011
370
    35
100
AcDbLine
 10
364.897217
 20
550.199158
 30
0.0
 11
365.221832
 21
550.496155
 31
0.0
  0
LINE
  5
13B
330
1F
100
AcDbEntity
  8
0
  6
PHANTOM
 62
     4
 48
0.011
370
    35
100
AcDbLine
 10
370.897217
 20
556.199158
 30
0.0
 11
370.572601
 21
555.902161
 31
0.0
  0
LINE
  5
13C
330
1F
100
AcDbEntity
  8
0
  6
PHANTOM
 62
     4
 48
0.075
370
    35
100
AcDbLine
 10
369.397217
 20
556.199158
 30
0.0
 11
366.397217
 21
556.199158
 31
0.0
  0
POLYLINE
  5
13D
330
1F
100
AcDbEntity
  8
0
  6
PHANTOM
 62
     4
370
    35
100
AcDb2dPolyline
 66
     1
 10
0.0
 20
0.0
 30
0.0
  0
VERTEX
  5
13E
330
13D
100
AcDbEntity
  8
0
370
     0
100
AcDbVertex
100
AcDb2dVertex
 10
366.397217
 20
556.199158
 30
0.0
  0
VERTEX
  5
13F
330
13D
100
AcDbEntity
  8
0
370
     0
100
AcDbVertex
100
AcDb2dVertex
 10
366.767761
 20
556.172974
 30
0.0
  0
VERTEX
  5
140
330
13D
100
AcDbEntity
  8
0
370
     0
100
AcDbVertex
100
AcDb2dVertex
 10
367.147644
 20
556.098328
 30
0.0
  0
VERTEX
  5
141
330
13D
100
AcDbEntity
  8
0
370
     0
100
AcDbVertex
100
AcDb2dVertex
 10
367.526611
 20
555.982178
 30
0.0
  0
VERTEX
  5
142
330
13D
100
AcDbEntity
  8
0
370
     0
100
AcDbVertex
100
AcDb2dVertex
 10
367.897217
 20
555.832275
 30
0.0
  0
SEQEND
  5
143
330
13D
100
AcDbEntity
  8
0
  6
PHANTOM
 62
     4
370
    35
  0
POLYLINE
  5
144
330
1F
100
AcDbEntity
  8
0
  6
PHANTOM
 62
     4
370
    35
100
AcDb2dPolyline
 66
     1
 10
0.0
 20
0.0
 30
0.0
  0
VERTEX
  5
145
330
144
100
AcDbEntity
  8
0
370
     0
100
AcDbVertex
100
AcDb2dVertex
 10
367.897217
 20
555.832275
 30
0.0
  0
VERTEX
  5
146
330
144
100
AcDbEntity
  8
0
370
     0
100
AcDbVertex
100
AcDb2dVertex
 10
368.267914
 20
555.982239
 30
0.0
  0
VERTEX
  5
147
330
144
100
AcDbEntity
  8
0
370
     0
100
AcDbVertex
100
AcDb2dVertex
 10
368.646973
 20
556.098328
 30
0.0
  0
VERTEX
  5
148
330
144
100
AcDbEntity
  8
0
370
     0
100
AcDbVertex
100
AcDb2dVertex
 10
369.026825
 20
556.173035
 30
0.0
  0
VERTEX
  5
149
330
144
100
AcDbEntity
  8
0
370
     0
100
AcDbVertex
100
AcDb2dVertex
 10
369.397217
 20
556.199158
 30
0.0
  0
SEQEND
  5
14A
330
144
100
AcDbEntity
  8
0
  6
PHANTOM
 62
     4
370
    35
  0
LINE
  5
14B
330
1F
100
AcDbEntity
  8
0
  6
PHANTOM
 62
     4
 48
0.0375
370
    35
100
AcDbLine
 10
366.397217
 20
556.199158
 30
0.0
 11
364.897217
 21
556.199158
 31
0.0
  0
LINE
  5
14C
330
1F
100
AcDbEntity
  8
0
  6
PHANTOM
 62
     4
 48
0.011
370
    35
100
AcDbLine
 10
364.897217
 20
556.199158
 30
0.0
 11
365.221832
 21
555.902161
 31
0.0
  0
LINE
  5
14D
330
1F
100
AcDbEntity
  8
0
  6
PHANTOM
 62
     4
 48
0.0125
370
    35
100
AcDbLine
 10
364.897217
 20
550.699158
 30
0.0
 11
364.897217
 21
550.199158
 31
0.0
  0
ELLIPSE
  5
14E
330
1F
100
AcDbEntity
  8
0
  6
PHANTOM
 62
     4
370
    35
100
AcDbEllipse
 10
366.397217
 20
553.449158
 30
0.0
 11
0.0
 21
3.25
 31
0.0
210
0.0
220
0.0
230
1.0
 40
0.866025
 41
2.579522850584167
 42
3.141592653589793
  0
LINE
  5
14F
330
1F
100
AcDbEntity
  8
0
  6
PHANTOM
 62
     4
 48
0.0125
370
    35
100
AcDbLine
 10
364.897217
 20
556.199158
 30
0.0
 11
364.897217
 21
555.699158
 31
0.0
  0
ELLIPSE
  5
150
330
1F
100
AcDbEntity
  8
0
  6
PHANTOM
 62
     4
370
    35
100
AcDbEllipse
 10
366.397217
 20
552.949158
 30
0.0
 11
0.0
 21
3.25
 31
0.0
210
0.0
220
0.0
230
1.0
 40
0.866025
 41
0.0
 42
0.5620698030056248
  0
ELLIPSE
  5
151
330
1F
100
AcDbEntity
  8
0
  6
PHANTOM
 62
     4
370
    35
100
AcDbEllipse
 10
369.397217
 20
552.949158
 30
0.0
 11
0.0
 21
-3.25
 31
0.0
210
0.0
220
0.0
230
1.0
 40
0.866025
 41
3.141592653589793
 42
3.703662456595421
  0
LINE
  5
152
330
1F
100
AcDbEntity
  8
0
  6
PHANTOM
 62
     4
 48
0.003328
370
    35
100
AcDbLine
 10
367.897217
 20
555.832275
 30
0.0
 11
367.897217
 21
555.699158
 31
0.0
  0
LINE
  5
153
330
1F
100
AcDbEntity
  8
0
  6
PHANTOM
 62
     4
 48
0.003328
370
    35
100
AcDbLine
 10
367.897217
 20
550.56604
 30
0.0
 11
367.897217
 21
550.699158
 31
0.0
  0
ELLIPSE
  5
154
330
1F
100
AcDbEntity
  8
0
  6
PHANTOM
 62
     4
370
    35
100
AcDbEllipse
 10
369.397217
 20
553.449158
 30
0.0
 11
0.0
 21
-3.25
 31
0.0
210
0.0
220
0.0
230
1.0
 40
0.866025
 41
5.721115504173957
 42
6.283185307179586
  0
ELLIPSE
  5
155
330
1F
100
AcDbEntity
  8
0
  6
PHANTOM
 62
     4
370
    35
100
AcDbEllipse
 10
366.397217
 20
552.949158
 30
0.0
 11
0.0
 21
3.25
 31
0.0
210
0.0
220
0.0
230
1.0
 40
0.866025
 41
5.721115504173959
 42
6.283185307179586
  0
ELLIPSE
  5
156
330
1F
100
AcDbEntity
  8
0
  6
PHANTOM
 62
     4
370
    35
100
AcDbEllipse
 10
366.397217
 20
553.449158
 30
0.0
 11
0.0
 21
3.25
 31
0.0
210
0.0
220
0.0
230
1.0
 40
0.866025
 41
3.141592653589793
 42
3.70366245659542
  0
ELLIPSE
  5
157
330
1F
100
AcDbEntity
  8
0
  6
PHANTOM
 62
     4
370
    35
100
AcDbEllipse
 10
369.397217
 20
553.449158
 30
0.0
 11
0.0
 21
-3.25
 31
0.0
210
0.0
220
0.0
230
1.0
 40
0.866025
 41
0.0
 42
0.562069803005627
  0
ELLIPSE
  5
158
330
1F
100
AcDbEntity
  8
0
  6
PHANTOM
 62
     4
370
    35
100
AcDbEllipse
 10
369.397217
 20
552.949158
 30
0.0
 11
0.0
 21
-3.25
 31
0.0
210
0.0
220
0.0
230
1.0
 40
0.866025
 41
2.579522850584166
 42
3.141592653589793
  0
LINE
  5
159
330
1F
100
AcDbEntity
  8
0
  6
PHANTOM
 62
     4
 48
0.0125
370
    35
100
AcDbLine
 10
370.897217
 20
550.199158
 30
0.0
 11
370.897217
 21
550.699158
 31
0.0
  0
LINE
  5
15A
330
1F
100
AcDbEntity
  8
0
  6
PHANTOM
 62
     4
 48
0.0125
370
    35
100
AcDbLine
 10
370.897217
 20
555.699158
 30
0.0
 11
370.897217
 21
556.199158
 31
0.0
  0
LINE
  5
15B
330
1F
100
AcDbEntity
  8
0
  6
PHANTOM
 62
     4
 48
0.125
370
    35
100
AcDbLine
 10
370.897217
 20
550.699158
 30
0.0
 11
370.897217
 21
555.699158
 31
0.0
  0
LINE
  5
15C
330
1F
100
AcDbEntity
  8
0
  6
PHANTOM
 62
     4
 48
0.125
370
    35
100
AcDbLine
 10
367.897217
 20
550.699158
 30
0.0
 11
367.897217
 21
555.699158
 31
0.0
  0
LINE
  5
15D
330
1F
100
AcDbEntity
  8
0
  6
PHANTOM
 62
     4
 48
0.125
370
    35
100
AcDbLine
 10
364.897217
 20
550.699158
 30
0.0
 11
364.897217
 21
555.699158
 31
0.0
  0
ELLIPSE
  5
15E
330
1F
100
AcDbEntity
  8
0
  6
PHANTOM
 62
     4
370
    35
100
AcDbEllipse
 10
371.056427
 20
557.829712
 30
0.0
 11
-0.625
 21
0.0
 31
0.0
210
0.0
220
0.0
230
1.0
 40
0.999915
 41
0.0
 42
3.141592653589793
  0
ELLIPSE
  5
15F
330
1F
100
AcDbEntity
  8
0
  6
PHANTOM
 62
     4
370
    35
100
AcDbEllipse
 10
364.756439
 20
581.577637
 30
0.0
 11
-0.625
 21
0.0
 31
0.0
210
0.0
220
0.0
230
1.0
 40
0.999915
 41
0.0
 42
3.141592653589793
  0
ELLIPSE
  5
160
330
1F
100
AcDbEntity
  8
0
  6
PHANTOM
 62
     4
370
    35
100
AcDbEllipse
 10
371.056427
 20
557.829712
 30
0.0
 11
-0.625
 21
0.0
 31
0.0
210
0.0
220
0.0
230
1.0
 40
0.999915
 41
3.141592653589793
 42
6.283185307179586
  0
ELLIPSE
  5
161
330
1F
100
AcDbEntity
  8
0
  6
PHANTOM
 62
     4
370
    35
100
AcDbEllipse
 10
364.756439
 20
581.577637
 30
0.0
 11
-0.625
 21
0.0
 31
0.0
210
0.0
220
0.0
230
1.0
 40
0.999915
 41
3.141592653589793
 42
4.607269992904109
  0
ELLIPSE
  5
162
330
1F
100
AcDbEntity
  8
0
  6
PHANTOM
 62
     4
370
    35
100
AcDbEllipse
 10
364.756439
 20
581.577637
 30
0.0
 11
-0.625
 21
0.0
 31
0.0
210
0.0
220
0.0
230
1.0
 40
0.999915
 41
4.817507967944474
 42
6.283185307179586
  0
POLYLINE
  5
163
330
1F
100
AcDbEntity
  8
0
  6
PHANTOM
 62
     4
370
    35
100
AcDb2dPolyline
 66
     1
 10
0.0
 20
0.0
 30
0.0
  0
VERTEX
  5
164
330
163
100
AcDbEntity
  8
0
370
     0
100
AcDbVertex
100
AcDb2dVertex
 10
364.131439
 20
581.577637
 30
0.0
  0
VERTEX
  5
165
330
163
100
AcDbEntity
  8
0
370
     0
100
AcDbVertex
100
AcDb2dVertex
 10
364.19931
 20
581.283264
 30
0.0
  0
VERTEX
  5
166
330
163
100
AcDbEntity
  8
0
370
     0
100
AcDbVertex
100
AcDb2dVertex
 10
364.384155
 20
581.046509
 30
0.0
  0
VERTEX
  5
167
330
163
100
AcDbEntity
  8
0
370
     0
100
AcDbVertex
100
AcDb2dVertex
 10
364.662079
 20
580.881714
 30
0.0
  0
VERTEX
  5
168
330
163
100
AcDbEntity
  8
0
370
     0
100
AcDbVertex
100
AcDb2dVertex
 10
365.123535
 20
580.742737
 30
0.0
  0
VERTEX
  5
169
330
163
100
AcDbEntity
  8
0
370
     0
100
AcDbVertex
100
AcDb2dVertex
 10
365.897217
 20
580.600769
 30
0.0
  0
SEQEND
  5
16A
330
163
100
AcDbEntity
  8
0
  6
PHANTOM
 62
     4
370
    35
  0
POLYLINE
  5
16B
330
1F
100
AcDbEntity
  8
0
  6
PHANTOM
 62
     4
370
    35
100
AcDb2dPolyline
 66
     1
 10
0.0
 20
0.0
 30
0.0
  0
VERTEX
  5
16C
330
16B
100
AcDbEntity
  8
0
370
     0
100
AcDbVertex
100
AcDb2dVertex
 10
371.681763
 20
580.446716
 30
0.0
  0
VERTEX
  5
16D
330
16B
100
AcDbEntity
  8
0
370
     0
100
AcDbVertex
100
AcDb2dVertex
 10
371.634399
 20
580.20282
 30
0.0
  0
VERTEX
  5
16E
330
16B
100
AcDbEntity
  8
0
370
     0
100
AcDbVertex
100
AcDb2dVertex
 10
371.483276
 20
579.975769
 30
0.0
  0
VERTEX
  5
16F
330
16B
100
AcDbEntity
  8
0
370
     0
100
AcDbVertex
100
AcDb2dVertex
 10
371.210419
 20
579.798279
 30
0.0
  0
VERTEX
  5
170
330
16B
100
AcDbEntity
  8
0
370
     0
100
AcDbVertex
100
AcDb2dVertex
 10
370.800293
 20
579.678955
 30
0.0
  0
VERTEX
  5
171
330
16B
100
AcDbEntity
  8
0
370
     0
100
AcDbVertex
100
AcDb2dVertex
 10
369.933685
 20
579.537842
 30
0.0
  0
VERTEX
  5
172
330
16B
100
AcDbEntity
  8
0
370
     0
100
AcDbVertex
100
AcDb2dVertex
 10
367.824249
 20
579.288086
 30
0.0
  0
VERTEX
  5
173
330
16B
100
AcDbEntity
  8
0
370
     0
100
AcDbVertex
100
AcDb2dVertex
 10
366.093445
 20
579.066223
 30
0.0
  0
VERTEX
  5
174
330
16B
100
AcDbEntity
  8
0
370
     0
100
AcDbVertex
100
AcDb2dVertex
 10
365.358093
 20
578.929688
 30
0.0
  0
VERTEX
  5
175
330
16B
100
AcDbEntity
  8
0
370
     0
100
AcDbVertex
100
AcDb2dVertex
 10
365.139404
 20
578.863953
 30
0.0
  0
SEQEND
  5
176
330
16B
100
AcDbEntity
  8
0
  6
PHANTOM
 62
     4
370
    35
  0
POLYLINE
  5
177
330
1F
100
AcDbEntity
  8
0
  6
PHANTOM
 62
     4
370
    35
100
AcDb2dPolyline
 66
     1
 10
0.0
 20
0.0
 30
0.0
  0
VERTEX
  5
178
330
177
100
AcDbEntity
  8
0
370
     0
100
AcDbVertex
100
AcDb2dVertex
 10
364.131226
 20
579.315979
 30
0.0
  0
VERTEX
  5
179
330
177
100
AcDbEntity
  8
0
370
     0
100
AcDbVertex
100
AcDb2dVertex
 10
364.200073
 20
579.019531
 30
0.0
  0
VERTEX
  5
17A
330
177
100
AcDbEntity
  8
0
370
     0
100
AcDbVertex
100
AcDb2dVertex
 10
364.389496
 20
578.780151
 30
0.0
  0
VERTEX
  5
17B
330
177
100
AcDbEntity
  8
0
370
     0
100
AcDbVertex
100
AcDb2dVertex
 10
364.671783
 20
578.616089
 30
0.0
  0
VERTEX
  5
17C
330
177
100
AcDbEntity
  8
0
370
     0
100
AcDbVertex
100
AcDb2dVertex
 10
365.167542
 20
578.471252
 30
0.0
  0
VERTEX
  5
17D
330
177
100
AcDbEntity
  8
0
370
     0
100
AcDbVertex
100
AcDb2dVertex
 10
365.897217
 20
578.339172
 30
0.0
  0
SEQEND
  5
17E
330
177
100
AcDbEntity
  8
0
  6
PHANTOM
 62
     4
370
    35
  0
POLYLINE
  5
17F
330
1F
100
AcDbEntity
  8
0
  6
PHANTOM
 62
     4
370
    35
100
AcDb2dPolyline
 66
     1
 10
0.0
 20
0.0
 30
0.0
  0
VERTEX
  5
180
330
17F
100
AcDbEntity
  8
0
370
     0
100
AcDbVertex
100
AcDb2dVertex
 10
371.681427
 20
578.18512
 30
0.0
  0
VERTEX
  5
181
330
17F
100
AcDbEntity
  8
0
370
     0
100
AcDbVertex
100
AcDb2dVertex
 10
371.633972
 20
577.940918
 30
0.0
  0
VERTEX
  5
182
330
17F
100
AcDbEntity
  8
0
370
     0
100
AcDbVertex
100
AcDb2dVertex
 10
371.482666
 20
577.713867
 30
0.0
  0
VERTEX
  5
183
330
17F
100
AcDbEntity
  8
0
370
     0
100
AcDbVertex
100
AcDb2dVertex
 10
371.207245
 20
577.535339
 30
0.0
  0
VERTEX
  5
184
330
17F
100
AcDbEntity
  8
0
370
     0
100
AcDbVertex
100
AcDb2dVertex
 10
370.808136
 20
577.418823
 30
0.0
  0
VERTEX
  5
185
330
17F
100
AcDbEntity
  8
0
370
     0
100
AcDbVertex
100
AcDb2dVertex
 10
369.952759
 20
577.278442
 30
0.0
  0
VERTEX
  5
186
330
17F
100
AcDbEntity
  8
0
370
     0
100
AcDbVertex
100
AcDb2dVertex
 10
367.90033
 20
577.035217
 30
0.0
  0
VERTEX
  5
187
330
17F
100
AcDbEntity
  8
0
370
     0
100
AcDbVertex
100
AcDb2dVertex
 10
366.147736
 20
576.812866
 30
0.0
  0
VERTEX
  5
188
330
17F
100
AcDbEntity
  8
0
370
     0
100
AcDbVertex
100
AcDb2dVertex
 10
365.362335
 20
576.669067
 30
0.0
  0
VERTEX
  5
189
330
17F
100
AcDbEntity
  8
0
370
     0
100
AcDbVertex
100
AcDb2dVertex
 10
365.139496
 20
576.602295
 30
0.0
  0
SEQEND
  5
18A
330
17F
100
AcDbEntity
  8
0
  6
PHANTOM
 62
     4
370
    35
  0
POLYLINE
  5
18B
330
1F
100
AcDbEntity
  8
0
  6
PHANTOM
 62
     4
370
    35
100
AcDb2dPolyline
 66
     1
 10
0.0
 20
0.0
 30
0.0
  0
VERTEX
  5
18C
330
18B
100
AcDbEntity
  8
0
370
     0
100
AcDbVertex
100
AcDb2dVertex
 10
364.131042
 20
577.054199
 30
0.0
  0
VERTEX
  5
18D
330
18B
100
AcDbEntity
  8
0
370
     0
100
AcDbVertex
100
AcDb2dVertex
 10
364.19928
 20
576.759033
 30
0.0
  0
VERTEX
  5
18E
330
18B
100
AcDbEntity
  8
0
370
     0
100
AcDbVertex
100
AcDb2dVertex
 10
364.385071
 20
576.521973
 30
0.0
  0
VERTEX
  5
18F
330
18B
100
AcDbEntity
  8
0
370
     0
100
AcDbVertex
100
AcDb2dVertex
 10
364.663818
 20
576.357544
 30
0.0
  0
VERTEX
  5
190
330
18B
100
AcDbEntity
  8
0
370
     0
100
AcDbVertex
100
AcDb2dVertex
 10
365.118927
 20
576.220581
 30
0.0
  0
VERTEX
  5
191
330
18B
100
AcDbEntity
  8
0
370
     0
100
AcDbVertex
100
AcDb2dVertex
 10
365.897491
 20
576.077515
 30
0.0
  0
SEQEND
  5
192
330
18B
100
AcDbEntity
  8
0
  6
PHANTOM
 62
     4
370
    35
  0
POLYLINE
  5
193
330
1F
100
AcDbEntity
  8
0
  6
PHANTOM
 62
     4
370
    35
100
AcDb2dPolyline
 66
     1
 10
0.0
 20
0.0
 30
0.0
  0
VERTEX
  5
194
330
193
100
AcDbEntity
  8
0
370
     0
100
AcDbVertex
100
AcDb2dVertex
 10
371.68158
 20
575.923401
 30
0.0
  0
VERTEX
  5
195
330
193
100
AcDbEntity
  8
0
370
     0
100
AcDbVertex
100
AcDb2dVertex
 10
371.634125
 20
575.67926
 30
0.0
  0
VERTEX
  5
196
330
193
100
AcDbEntity
  8
0
370
     0
100
AcDbVertex
100
AcDb2dVertex
 10
371.482697
 20
575.452026
 30
0.0
  0
VERTEX
  5
197
330
193
100
AcDbEntity
  8
0
370
     0
100
AcDbVertex
100
AcDb2dVertex
 10
371.207703
 20
575.273804
 30
0.0
  0
VERTEX
  5
198
330
193
100
AcDbEntity
  8
0
370
     0
100
AcDbVertex
100
AcDb2dVertex
 10
370.804321
 20
575.156433
 30
0.0
  0
VERTEX
  5
199
330
193
100
AcDbEntity
  8
0
370
     0
100
AcDbVertex
100
AcDb2dVertex
 10
369.947418
 20
575.016174
 30
0.0
  0
VERTEX
  5
19A
330
193
100
AcDbEntity
  8
0
370
     0
100
AcDbVertex
100
AcDb2dVertex
 10
367.87326
 20
574.770203
 30
0.0
  0
VERTEX
  5
19B
330
193
100
AcDbEntity
  8
0
370
     0
100
AcDbVertex
100
AcDb2dVertex
 10
366.141266
 20
574.550171
 30
0.0
  0
VERTEX
  5
19C
330
193
100
AcDbEntity
  8
0
370
     0
100
AcDbVertex
100
AcDb2dVertex
 10
365.392548
 20
574.414673
 30
0.0
  0
VERTEX
  5
19D
330
193
100
AcDbEntity
  8
0
370
     0
100
AcDbVertex
100
AcDb2dVertex
 10
365.139801
 20
574.340881
 30
0.0
  0
SEQEND
  5
19E
330
193
100
AcDbEntity
  8
0
  6
PHANTOM
 62
     4
370
    35
  0
POLYLINE
  5
19F
330
1F
100
AcDbEntity
  8
0
  6
PHANTOM
 62
     4
370
    35
100
AcDb2dPolyline
 66
     1
 10
0.0
 20
0.0
 30
0.0
  0
VERTEX
  5
1A0
330
19F
100
AcDbEntity
  8
0
370
     0
100
AcDbVertex
100
AcDb2dVertex
 10
364.131378
 20
574.792603
 30
0.0
  0
VERTEX
  5
1A1
330
19F
100
AcDbEntity
  8
0
370
     0
100
AcDbVertex
100
AcDb2dVertex
 10
364.198853
 20
574.499023
 30
0.0
  0
VERTEX
  5
1A2
330
19F
100
AcDbEntity
  8
0
370
     0
100
AcDbVertex
100
AcDb2dVertex
 10
364.381744
 20
574.263428
 30
0.0
  0
VERTEX
  5
1A3
330
19F
100
AcDbEntity
  8
0
370
     0
100
AcDbVertex
100
AcDb2dVertex
 10
364.673645
 20
574.091919
 30
0.0
  0
VERTEX
  5
1A4
330
19F
100
AcDbEntity
  8
0
370
     0
100
AcDbVertex
100
AcDb2dVertex
 10
365.157104
 20
573.950073
 30
0.0
  0
VERTEX
  5
1A5
330
19F
100
AcDbEntity
  8
0
370
     0
100
AcDbVertex
100
AcDb2dVertex
 10
365.897217
 20
573.815613
 30
0.0
  0
SEQEND
  5
1A6
330
19F
100
AcDbEntity
  8
0
  6
PHANTOM
 62
     4
370
    35
  0
POLYLINE
  5
1A7
330
1F
100
AcDbEntity
  8
0
  6
PHANTOM
 62
     4
370
    35
100
AcDb2dPolyline
 66
     1
 10
0.0
 20
0.0
 30
0.0
  0
VERTEX
  5
1A8
330
1A7
100
AcDbEntity
  8
0
370
     0
100
AcDbVertex
100
AcDb2dVertex
 10
371.681793
 20
573.66156
 30
0.0
  0
VERTEX
  5
1A9
330
1A7
100
AcDbEntity
  8
0
370
     0
100
AcDbVertex
100
AcDb2dVertex
 10
371.634369
 20
573.41748
 30
0.0
  0
VERTEX
  5
1AA
330
1A7
100
AcDbEntity
  8
0
370
     0
100
AcDbVertex
100
AcDb2dVertex
 10
371.483124
 20
573.19043
 30
0.0
  0
VERTEX
  5
1AB
330
1A7
100
AcDbEntity
  8
0
370
     0
100
AcDbVertex
100
AcDb2dVertex
 10
371.208221
 20
573.012146
 30
0.0
  0
VERTEX
  5
1AC
330
1A7
100
AcDbEntity
  8
0
370
     0
100
AcDbVertex
100
AcDb2dVertex
 10
370.826843
 20
572.899536
 30
0.0
  0
VERTEX
  5
1AD
330
1A7
100
AcDbEntity
  8
0
370
     0
100
AcDbVertex
100
AcDb2dVertex
 10
370.002533
 20
572.762085
 30
0.0
  0
VERTEX
  5
1AE
330
1A7
100
AcDbEntity
  8
0
370
     0
100
AcDbVertex
100
AcDb2dVertex
 10
368.01181
 20
572.524475
 30
0.0
  0
VERTEX
  5
1AF
330
1A7
100
AcDbEntity
  8
0
370
     0
100
AcDbVertex
100
AcDb2dVertex
 10
366.198578
 20
572.296997
 30
0.0
  0
VERTEX
  5
1B0
330
1A7
100
AcDbEntity
  8
0
370
     0
100
AcDbVertex
100
AcDb2dVertex
 10
365.398773
 20
572.154175
 30
0.0
  0
VERTEX
  5
1B1
330
1A7
100
AcDbEntity
  8
0
370
     0
100
AcDbVertex
100
AcDb2dVertex
 10
365.139496
 20
572.078796
 30
0.0
  0
SEQEND
  5
1B2
330
1A7
100
AcDbEntity
  8
0
  6
PHANTOM
 62
     4
370
    35
  0
POLYLINE
  5
1B3
330
1F
100
AcDbEntity
  8
0
  6
PHANTOM
 62
     4
370
    35
100
AcDb2dPolyline
 66
     1
 10
0.0
 20
0.0
 30
0.0
  0
VERTEX
  5
1B4
330
1B3
100
AcDbEntity
  8
0
370
     0
100
AcDbVertex
100
AcDb2dVertex
 10
364.131348
 20
572.530762
 30
0.0
  0
VERTEX
  5
1B5
330
1B3
100
AcDbEntity
  8
0
370
     0
100
AcDbVertex
100
AcDb2dVertex
 10
364.200378
 20
572.234009
 30
0.0
  0
VERTEX
  5
1B6
330
1B3
100
AcDbEntity
  8
0
370
     0
100
AcDbVertex
100
AcDb2dVertex
 10
364.389282
 20
571.9953
 30
0.0
  0
VERTEX
  5
1B7
330
1B3
100
AcDbEntity
  8
0
370
     0
100
AcDbVertex
100
AcDb2dVertex
 10
364.672913
 20
571.830505
 30
0.0
  0
VERTEX
  5
1B8
330
1B3
100
AcDbEntity
  8
0
370
     0
100
AcDbVertex
100
AcDb2dVertex
 10
365.131409
 20
571.694275
 30
0.0
  0
VERTEX
  5
1B9
330
1B3
100
AcDbEntity
  8
0
370
     0
100
AcDbVertex
100
AcDb2dVertex
 10
365.897217
 20
571.554016
 30
0.0
  0
SEQEND
  5
1BA
330
1B3
100
AcDbEntity
  8
0
  6
PHANTOM
 62
     4
370
    35
  0
POLYLINE
  5
1BB
330
1F
100
AcDbEntity
  8
0
  6
PHANTOM
 62
     4
370
    35
100
AcDb2dPolyline
 66
     1
 10
0.0
 20
0.0
 30
0.0
  0
VERTEX
  5
1BC
330
1BB
100
AcDbEntity
  8
0
370
     0
100
AcDbVertex
100
AcDb2dVertex
 10
371.681519
 20
571.400024
 30
0.0
  0
VERTEX
  5
1BD
330
1BB
100
AcDbEntity
  8
0
370
     0
100
AcDbVertex
100
AcDb2dVertex
 10
371.634064
 20
571.155884
 30
0.0
  0
VERTEX
  5
1BE
330
1BB
100
AcDbEntity
  8
0
370
     0
100
AcDbVertex
100
AcDb2dVertex
 10
371.482758
 20
570.928772
 30
0.0
  0
VERTEX
  5
1BF
330
1BB
100
AcDbEntity
  8
0
370
     0
100
AcDbVertex
100
AcDb2dVertex
 10
371.223572
 20
570.757263
 30
0.0
  0
VERTEX
  5
1C0
330
1BB
100
AcDbEntity
  8
0
370
     0
100
AcDbVertex
100
AcDb2dVertex
 10
370.832184
 20
570.639038
 30
0.0
  0
VERTEX
  5
1C1
330
1BB
100
AcDbEntity
  8
0
370
     0
100
AcDbVertex
100
AcDb2dVertex
 10
370.003418
 20
570.500244
 30
0.0
  0
VERTEX
  5
1C2
330
1BB
100
AcDbEntity
  8
0
370
     0
100
AcDbVertex
100
AcDb2dVertex
 10
368.038422
 20
570.265808
 30
0.0
  0
VERTEX
  5
1C3
330
1BB
100
AcDbEntity
  8
0
370
     0
100
AcDbVertex
100
AcDb2dVertex
 10
366.21698
 20
570.038147
 30
0.0
  0
VERTEX
  5
1C4
330
1BB
100
AcDbEntity
  8
0
370
     0
100
AcDbVertex
100
AcDb2dVertex
 10
365.412781
 20
569.895752
 30
0.0
  0
VERTEX
  5
1C5
330
1BB
100
AcDbEntity
  8
0
370
     0
100
AcDbVertex
100
AcDb2dVertex
 10
365.139771
 20
569.817261
 30
0.0
  0
SEQEND
  5
1C6
330
1BB
100
AcDbEntity
  8
0
  6
PHANTOM
 62
     4
370
    35
  0
POLYLINE
  5
1C7
330
1F
100
AcDbEntity
  8
0
  6
PHANTOM
 62
     4
370
    35
100
AcDb2dPolyline
 66
     1
 10
0.0
 20
0.0
 30
0.0
  0
VERTEX
  5
1C8
330
1C7
100
AcDbEntity
  8
0
370
     0
100
AcDbVertex
100
AcDb2dVertex
 10
364.131409
 20
570.269104
 30
0.0
  0
VERTEX
  5
1C9
330
1C7
100
AcDbEntity
  8
0
370
     0
100
AcDbVertex
100
AcDb2dVertex
 10
364.200226
 20
569.972778
 30
0.0
  0
VERTEX
  5
1CA
330
1C7
100
AcDbEntity
  8
0
370
     0
100
AcDbVertex
100
AcDb2dVertex
 10
364.389343
 20
569.733582
 30
0.0
  0
VERTEX
  5
1CB
330
1C7
100
AcDbEntity
  8
0
370
     0
100
AcDbVertex
100
AcDb2dVertex
 10
364.671051
 20
569.569519
 30
0.0
  0
VERTEX
  5
1CC
330
1C7
100
AcDbEntity
  8
0
370
     0
100
AcDbVertex
100
AcDb2dVertex
 10
365.144287
 20
569.429626
 30
0.0
  0
VERTEX
  5
1CD
330
1C7
100
AcDbEntity
  8
0
370
     0
100
AcDbVertex
100
AcDb2dVertex
 10
365.897247
 20
569.292297
 30
0.0
  0
SEQEND
  5
1CE
330
1C7
100
AcDbEntity
  8
0
  6
PHANTOM
 62
     4
370
    35
  0
POLYLINE
  5
1CF
330
1F
100
AcDbEntity
  8
0
  6
PHANTOM
 62
     4
370
    35
100
AcDb2dPolyline
 66
     1
 10
0.0
 20
0.0
 30
0.0
  0
VERTEX
  5
1D0
330
1CF
100
AcDbEntity
  8
0
370
     0
100
AcDbVertex
100
AcDb2dVertex
 10
371.681549
 20
569.138367
 30
0.0
  0
VERTEX
  5
1D1
330
1CF
100
AcDbEntity
  8
0
370
     0
100
AcDbVertex
100
AcDb2dVertex
 10
371.634094
 20
568.894165
 30
0.0
  0
VERTEX
  5
1D2
330
1CF
100
AcDbEntity
  8
0
370
     0
100
AcDbVertex
100
AcDb2dVertex
 10
371.482788
 20
568.667053
 30
0.0
  0
VERTEX
  5
1D3
330
1CF
100
AcDbEntity
  8
0
370
     0
100
AcDbVertex
100
AcDb2dVertex
 10
371.207642
 20
568.488647
 30
0.0
  0
VERTEX
  5
1D4
330
1CF
100
AcDbEntity
  8
0
370
     0
100
AcDbVertex
100
AcDb2dVertex
 10
370.819916
 20
568.374634
 30
0.0
  0
VERTEX
  5
1D5
330
1CF
100
AcDbEntity
  8
0
370
     0
100
AcDbVertex
100
AcDb2dVertex
 10
370.005524
 20
568.238831
 30
0.0
  0
VERTEX
  5
1D6
330
1CF
100
AcDbEntity
  8
0
370
     0
100
AcDbVertex
100
AcDb2dVertex
 10
368.043335
 20
568.004639
 30
0.0
  0
VERTEX
  5
1D7
330
1CF
100
AcDbEntity
  8
0
370
     0
100
AcDbVertex
100
AcDb2dVertex
 10
366.208923
 20
567.775269
 30
0.0
  0
VERTEX
  5
1D8
330
1CF
100
AcDbEntity
  8
0
370
     0
100
AcDbVertex
100
AcDb2dVertex
 10
365.406097
 20
567.632507
 30
0.0
  0
VERTEX
  5
1D9
330
1CF
100
AcDbEntity
  8
0
370
     0
100
AcDbVertex
100
AcDb2dVertex
 10
365.139648
 20
567.555481
 30
0.0
  0
SEQEND
  5
1DA
330
1CF
100
AcDbEntity
  8
0
  6
PHANTOM
 62
     4
370
    35
  0
POLYLINE
  5
1DB
330
1F
100
AcDbEntity
  8
0
  6
PHANTOM
 62
     4
370
    35
100
AcDb2dPolyline
 66
     1
 10
0.0
 20
0.0
 30
0.0
  0
VERTEX
  5
1DC
330
1DB
100
AcDbEntity
  8
0
370
     0
100
AcDbVertex
100
AcDb2dVertex
 10
364.131134
 20
568.007263
 30
0.0
  0
VERTEX
  5
1DD
330
1DB
100
AcDbEntity
  8
0
370
     0
100
AcDbVertex
100
AcDb2dVertex
 10
364.198944
 20
567.713013
 30
0.0
  0
VERTEX
  5
1DE
330
1DB
100
AcDbEntity
  8
0
370
     0
100
AcDbVertex
100
AcDb2dVertex
 10
364.383362
 20
567.476562
 30
0.0
  0
VERTEX
  5
1DF
330
1DB
100
AcDbEntity
  8
0
370
     0
100
AcDbVertex
100
AcDb2dVertex
 10
364.661346
 20
567.311646
 30
0.0
  0
VERTEX
  5
1E0
330
1DB
100
AcDbEntity
  8
0
370
     0
100
AcDbVertex
100
AcDb2dVertex
 10
365.136688
 20
567.169556
 30
0.0
  0
VERTEX
  5
1E1
330
1DB
100
AcDbEntity
  8
0
370
     0
100
AcDbVertex
100
AcDb2dVertex
 10
365.897217
 20
567.030701
 30
0.0
  0
SEQEND
  5
1E2
330
1DB
100
AcDbEntity
  8
0
  6
PHANTOM
 62
     4
370
    35
  0
POLYLINE
  5
1E3
330
1F
100
AcDbEntity
  8
0
  6
PHANTOM
 62
     4
370
    35
100
AcDb2dPolyline
 66
     1
 10
0.0
 20
0.0
 30
0.0
  0
VERTEX
  5
1E4
330
1E3
100
AcDbEntity
  8
0
370
     0
100
AcDbVertex
100
AcDb2dVertex
 10
371.681458
 20
566.876526
 30
0.0
  0
VERTEX
  5
1E5
330
1E3
100
AcDbEntity
  8
0
370
     0
100
AcDbVertex
100
AcDb2dVertex
 10
371.634003
 20
566.632385
 30
0.0
  0
VERTEX
  5
1E6
330
1E3
100
AcDbEntity
  8
0
370
     0
100
AcDbVertex
100
AcDb2dVertex
 10
371.482727
 20
566.405334
 30
0.0
  0
VERTEX
  5
1E7
330
1E3
100
AcDbEntity
  8
0
370
     0
100
AcDbVertex
100
AcDb2dVertex
 10
371.20755
 20
566.226929
 30
0.0
  0
VERTEX
  5
1E8
330
1E3
100
AcDbEntity
  8
0
370
     0
100
AcDbVertex
100
AcDb2dVertex
 10
370.789948
 20
566.106567
 30
0.0
  0
VERTEX
  5
1E9
330
1E3
100
AcDbEntity
  8
0
370
     0
100
AcDbVertex
100
AcDb2dVertex
 10
369.932648
 20
565.967346
 30
0.0
  0
VERTEX
  5
1EA
330
1E3
100
AcDbEntity
  8
0
370
     0
100
AcDbVertex
100
AcDb2dVertex
 10
367.858612
 20
565.72168
 30
0.0
  0
VERTEX
  5
1EB
330
1E3
100
AcDbEntity
  8
0
370
     0
100
AcDbVertex
100
AcDb2dVertex
 10
366.129547
 20
565.501465
 30
0.0
  0
VERTEX
  5
1EC
330
1E3
100
AcDbEntity
  8
0
370
     0
100
AcDbVertex
100
AcDb2dVertex
 10
365.360382
 20
565.360168
 30
0.0
  0
VERTEX
  5
1ED
330
1E3
100
AcDbEntity
  8
0
370
     0
100
AcDbVertex
100
AcDb2dVertex
 10
365.139526
 20
565.294006
 30
0.0
  0
SEQEND
  5
1EE
330
1E3
100
AcDbEntity
  8
0
  6
PHANTOM
 62
     4
370
    35
  0
POLYLINE
  5
1EF
330
1F
100
AcDbEntity
  8
0
  6
PHANTOM
 62
     4
370
    35
100
AcDb2dPolyline
 66
     1
 10
0.0
 20
0.0
 30
0.0
  0
VERTEX
  5
1F0
330
1EF
100
AcDbEntity
  8
0
370
     0
100
AcDbVertex
100
AcDb2dVertex
 10
364.131195
 20
565.74585
 30
0.0
  0
VERTEX
  5
1F1
330
1EF
100
AcDbEntity
  8
0
370
     0
100
AcDbVertex
100
AcDb2dVertex
 10
364.200256
 20
565.449036
 30
0.0
  0
VERTEX
  5
1F2
330
1EF
100
AcDbEntity
  8
0
370
     0
100
AcDbVertex
100
AcDb2dVertex
 10
364.389343
 20
565.210083
 30
0.0
  0
VERTEX
  5
1F3
330
1EF
100
AcDbEntity
  8
0
370
     0
100
AcDbVertex
100
AcDb2dVertex
 10
364.673187
 20
565.045227
 30
0.0
  0
VERTEX
  5
1F4
330
1EF
100
AcDbEntity
  8
0
370
     0
100
AcDbVertex
100
AcDb2dVertex
 10
365.146118
 20
564.905762
 30
0.0
  0
VERTEX
  5
1F5
330
1EF
100
AcDbEntity
  8
0
370
     0
100
AcDbVertex
100
AcDb2dVertex
 10
365.897217
 20
564.768738
 30
0.0
  0
SEQEND
  5
1F6
330
1EF
100
AcDbEntity
  8
0
  6
PHANTOM
 62
     4
370
    35
  0
POLYLINE
  5
1F7
330
1F
100
AcDbEntity
  8
0
  6
PHANTOM
 62
     4
370
    35
100
AcDb2dPolyline
 66
     1
 10
0.0
 20
0.0
 30
0.0
  0
VERTEX
  5
1F8
330
1F7
100
AcDbEntity
  8
0
370
     0
100
AcDbVertex
100
AcDb2dVertex
 10
371.681732
 20
564.614685
 30
0.0
  0
VERTEX
  5
1F9
330
1F7
100
AcDbEntity
  8
0
370
     0
100
AcDbVertex
100
AcDb2dVertex
 10
371.63443
 20
564.37085
 30
0.0
  0
VERTEX
  5
1FA
330
1F7
100
AcDbEntity
  8
0
370
     0
100
AcDbVertex
100
AcDb2dVertex
 10
371.483368
 20
564.143799
 30
0.0
  0
VERTEX
  5
1FB
330
1F7
100
AcDbEntity
  8
0
370
     0
100
AcDbVertex
100
AcDb2dVertex
 10
371.225159
 20
563.972534
 30
0.0
  0
VERTEX
  5
1FC
330
1F7
100
AcDbEntity
  8
0
370
     0
100
AcDbVertex
100
AcDb2dVertex
 10
370.820007
 20
563.851074
 30
0.0
  0
VERTEX
  5
1FD
330
1F7
100
AcDbEntity
  8
0
370
     0
100
AcDbVertex
100
AcDb2dVertex
 10
369.983521
 20
563.712524
 30
0.0
  0
VERTEX
  5
1FE
330
1F7
100
AcDbEntity
  8
0
370
     0
100
AcDbVertex
100
AcDb2dVertex
 10
367.964447
 20
563.472229
 30
0.0
  0
VERTEX
  5
1FF
330
1F7
100
AcDbEntity
  8
0
370
     0
100
AcDbVertex
100
AcDb2dVertex
 10
366.162964
 20
563.244873
 30
0.0
  0
VERTEX
  5
200
330
1F7
100
AcDbEntity
  8
0
370
     0
100
AcDbVertex
100
AcDb2dVertex
 10
365.379669
 20
563.102905
 30
0.0
  0
VERTEX
  5
201
330
1F7
100
AcDbEntity
  8
0
370
     0
100
AcDbVertex
100
AcDb2dVertex
 10
365.139679
 20
563.032043
 30
0.0
  0
SEQEND
  5
202
330
1F7
100
AcDbEntity
  8
0
  6
PHANTOM
 62
     4
370
    35
  0
POLYLINE
  5
203
330
1F
100
AcDbEntity
  8
0
  6
PHANTOM
 62
     4
370
    35
100
AcDb2dPolyline
 66
     1
 10
0.0
 20
0.0
 30
0.0
  0
VERTEX
  5
204
330
203
100
AcDbEntity
  8
0
370
     0
100
AcDbVertex
100
AcDb2dVertex
 10
364.131409
 20
563.484009
 30
0.0
  0
VERTEX
  5
205
330
203
100
AcDbEntity
  8
0
370
     0
100
AcDbVertex
100
AcDb2dVertex
 10
364.200317
 20
563.187439
 30
0.0
  0
VERTEX
  5
206
330
203
100
AcDbEntity
  8
0
370
     0
100
AcDbVertex
100
AcDb2dVertex
 10
364.38858
 20
562.949097
 30
0.0
  0
VERTEX
  5
207
330
203
100
AcDbEntity
  8
0
370
     0
100
AcDbVertex
100
AcDb2dVertex
 10
364.669861
 20
562.784973
 30
0.0
  0
VERTEX
  5
208
330
203
100
AcDbEntity
  8
0
370
     0
100
AcDbVertex
100
AcDb2dVertex
 10
365.165253
 20
562.639832
 30
0.0
  0
VERTEX
  5
209
330
203
100
AcDbEntity
  8
0
370
     0
100
AcDbVertex
100
AcDb2dVertex
 10
365.897217
 20
562.507202
 30
0.0
  0
SEQEND
  5
20A
330
203
100
AcDbEntity
  8
0
  6
PHANTOM
 62
     4
370
    35
  0
POLYLINE
  5
20B
330
1F
100
AcDbEntity
  8
0
  6
PHANTOM
 62
     4
370
    35
100
AcDb2dPolyline
 66
     1
 10
0.0
 20
0.0
 30
0.0
  0
VERTEX
  5
20C
330
20B
100
AcDbEntity
  8
0
370
     0
100
AcDbVertex
100
AcDb2dVertex
 10
371.681854
 20
562.353271
 30
0.0
  0
VERTEX
  5
20D
330
20B
100
AcDbEntity
  8
0
370
     0
100
AcDbVertex
100
AcDb2dVertex
 10
371.634399
 20
562.10907
 30
0.0
  0
VERTEX
  5
20E
330
20B
100
AcDbEntity
  8
0
370
     0
100
AcDbVertex
100
AcDb2dVertex
 10
371.483093
 20
561.881958
 30
0.0
  0
VERTEX
  5
20F
330
20B
100
AcDbEntity
  8
0
370
     0
100
AcDbVertex
100
AcDb2dVertex
 10
371.207794
 20
561.703552
 30
0.0
  0
VERTEX
  5
210
330
20B
100
AcDbEntity
  8
0
370
     0
100
AcDbVertex
100
AcDb2dVertex
 10
370.807495
 20
561.586792
 30
0.0
  0
VERTEX
  5
211
330
20B
100
AcDbEntity
  8
0
370
     0
100
AcDbVertex
100
AcDb2dVertex
 10
369.95047
 20
561.446228
 30
0.0
  0
VERTEX
  5
212
330
20B
100
AcDbEntity
  8
0
370
     0
100
AcDbVertex
100
AcDb2dVertex
 10
367.883057
 20
561.20105
 30
0.0
  0
VERTEX
  5
213
330
20B
100
AcDbEntity
  8
0
370
     0
100
AcDbVertex
100
AcDb2dVertex
 10
366.14212
 20
560.980164
 30
0.0
  0
VERTEX
  5
214
330
20B
100
AcDbEntity
  8
0
370
     0
100
AcDbVertex
100
AcDb2dVertex
 10
365.362793
 20
560.83728
 30
0.0
  0
VERTEX
  5
215
330
20B
100
AcDbEntity
  8
0
370
     0
100
AcDbVertex
100
AcDb2dVertex
 10
365.139862
 20
560.770447
 30
0.0
  0
SEQEND
  5
216
330
20B
100
AcDbEntity
  8
0
  6
PHANTOM
 62
     4
370
    35
  0
POLYLINE
  5
217
330
1F
100
AcDbEntity
  8
0
  6
PHANTOM
 62
     4
370
    35
100
AcDb2dPolyline
 66
     1
 10
0.0
 20
0.0
 30
0.0
  0
VERTEX
  5
218
330
217
100
AcDbEntity
  8
0
370
     0
100
AcDbVertex
100
AcDb2dVertex
 10
364.131348
 20
561.222168
 30
0.0
  0
VERTEX
  5
219
330
217
100
AcDbEntity
  8
0
370
     0
100
AcDbVertex
100
AcDb2dVertex
 10
364.199127
 20
560.927917
 30
0.0
  0
VERTEX
  5
21A
330
217
100
AcDbEntity
  8
0
370
     0
100
AcDbVertex
100
AcDb2dVertex
 10
364.385071
 20
560.690125
 30
0.0
  0
VERTEX
  5
21B
330
217
100
AcDbEntity
  8
0
370
     0
100
AcDbVertex
100
AcDb2dVertex
 10
364.661438
 20
560.526428
 30
0.0
  0
VERTEX
  5
21C
330
217
100
AcDbEntity
  8
0
370
     0
100
AcDbVertex
100
AcDb2dVertex
 10
365.115784
 20
560.389038
 30
0.0
  0
VERTEX
  5
21D
330
217
100
AcDbEntity
  8
0
370
     0
100
AcDbVertex
100
AcDb2dVertex
 10
365.8974
 20
560.245422
 30
0.0
  0
SEQEND
  5
21E
330
217
100
AcDbEntity
  8
0
  6
PHANTOM
 62
     4
370
    35
  0
POLYLINE
  5
21F
330
1F
100
AcDbEntity
  8
0
  6
PHANTOM
 62
     4
370
    35
100
AcDb2dPolyline
 66
     1
 10
0.0
 20
0.0
 30
0.0
  0
VERTEX
  5
220
330
21F
100
AcDbEntity
  8
0
370
     0
100
AcDbVertex
100
AcDb2dVertex
 10
371.68161
 20
560.09137
 30
0.0
  0
VERTEX
  5
221
330
21F
100
AcDbEntity
  8
0
370
     0
100
AcDbVertex
100
AcDb2dVertex
 10
371.634155
 20
559.847229
 30
0.0
  0
VERTEX
  5
222
330
21F
100
AcDbEntity
  8
0
370
     0
100
AcDbVertex
100
AcDb2dVertex
 10
371.48288
 20
559.620178
 30
0.0
  0
VERTEX
  5
223
330
21F
100
AcDbEntity
  8
0
370
     0
100
AcDbVertex
100
AcDb2dVertex
 10
371.207733
 20
559.441833
 30
0.0
  0
VERTEX
  5
224
330
21F
100
AcDbEntity
  8
0
370
     0
100
AcDbVertex
100
AcDb2dVertex
 10
370.801971
 20
559.323975
 30
0.0
  0
VERTEX
  5
225
330
21F
100
AcDbEntity
  8
0
370
     0
100
AcDbVertex
100
AcDb2dVertex
 10
369.945496
 20
559.184021
 30
0.0
  0
VERTEX
  5
226
330
21F
100
AcDbEntity
  8
0
370
     0
100
AcDbVertex
100
AcDb2dVertex
 10
367.868042
 20
558.937683
 30
0.0
  0
VERTEX
  5
227
330
21F
100
AcDbEntity
  8
0
370
     0
100
AcDbVertex
100
AcDb2dVertex
 10
366.129852
 20
558.716309
 30
0.0
  0
VERTEX
  5
228
330
21F
100
AcDbEntity
  8
0
370
     0
100
AcDbVertex
100
AcDb2dVertex
 10
365.3909
 20
558.582092
 30
0.0
  0
VERTEX
  5
229
330
21F
100
AcDbEntity
  8
0
370
     0
100
AcDbVertex
100
AcDb2dVertex
 10
365.139282
 20
558.508606
 30
0.0
  0
SEQEND
  5
22A
330
21F
100
AcDbEntity
  8
0
  6
PHANTOM
 62
     4
370
    35
  0
POLYLINE
  5
22B
330
1F
100
AcDbEntity
  8
0
  6
PHANTOM
 62
     4
370
    35
100
AcDb2dPolyline
 66
     1
 10
0.0
 20
0.0
 30
0.0
  0
VERTEX
  5
22C
330
22B
100
AcDbEntity
  8
0
370
     0
100
AcDbVertex
100
AcDb2dVertex
 10
364.131042
 20
558.960571
 30
0.0
  0
VERTEX
  5
22D
330
22B
100
AcDbEntity
  8
0
370
     0
100
AcDbVertex
100
AcDb2dVertex
 10
364.198395
 20
558.667297
 30
0.0
  0
VERTEX
  5
22E
330
22B
100
AcDbEntity
  8
0
370
     0
100
AcDbVertex
100
AcDb2dVertex
 10
364.380798
 20
558.432007
 30
0.0
  0
VERTEX
  5
22F
330
22B
100
AcDbEntity
  8
0
370
     0
100
AcDbVertex
100
AcDb2dVertex
 10
364.671661
 20
558.260681
 30
0.0
  0
VERTEX
  5
230
330
22B
100
AcDbEntity
  8
0
370
     0
100
AcDbVertex
100
AcDb2dVertex
 10
365.154175
 20
558.118835
 30
0.0
  0
VERTEX
  5
231
330
22B
100
AcDbEntity
  8
0
370
     0
100
AcDbVertex
100
AcDb2dVertex
 10
365.897217
 20
557.983765
 30
0.0
  0
SEQEND
  5
232
330
22B
100
AcDbEntity
  8
0
  6
PHANTOM
 62
     4
370
    35
  0
POLYLINE
  5
233
330
1F
100
AcDbEntity
  8
0
  6
PHANTOM
 62
     4
370
    35
100
AcDb2dPolyline
 66
     1
 10
0.0
 20
0.0
 30
0.0
  0
VERTEX
  5
234
330
233
100
AcDbEntity
  8
0
370
     0
100
AcDbVertex
100
AcDb2dVertex
 10
369.897156
 20
557.490234
 30
0.0
  0
VERTEX
  5
235
330
233
100
AcDbEntity
  8
0
370
     0
100
AcDbVertex
100
AcDb2dVertex
 10
370.568848
 20
557.37677
 30
0.0
  0
VERTEX
  5
236
330
233
100
AcDbEntity
  8
0
370
     0
100
AcDbVertex
100
AcDb2dVertex
 10
370.64624
 20
557.358154
 30
0.0
  0
SEQEND
  5
237
330
233
100
AcDbEntity
  8
0
  6
PHANTOM
 62
     4
370
    35
  0
POLYLINE
  5
238
330
1F
100
AcDbEntity
  8
0
  6
PHANTOM
 62
     4
370
    35
100
AcDb2dPolyline
 66
     1
 10
0.0
 20
0.0
 30
0.0
  0
VERTEX
  5
239
330
238
100
AcDbEntity
  8
0
370
     0
100
AcDbVertex
100
AcDb2dVertex
 10
365.214783
 20
582.002563
 30
0.0
  0
VERTEX
  5
23A
330
238
100
AcDbEntity
  8
0
370
     0
100
AcDbVertex
100
AcDb2dVertex
 10
365.675659
 20
581.897156
 30
0.0
  0
VERTEX
  5
23B
330
238
100
AcDbEntity
  8
0
370
     0
100
AcDbVertex
100
AcDb2dVertex
 10
365.897217
 20
581.858459
 30
0.0
  0
SEQEND
  5
23C
330
238
100
AcDbEntity
  8
0
  6
PHANTOM
 62
     4
370
    35
  0
POLYLINE
  5
23D
330
1F
100
AcDbEntity
  8
0
  6
PHANTOM
 62
     4
370
    35
100
AcDb2dPolyline
 66
     1
 10
0.0
 20
0.0
 30
0.0
  0
VERTEX
  5
23E
330
23D
100
AcDbEntity
  8
0
370
     0
100
AcDbVertex
100
AcDb2dVertex
 10
369.897278
 20
581.360779
 30
0.0
  0
VERTEX
  5
23F
330
23D
100
AcDbEntity
  8
0
370
     0
100
AcDbVertex
100
AcDb2dVertex
 10
370.78418
 20
581.218079
 30
0.0
  0
VERTEX
  5
240
330
23D
100
AcDbEntity
  8
0
370
     0
100
AcDbVertex
100
AcDb2dVertex
 10
371.201355
 20
581.09906
 30
0.0
  0
VERTEX
  5
241
330
23D
100
AcDbEntity
  8
0
370
     0
100
AcDbVertex
100
AcDb2dVertex
 10
371.47937
 20
580.92157
 30
0.0
  0
VERTEX
  5
242
330
23D
100
AcDbEntity
  8
0
370
     0
100
AcDbVertex
100
AcDb2dVertex
 10
371.632996
 20
580.694092
 30
0.0
  0
VERTEX
  5
243
330
23D
100
AcDbEntity
  8
0
370
     0
100
AcDbVertex
100
AcDb2dVertex
 10
371.681763
 20
580.446716
 30
0.0
  0
SEQEND
  5
244
330
23D
100
AcDbEntity
  8
0
  6
PHANTOM
 62
     4
370
    35
  0
POLYLINE
  5
245
330
1F
100
AcDbEntity
  8
0
  6
PHANTOM
 62
     4
370
    35
100
AcDb2dPolyline
 66
     1
 10
0.0
 20
0.0
 30
0.0
  0
VERTEX
  5
246
330
245
100
AcDbEntity
  8
0
370
     0
100
AcDbVertex
100
AcDb2dVertex
 10
370.720825
 20
580.940857
 30
0.0
  0
VERTEX
  5
247
330
245
100
AcDbEntity
  8
0
370
     0
100
AcDbVertex
100
AcDb2dVertex
 10
369.770508
 20
580.769043
 30
0.0
  0
VERTEX
  5
248
330
245
100
AcDbEntity
  8
0
370
     0
100
AcDbVertex
100
AcDb2dVertex
 10
367.797455
 20
580.535095
 30
0.0
  0
VERTEX
  5
249
330
245
100
AcDbEntity
  8
0
370
     0
100
AcDbVertex
100
AcDb2dVertex
 10
365.987152
 20
580.306274
 30
0.0
  0
VERTEX
  5
24A
330
245
100
AcDbEntity
  8
0
370
     0
100
AcDbVertex
100
AcDb2dVertex
 10
365.090271
 20
580.142883
 30
0.0
  0
VERTEX
  5
24B
330
245
100
AcDbEntity
  8
0
370
     0
100
AcDbVertex
100
AcDb2dVertex
 10
364.659729
 20
580.010803
 30
0.0
  0
VERTEX
  5
24C
330
245
100
AcDbEntity
  8
0
370
     0
100
AcDbVertex
100
AcDb2dVertex
 10
364.382446
 20
579.845764
 30
0.0
  0
VERTEX
  5
24D
330
245
100
AcDbEntity
  8
0
370
     0
100
AcDbVertex
100
AcDb2dVertex
 10
364.198853
 20
579.609802
 30
0.0
  0
VERTEX
  5
24E
330
245
100
AcDbEntity
  8
0
370
     0
100
AcDbVertex
100
AcDb2dVertex
 10
364.131226
 20
579.315979
 30
0.0
  0
SEQEND
  5
24F
330
245
100
AcDbEntity
  8
0
  6
PHANTOM
 62
     4
370
    35
  0
POLYLINE
  5
250
330
1F
100
AcDbEntity
  8
0
  6
PHANTOM
 62
     4
370
    35
100
AcDb2dPolyline
 66
     1
 10
0.0
 20
0.0
 30
0.0
  0
VERTEX
  5
251
330
250
100
AcDbEntity
  8
0
370
     0
100
AcDbVertex
100
AcDb2dVertex
 10
369.897217
 20
579.099182
 30
0.0
  0
VERTEX
  5
252
330
250
100
AcDbEntity
  8
0
370
     0
100
AcDbVertex
100
AcDb2dVertex
 10
370.758698
 20
578.961792
 30
0.0
  0
VERTEX
  5
253
330
250
100
AcDbEntity
  8
0
370
     0
100
AcDbVertex
100
AcDb2dVertex
 10
371.171234
 20
578.849426
 30
0.0
  0
VERTEX
  5
254
330
250
100
AcDbEntity
  8
0
370
     0
100
AcDbVertex
100
AcDb2dVertex
 10
371.448669
 20
578.688171
 30
0.0
  0
VERTEX
  5
255
330
250
100
AcDbEntity
  8
0
370
     0
100
AcDbVertex
100
AcDb2dVertex
 10
371.632843
 20
578.432007
 30
0.0
  0
VERTEX
  5
256
330
250
100
AcDbEntity
  8
0
370
     0
100
AcDbVertex
100
AcDb2dVertex
 10
371.681427
 20
578.18512
 30
0.0
  0
SEQEND
  5
257
330
250
100
AcDbEntity
  8
0
  6
PHANTOM
 62
     4
370
    35
  0
POLYLINE
  5
258
330
1F
100
AcDbEntity
  8
0
  6
PHANTOM
 62
     4
370
    35
100
AcDb2dPolyline
 66
     1
 10
0.0
 20
0.0
 30
0.0
  0
VERTEX
  5
259
330
258
100
AcDbEntity
  8
0
370
     0
100
AcDbVertex
100
AcDb2dVertex
 10
370.720245
 20
578.678955
 30
0.0
  0
VERTEX
  5
25A
330
258
100
AcDbEntity
  8
0
370
     0
100
AcDbVertex
100
AcDb2dVertex
 10
369.75174
 20
578.504578
 30
0.0
  0
VERTEX
  5
25B
330
258
100
AcDbEntity
  8
0
370
     0
100
AcDbVertex
100
AcDb2dVertex
 10
367.720215
 20
578.264648
 30
0.0
  0
VERTEX
  5
25C
330
258
100
AcDbEntity
  8
0
370
     0
100
AcDbVertex
100
AcDb2dVertex
 10
365.9375
 20
578.03717
 30
0.0
  0
VERTEX
  5
25D
330
258
100
AcDbEntity
  8
0
370
     0
100
AcDbVertex
100
AcDb2dVertex
 10
365.089325
 20
577.881042
 30
0.0
  0
VERTEX
  5
25E
330
258
100
AcDbEntity
  8
0
370
     0
100
AcDbVertex
100
AcDb2dVertex
 10
364.659088
 20
577.748901
 30
0.0
  0
VERTEX
  5
25F
330
258
100
AcDbEntity
  8
0
370
     0
100
AcDbVertex
100
AcDb2dVertex
 10
364.374329
 20
577.577148
 30
0.0
  0
VERTEX
  5
260
330
258
100
AcDbEntity
  8
0
370
     0
100
AcDbVertex
100
AcDb2dVertex
 10
364.198608
 20
577.3479
 30
0.0
  0
VERTEX
  5
261
330
258
100
AcDbEntity
  8
0
370
     0
100
AcDbVertex
100
AcDb2dVertex
 10
364.131042
 20
577.054199
 30
0.0
  0
SEQEND
  5
262
330
258
100
AcDbEntity
  8
0
  6
PHANTOM
 62
     4
370
    35
  0
POLYLINE
  5
263
330
1F
100
AcDbEntity
  8
0
  6
PHANTOM
 62
     4
370
    35
100
AcDb2dPolyline
 66
     1
 10
0.0
 20
0.0
 30
0.0
  0
VERTEX
  5
264
330
263
100
AcDbEntity
  8
0
370
     0
100
AcDbVertex
100
AcDb2dVertex
 10
369.897217
 20
576.83728
 30
0.0
  0
VERTEX
  5
265
330
263
100
AcDbEntity
  8
0
370
     0
100
AcDbVertex
100
AcDb2dVertex
 10
370.767426
 20
576.698059
 30
0.0
  0
VERTEX
  5
266
330
263
100
AcDbEntity
  8
0
370
     0
100
AcDbVertex
100
AcDb2dVertex
 10
371.169006
 20
576.58844
 30
0.0
  0
VERTEX
  5
267
330
263
100
AcDbEntity
  8
0
370
     0
100
AcDbVertex
100
AcDb2dVertex
 10
371.439575
 20
576.434326
 30
0.0
  0
VERTEX
  5
268
330
263
100
AcDbEntity
  8
0
370
     0
100
AcDbVertex
100
AcDb2dVertex
 10
371.594666
 20
576.248901
 30
0.0
  0
VERTEX
  5
269
330
263
100
AcDbEntity
  8
0
370
     0
100
AcDbVertex
100
AcDb2dVertex
 10
371.676392
 20
576.005554
 30
0.0
  0
VERTEX
  5
26A
330
263
100
AcDbEntity
  8
0
370
     0
100
AcDbVertex
100
AcDb2dVertex
 10
371.68158
 20
575.923401
 30
0.0
  0
SEQEND
  5
26B
330
263
100
AcDbEntity
  8
0
  6
PHANTOM
 62
     4
370
    35
  0
POLYLINE
  5
26C
330
1F
100
AcDbEntity
  8
0
  6
PHANTOM
 62
     4
370
    35
100
AcDb2dPolyline
 66
     1
 10
0.0
 20
0.0
 30
0.0
  0
VERTEX
  5
26D
330
26C
100
AcDbEntity
  8
0
370
     0
100
AcDbVertex
100
AcDb2dVertex
 10
370.720642
 20
576.41748
 30
0.0
  0
VERTEX
  5
26E
330
26C
100
AcDbEntity
  8
0
370
     0
100
AcDbVertex
100
AcDb2dVertex
 10
369.812469
 20
576.251221
 30
0.0
  0
VERTEX
  5
26F
330
26C
100
AcDbEntity
  8
0
370
     0
100
AcDbVertex
100
AcDb2dVertex
 10
367.89978
 20
576.023254
 30
0.0
  0
VERTEX
  5
270
330
26C
100
AcDbEntity
  8
0
370
     0
100
AcDbVertex
100
AcDb2dVertex
 10
366.007019
 20
575.785889
 30
0.0
  0
VERTEX
  5
271
330
26C
100
AcDbEntity
  8
0
370
     0
100
AcDbVertex
100
AcDb2dVertex
 10
365.110718
 20
575.624512
 30
0.0
  0
VERTEX
  5
272
330
26C
100
AcDbEntity
  8
0
370
     0
100
AcDbVertex
100
AcDb2dVertex
 10
364.665222
 20
575.489868
 30
0.0
  0
VERTEX
  5
273
330
26C
100
AcDbEntity
  8
0
370
     0
100
AcDbVertex
100
AcDb2dVertex
 10
364.382538
 20
575.32251
 30
0.0
  0
VERTEX
  5
274
330
26C
100
AcDbEntity
  8
0
370
     0
100
AcDbVertex
100
AcDb2dVertex
 10
364.199005
 20
575.086487
 30
0.0
  0
VERTEX
  5
275
330
26C
100
AcDbEntity
  8
0
370
     0
100
AcDbVertex
100
AcDb2dVertex
 10
364.131378
 20
574.792603
 30
0.0
  0
SEQEND
  5
276
330
26C
100
AcDbEntity
  8
0
  6
PHANTOM
 62
     4
370
    35
  0
POLYLINE
  5
277
330
1F
100
AcDbEntity
  8
0
  6
PHANTOM
 62
     4
370
    35
100
AcDb2dPolyline
 66
     1
 10
0.0
 20
0.0
 30
0.0
  0
VERTEX
  5
278
330
277
100
AcDbEntity
  8
0
370
     0
100
AcDbVertex
100
AcDb2dVertex
 10
369.897186
 20
574.575684
 30
0.0
  0
VERTEX
  5
279
330
277
100
AcDbEntity
  8
0
370
     0
100
AcDbVertex
100
AcDb2dVertex
 10
370.76355
 20
574.437195
 30
0.0
  0
VERTEX
  5
27A
330
277
100
AcDbEntity
  8
0
370
     0
100
AcDbVertex
100
AcDb2dVertex
 10
371.172607
 20
574.325378
 30
0.0
  0
VERTEX
  5
27B
330
277
100
AcDbEntity
  8
0
370
     0
100
AcDbVertex
100
AcDb2dVertex
 10
371.441101
 20
574.171448
 30
0.0
  0
VERTEX
  5
27C
330
277
100
AcDbEntity
  8
0
370
     0
100
AcDbVertex
100
AcDb2dVertex
 10
371.595245
 20
573.98645
 30
0.0
  0
VERTEX
  5
27D
330
277
100
AcDbEntity
  8
0
370
     0
100
AcDbVertex
100
AcDb2dVertex
 10
371.676636
 20
573.743408
 30
0.0
  0
VERTEX
  5
27E
330
277
100
AcDbEntity
  8
0
370
     0
100
AcDbVertex
100
AcDb2dVertex
 10
371.681793
 20
573.66156
 30
0.0
  0
SEQEND
  5
27F
330
277
100
AcDbEntity
  8
0
  6
PHANTOM
 62
     4
370
    35
  0
POLYLINE
  5
280
330
1F
100
AcDbEntity
  8
0
  6
PHANTOM
 62
     4
370
    35
100
AcDb2dPolyline
 66
     1
 10
0.0
 20
0.0
 30
0.0
  0
VERTEX
  5
281
330
280
100
AcDbEntity
  8
0
370
     0
100
AcDbVertex
100
AcDb2dVertex
 10
370.720825
 20
574.15564
 30
0.0
  0
VERTEX
  5
282
330
280
100
AcDbEntity
  8
0
370
     0
100
AcDbVertex
100
AcDb2dVertex
 10
369.811127
 20
573.98938
 30
0.0
  0
VERTEX
  5
283
330
280
100
AcDbEntity
  8
0
370
     0
100
AcDbVertex
100
AcDb2dVertex
 10
367.934418
 20
573.765564
 30
0.0
  0
VERTEX
  5
284
330
280
100
AcDbEntity
  8
0
370
     0
100
AcDbVertex
100
AcDb2dVertex
 10
366.023224
 20
573.52655
 30
0.0
  0
VERTEX
  5
285
330
280
100
AcDbEntity
  8
0
370
     0
100
AcDbVertex
100
AcDb2dVertex
 10
365.123993
 20
573.365601
 30
0.0
  0
VERTEX
  5
286
330
280
100
AcDbEntity
  8
0
370
     0
100
AcDbVertex
100
AcDb2dVertex
 10
364.675476
 20
573.232117
 30
0.0
  0
VERTEX
  5
287
330
280
100
AcDbEntity
  8
0
370
     0
100
AcDbVertex
100
AcDb2dVertex
 10
364.382477
 20
573.060547
 30
0.0
  0
VERTEX
  5
288
330
280
100
AcDbEntity
  8
0
370
     0
100
AcDbVertex
100
AcDb2dVertex
 10
364.199005
 20
572.824707
 30
0.0
  0
VERTEX
  5
289
330
280
100
AcDbEntity
  8
0
370
     0
100
AcDbVertex
100
AcDb2dVertex
 10
364.131348
 20
572.530762
 30
0.0
  0
SEQEND
  5
28A
330
280
100
AcDbEntity
  8
0
  6
PHANTOM
 62
     4
370
    35
  0
POLYLINE
  5
28B
330
1F
100
AcDbEntity
  8
0
  6
PHANTOM
 62
     4
370
    35
100
AcDb2dPolyline
 66
     1
 10
0.0
 20
0.0
 30
0.0
  0
VERTEX
  5
28C
330
28B
100
AcDbEntity
  8
0
370
     0
100
AcDbVertex
100
AcDb2dVertex
 10
369.897064
 20
572.313965
 30
0.0
  0
VERTEX
  5
28D
330
28B
100
AcDbEntity
  8
0
370
     0
100
AcDbVertex
100
AcDb2dVertex
 10
370.784546
 20
572.171265
 30
0.0
  0
VERTEX
  5
28E
330
28B
100
AcDbEntity
  8
0
370
     0
100
AcDbVertex
100
AcDb2dVertex
 10
371.200439
 20
572.052673
 30
0.0
  0
VERTEX
  5
28F
330
28B
100
AcDbEntity
  8
0
370
     0
100
AcDbVertex
100
AcDb2dVertex
 10
371.478607
 20
571.875427
 30
0.0
  0
VERTEX
  5
290
330
28B
100
AcDbEntity
  8
0
370
     0
100
AcDbVertex
100
AcDb2dVertex
 10
371.632599
 20
571.647705
 30
0.0
  0
VERTEX
  5
291
330
28B
100
AcDbEntity
  8
0
370
     0
100
AcDbVertex
100
AcDb2dVertex
 10
371.681519
 20
571.400024
 30
0.0
  0
SEQEND
  5
292
330
28B
100
AcDbEntity
  8
0
  6
PHANTOM
 62
     4
370
    35
  0
POLYLINE
  5
293
330
1F
100
AcDbEntity
  8
0
  6
PHANTOM
 62
     4
370
    35
100
AcDb2dPolyline
 66
     1
 10
0.0
 20
0.0
 30
0.0
  0
VERTEX
  5
294
330
293
100
AcDbEntity
  8
0
370
     0
100
AcDbVertex
100
AcDb2dVertex
 10
370.720428
 20
571.893921
 30
0.0
  0
VERTEX
  5
295
330
293
100
AcDbEntity
  8
0
370
     0
100
AcDbVertex
100
AcDb2dVertex
 10
369.823181
 20
571.729126
 30
0.0
  0
VERTEX
  5
296
330
293
100
AcDbEntity
  8
0
370
     0
100
AcDbVertex
100
AcDb2dVertex
 10
367.810913
 20
571.489868
 30
0.0
  0
VERTEX
  5
297
330
293
100
AcDbEntity
  8
0
370
     0
100
AcDbVertex
100
AcDb2dVertex
 10
366.032745
 20
571.266357
 30
0.0
  0
VERTEX
  5
298
330
293
100
AcDbEntity
  8
0
370
     0
100
AcDbVertex
100
AcDb2dVertex
 10
365.111359
 20
571.101074
 30
0.0
  0
VERTEX
  5
299
330
293
100
AcDbEntity
  8
0
370
     0
100
AcDbVertex
100
AcDb2dVertex
 10
364.659821
 20
570.963989
 30
0.0
  0
VERTEX
  5
29A
330
293
100
AcDbEntity
  8
0
370
     0
100
AcDbVertex
100
AcDb2dVertex
 10
364.378113
 20
570.795044
 30
0.0
  0
VERTEX
  5
29B
330
293
100
AcDbEntity
  8
0
370
     0
100
AcDbVertex
100
AcDb2dVertex
 10
364.199036
 20
570.562927
 30
0.0
  0
VERTEX
  5
29C
330
293
100
AcDbEntity
  8
0
370
     0
100
AcDbVertex
100
AcDb2dVertex
 10
364.131409
 20
570.269104
 30
0.0
  0
SEQEND
  5
29D
330
293
100
AcDbEntity
  8
0
  6
PHANTOM
 62
     4
370
    35
  0
POLYLINE
  5
29E
330
1F
100
AcDbEntity
  8
0
  6
PHANTOM
 62
     4
370
    35
100
AcDb2dPolyline
 66
     1
 10
0.0
 20
0.0
 30
0.0
  0
VERTEX
  5
29F
330
29E
100
AcDbEntity
  8
0
370
     0
100
AcDbVertex
100
AcDb2dVertex
 10
369.897278
 20
570.052185
 30
0.0
  0
VERTEX
  5
2A0
330
29E
100
AcDbEntity
  8
0
370
     0
100
AcDbVertex
100
AcDb2dVertex
 10
370.783936
 20
569.909729
 30
0.0
  0
VERTEX
  5
2A1
330
29E
100
AcDbEntity
  8
0
370
     0
100
AcDbVertex
100
AcDb2dVertex
 10
371.200562
 20
569.790955
 30
0.0
  0
VERTEX
  5
2A2
330
29E
100
AcDbEntity
  8
0
370
     0
100
AcDbVertex
100
AcDb2dVertex
 10
371.478912
 20
569.613464
 30
0.0
  0
VERTEX
  5
2A3
330
29E
100
AcDbEntity
  8
0
370
     0
100
AcDbVertex
100
AcDb2dVertex
 10
371.63266
 20
569.385986
 30
0.0
  0
VERTEX
  5
2A4
330
29E
100
AcDbEntity
  8
0
370
     0
100
AcDbVertex
100
AcDb2dVertex
 10
371.681549
 20
569.138367
 30
0.0
  0
SEQEND
  5
2A5
330
29E
100
AcDbEntity
  8
0
  6
PHANTOM
 62
     4
370
    35
  0
POLYLINE
  5
2A6
330
1F
100
AcDbEntity
  8
0
  6
PHANTOM
 62
     4
370
    35
100
AcDb2dPolyline
 66
     1
 10
0.0
 20
0.0
 30
0.0
  0
VERTEX
  5
2A7
330
2A6
100
AcDbEntity
  8
0
370
     0
100
AcDbVertex
100
AcDb2dVertex
 10
370.720459
 20
569.632263
 30
0.0
  0
VERTEX
  5
2A8
330
2A6
100
AcDbEntity
  8
0
370
     0
100
AcDbVertex
100
AcDb2dVertex
 10
369.818878
 20
569.466797
 30
0.0
  0
VERTEX
  5
2A9
330
2A6
100
AcDbEntity
  8
0
370
     0
100
AcDbVertex
100
AcDb2dVertex
 10
367.867828
 20
569.234619
 30
0.0
  0
VERTEX
  5
2AA
330
2A6
100
AcDbEntity
  8
0
370
     0
100
AcDbVertex
100
AcDb2dVertex
 10
366.022369
 20
569.003113
 30
0.0
  0
VERTEX
  5
2AB
330
2A6
100
AcDbEntity
  8
0
370
     0
100
AcDbVertex
100
AcDb2dVertex
 10
365.142944
 20
568.846558
 30
0.0
  0
VERTEX
  5
2AC
330
2A6
100
AcDbEntity
  8
0
370
     0
100
AcDbVertex
100
AcDb2dVertex
 10
364.69989
 20
568.718445
 30
0.0
  0
VERTEX
  5
2AD
330
2A6
100
AcDbEntity
  8
0
370
     0
100
AcDbVertex
100
AcDb2dVertex
 10
364.424438
 20
568.570862
 30
0.0
  0
VERTEX
  5
2AE
330
2A6
100
AcDbEntity
  8
0
370
     0
100
AcDbVertex
100
AcDb2dVertex
 10
364.219971
 20
568.341553
 30
0.0
  0
VERTEX
  5
2AF
330
2A6
100
AcDbEntity
  8
0
370
     0
100
AcDbVertex
100
AcDb2dVertex
 10
364.136353
 20
568.090759
 30
0.0
  0
VERTEX
  5
2B0
330
2A6
100
AcDbEntity
  8
0
370
     0
100
AcDbVertex
100
AcDb2dVertex
 10
364.131134
 20
568.007263
 30
0.0
  0
SEQEND
  5
2B1
330
2A6
100
AcDbEntity
  8
0
  6
PHANTOM
 62
     4
370
    35
  0
POLYLINE
  5
2B2
330
1F
100
AcDbEntity
  8
0
  6
PHANTOM
 62
     4
370
    35
100
AcDb2dPolyline
 66
     1
 10
0.0
 20
0.0
 30
0.0
  0
VERTEX
  5
2B3
330
2B2
100
AcDbEntity
  8
0
370
     0
100
AcDbVertex
100
AcDb2dVertex
 10
369.897278
 20
567.790466
 30
0.0
  0
VERTEX
  5
2B4
330
2B2
100
AcDbEntity
  8
0
370
     0
100
AcDbVertex
100
AcDb2dVertex
 10
370.776398
 20
567.649353
 30
0.0
  0
VERTEX
  5
2B5
330
2B2
100
AcDbEntity
  8
0
370
     0
100
AcDbVertex
100
AcDb2dVertex
 10
371.194977
 20
567.531311
 30
0.0
  0
VERTEX
  5
2B6
330
2B2
100
AcDbEntity
  8
0
370
     0
100
AcDbVertex
100
AcDb2dVertex
 10
371.47934
 20
567.351074
 30
0.0
  0
VERTEX
  5
2B7
330
2B2
100
AcDbEntity
  8
0
370
     0
100
AcDbVertex
100
AcDb2dVertex
 10
371.632751
 20
567.123779
 30
0.0
  0
VERTEX
  5
2B8
330
2B2
100
AcDbEntity
  8
0
370
     0
100
AcDbVertex
100
AcDb2dVertex
 10
371.681458
 20
566.876526
 30
0.0
  0
SEQEND
  5
2B9
330
2B2
100
AcDbEntity
  8
0
  6
PHANTOM
 62
     4
370
    35
  0
POLYLINE
  5
2BA
330
1F
100
AcDbEntity
  8
0
  6
PHANTOM
 62
     4
370
    35
100
AcDb2dPolyline
 66
     1
 10
0.0
 20
0.0
 30
0.0
  0
VERTEX
  5
2BB
330
2BA
100
AcDbEntity
  8
0
370
     0
100
AcDbVertex
100
AcDb2dVertex
 10
370.720642
 20
567.370667
 30
0.0
  0
VERTEX
  5
2BC
330
2BA
100
AcDbEntity
  8
0
370
     0
100
AcDbVertex
100
AcDb2dVertex
 10
369.817963
 20
567.205139
 30
0.0
  0
VERTEX
  5
2BD
330
2BA
100
AcDbEntity
  8
0
370
     0
100
AcDbVertex
100
AcDb2dVertex
 10
367.832947
 20
566.96875
 30
0.0
  0
VERTEX
  5
2BE
330
2BA
100
AcDbEntity
  8
0
370
     0
100
AcDbVertex
100
AcDb2dVertex
 10
365.994385
 20
566.737122
 30
0.0
  0
VERTEX
  5
2BF
330
2BA
100
AcDbEntity
  8
0
370
     0
100
AcDbVertex
100
AcDb2dVertex
 10
365.105499
 20
566.576416
 30
0.0
  0
VERTEX
  5
2C0
330
2BA
100
AcDbEntity
  8
0
370
     0
100
AcDbVertex
100
AcDb2dVertex
 10
364.653992
 20
566.438354
 30
0.0
  0
VERTEX
  5
2C1
330
2BA
100
AcDbEntity
  8
0
370
     0
100
AcDbVertex
100
AcDb2dVertex
 10
364.382233
 20
566.275574
 30
0.0
  0
VERTEX
  5
2C2
330
2BA
100
AcDbEntity
  8
0
370
     0
100
AcDbVertex
100
AcDb2dVertex
 10
364.198792
 20
566.039673
 30
0.0
  0
VERTEX
  5
2C3
330
2BA
100
AcDbEntity
  8
0
370
     0
100
AcDbVertex
100
AcDb2dVertex
 10
364.131195
 20
565.74585
 30
0.0
  0
SEQEND
  5
2C4
330
2BA
100
AcDbEntity
  8
0
  6
PHANTOM
 62
     4
370
    35
  0
POLYLINE
  5
2C5
330
1F
100
AcDbEntity
  8
0
  6
PHANTOM
 62
     4
370
    35
100
AcDb2dPolyline
 66
     1
 10
0.0
 20
0.0
 30
0.0
  0
VERTEX
  5
2C6
330
2C5
100
AcDbEntity
  8
0
370
     0
100
AcDbVertex
100
AcDb2dVertex
 10
369.897339
 20
565.52887
 30
0.0
  0
VERTEX
  5
2C7
330
2C5
100
AcDbEntity
  8
0
370
     0
100
AcDbVertex
100
AcDb2dVertex
 10
370.758118
 20
565.391479
 30
0.0
  0
VERTEX
  5
2C8
330
2C5
100
AcDbEntity
  8
0
370
     0
100
AcDbVertex
100
AcDb2dVertex
 10
371.168121
 20
565.280273
 30
0.0
  0
VERTEX
  5
2C9
330
2C5
100
AcDbEntity
  8
0
370
     0
100
AcDbVertex
100
AcDb2dVertex
 10
371.439423
 20
565.125916
 30
0.0
  0
VERTEX
  5
2CA
330
2C5
100
AcDbEntity
  8
0
370
     0
100
AcDbVertex
100
AcDb2dVertex
 10
371.594604
 20
564.940674
 30
0.0
  0
VERTEX
  5
2CB
330
2C5
100
AcDbEntity
  8
0
370
     0
100
AcDbVertex
100
AcDb2dVertex
 10
371.676544
 20
564.696716
 30
0.0
  0
VERTEX
  5
2CC
330
2C5
100
AcDbEntity
  8
0
370
     0
100
AcDbVertex
100
AcDb2dVertex
 10
371.681732
 20
564.614685
 30
0.0
  0
SEQEND
  5
2CD
330
2C5
100
AcDbEntity
  8
0
  6
PHANTOM
 62
     4
370
    35
  0
POLYLINE
  5
2CE
330
1F
100
AcDbEntity
  8
0
  6
PHANTOM
 62
     4
370
    35
100
AcDb2dPolyline
 66
     1
 10
0.0
 20
0.0
 30
0.0
  0
VERTEX
  5
2CF
330
2CE
100
AcDbEntity
  8
0
370
     0
100
AcDbVertex
100
AcDb2dVertex
 10
370.720581
 20
565.108643
 30
0.0
  0
VERTEX
  5
2D0
330
2CE
100
AcDbEntity
  8
0
370
     0
100
AcDbVertex
100
AcDb2dVertex
 10
369.814423
 20
564.942993
 30
0.0
  0
VERTEX
  5
2D1
330
2CE
100
AcDbEntity
  8
0
370
     0
100
AcDbVertex
100
AcDb2dVertex
 10
367.829132
 20
564.706787
 30
0.0
  0
VERTEX
  5
2D2
330
2CE
100
AcDbEntity
  8
0
370
     0
100
AcDbVertex
100
AcDb2dVertex
 10
365.974335
 20
564.472473
 30
0.0
  0
VERTEX
  5
2D3
330
2CE
100
AcDbEntity
  8
0
370
     0
100
AcDbVertex
100
AcDb2dVertex
 10
365.085693
 20
564.309875
 30
0.0
  0
VERTEX
  5
2D4
330
2CE
100
AcDbEntity
  8
0
370
     0
100
AcDbVertex
100
AcDb2dVertex
 10
364.659363
 20
564.17865
 30
0.0
  0
VERTEX
  5
2D5
330
2CE
100
AcDbEntity
  8
0
370
     0
100
AcDbVertex
100
AcDb2dVertex
 10
364.382355
 20
564.01355
 30
0.0
  0
VERTEX
  5
2D6
330
2CE
100
AcDbEntity
  8
0
370
     0
100
AcDbVertex
100
AcDb2dVertex
 10
364.199036
 20
563.777832
 30
0.0
  0
VERTEX
  5
2D7
330
2CE
100
AcDbEntity
  8
0
370
     0
100
AcDbVertex
100
AcDb2dVertex
 10
364.131409
 20
563.484009
 30
0.0
  0
SEQEND
  5
2D8
330
2CE
100
AcDbEntity
  8
0
  6
PHANTOM
 62
     4
370
    35
  0
POLYLINE
  5
2D9
330
1F
100
AcDbEntity
  8
0
  6
PHANTOM
 62
     4
370
    35
100
AcDb2dPolyline
 66
     1
 10
0.0
 20
0.0
 30
0.0
  0
VERTEX
  5
2DA
330
2D9
100
AcDbEntity
  8
0
370
     0
100
AcDbVertex
100
AcDb2dVertex
 10
369.897339
 20
563.266968
 30
0.0
  0
VERTEX
  5
2DB
330
2D9
100
AcDbEntity
  8
0
370
     0
100
AcDbVertex
100
AcDb2dVertex
 10
370.76123
 20
563.129211
 30
0.0
  0
VERTEX
  5
2DC
330
2D9
100
AcDbEntity
  8
0
370
     0
100
AcDbVertex
100
AcDb2dVertex
 10
371.171326
 20
563.017578
 30
0.0
  0
VERTEX
  5
2DD
330
2D9
100
AcDbEntity
  8
0
370
     0
100
AcDbVertex
100
AcDb2dVertex
 10
371.426239
 20
562.875488
 30
0.0
  0
VERTEX
  5
2DE
330
2D9
100
AcDbEntity
  8
0
370
     0
100
AcDbVertex
100
AcDb2dVertex
 10
371.595032
 20
562.67865
 30
0.0
  0
VERTEX
  5
2DF
330
2D9
100
AcDbEntity
  8
0
370
     0
100
AcDbVertex
100
AcDb2dVertex
 10
371.676666
 20
562.435303
 30
0.0
  0
VERTEX
  5
2E0
330
2D9
100
AcDbEntity
  8
0
370
     0
100
AcDbVertex
100
AcDb2dVertex
 10
371.681854
 20
562.353271
 30
0.0
  0
SEQEND
  5
2E1
330
2D9
100
AcDbEntity
  8
0
  6
PHANTOM
 62
     4
370
    35
  0
POLYLINE
  5
2E2
330
1F
100
AcDbEntity
  8
0
  6
PHANTOM
 62
     4
370
    35
100
AcDb2dPolyline
 66
     1
 10
0.0
 20
0.0
 30
0.0
  0
VERTEX
  5
2E3
330
2E2
100
AcDbEntity
  8
0
370
     0
100
AcDbVertex
100
AcDb2dVertex
 10
370.720673
 20
562.847168
 30
0.0
  0
VERTEX
  5
2E4
330
2E2
100
AcDbEntity
  8
0
370
     0
100
AcDbVertex
100
AcDb2dVertex
 10
369.777466
 20
562.676086
 30
0.0
  0
VERTEX
  5
2E5
330
2E2
100
AcDbEntity
  8
0
370
     0
100
AcDbVertex
100
AcDb2dVertex
 10
367.909973
 20
562.454163
 30
0.0
  0
VERTEX
  5
2E6
330
2E2
100
AcDbEntity
  8
0
370
     0
100
AcDbVertex
100
AcDb2dVertex
 10
366.036804
 20
562.220215
 30
0.0
  0
VERTEX
  5
2E7
330
2E2
100
AcDbEntity
  8
0
370
     0
100
AcDbVertex
100
AcDb2dVertex
 10
365.125916
 20
562.057678
 30
0.0
  0
VERTEX
  5
2E8
330
2E2
100
AcDbEntity
  8
0
370
     0
100
AcDbVertex
100
AcDb2dVertex
 10
364.660339
 20
561.917358
 30
0.0
  0
VERTEX
  5
2E9
330
2E2
100
AcDbEntity
  8
0
370
     0
100
AcDbVertex
100
AcDb2dVertex
 10
364.373627
 20
561.744263
 30
0.0
  0
VERTEX
  5
2EA
330
2E2
100
AcDbEntity
  8
0
370
     0
100
AcDbVertex
100
AcDb2dVertex
 10
364.198975
 20
561.516052
 30
0.0
  0
VERTEX
  5
2EB
330
2E2
100
AcDbEntity
  8
0
370
     0
100
AcDbVertex
100
AcDb2dVertex
 10
364.131348
 20
561.222168
 30
0.0
  0
SEQEND
  5
2EC
330
2E2
100
AcDbEntity
  8
0
  6
PHANTOM
 62
     4
370
    35
  0
POLYLINE
  5
2ED
330
1F
100
AcDbEntity
  8
0
  6
PHANTOM
 62
     4
370
    35
100
AcDb2dPolyline
 66
     1
 10
0.0
 20
0.0
 30
0.0
  0
VERTEX
  5
2EE
330
2ED
100
AcDbEntity
  8
0
370
     0
100
AcDbVertex
100
AcDb2dVertex
 10
369.896484
 20
561.005432
 30
0.0
  0
VERTEX
  5
2EF
330
2ED
100
AcDbEntity
  8
0
370
     0
100
AcDbVertex
100
AcDb2dVertex
 10
370.772858
 20
560.86499
 30
0.0
  0
VERTEX
  5
2F0
330
2ED
100
AcDbEntity
  8
0
370
     0
100
AcDbVertex
100
AcDb2dVertex
 10
371.195343
 20
560.746094
 30
0.0
  0
VERTEX
  5
2F1
330
2ED
100
AcDbEntity
  8
0
370
     0
100
AcDbVertex
100
AcDb2dVertex
 10
371.479095
 20
560.566284
 30
0.0
  0
VERTEX
  5
2F2
330
2ED
100
AcDbEntity
  8
0
370
     0
100
AcDbVertex
100
AcDb2dVertex
 10
371.632782
 20
560.338867
 30
0.0
  0
VERTEX
  5
2F3
330
2ED
100
AcDbEntity
  8
0
370
     0
100
AcDbVertex
100
AcDb2dVertex
 10
371.68161
 20
560.09137
 30
0.0
  0
SEQEND
  5
2F4
330
2ED
100
AcDbEntity
  8
0
  6
PHANTOM
 62
     4
370
    35
  0
POLYLINE
  5
2F5
330
1F
100
AcDbEntity
  8
0
  6
PHANTOM
 62
     4
370
    35
100
AcDb2dPolyline
 66
     1
 10
0.0
 20
0.0
 30
0.0
  0
VERTEX
  5
2F6
330
2F5
100
AcDbEntity
  8
0
370
     0
100
AcDbVertex
100
AcDb2dVertex
 10
370.720795
 20
560.58551
 30
0.0
  0
VERTEX
  5
2F7
330
2F5
100
AcDbEntity
  8
0
370
     0
100
AcDbVertex
100
AcDb2dVertex
 10
369.811768
 20
560.419189
 30
0.0
  0
VERTEX
  5
2F8
330
2F5
100
AcDbEntity
  8
0
370
     0
100
AcDbVertex
100
AcDb2dVertex
 10
367.894501
 20
560.190735
 30
0.0
  0
VERTEX
  5
2F9
330
2F5
100
AcDbEntity
  8
0
370
     0
100
AcDbVertex
100
AcDb2dVertex
 10
365.994385
 20
559.951904
 30
0.0
  0
VERTEX
  5
2FA
330
2F5
100
AcDbEntity
  8
0
370
     0
100
AcDbVertex
100
AcDb2dVertex
 10
365.108978
 20
559.791931
 30
0.0
  0
VERTEX
  5
2FB
330
2F5
100
AcDbEntity
  8
0
370
     0
100
AcDbVertex
100
AcDb2dVertex
 10
364.663788
 20
559.657166
 30
0.0
  0
VERTEX
  5
2FC
330
2F5
100
AcDbEntity
  8
0
370
     0
100
AcDbVertex
100
AcDb2dVertex
 10
364.382172
 20
559.490356
 30
0.0
  0
VERTEX
  5
2FD
330
2F5
100
AcDbEntity
  8
0
370
     0
100
AcDbVertex
100
AcDb2dVertex
 10
364.198669
 20
559.254456
 30
0.0
  0
VERTEX
  5
2FE
330
2F5
100
AcDbEntity
  8
0
370
     0
100
AcDbVertex
100
AcDb2dVertex
 10
364.131042
 20
558.960571
 30
0.0
  0
SEQEND
  5
2FF
330
2F5
100
AcDbEntity
  8
0
  6
PHANTOM
 62
     4
370
    35
  0
POLYLINE
  5
300
330
1F
100
AcDbEntity
  8
0
  6
PHANTOM
 62
     4
370
    35
100
AcDb2dPolyline
 66
     1
 10
0.0
 20
0.0
 30
0.0
  0
VERTEX
  5
301
330
300
100
AcDbEntity
  8
0
370
     0
100
AcDbVertex
100
AcDb2dVertex
 10
369.897186
 20
558.743774
 30
0.0
  0
VERTEX
  5
302
330
300
100
AcDbEntity
  8
0
370
     0
100
AcDbVertex
100
AcDb2dVertex
 10
370.758514
 20
558.606384
 30
0.0
  0
VERTEX
  5
303
330
300
100
AcDbEntity
  8
0
370
     0
100
AcDbVertex
100
AcDb2dVertex
 10
371.170837
 20
558.494141
 30
0.0
  0
VERTEX
  5
304
330
300
100
AcDbEntity
  8
0
370
     0
100
AcDbVertex
100
AcDb2dVertex
 10
371.440125
 20
558.340088
 30
0.0
  0
VERTEX
  5
305
330
300
100
AcDbEntity
  8
0
370
     0
100
AcDbVertex
100
AcDb2dVertex
 10
371.594727
 20
558.154846
 30
0.0
  0
VERTEX
  5
306
330
300
100
AcDbEntity
  8
0
370
     0
100
AcDbVertex
100
AcDb2dVertex
 10
371.676239
 20
557.911621
 30
0.0
  0
VERTEX
  5
307
330
300
100
AcDbEntity
  8
0
370
     0
100
AcDbVertex
100
AcDb2dVertex
 10
371.681427
 20
557.829712
 30
0.0
  0
SEQEND
  5
308
330
300
100
AcDbEntity
  8
0
  6
PHANTOM
 62
     4
370
    35
  0
LINE
  5
309
330
1F
100
AcDbEntity
  8
0
  6
PHANTOM
 62
     4
 48
0.005304
370
    35
100
AcDbLine
 10
367.828461
 20
514.199158
 30
0.0
 11
368.040619
 21
514.199158
 31
0.0
  0
LINE
  5
30A
330
1F
100
AcDbEntity
  8
0
  6
PHANTOM
 62
     4
 48
0.073972
370
    35
100
AcDbLine
 10
366.938354
 20
515.499146
 30
0.0
 11
369.897217
 21
515.499146
 31
0.0
  0
LINE
  5
30B
330
1F
100
AcDbEntity
  8
0
  6
PHANTOM
 62
     4
 48
0.001866
370
    35
100
AcDbLine
 10
367.753815
 20
514.199158
 30
0.0
 11
367.828461
 21
514.199158
 31
0.0
  0
LINE
  5
30C
330
1F
100
AcDbEntity
  8
0
  6
PHANTOM
 62
     4
 48
0.026028
370
    35
100
AcDbLine
 10
365.897217
 20
515.499146
 30
0.0
 11
366.938354
 21
515.499146
 31
0.0
  0
LINE
  5
30D
330
1F
100
AcDbEntity
  8
0
  6
PHANTOM
 62
     4
 48
0.042297
370
    35
100
AcDbLine
 10
364.647217
 20
634.199158
 30
0.0
 11
366.339081
 21
634.199158
 31
0.0
  0
LINE
  5
30E
330
1F
100
AcDbEntity
  8
0
  6
PHANTOM
 62
     4
 48
0.120203
370
    35
100
AcDbLine
 10
366.339081
 20
634.199158
 30
0.0
 11
371.147217
 21
634.199158
 31
0.0
  0
LINE
  5
30F
330
1F
100
AcDbEntity
  8
0
  6
PHANTOM
 62
     4
 48
0.000967
370
    35
100
AcDbLine
 10
371.147217
 20
635.699158
 30
0.0
 11
371.108521
 21
635.699158
 31
0.0
  0
LINE
  5
310
330
1F
100
AcDbEntity
  8
0
  6
PHANTOM
 62
     4
 48
0.000967
370
    35
100
AcDbLine
 10
364.685913
 20
635.699158
 30
0.0
 11
364.647217
 21
635.699158
 31
0.0
  0
LINE
  5
311
330
1F
100
AcDbEntity
  8
0
  6
PHANTOM
 62
     4
 48
0.081812
370
    35
100
AcDbLine
 10
366.818512
 20
636.699158
 30
0.0
 11
370.090973
 21
636.699158
 31
0.0
  0
POLYLINE
  5
312
330
1F
100
AcDbEntity
  8
0
  6
PHANTOM
 62
     4
370
    35
100
AcDb2dPolyline
 66
     1
 10
0.0
 20
0.0
 30
0.0
  0
VERTEX
  5
313
330
312
100
AcDbEntity
  8
0
370
     0
100
AcDbVertex
100
AcDb2dVertex
 10
370.090973
 20
636.699158
 30
0.0
  0
VERTEX
  5
314
330
312
100
AcDbEntity
  8
0
370
     0
100
AcDbVertex
100
AcDb2dVertex
 10
370.330536
 20
636.671387
 30
0.0
  0
VERTEX
  5
315
330
312
100
AcDbEntity
  8
0
370
     0
100
AcDbVertex
100
AcDb2dVertex
 10
370.557373
 20
636.588745
 30
0.0
  0
VERTEX
  5
316
330
312
100
AcDbEntity
  8
0
370
     0
100
AcDbVertex
100
AcDb2dVertex
 10
370.750061
 20
636.462219
 30
0.0
  0
VERTEX
  5
317
330
312
100
AcDbEntity
  8
0
370
     0
100
AcDbVertex
100
AcDb2dVertex
 10
370.908905
 20
636.295288
 30
0.0
  0
VERTEX
  5
318
330
312
100
AcDbEntity
  8
0
370
     0
100
AcDbVertex
100
AcDb2dVertex
 10
371.023834
 20
636.099548
 30
0.0
  0
VERTEX
  5
319
330
312
100
AcDbEntity
  8
0
370
     0
100
AcDbVertex
100
AcDb2dVertex
 10
371.091278
 20
635.882935
 30
0.0
  0
VERTEX
  5
31A
330
312
100
AcDbEntity
  8
0
370
     0
100
AcDbVertex
100
AcDb2dVertex
 10
371.108521
 20
635.699158
 30
0.0
  0
SEQEND
  5
31B
330
312
100
AcDbEntity
  8
0
  6
PHANTOM
 62
     4
370
    35
  0
POLYLINE
  5
31C
330
1F
100
AcDbEntity
  8
0
  6
PHANTOM
 62
     4
370
    35
100
AcDb2dPolyline
 66
     1
 10
0.0
 20
0.0
 30
0.0
  0
VERTEX
  5
31D
330
31C
100
AcDbEntity
  8
0
370
     0
100
AcDbVertex
100
AcDb2dVertex
 10
370.090973
 20
636.699158
 30
0.0
  0
VERTEX
  5
31E
330
31C
100
AcDbEntity
  8
0
370
     0
100
AcDbVertex
100
AcDb2dVertex
 10
370.330536
 20
636.671387
 30
0.0
  0
VERTEX
  5
31F
330
31C
100
AcDbEntity
  8
0
370
     0
100
AcDbVertex
100
AcDb2dVertex
 10
370.557373
 20
636.588745
 30
0.0
  0
VERTEX
  5
320
330
31C
100
AcDbEntity
  8
0
370
     0
100
AcDbVertex
100
AcDb2dVertex
 10
370.750061
 20
636.462219
 30
0.0
  0
VERTEX
  5
321
330
31C
100
AcDbEntity
  8
0
370
     0
100
AcDbVertex
100
AcDb2dVertex
 10
370.908905
 20
636.295288
 30
0.0
  0
VERTEX
  5
322
330
31C
100
AcDbEntity
  8
0
370
     0
100
AcDbVertex
100
AcDb2dVertex
 10
371.023834
 20
636.099548
 30
0.0
  0
VERTEX
  5
323
330
31C
100
AcDbEntity
  8
0
370
     0
100
AcDbVertex
100
AcDb2dVertex
 10
371.091278
 20
635.882935
 30
0.0
  0
VERTEX
  5
324
330
31C
100
AcDbEntity
  8
0
370
     0
100
AcDbVertex
100
AcDb2dVertex
 10
371.108521
 20
635.699158
 30
0.0
  0
SEQEND
  5
325
330
31C
100
AcDbEntity
  8
0
  6
PHANTOM
 62
     4
370
    35
  0
POLYLINE
  5
326
330
1F
100
AcDbEntity
  8
0
  6
PHANTOM
 62
     4
370
    35
100
AcDb2dPolyline
 66
     1
 10
0.0
 20
0.0
 30
0.0
  0
VERTEX
  5
327
330
326
100
AcDbEntity
  8
0
370
     0
100
AcDbVertex
100
AcDb2dVertex
 10
365.703461
 20
636.699158
 30
0.0
  0
VERTEX
  5
328
330
326
100
AcDbEntity
  8
0
370
     0
100
AcDbVertex
100
AcDb2dVertex
 10
365.463898
 20
636.671387
 30
0.0
  0
VERTEX
  5
329
330
326
100
AcDbEntity
  8
0
370
     0
100
AcDbVertex
100
AcDb2dVertex
 10
365.237061
 20
636.588745
 30
0.0
  0
VERTEX
  5
32A
330
326
100
AcDbEntity
  8
0
370
     0
100
AcDbVertex
100
AcDb2dVertex
 10
365.044373
 20
636.462219
 30
0.0
  0
VERTEX
  5
32B
330
326
100
AcDbEntity
  8
0
370
     0
100
AcDbVertex
100
AcDb2dVertex
 10
364.885529
 20
636.295288
 30
0.0
  0
VERTEX
  5
32C
330
326
100
AcDbEntity
  8
0
370
     0
100
AcDbVertex
100
AcDb2dVertex
 10
364.770599
 20
636.099548
 30
0.0
  0
VERTEX
  5
32D
330
326
100
AcDbEntity
  8
0
370
     0
100
AcDbVertex
100
AcDb2dVertex
 10
364.703156
 20
635.882935
 30
0.0
  0
VERTEX
  5
32E
330
326
100
AcDbEntity
  8
0
370
     0
100
AcDbVertex
100
AcDb2dVertex
 10
364.685913
 20
635.699158
 30
0.0
  0
SEQEND
  5
32F
330
326
100
AcDbEntity
  8
0
  6
PHANTOM
 62
     4
370
    35
  0
LINE
  5
330
330
1F
100
AcDbEntity
  8
0
  6
PHANTOM
 62
     4
 48
0.027876
370
    35
100
AcDbLine
 10
365.703461
 20
636.699158
 30
0.0
 11
366.818512
 21
636.699158
 31
0.0
  0
POLYLINE
  5
331
330
1F
100
AcDbEntity
  8
0
  6
PHANTOM
 62
     4
370
    35
100
AcDb2dPolyline
 66
     1
 10
0.0
 20
0.0
 30
0.0
  0
VERTEX
  5
332
330
331
100
AcDbEntity
  8
0
370
     0
100
AcDbVertex
100
AcDb2dVertex
 10
365.703461
 20
636.699158
 30
0.0
  0
VERTEX
  5
333
330
331
100
AcDbEntity
  8
0
370
     0
100
AcDbVertex
100
AcDb2dVertex
 10
365.463898
 20
636.671387
 30
0.0
  0
VERTEX
  5
334
330
331
100
AcDbEntity
  8
0
370
     0
100
AcDbVertex
100
AcDb2dVertex
 10
365.237061
 20
636.588745
 30
0.0
  0
VERTEX
  5
335
330
331
100
AcDbEntity
  8
0
370
     0
100
AcDbVertex
100
AcDb2dVertex
 10
365.044373
 20
636.462219
 30
0.0
  0
VERTEX
  5
336
330
331
100
AcDbEntity
  8
0
370
     0
100
AcDbVertex
100
AcDb2dVertex
 10
364.885529
 20
636.295288
 30
0.0
  0
VERTEX
  5
337
330
331
100
AcDbEntity
  8
0
370
     0
100
AcDbVertex
100
AcDb2dVertex
 10
364.770599
 20
636.099548
 30
0.0
  0
VERTEX
  5
338
330
331
100
AcDbEntity
  8
0
370
     0
100
AcDbVertex
100
AcDb2dVertex
 10
364.703156
 20
635.882935
 30
0.0
  0
VERTEX
  5
339
330
331
100
AcDbEntity
  8
0
370
     0
100
AcDbVertex
100
AcDb2dVertex
 10
364.685913
 20
635.699158
 30
0.0
  0
SEQEND
  5
33A
330
331
100
AcDbEntity
  8
0
  6
PHANTOM
 62
     4
370
    35
  0
LINE
  5
33B
330
1F
100
AcDbEntity
  8
0
  6
PHANTOM
 62
     4
 48
0.056662
370
    35
100
AcDbLine
 10
368.040619
 20
514.199158
 30
0.0
 11
369.897217
 21
515.499146
 31
0.0
  0
LINE
  5
33C
330
1F
100
AcDbEntity
  8
0
  6
PHANTOM
 62
     4
 48
0.056662
370
    35
100
AcDbLine
 10
367.753815
 20
514.199158
 30
0.0
 11
365.897217
 21
515.499146
 31
0.0
  0
LINE
  5
33D
330
1F
100
AcDbEntity
  8
0
  6
PHANTOM
 62
     4
370
    35
100
AcDbLine
 10
369.897217
 20
634.199158
 30
0.0
 11
369.897217
 21
585.199158
 31
0.0
  0
LINE
  5
33E
330
1F
100
AcDbEntity
  8
0
  6
PHANTOM
 62
     4
 48
0.035316
370
    35
100
AcDbLine
 10
369.897217
 20
582.199158
 30
0.0
 11
369.897217
 21
580.786499
 31
0.0
  0
LINE
  5
33F
330
1F
100
AcDbEntity
  8
0
  6
PHANTOM
 62
     4
 48
0.025211
370
    35
100
AcDbLine
 10
369.897217
 20
579.532959
 30
0.0
 11
369.897217
 21
578.524536
 31
0.0
  0
LINE
  5
340
330
1F
100
AcDbEntity
  8
0
  6
PHANTOM
 62
     4
 48
0.025201
370
    35
100
AcDbLine
 10
369.897217
 20
577.270996
 30
0.0
 11
369.897217
 21
576.262939
 31
0.0
  0
LINE
  5
341
330
1F
100
AcDbEntity
  8
0
  6
PHANTOM
 62
     4
 48
0.025201
370
    35
100
AcDbLine
 10
369.897217
 20
575.009399
 30
0.0
 11
369.897217
 21
574.001343
 31
0.0
  0
LINE
  5
342
330
1F
100
AcDbEntity
  8
0
  6
PHANTOM
 62
     4
 48
0.025211
370
    35
100
AcDbLine
 10
369.897217
 20
572.747803
 30
0.0
 11
369.897217
 21
571.73938
 31
0.0
  0
LINE
  5
343
330
1F
100
AcDbEntity
  8
0
  6
PHANTOM
 62
     4
 48
0.025204
370
    35
100
AcDbLine
 10
369.897217
 20
570.48584
 30
0.0
 11
369.897217
 21
569.477661
 31
0.0
  0
LINE
  5
344
330
1F
100
AcDbEntity
  8
0
  6
PHANTOM
 62
     4
 48
0.0252
370
    35
100
AcDbLine
 10
369.897217
 20
568.224121
 30
0.0
 11
369.897217
 21
567.216125
 31
0.0
  0
LINE
  5
345
330
1F
100
AcDbEntity
  8
0
  6
PHANTOM
 62
     4
 48
0.025204
370
    35
100
AcDbLine
 10
369.897217
 20
565.962585
 30
0.0
 11
369.897217
 21
564.954407
 31
0.0
  0
LINE
  5
346
330
1F
100
AcDbEntity
  8
0
  6
PHANTOM
 62
     4
 48
0.025206
370
    35
100
AcDbLine
 10
369.897217
 20
563.700867
 30
0.0
 11
369.897217
 21
562.692627
 31
0.0
  0
LINE
  5
347
330
1F
100
AcDbEntity
  8
0
  6
PHANTOM
 62
     4
 48
0.0252
370
    35
100
AcDbLine
 10
369.897217
 20
561.439026
 30
0.0
 11
369.897217
 21
560.43103
 31
0.0
  0
LINE
  5
348
330
1F
100
AcDbEntity
  8
0
  6
PHANTOM
 62
     4
 48
0.049458
370
    35
100
AcDbLine
 10
369.897217
 20
559.17749
 30
0.0
 11
369.897217
 21
557.199158
 31
0.0
  0
LINE
  5
349
330
1F
100
AcDbEntity
  8
0
  6
PHANTOM
 62
     4
370
    35
100
AcDbLine
 10
369.897217
 20
547.199158
 30
0.0
 11
369.897217
 21
515.499146
 31
0.0
  0
LINE
  5
34A
330
1F
100
AcDbEntity
  8
0
  6
PHANTOM
 62
     4
370
    35
100
AcDbLine
 10
365.897217
 20
634.199158
 30
0.0
 11
365.897217
 21
585.199158
 31
0.0
  0
LINE
  5
34B
330
1F
100
AcDbEntity
  8
0
  6
PHANTOM
 62
     4
 48
0.047662
370
    35
100
AcDbLine
 10
365.897217
 20
582.199158
 30
0.0
 11
365.897217
 21
580.292664
 31
0.0
  0
LINE
  5
34C
330
1F
100
AcDbEntity
  8
0
  6
PHANTOM
 62
     4
 48
0.025099
370
    35
100
AcDbLine
 10
365.897217
 20
579.034973
 30
0.0
 11
365.897217
 21
578.031006
 31
0.0
  0
LINE
  5
34D
330
1F
100
AcDbEntity
  8
0
  6
PHANTOM
 62
     4
 48
0.025099
370
    35
100
AcDbLine
 10
365.897217
 20
576.773315
 30
0.0
 11
365.897217
 21
575.769348
 31
0.0
  0
LINE
  5
34E
330
1F
100
AcDbEntity
  8
0
  6
PHANTOM
 62
     4
 48
0.025102
370
    35
100
AcDbLine
 10
365.897217
 20
574.511658
 30
0.0
 11
365.897217
 21
573.507568
 31
0.0
  0
LINE
  5
34F
330
1F
100
AcDbEntity
  8
0
  6
PHANTOM
 62
     4
 48
0.025098
370
    35
100
AcDbLine
 10
365.897217
 20
572.249878
 30
0.0
 11
365.897217
 21
571.245972
 31
0.0
  0
LINE
  5
350
330
1F
100
AcDbEntity
  8
0
  6
PHANTOM
 62
     4
 48
0.025101
370
    35
100
AcDbLine
 10
365.897217
 20
569.988281
 30
0.0
 11
365.897217
 21
568.984253
 31
0.0
  0
LINE
  5
351
330
1F
100
AcDbEntity
  8
0
  6
PHANTOM
 62
     4
 48
0.025104
370
    35
100
AcDbLine
 10
365.897217
 20
567.726562
 30
0.0
 11
365.897217
 21
566.722412
 31
0.0
  0
LINE
  5
352
330
1F
100
AcDbEntity
  8
0
  6
PHANTOM
 62
     4
 48
0.025101
370
    35
100
AcDbLine
 10
365.897217
 20
565.464783
 30
0.0
 11
365.897217
 21
564.460754
 31
0.0
  0
LINE
  5
353
330
1F
100
AcDbEntity
  8
0
  6
PHANTOM
 62
     4
 48
0.025096
370
    35
100
AcDbLine
 10
365.897217
 20
563.203064
 30
0.0
 11
365.897217
 21
562.199219
 31
0.0
  0
LINE
  5
354
330
1F
100
AcDbEntity
  8
0
  6
PHANTOM
 62
     4
 48
0.025108
370
    35
100
AcDbLine
 10
365.897217
 20
560.941528
 30
0.0
 11
365.897217
 21
559.937195
 31
0.0
  0
LINE
  5
355
330
1F
100
AcDbEntity
  8
0
  6
PHANTOM
 62
     4
 48
0.037009
370
    35
100
AcDbLine
 10
365.897217
 20
558.679504
 30
0.0
 11
365.897217
 21
557.199158
 31
0.0
  0
LINE
  5
356
330
1F
100
AcDbEntity
  8
0
  6
PHANTOM
 62
     4
370
    35
100
AcDbLine
 10
365.897217
 20
547.199158
 30
0.0
 11
365.897217
 21
515.499146
 31
0.0
  0
LINE
  5
357
330
1F
100
AcDbEntity
  8
0
  6
PHANTOM
 62
     4
 48
0.0375
370
    35
100
AcDbLine
 10
371.147217
 20
635.699158
 30
0.0
 11
371.147217
 21
634.199158
 31
0.0
  0
LINE
  5
358
330
1F
100
AcDbEntity
  8
0
  6
PHANTOM
 62
     4
 48
0.0375
370
    35
100
AcDbLine
 10
364.647217
 20
635.699158
 30
0.0
 11
364.647217
 21
634.199158
 31
0.0
  0
LINE
  5
359
330
1F
100
AcDbEntity
  8
0
  6
PHANTOM
 62
     4
 48
0.3375
370
    35
100
AcDbLine
 10
370.897217
 20
547.199158
 30
0.0
 11
370.897217
 21
533.699158
 31
0.0
  0
LINE
  5
35A
330
1F
100
AcDbEntity
  8
0
  6
PHANTOM
 62
     4
 48
0.025
370
    35
100
AcDbLine
 10
370.897217
 20
533.699158
 30
0.0
 11
369.897217
 21
533.699158
 31
0.0
  0
LINE
  5
35B
330
1F
100
AcDbEntity
  8
0
  6
PHANTOM
 62
     4
 48
0.025
370
    35
100
AcDbLine
 10
365.897217
 20
533.699158
 30
0.0
 11
364.897217
 21
533.699158
 31
0.0
  0
LINE
  5
35C
330
1F
100
AcDbEntity
  8
0
  6
PHANTOM
 62
     4
 48
0.15
370
    35
100
AcDbLine
 10
364.797211
 20
556.199158
 30
0.0
 11
364.797211
 21
550.199158
 31
0.0
  0
LINE
  5
35D
330
1F
100
AcDbEntity
  8
0
  6
PHANTOM
 62
     4
 48
0.0875
370
    35
100
AcDbLine
 10
374.397217
 20
533.699158
 30
0.0
 11
370.897217
 21
533.699158
 31
0.0
  0
LINE
  5
35E
330
1F
100
AcDbEntity
  8
0
  6
PHANTOM
 62
     4
 48
0.3375
370
    35
100
AcDbLine
 10
374.397217
 20
533.699158
 30
0.0
 11
374.397217
 21
547.199158
 31
0.0
  0
LINE
  5
35F
330
1F
100
AcDbEntity
  8
0
  6
PHANTOM
 62
     4
 48
0.0875
370
    35
100
AcDbLine
 10
374.397217
 20
547.199158
 30
0.0
 11
370.897217
 21
547.199158
 31
0.0
  0
LINE
  5
360
330
1F
100
AcDbEntity
  8
0
  6
PHANTOM
 62
     4
 48
0.0875
370
    35
100
AcDbLine
 10
364.897217
 20
547.199158
 30
0.0
 11
361.397217
 21
547.199158
 31
0.0
  0
LINE
  5
361
330
1F
100
AcDbEntity
  8
0
  6
PHANTOM
 62
     4
 48
0.3375
370
    35
100
AcDbLine
 10
361.397217
 20
533.699158
 30
0.0
 11
361.397217
 21
547.199158
 31
0.0
  0
LINE
  5
362
330
1F
100
AcDbEntity
  8
0
  6
PHANTOM
 62
     4
 48
0.0875
370
    35
100
AcDbLine
 10
364.897217
 20
533.699158
 30
0.0
 11
361.397217
 21
533.699158
 31
0.0
  0
LINE
  5
363
330
1F
100
AcDbEntity
  8
0
  6
PHANTOM
 62
     4
 48
0.3375
370
    35
100
AcDbLine
 10
364.897217
 20
547.199158
 30
0.0
 11
364.897217
 21
533.699158
 31
0.0
  0
LINE
  5
364
330
1F
100
AcDbEntity
  8
0
  6
PHANTOM
 62
     4
 48
0.275
370
    35
100
AcDbLine
 10
374.397217
 20
585.199158
 30
0.0
 11
374.397217
 21
596.199158
 31
0.0
  0
LINE
  5
365
330
1F
100
AcDbEntity
  8
0
  6
PHANTOM
 62
     4
370
    35
100
AcDbLine
 10
374.397217
 20
547.199158
 30
0.0
 11
374.397217
 21
585.199158
 31
0.0
  0
LINE
  5
366
330
1F
100
AcDbEntity
  8
0
  6
PHANTOM
 62
     4
370
    35
100
AcDbLine
 10
372.397217
 20
556.199158
 30
0.0
 11
372.397217
 21
582.199158
 31
0.0
  0
LINE
  5
367
330
1F
100
AcDbEntity
  8
0
  6
PHANTOM
 62
     4
 48
0.225
370
    35
100
AcDbLine
 10
372.397217
 20
582.199158
 30
0.0
 11
363.397217
 21
582.199158
 31
0.0
  0
LINE
  5
368
330
1F
100
AcDbEntity
  8
0
  6
PHANTOM
 62
     4
370
    35
100
AcDbLine
 10
363.397217
 20
582.199158
 30
0.0
 11
363.397217
 21
556.199158
 31
0.0
  0
LINE
  5
369
330
1F
100
AcDbEntity
  8
0
  6
PHANTOM
 62
     4
 48
0.035
370
    35
100
AcDbLine
 10
363.397217
 20
556.199158
 30
0.0
 11
364.797211
 21
556.199158
 31
0.0
  0
LINE
  5
36A
330
1F
100
AcDbEntity
  8
0
  6
PHANTOM
 62
     4
 48
0.035
370
    35
100
AcDbLine
 10
370.997223
 20
556.199158
 30
0.0
 11
372.397217
 21
556.199158
 31
0.0
  0
LINE
  5
36B
330
1F
100
AcDbEntity
  8
0
  6
PHANTOM
 62
     4
 48
0.0875
370
    35
100
AcDbLine
 10
364.897217
 20
596.199158
 30
0.0
 11
361.397217
 21
596.199158
 31
0.0
  0
LINE
  5
36C
330
1F
100
AcDbEntity
  8
0
  6
PHANTOM
 62
     4
 48
0.025
370
    35
100
AcDbLine
 10
370.897217
 20
596.199158
 30
0.0
 11
369.897217
 21
596.199158
 31
0.0
  0
LINE
  5
36D
330
1F
100
AcDbEntity
  8
0
  6
PHANTOM
 62
     4
 48
0.025
370
    35
100
AcDbLine
 10
365.897217
 20
596.199158
 30
0.0
 11
364.897217
 21
596.199158
 31
0.0
  0
LINE
  5
36E
330
1F
100
AcDbEntity
  8
0
  6
PHANTOM
 62
     4
 48
0.0875
370
    35
100
AcDbLine
 10
374.397217
 20
596.199158
 30
0.0
 11
370.897217
 21
596.199158
 31
0.0
  0
LINE
  5
36F
330
1F
100
AcDbEntity
  8
0
  6
PHANTOM
 62
     4
 48
0.275
370
    35
100
AcDbLine
 10
370.897217
 20
585.199158
 30
0.0
 11
370.897217
 21
596.199158
 31
0.0
  0
LINE
  5
370
330
1F
100
AcDbEntity
  8
0
  6
PHANTOM
 62
     4
 48
0.275
370
    35
100
AcDbLine
 10
364.897217
 20
585.199158
 30
0.0
 11
364.897217
 21
596.199158
 31
0.0
  0
LINE
  5
371
330
1F
100
AcDbEntity
  8
0
  6
PHANTOM
 62
     4
 48
0.0875
370
    35
100
AcDbLine
 10
374.397217
 20
585.199158
 30
0.0
 11
370.897217
 21
585.199158
 31
0.0
  0
LINE
  5
372
330
1F
100
AcDbEntity
  8
0
  6
PHANTOM
 62
     4
 48
0.15
370
    35
100
AcDbLine
 10
364.897217
 20
585.199158
 30
0.0
 11
370.897217
 21
585.199158
 31
0.0
  0
LINE
  5
373
330
1F
100
AcDbEntity
  8
0
  6
PHANTOM
 62
     4
 48
0.275
370
    35
100
AcDbLine
 10
361.397217
 20
585.199158
 30
0.0
 11
361.397217
 21
596.199158
 31
0.0
  0
LINE
  5
374
330
1F
100
AcDbEntity
  8
0
  6
PHANTOM
 62
     4
 48
0.0875
370
    35
100
AcDbLine
 10
364.897217
 20
585.199158
 30
0.0
 11
361.397217
 21
585.199158
 31
0.0
  0
LINE
  5
375
330
1F
100
AcDbEntity
  8
0
  6
PHANTOM
 62
     4
370
    35
100
AcDbLine
 10
361.397217
 20
547.199158
 30
0.0
 11
361.397217
 21
585.199158
 31
0.0
  0
LINE
  5
376
330
1F
100
AcDbEntity
  8
0
  6
PHANTOM
 62
     4
 48
0.15
370
    35
100
AcDbLine
 10
370.997223
 20
550.199158
 30
0.0
 11
370.997223
 21
556.199158
 31
0.0
  0
LINE
  5
377
330
1F
100
AcDbEntity
  8
0
  6
PHANTOM
 62
     4
 48
0.15
370
    35
100
AcDbLine
 10
370.897217
 20
547.199158
 30
0.0
 11
364.897217
 21
547.199158
 31
0.0
  0
LINE
  5
378
330
1F
100
AcDbEntity
  8
0
  6
PHANTOM
 62
     4
 48
0.155
370
    35
100
AcDbLine
 10
364.797211
 20
550.199158
 30
0.0
 11
370.997223
 21
550.199158
 31
0.0
  0
LINE
  5
379
330
1F
100
AcDbEntity
  8
0
 62
     7
370
    35
100
AcDbLine
 10
371.397217
 20
542.699158
 30
0.0
 11
371.397217
 21
534.699158
 31
0.0
  0
LINE
  5
37A
330
1F
100
AcDbEntity
  8
0
 62
     7
370
    35
100
AcDbLine
 10
371.397217
 20
542.699158
 30
0.0
 11
364.397217
 21
542.699158
 31
0.0
  0
LINE
  5
37B
330
1F
100
AcDbEntity
  8
0
 62
     7
370
    35
100
AcDbLine
 10
364.397217
 20
534.699158
 30
0.0
 11
371.397217
 21
534.699158
 31
0.0
  0
LINE
  5
37C
330
1F
100
AcDbEntity
  8
0
 62
     7
370
    35
100
AcDbLine
 10
364.397217
 20
534.699158
 30
0.0
 11
364.397217
 21
542.699158
 31
0.0
  0
LINE
  5
37D
330
1F
100
AcDbEntity
  8
0
 62
     7
370
    35
100
AcDbLine
 10
413.897217
 20
509.699158
 30
0.0
 11
415.897217
 21
509.699158
 31
0.0
  0
LINE
  5
37E
330
1F
100
AcDbEntity
  8
0
 62
     7
370
    35
100
AcDbLine
 10
321.897217
 20
509.699158
 30
0.0
 11
413.897217
 21
509.699158
 31
0.0
  0
LINE
  5
37F
330
1F
100
AcDbEntity
  8
0
 62
     7
370
    35
100
AcDbLine
 10
319.897217
 20
509.699158
 30
0.0
 11
321.897217
 21
509.699158
 31
0.0
  0
LINE
  5
380
330
1F
100
AcDbEntity
  8
0
 62
     7
370
    35
100
AcDbLine
 10
371.397217
 20
592.699158
 30
0.0
 11
371.397217
 21
584.699158
 31
0.0
  0
LINE
  5
381
330
1F
100
AcDbEntity
  8
0
 62
     7
370
    35
100
AcDbLine
 10
371.397217
 20
592.699158
 30
0.0
 11
364.397217
 21
592.699158
 31
0.0
  0
LINE
  5
382
330
1F
100
AcDbEntity
  8
0
 62
     7
370
    35
100
AcDbLine
 10
364.397217
 20
584.699158
 30
0.0
 11
364.397217
 21
592.699158
 31
0.0
  0
LINE
  5
383
330
1F
100
AcDbEntity
  8
0
 62
     7
370
    35
100
AcDbLine
 10
364.397217
 20
584.699158
 30
0.0
 11
371.397217
 21
584.699158
 31
0.0
  0
LINE
  5
384
330
1F
100
AcDbEntity
  8
0
 62
     7
370
    35
100
AcDbLine
 10
319.897217
 20
509.699158
 30
0.0
 11
319.897217
 21
496.699158
 31
0.0
  0
ARC
  5
385
330
1F
100
AcDbEntity
  8
0
 62
     7
370
    35
100
AcDbCircle
 10
321.897217
 20
496.699158
 30
0.0
 40
2.0
100
AcDbArc
 50
180.000009
 51
269.999997
  0
LINE
  5
386
330
1F
100
AcDbEntity
  8
0
 62
     7
370
    35
100
AcDbLine
 10
415.897217
 20
509.699158
 30
0.0
 11
415.897217
 21
496.699158
 31
0.0
  0
ARC
  5
387
330
1F
100
AcDbEntity
  8
0
 62
     7
370
    35
100
AcDbCircle
 10
413.897217
 20
496.699158
 30
0.0
 40
2.0
100
AcDbArc
 50
269.999997
 51
360.0
  0
LINE
  5
388
330
1F
100
AcDbEntity
  8
0
 62
     7
370
    35
100
AcDbLine
 10
321.897217
 20
494.699158
 30
0.0
 11
413.897217
 21
494.699158
 31
0.0
  0
LINE
  5
389
330
1F
100
AcDbEntity
  8
0
 62
     7
370
    35
100
AcDbLine
 10
322.147217
 20
691.699158
 30
0.0
 11
413.647217
 21
691.699158
 31
0.0
  0
LINE
  5
38A
330
1F
100
AcDbEntity
  8
0
 62
     7
370
    35
100
AcDbLine
 10
413.647217
 20
509.699158
 30
0.0
 11
413.647217
 21
691.699158
 31
0.0
  0
LINE
  5
38B
330
1F
100
AcDbEntity
  8
0
 62
     7
370
    35
100
AcDbLine
 10
322.147217
 20
509.699158
 30
0.0
 11
322.147217
 21
691.699158
 31
0.0
  0
LINE
  5
38C
330
1F
100
AcDbEntity
  8
0
 62
     7
370
    35
100
AcDbLine
 10
407.897217
 20
691.699158
 30
0.0
 11
407.897217
 21
702.699158
 31
0.0
  0
LINE
  5
38D
330
1F
100
AcDbEntity
  8
0
 62
     7
370
    35
100
AcDbLine
 10
332.897217
 20
691.699158
 30
0.0
 11
327.897217
 21
691.699158
 31
0.0
  0
LINE
  5
38E
330
1F
100
AcDbEntity
  8
0
 62
     7
370
    35
100
AcDbLine
 10
402.897217
 20
691.699158
 30
0.0
 11
332.897217
 21
691.699158
 31
0.0
  0
LINE
  5
38F
330
1F
100
AcDbEntity
  8
0
 62
     7
370
    35
100
AcDbLine
 10
407.897217
 20
691.699158
 30
0.0
 11
402.897217
 21
691.699158
 31
0.0
  0
LINE
  5
390
330
1F
100
AcDbEntity
  8
0
 62
     7
370
    35
100
AcDbLine
 10
327.897217
 20
691.699158
 30
0.0
 11
327.897217
 21
702.699158
 31
0.0
  0
LINE
  5
391
330
1F
100
AcDbEntity
  8
0
 62
     7
370
    35
100
AcDbLine
 10
332.897217
 20
702.699158
 30
0.0
 11
327.897217
 21
702.699158
 31
0.0
  0
LINE
  5
392
330
1F
100
AcDbEntity
  8
0
 62
     7
370
    35
100
AcDbLine
 10
402.897217
 20
702.699158
 30
0.0
 11
332.897217
 21
702.699158
 31
0.0
  0
LINE
  5
393
330
1F
100
AcDbEntity
  8
0
 62
     7
370
    35
100
AcDbLine
 10
407.897217
 20
702.699158
 30
0.0
 11
402.897217
 21
702.699158
 31
0.0
  0
LINE
  5
394
330
1F
100
AcDbEntity
  8
0
 62
     7
370
    35
100
AcDbLine
 10
332.897217
 20
691.699158
 30
0.0
 11
332.897217
 21
702.699158
 31
0.0
  0
LINE
  5
395
330
1F
100
AcDbEntity
  8
0
 62
     7
370
    35
100
AcDbLine
 10
402.897217
 20
691.699158
 30
0.0
 11
402.897217
 21
702.699158
 31
0.0
  0
LINE
  5
396
330
1F
100
AcDbEntity
  8
0
 62
     7
370
    35
100
AcDbLine
 10
533.310852
 20
257.403442
 30
0.0
 11
533.310852
 21
255.403442
 31
0.0
  0
LINE
  5
397
330
1F
100
AcDbEntity
  8
0
 62
     7
370
    35
100
AcDbLine
 10
533.310852
 20
397.403442
 30
0.0
 11
533.310852
 21
257.403442
 31
0.0
  0
LINE
  5
398
330
1F
100
AcDbEntity
  8
0
 62
     7
370
    35
100
AcDbLine
 10
533.310852
 20
399.403442
 30
0.0
 11
533.310852
 21
397.403442
 31
0.0
  0
LINE
  5
399
330
1F
100
AcDbEntity
  8
0
 62
     7
370
    35
100
AcDbLine
 10
533.310852
 20
255.403442
 30
0.0
 11
520.310852
 21
255.403442
 31
0.0
  0
ARC
  5
39A
330
1F
100
AcDbEntity
  8
0
 62
     7
370
    35
100
AcDbCircle
 10
520.310852
 20
257.403442
 30
0.0
 40
2.0
100
AcDbArc
 50
180.000009
 51
269.999997
  0
LINE
  5
39B
330
1F
100
AcDbEntity
  8
0
 62
     7
370
    35
100
AcDbLine
 10
533.310852
 20
399.403442
 30
0.0
 11
520.310852
 21
399.403442
 31
0.0
  0
ARC
  5
39C
330
1F
100
AcDbEntity
  8
0
 62
     7
370
    35
100
AcDbCircle
 10
520.310852
 20
397.403442
 30
0.0
 40
2.0
100
AcDbArc
 50
90.000003
 51
180.000009
  0
LINE
  5
39D
330
1F
100
AcDbEntity
  8
0
 62
     7
370
    35
100
AcDbLine
 10
518.310852
 20
397.403442
 30
0.0
 11
518.310852
 21
257.403442
 31
0.0
  0
LINE
  5
39E
330
1F
100
AcDbEntity
  8
0
 62
     7
370
    35
100
AcDbLine
 10
715.310852
 20
395.903442
 30
0.0
 11
715.310852
 21
258.903442
 31
0.0
  0
LINE
  5
39F
330
1F
100
AcDbEntity
  8
0
 62
     7
370
    35
100
AcDbLine
 10
533.310852
 20
258.903442
 30
0.0
 11
715.310852
 21
258.903442
 31
0.0
  0
LINE
  5
3A0
330
1F
100
AcDbEntity
  8
0
 62
     7
370
    35
100
AcDbLine
 10
533.310852
 20
395.903442
 30
0.0
 11
715.310852
 21
395.903442
 31
0.0
  0
LINE
  5
3A1
330
1F
100
AcDbEntity
  8
0
 62
     7
370
    35
100
AcDbLine
 10
715.310852
 20
291.903442
 30
0.0
 11
718.310852
 21
291.903442
 31
0.0
  0
LINE
  5
3A2
330
1F
100
AcDbEntity
  8
0
 62
     7
370
    35
100
AcDbLine
 10
715.310852
 20
291.903442
 30
0.0
 11
715.310852
 21
276.903442
 31
0.0
  0
LINE
  5
3A3
330
1F
100
AcDbEntity
  8
0
 62
     7
370
    35
100
AcDbLine
 10
715.310852
 20
276.903442
 30
0.0
 11
718.310852
 21
276.903442
 31
0.0
  0
LINE
  5
3A4
330
1F
100
AcDbEntity
  8
0
 62
     7
370
    35
100
AcDbLine
 10
718.310852
 20
291.903442
 30
0.0
 11
718.310852
 21
276.903442
 31
0.0
  0
LINE
  5
3A5
330
1F
100
AcDbEntity
  8
0
 62
     7
370
    35
100
AcDbLine
 10
715.310852
 20
306.903442
 30
0.0
 11
722.310852
 21
306.903442
 31
0.0
  0
LINE
  5
3A6
330
1F
100
AcDbEntity
  8
0
 62
     7
370
    35
100
AcDbLine
 10
715.310852
 20
306.903442
 30
0.0
 11
715.310852
 21
291.903442
 31
0.0
  0
LINE
  5
3A7
330
1F
100
AcDbEntity
  8
0
 62
     7
370
    35
100
AcDbLine
 10
718.310852
 20
291.903442
 30
0.0
 11
722.310852
 21
291.903442
 31
0.0
  0
LINE
  5
3A8
330
1F
100
AcDbEntity
  8
0
 62
     7
370
    35
100
AcDbLine
 10
722.310852
 20
306.903442
 30
0.0
 11
722.310852
 21
291.903442
 31
0.0
  0
LINE
  5
3A9
330
1F
100
AcDbEntity
  8
0
 62
     7
370
    35
100
AcDbLine
 10
715.310852
 20
325.403442
 30
0.0
 11
718.310852
 21
325.403442
 31
0.0
  0
LINE
  5
3AA
330
1F
100
AcDbEntity
  8
0
 62
     7
370
    35
100
AcDbLine
 10
715.310852
 20
386.403442
 30
0.0
 11
715.310852
 21
325.403442
 31
0.0
  0
LINE
  5
3AB
330
1F
100
AcDbEntity
  8
0
 62
     7
370
    35
100
AcDbLine
 10
718.310852
 20
340.403442
 30
0.0
 11
718.310852
 21
325.403442
 31
0.0
  0
LINE
  5
3AC
330
1F
100
AcDbEntity
  8
0
 62
     7
370
    35
100
AcDbLine
 10
718.310852
 20
340.403442
 30
0.0
 11
722.310852
 21
340.403442
 31
0.0
  0
LINE
  5
3AD
330
1F
100
AcDbEntity
  8
0
 62
     7
370
    35
100
AcDbLine
 10
722.310852
 20
355.403442
 30
0.0
 11
722.310852
 21
340.403442
 31
0.0
  0
LINE
  5
3AE
330
1F
100
AcDbEntity
  8
0
 62
     7
370
    35
100
AcDbLine
 10
722.310852
 20
355.403442
 30
0.0
 11
726.310852
 21
355.403442
 31
0.0
  0
LINE
  5
3AF
330
1F
100
AcDbEntity
  8
0
 62
     7
370
    35
100
AcDbLine
 10
726.310852
 20
386.403442
 30
0.0
 11
726.310852
 21
355.403442
 31
0.0
  0
LINE
  5
3B0
330
1F
100
AcDbEntity
  8
0
 62
     7
370
    35
100
AcDbLine
 10
715.310852
 20
386.403442
 30
0.0
 11
726.310852
 21
386.403442
 31
0.0
  0
LINE
  5
3B1
330
1F
100
AcDbEntity
  8
0
 62
     7
370
    35
100
AcDbLine
 10
715.310852
 20
386.403442
 30
0.0
 11
715.310852
 21
391.403442
 31
0.0
  0
LINE
  5
3B2
330
1F
100
AcDbEntity
  8
0
 62
     7
370
    35
100
AcDbLine
 10
726.310852
 20
386.403442
 30
0.0
 11
726.310852
 21
391.403442
 31
0.0
  0
LINE
  5
3B3
330
1F
100
AcDbEntity
  8
0
 62
     7
370
    35
100
AcDbLine
 10
715.310852
 20
391.403442
 30
0.0
 11
726.310852
 21
391.403442
 31
0.0
  0
ENDSEC
  0
SECTION
  2
OBJECTS
  0
DICTIONARY
  5
C
330
0
100
AcDbDictionary
281
     1
  3
ACAD_GROUP
350
D
  3
ACAD_LAYOUT
350
1A
  3
ACAD_MLINESTYLE
350
17
  3
ACAD_PLOTSETTINGS
350
19
  3
ACAD_PLOTSTYLENAME
350
E
  3
ACAD_SCALELIST
350
47
  0
DICTIONARY
  5
D
102
{ACAD_REACTORS
330
C
102
}
330
C
100
AcDbDictionary
281
     1
  0
DICTIONARY
  5
1A
102
{ACAD_REACTORS
330
C
102
}
330
C
100
AcDbDictionary
281
     1
  3
Layout1
350
1E
  3
Layout2
350
26
  3
Model
350
22
  0
DICTIONARY
  5
17
102
{ACAD_REACTORS
330
C
102
}
330
C
100
AcDbDictionary
281
     1
  3
Standard
350
18
  0
DICTIONARY
  5
19
102
{ACAD_REACTORS
330
C
102
}
330
C
100
AcDbDictionary
281
     1
  0
ACDBDICTIONARYWDFLT
  5
E
102
{ACAD_REACTORS
330
C
102
}
330
C
100
AcDbDictionary
281
     1
  3
Normal
350
F
100
AcDbDictionaryWithDefault
340
F
  0
DICTIONARY
  5
47
102
{ACAD_REACTORS
330
C
102
}
330
C
100
AcDbDictionary
281
     1
  3
A0
350
48
  3
A1
350
49
  3
A2
350
4A
  3
A3
350
4B
  3
A4
350
4C
  3
A5
350
4D
  3
A6
350
4E
  3
A7
350
4F
  3
A8
350
50
  3
A9
350
51
  3
B0
350
52
  3
B1
350
53
  3
B2
350
54
  3
B3
350
55
  3
B4
350
56
  3
B5
350
57
  3
B6
350
58
  3
B7
350
59
  3
B8
350
5A
  3
B9
350
5B
  3
C0
350
5C
  3
C1
350
5D
  3
C2
350
5E
  3
C3
350
5F
  3
C4
350
60
  3
C5
350
61
  3
C6
350
62
  3
C7
350
63
  3
C8
350
64
  3
C9
350
65
  3
D0
350
66
  3
D1
350
67
  3
D2
350
68
  0
LAYOUT
  5
1E
102
{ACAD_REACTORS
330
1A
102
}
330
1A
100
AcDbPlotSettings
  1

  2
none_device
  4

  6

 40
0.0
 41
0.0
 42
0.0
 43
0.0
 44
0.0
 45
0.0
 46
0.0
 47
0.0
 48
0.0
 49
0.0
140
0.0
141
0.0
142
1.0
143
1.0
 70
  4784
 72
     0
 73
     0
 74
     5
  7

 75
    16
147
1.0
148
0.0
149
0.0
100
AcDbLayout
  1
Layout1
 70
     1
 71
     1
 10
0.0
 20
0.0
 11
420.0
 21
297.0
 12
0.0
 22
0.0
 32
0.0
 14
0.0
 24
0.0
 34
0.0
 15
733.310852
 25
709.699158
 35
2.0
146
0.0
 13
0.0
 23
0.0
 33
0.0
 16
1.0
 26
0.0
 36
0.0
 17
0.0
 27
1.0
 37
0.0
 76
     0
330
1B
  0
LAYOUT
  5
26
102
{ACAD_REACTORS
330
1A
102
}
330
1A
100
AcDbPlotSettings
  1

  2
none_device
  4

  6

 40
0.0
 41
0.0
 42
0.0
 43
0.0
 44
0.0
 45
0.0
 46
0.0
 47
0.0
 48
0.0
 49
0.0
140
0.0
141
0.0
142
1.0
143
1.0
 70
  4784
 72
     0
 73
     0
 74
     5
  7

 75
    16
147
1.0
148
0.0
149
0.0
100
AcDbLayout
  1
Layout2
 70
     1
 71
     2
 10
0.0
 20
0.0
 11
0.0
 21
0.0
 12
0.0
 22
0.0
 32
0.0
 14
0.0
 24
0.0
 34
0.0
 15
0.0
 25
0.0
 35
0.0
146
0.0
 13
0.0
 23
0.0
 33
0.0
 16
1.0
 26
0.0
 36
0.0
 17
0.0
 27
1.0
 37
0.0
 76
     0
330
23
  0
LAYOUT
  5
22
102
{ACAD_REACTORS
330
1A
102
}
330
1A
100
AcDbPlotSettings
  1

  2
none_device
  4
Letter_(8.50_x_11.00_Inches)
  6

 40
6.35
 41
6.35
 42
6.350005
 43
6.350005
 44
215.9
 45
279.4
 46
0.0
 47
0.0
 48
0.0
 49
0.0
140
0.0
141
0.0
142
1.0
143
1.0
 70
  5808
 72
     0
 73
     0
 74
     0
  7

 75
     0
147
1.0
148
0.0
149
0.0
100
AcDbLayout
  1
Model
 70
     1
 71
     0
 10
0.0
 20
0.0
 11
420.0
 21
297.0
 12
0.0
 22
0.0
 32
0.0
 14
0.0
 24
0.0
 34
0.0
 15
733.310852
 25
709.699158
 35
2.0
146
0.0
 13
0.0
 23
0.0
 33
0.0
 16
1.0
 26
0.0
 36
0.0
 17
0.0
 27
1.0
 37
0.0
 76
     0
330
1F
331
29
  0
MLINESTYLE
  5
18
102
{ACAD_REACTORS
330
17
102
}
330
17
100
AcDbMlineStyle
  2
Standard
 70
     0
  3

 62
   256
 51
90.0
 52
90.0
 71
     2
 49
0.5
 62
   256
  6
BYLAYER
 49
-0.5
 62
   256
  6
BYLAYER
  0
ACDBPLACEHOLDER
  5
F
102
{ACAD_REACTORS
330
E
102
}
330
E
  0
SCALE
  5
48
102
{ACAD_REACTORS
330
47
102
}
330
47
100
AcDbScale
 70
     0
300
1:1
140
1.0
141
1.0
290
     1
  0
SCALE
  5
49
102
{ACAD_REACTORS
330
47
102
}
330
47
100
AcDbScale
 70
     0
300
1:2
140
1.0
141
2.0
290
     0
  0
SCALE
  5
4A
102
{ACAD_REACTORS
330
47
102
}
330
47
100
AcDbScale
 70
     0
300
1:4
140
1.0
141
4.0
290
     0
  0
SCALE
  5
4B
102
{ACAD_REACTORS
330
47
102
}
330
47
100
AcDbScale
 70
     0
300
1:5
140
1.0
141
5.0
290
     0
  0
SCALE
  5
4C
102
{ACAD_REACTORS
330
47
102
}
330
47
100
AcDbScale
 70
     0
300
1:8
140
1.0
141
8.0
290
     0
  0
SCALE
  5
4D
102
{ACAD_REACTORS
330
47
102
}
330
47
100
AcDbScale
 70
     0
300
1:10
140
1.0
141
10.0
290
     0
  0
SCALE
  5
4E
102
{ACAD_REACTORS
330
47
102
}
330
47
100
AcDbScale
 70
     0
300
1:16
140
1.0
141
16.0
290
     0
  0
SCALE
  5
4F
102
{ACAD_REACTORS
330
47
102
}
330
47
100
AcDbScale
 70
     0
300
1:20
140
1.0
141
20.0
290
     0
  0
SCALE
  5
50
102
{ACAD_REACTORS
330
47
102
}
330
47
100
AcDbScale
 70
     0
300
1:30
140
1.0
141
30.0
290
     0
  0
SCALE
  5
51
102
{ACAD_REACTORS
330
47
102
}
330
47
100
AcDbScale
 70
     0
300
1:40
140
1.0
141
40.0
290
     0
  0
SCALE
  5
52
102
{ACAD_REACTORS
330
47
102
}
330
47
100
AcDbScale
 70
     0
300
1:50
140
1.0
141
50.0
290
     0
  0
SCALE
  5
53
102
{ACAD_REACTORS
330
47
102
}
330
47
100
AcDbScale
 70
     0
300
1:100
140
1.0
141
100.0
290
     0
  0
SCALE
  5
54
102
{ACAD_REACTORS
330
47
102
}
330
47
100
AcDbScale
 70
     0
300
2:1
140
2.0
141
1.0
290
     0
  0
SCALE
  5
55
102
{ACAD_REACTORS
330
47
102
}
330
47
100
AcDbScale
 70
     0
300
4:1
140
4.0
141
1.0
290
     0
  0
SCALE
  5
56
102
{ACAD_REACTORS
330
47
102
}
330
47
100
AcDbScale
 70
     0
300
8:1
140
8.0
141
1.0
290
     0
  0
SCALE
  5
57
102
{ACAD_REACTORS
330
47
102
}
330
47
100
AcDbScale
 70
     0
300
10:1
140
10.0
141
1.0
290
     0
  0
SCALE
  5
58
102
{ACAD_REACTORS
330
47
102
}
330
47
100
AcDbScale
 70
     0
300
100:1
140
100.0
141
1.0
290
     0
  0
SCALE
  5
59
102
{ACAD_REACTORS
330
47
102
}
330
47
100
AcDbScale
 70
     0
300
1/128" = 1'-0"
140
0.007812
141
12.0
290
     0
  0
SCALE
  5
5A
102
{ACAD_REACTORS
330
47
102
}
330
47
100
AcDbScale
 70
     0
300
1/64" = 1'-0"
140
0.015625
141
12.0
290
     0
  0
SCALE
  5
5B
102
{ACAD_REACTORS
330
47
102
}
330
47
100
AcDbScale
 70
     0
300
1/32" = 1'-0"
140
0.03125
141
12.0
290
     0
  0
SCALE
  5
5C
102
{ACAD_REACTORS
330
47
102
}
330
47
100
AcDbScale
 70
     0
300
1/16" = 1'-0"
140
0.0625
141
12.0
290
     0
  0
SCALE
  5
5D
102
{ACAD_REACTORS
330
47
102
}
330
47
100
AcDbScale
 70
     0
300
3/32" = 1'-0"
140
0.09375
141
12.0
290
     0
  0
SCALE
  5
5E
102
{ACAD_REACTORS
330
47
102
}
330
47
100
AcDbScale
 70
     0
300
1/8" = 1'-0"
140
0.125
141
12.0
290
     0
  0
SCALE
  5
5F
102
{ACAD_REACTORS
330
47
102
}
330
47
100
AcDbScale
 70
     0
300
3/16" = 1'-0"
140
0.1875
141
12.0
290
     0
  0
SCALE
  5
60
102
{ACAD_REACTORS
330
47
102
}
330
47
100
AcDbScale
 70
     0
300
1/4" = 1'-0"
140
0.25
141
12.0
290
     0
  0
SCALE
  5
61
102
{ACAD_REACTORS
330
47
102
}
330
47
100
AcDbScale
 70
     0
300
3/8" = 1'-0"
140
0.375
141
12.0
290
     0
  0
SCALE
  5
62
102
{ACAD_REACTORS
330
47
102
}
330
47
100
AcDbScale
 70
     0
300
1/2" = 1'-0"
140
0.5
141
12.0
290
     0
  0
SCALE
  5
63
102
{ACAD_REACTORS
330
47
102
}
330
47
100
AcDbScale
 70
     0
300
3/4" = 1'-0"
140
0.75
141
12.0
290
     0
  0
SCALE
  5
64
102
{ACAD_REACTORS
330
47
102
}
330
47
100
AcDbScale
 70
     0
300
1" = 1'-0"
140
1.0
141
12.0
290
     0
  0
SCALE
  5
65
102
{ACAD_REACTORS
330
47
102
}
330
47
100
AcDbScale
 70
     0
300
1-1/2" = 1'-0"
140
1.5
141
12.0
290
     0
  0
SCALE
  5
66
102
{ACAD_REACTORS
330
47
102
}
330
47
100
AcDbScale
 70
     0
300
3" = 1'-0"
140
3.0
141
12.0
290
     0
  0
SCALE
  5
67
102
{ACAD_REACTORS
330
47
102
}
330
47
100
AcDbScale
 70
     0
300
6" = 1'-0"
140
6.0
141
12.0
290
     0
  0
SCALE
  5
68
102
{ACAD_REACTORS
330
47
102
}
330
47
100
AcDbScale
 70
     0
300
1'-0" = 1'-0"
140
12.0
141
12.0
290
     0
  0
ENDSEC
  0
EOF
