  0
SECTION
  2
HEADER
  9
$ACADVER
  1
AC1015
  9
$ACADMAINTVER
 70
    18
  9
$DWGCODEPAGE
  3
ANSI_932
  9
$INSBASE
 10
0.0
 20
0.0
 30
0.0
  9
$EXTMIN
 10
46.2230355253273
 20
87.99995413345731
 30
0.0
  9
$EXTMAX
 10
531.4547292435794
 20
351.4103802827256
 30
0.0
  9
$LIMMIN
 10
0.0
 20
0.0
  9
$LIMMAX
 10
594.0
 20
420.0
  9
$ORTHOMODE
 70
     1
  9
$REGENMODE
 70
     1
  9
$FILLMODE
 70
     1
  9
$QTEXTMODE
 70
     0
  9
$MIRRTEXT
 70
     0
  9
$LTSCALE
 40
5.0
  9
$ATTMODE
 70
     1
  9
$TEXTSIZE
 40
5.0
  9
$TRACEWID
 40
0.05
  9
$TEXTSTYLE
  7
STYLE2
  9
$CLAYER
  8
0
  9
$CELTYPE
  6
BYLAYER
  9
$CECOLOR
 62
   256
  9
$CELTSCALE
 40
1.0
  9
$DISPSILH
 70
     0
  9
$DIMSCALE
 40
2.0
  9
$DIMASZ
 40
2.0
  9
$DIMEXO
 40
1.0
  9
$DIMDLI
 40
6.0
  9
$DIMRND
 40
0.0
  9
$DIMDLE
 40
0.0
  9
$DIMEXE
 40
2.0
  9
$DIMTP
 40
495.0
  9
$DIMTM
 40
0.0
  9
$DIMTXT
 40
3.0
  9
$DIMCEN
 40
0.0
  9
$DIMTSZ
 40
0.0
  9
$DIMTOL
 70
     0
  9
$DIMLIM
 70
     0
  9
$DIMTIH
 70
     0
  9
$DIMTOH
 70
     0
  9
$DIMSE1
 70
     0
  9
$DIMSE2
 70
     0
  9
$DIMTAD
 70
     3
  9
$DIMZIN
 70
     8
  9
$DIMBLK
  1
ARROW
  9
$DIMASO
 70
     1
  9
$DIMSHO
 70
     0
  9
$DIMPOST
  1

  9
$DIMAPOST
  1

  9
$DIMALT
 70
     0
  9
$DIMALTD
 70
     2
  9
$DIMALTF
 40
25.4
  9
$DIMLFAC
 40
1.0
  9
$DIMTOFL
 70
     1
  9
$DIMTVP
 40
0.0
  9
$DIMTIX
 70
     1
  9
$DIMSOXD
 70
     0
  9
$DIMSAH
 70
     1
  9
$DIMBLK1
  1
OPEN
  9
$DIMBLK2
  1
OPEN
  9
$DIMSTYLE
  2
IMAO
  9
$DIMCLRD
 70
     0
  9
$DIMCLRE
 70
     0
  9
$DIMCLRT
 70
     0
  9
$DIMTFAC
 40
1.0
  9
$DIMGAP
 40
1.0
  9
$DIMJUST
 70
     0
  9
$DIMSD1
 70
     0
  9
$DIMSD2
 70
     0
  9
$DIMTOLJ
 70
     1
  9
$DIMTZIN
 70
     0
  9
$DIMALTZ
 70
     0
  9
$DIMALTTZ
 70
     0
  9
$DIMUPT
 70
     1
  9
$DIMDEC
 70
     4
  9
$DIMTDEC
 70
     4
  9
$DIMALTU
 70
     2
  9
$DIMALTTD
 70
     2
  9
$DIMTXSTY
  7
STYLE2
  9
$DIMAUNIT
 70
     0
  9
$DIMADEC
 70
     0
  9
$DIMALTRND
 40
0.0
  9
$DIMAZIN
 70
     0
  9
$DIMDSEP
 70
    46
  9
$DIMATFIT
 70
     3
  9
$DIMFRAC
 70
     0
  9
$DIMLDRBLK
  1

  9
$DIMLUNIT
 70
     2
  9
$DIMLWD
 70
    -2
  9
$DIMLWE
 70
    -2
  9
$DIMTMOVE
 70
     0
  9
$LUNITS
 70
     2
  9
$LUPREC
 70
     2
  9
$SKETCHINC
 40
0.1
  9
$FILLETRAD
 40
20.0
  9
$AUNITS
 70
     0
  9
$AUPREC
 70
     2
  9
$MENU
  1
STDR12J
  9
$ELEVATION
 40
0.0
  9
$PELEVATION
 40
0.0
  9
$THICKNESS
 40
0.0
  9
$LIMCHECK
 70
     0
  9
$CHAMFERA
 40
0.5
  9
$CHAMFERB
 40
0.5
  9
$CHAMFERC
 40
0.0
  9
$CHAMFERD
 40
0.0
  9
$SKPOLY
 70
     0
  9
$TDCREATE
 40
2450690.700083218
  9
$TDUCREATE
 40
2450690.325083218
  9
$TDUPDATE
 40
2456463.616979768
  9
$TDUUPDATE
 40
2456463.241979768
  9
$TDINDWG
 40
0.3257768056
  9
$TDUSRTIMER
 40
0.3257766319
  9
$USRTIMER
 70
     1
  9
$ANGBASE
 50
0.0
  9
$ANGDIR
 70
     0
  9
$PDMODE
 70
     3
  9
$PDSIZE
 40
0.0
  9
$PLINEWID
 40
0.0
  9
$SPLFRAME
 70
     0
  9
$SPLINETYPE
 70
     6
  9
$SPLINESEGS
 70
     8
  9
$HANDSEED
  5
399
  9
$SURFTAB1
 70
     6
  9
$SURFTAB2
 70
     6
  9
$SURFTYPE
 70
     6
  9
$SURFU
 70
     6
  9
$SURFV
 70
     6
  9
$UCSBASE
  2

  9
$UCSNAME
  2

  9
$UCSORG
 10
0.0
 20
0.0
 30
0.0
  9
$UCSXDIR
 10
1.0
 20
0.0
 30
0.0
  9
$UCSYDIR
 10
0.0
 20
1.0
 30
0.0
  9
$UCSORTHOREF
  2

  9
$UCSORTHOVIEW
 70
     0
  9
$UCSORGTOP
 10
0.0
 20
0.0
 30
0.0
  9
$UCSORGBOTTOM
 10
0.0
 20
0.0
 30
0.0
  9
$UCSORGLEFT
 10
0.0
 20
0.0
 30
0.0
  9
$UCSORGRIGHT
 10
0.0
 20
0.0
 30
0.0
  9
$UCSORGFRONT
 10
0.0
 20
0.0
 30
0.0
  9
$UCSORGBACK
 10
0.0
 20
0.0
 30
0.0
  9
$PUCSBASE
  2

  9
$PUCSNAME
  2

  9
$PUCSORG
 10
0.0
 20
0.0
 30
0.0
  9
$PUCSXDIR
 10
1.0
 20
0.0
 30
0.0
  9
$PUCSYDIR
 10
0.0
 20
1.0
 30
0.0
  9
$PUCSORTHOREF
  2

  9
$PUCSORTHOVIEW
 70
     0
  9
$PUCSORGTOP
 10
0.0
 20
0.0
 30
0.0
  9
$PUCSORGBOTTOM
 10
0.0
 20
0.0
 30
0.0
  9
$PUCSORGLEFT
 10
0.0
 20
0.0
 30
0.0
  9
$PUCSORGRIGHT
 10
0.0
 20
0.0
 30
0.0
  9
$PUCSORGFRONT
 10
0.0
 20
0.0
 30
0.0
  9
$PUCSORGBACK
 10
0.0
 20
0.0
 30
0.0
  9
$USERI1
 70
     3
  9
$USERI2
 70
     1
  9
$USERI3
 70
     1
  9
$USERI4
 70
     1
  9
$USERI5
 70
     1
  9
$USERR1
 40
1.0
  9
$USERR2
 40
3.0
  9
$USERR3
 40
3.0
  9
$USERR4
 40
1.5
  9
$USERR5
 40
10.0
  9
$WORLDVIEW
 70
     1
  9
$SHADEDGE
 70
     3
  9
$SHADEDIF
 70
    70
  9
$TILEMODE
 70
     1
  9
$MAXACTVP
 70
    16
  9
$PINSBASE
 10
0.0
 20
0.0
 30
0.0
  9
$PLIMCHECK
 70
     0
  9
$PEXTMIN
 10
1.000000000000000E+20
 20
1.000000000000000E+20
 30
1.000000000000000E+20
  9
$PEXTMAX
 10
-1.000000000000000E+20
 20
-1.000000000000000E+20
 30
-1.000000000000000E+20
  9
$PLIMMIN
 10
0.0
 20
0.0
  9
$PLIMMAX
 10
12.0
 20
9.0
  9
$UNITMODE
 70
     0
  9
$VISRETAIN
 70
     0
  9
$PLINEGEN
 70
     0
  9
$PSLTSCALE
 70
     0
  9
$TREEDEPTH
 70
     0
  9
$CMLSTYLE
  2
STANDARD
  9
$CMLJUST
 70
     0
  9
$CMLSCALE
 40
1.0
  9
$PROXYGRAPHICS
 70
     1
  9
$MEASUREMENT
 70
     0
  9
$CELWEIGHT
370
    -1
  9
$ENDCAPS
280
     0
  9
$JOINSTYLE
280
     0
  9
$LWDISPLAY
290
     0
  9
$INSUNITS
 70
     0
  9
$HYPERLINKBASE
  1

  9
$STYLESHEET
  1

  9
$XEDIT
290
     1
  9
$CEPSNTYPE
380
     0
  9
$PSTYLEMODE
290
     1
  9
$FINGERPRINTGUID
  2
{635BB1EA-724A-4C04-9F46-C8B6B581BDF0}
  9
$VERSIONGUID
  2
{0C298EA7-8D0A-46FD-8762-C3127672484C}
  9
$EXTNAMES
290
     1
  9
$PSVPSCALE
 40
0.0
  9
$OLESTARTUP
290
     0
  0
ENDSEC
  0
SECTION
  2
CLASSES
  0
CLASS
  1
ACDBDICTIONARYWDFLT
  2
AcDbDictionaryWithDefault
  3
ObjectDBX Classes
 90
        0
280
     0
281
     0
  0
CLASS
  1
MATERIAL
  2
AcDbMaterial
  3
ObjectDBX Classes
 90
     1153
280
     0
281
     0
  0
CLASS
  1
VISUALSTYLE
  2
AcDbVisualStyle
  3
ObjectDBX Classes
 90
     4095
280
     0
281
     0
  0
CLASS
  1
TABLESTYLE
  2
AcDbTableStyle
  3
ObjectDBX Classes
 90
     4095
280
     0
281
     0
  0
CLASS
  1
SCALE
  2
AcDbScale
  3
ObjectDBX Classes
 90
     1153
280
     0
281
     0
  0
CLASS
  1
MLEADERSTYLE
  2
AcDbMLeaderStyle
  3
ACDB_MLEADERSTYLE_CLASS
 90
    36863
280
     0
281
     0
  0
CLASS
  1
DICTIONARYVAR
  2
AcDbDictionaryVar
  3
ObjectDBX Classes
 90
        0
280
     0
281
     0
  0
CLASS
  1
CELLSTYLEMAP
  2
AcDbCellStyleMap
  3
ObjectDBX Classes
 90
     1152
280
     0
281
     0
  0
CLASS
  1
ACDBPLACEHOLDER
  2
AcDbPlaceHolder
  3
ObjectDBX Classes
 90
        0
280
     0
281
     0
  0
CLASS
  1
LAYOUT
  2
AcDbLayout
  3
ObjectDBX Classes
 90
        0
280
     0
281
     0
  0
ENDSEC
  0
SECTION
  2
TABLES
  0
TABLE
  2
VPORT
  5
2E
330
0
100
AcDbSymbolTable
 70
     1
  0
VPORT
  5
2F
330
2E
100
AcDbSymbolTableRecord
100
AcDbViewportTableRecord
  2
*ACTIVE
 70
     0
 10
0.0
 20
0.0
 11
1.0
 21
1.0
 12
423.8052082191502
 22
247.6582921136274
 13
0.0
 23
0.0
 14
0.5
 24
0.5
 15
10.0
 25
10.0
 16
0.0
 26
0.0
 36
1.0
 17
0.0
 27
0.0
 37
0.0
 40
812.8834756993274
 41
2.240398293029871
 42
50.0
 43
0.0
 44
0.0
 50
0.0
 51
0.0
 71
     0
 72
   500
 73
     1
 74
     0
 75
     1
 76
     0
 77
     0
 78
     0
281
     0
 65
     1
110
0.0
120
0.0
130
0.0
111
1.0
121
0.0
131
0.0
112
0.0
122
1.0
132
0.0
 79
     0
146
0.0
1001
ACAD_NAV_VCDISPLAY
1070
     3
  0
ENDTAB
  0
TABLE
  2
LTYPE
  5
29
330
0
100
AcDbSymbolTable
 70
     2
  0
LTYPE
  5
2A
330
29
100
AcDbSymbolTableRecord
100
AcDbLinetypeTableRecord
  2
BYBLOCK
 70
     0
  3

 72
    65
 73
     0
 40
0.0
  0
LTYPE
  5
2B
330
29
100
AcDbSymbolTableRecord
100
AcDbLinetypeTableRecord
  2
BYLAYER
 70
     0
  3

 72
    65
 73
     0
 40
0.0
  0
LTYPE
  5
14
330
29
100
AcDbSymbolTableRecord
100
AcDbLinetypeTableRecord
  2
CONTINUOUS
 70
     0
  3
実線
 72
    65
 73
     0
 40
0.0
  0
LTYPE
  5
17F
330
29
100
AcDbSymbolTableRecord
100
AcDbLinetypeTableRecord
  2
CENTER
 70
     0
  3
____ _ ____ _ ____ _ ____ _ ____ _ ____ _ ____
 72
    65
 73
     4
 40
2.0
 49
1.25
 74
     0
 49
-0.25
 74
     0
 49
0.25
 74
     0
 49
-0.25
 74
     0
  0
ENDTAB
  0
TABLE
  2
LAYER
  5
25
330
0
100
AcDbSymbolTable
 70
     1
  0
LAYER
  5
4
102
{ACAD_XDICTIONARY
360
5
102
}
330
25
100
AcDbSymbolTableRecord
100
AcDbLayerTableRecord
  2
0
 70
     0
 62
     7
  6
CONTINUOUS
370
    -3
390
7
  0
ENDTAB
  0
TABLE
  2
STYLE
  5
26
330
0
100
AcDbSymbolTable
 70
     3
  0
STYLE
  5
27
330
26
100
AcDbSymbolTableRecord
100
AcDbTextStyleTableRecord
  2
STANDARD
 70
     0
 40
0.0
 41
1.0
 50
0.0
 71
     0
 42
5.0
  3
ROMANS
  4
bigfont.shx
  0
STYLE
  5
37
330
26
100
AcDbSymbolTableRecord
100
AcDbTextStyleTableRecord
  2
K
 70
     0
 40
0.0
 41
1.0
 50
0.0
 71
     0
 42
1.0
  3
ROMANS
  4
bigfont.shx
  0
STYLE
  5
4F
330
26
100
AcDbSymbolTableRecord
100
AcDbTextStyleTableRecord
  2
STYLE2
 70
     0
 40
0.0
 41
1.0
 50
0.0
 71
     0
 42
5.0
  3

  4

1001
ACAD
1000
DHPHSGothic-W5
1071
    32770
  0
ENDTAB
  0
TABLE
  2
VIEW
  5
2C
330
0
100
AcDbSymbolTable
 70
     0
  0
ENDTAB
  0
TABLE
  2
UCS
  5
2D
330
0
100
AcDbSymbolTable
 70
     0
  0
ENDTAB
  0
TABLE
  2
APPID
  5
34
330
0
100
AcDbSymbolTable
 70
     2
  0
APPID
  5
32
330
34
100
AcDbSymbolTableRecord
100
AcDbRegAppTableRecord
  2
ACAD
 70
     0
  0
APPID
  5
33
330
34
100
AcDbSymbolTableRecord
100
AcDbRegAppTableRecord
  2
ACAD_NAV_VCDISPLAY
 70
     0
  0
ENDTAB
  0
TABLE
  2
DIMSTYLE
  5
35
330
0
100
AcDbSymbolTable
 70
     1
100
AcDbDimStyleTable
 71
     1
340
36
  0
DIMSTYLE
105
36
330
35
100
AcDbSymbolTableRecord
100
AcDbDimStyleTableRecord
  2
IMAO
 70
     0
 41
1.5
 42
1.0
 43
6.0
 44
1.0
 47
495.0
 73
     0
 74
     0
 77
     1
 78
     8
140
3.0
141
0.0
172
     1
174
     1
271
     2
272
     2
279
     2
284
     8
285
     8
286
     8
340
37
341
38
342
38
  0
ENDTAB
  0
TABLE
  2
BLOCK_RECORD
  5
1
330
0
100
AcDbSymbolTable
 70
     2
  0
BLOCK_RECORD
  5
2
330
1
100
AcDbSymbolTableRecord
100
AcDbBlockTableRecord
  2
*MODEL_SPACE
340
1F
  0
BLOCK_RECORD
  5
21
330
1
100
AcDbSymbolTableRecord
100
AcDbBlockTableRecord
  2
*PAPER_SPACE
340
24
  0
BLOCK_RECORD
  5
50
330
1
100
AcDbSymbolTableRecord
100
AcDbBlockTableRecord
  2
_OPEN
340
0
  0
BLOCK_RECORD
  5
38
330
1
100
AcDbSymbolTableRecord
100
AcDbBlockTableRecord
  2
ARROW
340
0
  0
ENDTAB
  0
ENDSEC
  0
SECTION
  2
BLOCKS
  0
BLOCK
  5
3
330
2
100
AcDbEntity
  8
0
100
AcDbBlockBegin
  2
*MODEL_SPACE
 70
     0
 10
0.0
 20
0.0
 30
0.0
  3
*MODEL_SPACE
  1

  0
ENDBLK
  5
1E
330
2
100
AcDbEntity
  8
0
100
AcDbBlockEnd
  0
BLOCK
  5
22
330
21
100
AcDbEntity
 67
     1
  8
0
100
AcDbBlockBegin
  2
*PAPER_SPACE
 70
     0
 10
0.0
 20
0.0
 30
0.0
  3
*PAPER_SPACE
  1

  0
ENDBLK
  5
23
330
21
100
AcDbEntity
 67
     1
  8
0
100
AcDbBlockEnd
  0
BLOCK
  5
51
330
50
100
AcDbEntity
  8
0
100
AcDbBlockBegin
  2
_OPEN
 70
     0
 10
0.0
 20
0.0
 30
0.0
  3
_OPEN
  1

  0
LINE
  5
52
330
50
100
AcDbEntity
  8
0
  6
ByBlock
 62
     0
100
AcDbLine
 10
-1.0
 20
0.1666666666666666
 30
0.0
 11
0.0
 21
0.0
 31
0.0
  0
LINE
  5
53
330
50
100
AcDbEntity
  8
0
  6
ByBlock
 62
     0
100
AcDbLine
 10
0.0
 20
0.0
 30
0.0
 11
-1.0
 21
-0.1666666666666666
 31
0.0
  0
LINE
  5
54
330
50
100
AcDbEntity
  8
0
  6
ByBlock
 62
     0
100
AcDbLine
 10
0.0
 20
0.0
 30
0.0
 11
-1.0
 21
0.0
 31
0.0
  0
ENDBLK
  5
55
330
50
100
AcDbEntity
  8
0
100
AcDbBlockEnd
  0
BLOCK
  5
39
330
38
100
AcDbEntity
  8
0
100
AcDbBlockBegin
  2
ARROW
 70
     0
 10
1.0
 20
0.5
 30
0.0
  3
ARROW
  1

  0
LINE
  5
3A
330
38
100
AcDbEntity
  8
0
100
AcDbLine
 10
1.0
 20
0.5
 30
0.0
 11
-0.5000000000000214
 21
0.0980762113533018
 31
0.0
  0
LINE
  5
3B
330
38
100
AcDbEntity
  8
0
100
AcDbLine
 10
0.0
 20
0.5
 30
0.0
 11
1.0
 21
0.5
 31
0.0
  0
LINE
  5
3C
330
38
100
AcDbEntity
  8
0
100
AcDbLine
 10
1.0
 20
0.5
 30
0.0
 11
-0.4999999999999575
 21
0.9019237886467408
 31
0.0
  0
ENDBLK
  5
3D
330
38
100
AcDbEntity
  8
0
100
AcDbBlockEnd
  0
ENDSEC
  0
SECTION
  2
ENTITIES
  0
LINE
  5
6C
330
2
100
AcDbEntity
  8
0
  6
Continuous
 62
     7
 48
10.0
100
AcDbLine
 10
97.0
 20
197.165018096639
 30
0.0
 11
96.5
 21
197.165018096639
 31
0.0
  0
LINE
  5
6D
330
2
100
AcDbEntity
  8
0
  6
Continuous
 62
     7
 48
10.0
100
AcDbLine
 10
96.5
 20
185.3348910777168
 30
0.0
 11
104.5
 21
185.3348910777166
 31
0.0
  0
LINE
  5
6E
330
2
100
AcDbEntity
  8
0
  6
Continuous
 62
     7
 48
10.0
100
AcDbLine
 10
96.5
 20
192.8348910777167
 30
0.0
 11
104.5
 21
192.8348910777167
 31
0.0
  0
ARC
  5
6F
330
2
100
AcDbEntity
  8
0
  6
Continuous
 62
     7
 48
10.0
100
AcDbCircle
 10
107.7326990762144
 20
200.9999104972787
 30
0.0
 40
1.0
100
AcDbArc
 50
270.0
 51
344.9999999999998
  0
LINE
  5
70
330
2
100
AcDbEntity
  8
0
  6
Continuous
 62
     7
 48
10.0
100
AcDbLine
 10
96.50002606419343
 20
203.7633432317971
 30
0.0
 11
96.50002606419343
 21
199.9999104972786
 31
0.0
  0
LINE
  5
71
330
2
100
AcDbEntity
  8
0
  6
Continuous
 62
     7
 48
10.0
100
AcDbLine
 10
104.5000260641934
 20
203.7633432317971
 30
0.0
 11
104.5000260641934
 21
199.9999104972786
 31
0.0
  0
LINE
  5
72
330
2
100
AcDbEntity
  8
0
  6
Continuous
 62
     7
 48
10.0
100
AcDbLine
 10
104.5000260641934
 20
199.9999104972786
 30
0.0
 11
107.7326990762144
 21
199.9999104972786
 31
0.0
  0
LINE
  5
73
330
2
100
AcDbEntity
  8
0
  6
Continuous
 62
     7
 48
10.0
100
AcDbLine
 10
104.5
 20
201.9999545871779
 30
0.0
 11
104.0
 21
201.9999545871778
 31
0.0
  0
LINE
  5
74
330
2
100
AcDbEntity
  8
0
  6
Continuous
 62
     7
 48
10.0
100
AcDbLine
 10
109.8295708056953
 20
204.9618390234996
 30
0.0
 11
108.6986249025035
 21
200.7410914521763
 31
0.0
  0
ARC
  5
75
330
2
100
AcDbEntity
  8
0
  6
Continuous
 62
     7
 48
10.0
100
AcDbCircle
 10
93.26735305217244
 20
200.9999104972787
 30
0.0
 40
1.0
100
AcDbArc
 50
195.0
 51
270.0
  0
LINE
  5
76
330
2
100
AcDbEntity
  8
0
  6
Continuous
 62
     7
 48
10.0
100
AcDbLine
 10
91.17048132269156
 20
204.9618390234996
 30
0.0
 11
92.30142722588334
 21
200.7410914521763
 31
0.0
  0
LINE
  5
77
330
2
100
AcDbEntity
  8
0
  6
Continuous
 62
     7
 48
10.0
100
AcDbLine
 10
96.50002606419343
 20
199.9999104972786
 30
0.0
 11
93.26735305217244
 21
199.9999104972786
 31
0.0
  0
LINE
  5
78
330
2
100
AcDbEntity
  8
0
  6
Continuous
 62
     7
 48
10.0
100
AcDbLine
 10
104.5
 20
197.165018096639
 30
0.0
 11
104.5
 21
185.3348910777168
 31
0.0
  0
LINE
  5
79
330
2
100
AcDbEntity
  8
0
  6
Continuous
 62
     7
 48
10.0
100
AcDbLine
 10
96.5
 20
197.165018096639
 30
0.0
 11
96.5
 21
185.3348910777168
 31
0.0
  0
LINE
  5
7A
330
2
100
AcDbEntity
  8
0
  6
Continuous
 62
     7
 48
10.0
100
AcDbLine
 10
104.5
 20
197.165018096639
 30
0.0
 11
104.0
 21
197.165018096639
 31
0.0
  0
LINE
  5
7B
330
2
100
AcDbEntity
  8
0
  6
Continuous
 62
     7
 48
10.0
100
AcDbLine
 10
104.0
 20
178.563413855684
 30
0.0
 11
97.0
 21
178.563413855684
 31
0.0
  0
LINE
  5
7C
330
2
100
AcDbEntity
  8
0
  6
Continuous
 62
     7
 48
10.0
100
AcDbLine
 10
104.0
 20
178.5634138556839
 30
0.0
 11
104.0
 21
185.3348910777168
 31
0.0
  0
LINE
  5
7D
330
2
100
AcDbEntity
  8
0
  6
Continuous
 62
     7
 48
10.0
100
AcDbLine
 10
97.0
 20
178.5634138556839
 30
0.0
 11
97.0
 21
185.3348910777168
 31
0.0
  0
LINE
  5
7E
330
2
100
AcDbEntity
  8
0
  6
Continuous
 62
     7
 48
10.0
100
AcDbLine
 10
104.0
 20
192.8348910777167
 30
0.0
 11
104.0
 21
203.4999545871778
 31
0.0
  0
LINE
  5
7F
330
2
100
AcDbEntity
  8
0
  6
Continuous
 62
     7
 48
10.0
100
AcDbLine
 10
97.0
 20
192.8348910777167
 30
0.0
 11
97.0
 21
203.7013986930669
 31
0.0
  0
LINE
  5
80
330
2
100
AcDbEntity
  8
0
  6
Continuous
 62
     7
 48
10.0
100
AcDbLine
 10
97.0
 20
201.9999545871779
 30
0.0
 11
96.5
 21
201.9999545871779
 31
0.0
  0
LINE
  5
81
330
2
100
AcDbEntity
  8
0
  6
Continuous
 62
     7
 48
10.0
100
AcDbLine
 10
482.0
 20
201.9999545871779
 30
0.0
 11
481.5
 21
201.9999545871779
 31
0.0
  0
LINE
  5
82
330
2
100
AcDbEntity
  8
0
  6
Continuous
 62
     7
 48
10.0
100
AcDbLine
 10
482.0
 20
197.165018096639
 30
0.0
 11
482.0
 21
203.7013986930669
 31
0.0
  0
LINE
  5
83
330
2
100
AcDbEntity
  8
0
  6
Continuous
 62
     7
 48
10.0
100
AcDbLine
 10
489.0
 20
197.165018096639
 30
0.0
 11
489.0
 21
203.4999545871778
 31
0.0
  0
LINE
  5
84
330
2
100
AcDbEntity
  8
0
  6
Continuous
 62
     7
 48
10.0
100
AcDbLine
 10
482.0
 20
178.5634138556839
 30
0.0
 11
482.0
 21
189.6650180966389
 31
0.0
  0
LINE
  5
85
330
2
100
AcDbEntity
  8
0
  6
Continuous
 62
     7
 48
10.0
100
AcDbLine
 10
489.0
 20
178.5634138556839
 30
0.0
 11
489.0
 21
189.6650180966389
 31
0.0
  0
LINE
  5
86
330
2
100
AcDbEntity
  8
0
  6
Continuous
 62
     7
 48
10.0
100
AcDbLine
 10
489.0
 20
178.563413855684
 30
0.0
 11
482.0
 21
178.563413855684
 31
0.0
  0
LINE
  5
87
330
2
100
AcDbEntity
  8
0
  6
Continuous
 62
     7
 48
10.0
100
AcDbLine
 10
489.0
 20
180.5532827098748
 30
0.0
 11
482.0
 21
180.5532827098748
 31
0.0
  0
LINE
  5
88
330
2
100
AcDbEntity
  8
0
  6
Continuous
 62
     7
 48
10.0
100
AcDbLine
 10
489.0
 20
185.7572565384042
 30
0.0
 11
482.0
 21
185.7572565384042
 31
0.0
  0
LINE
  5
89
330
2
100
AcDbEntity
  8
0
  6
Continuous
 62
     7
 48
10.0
100
AcDbLine
 10
489.0
 20
187.3985416099576
 30
0.0
 11
482.0
 21
187.3985416099576
 31
0.0
  0
LINE
  5
8A
330
2
100
AcDbEntity
  8
0
  6
Continuous
 62
     7
 48
10.0
100
AcDbLine
 10
489.5
 20
189.6650180966389
 30
0.0
 11
481.5
 21
189.6650180966389
 31
0.0
  0
LINE
  5
8B
330
2
100
AcDbEntity
  8
0
  6
Continuous
 62
     7
 48
10.0
100
AcDbLine
 10
489.5
 20
197.165018096639
 30
0.0
 11
481.5
 21
197.165018096639
 31
0.0
  0
LINE
  5
8C
330
2
100
AcDbEntity
  8
0
  6
Continuous
 62
     7
 48
10.0
100
AcDbLine
 10
481.5
 20
197.165018096639
 30
0.0
 11
481.5
 21
189.6650180966389
 31
0.0
  0
LINE
  5
8D
330
2
100
AcDbEntity
  8
0
  6
Continuous
 62
     7
 48
10.0
100
AcDbLine
 10
489.5
 20
197.165018096639
 30
0.0
 11
489.5
 21
189.6650180966389
 31
0.0
  0
ARC
  5
8E
330
2
100
AcDbEntity
  8
0
  6
Continuous
 62
     7
 48
10.0
100
AcDbCircle
 10
485.5000260641933
 20
233.9999104972787
 30
0.0
 40
22.5
100
AcDbArc
 50
217.5718693196976
 51
0.0
  0
ARC
  5
8F
330
2
100
AcDbEntity
  8
0
  6
Continuous
 62
     7
 48
10.0
100
AcDbCircle
 10
485.5000260641933
 20
233.9999104972787
 30
0.0
 40
21.5
100
AcDbArc
 50
217.5718693196976
 51
0.0
  0
ARC
  5
90
330
2
100
AcDbEntity
  8
0
  6
Continuous
 62
     7
 48
10.0
100
AcDbCircle
 10
485.5000260641933
 20
233.9999104972787
 30
0.0
 40
25.5
100
AcDbArc
 50
180.0
 51
271.7978096454188
  0
ARC
  5
91
330
2
100
AcDbEntity
  8
0
  6
Continuous
 62
     7
 48
10.0
100
AcDbCircle
 10
485.5000260641933
 20
233.9999104972787
 30
0.0
 40
30.5
100
AcDbArc
 50
180.0
 51
269.0606828500192
  0
ARC
  5
92
330
2
100
AcDbEntity
  8
0
  6
Continuous
 62
     7
 48
10.0
100
AcDbCircle
 10
485.5000260641933
 20
233.9999104972787
 30
0.0
 40
30.0
100
AcDbArc
 50
180.0
 51
269.0450261262151
  0
LINE
  5
93
330
2
100
AcDbEntity
  8
0
  6
Continuous
 62
     7
 48
10.0
100
AcDbLine
 10
470.5000260641932
 20
242.9999104972787
 30
0.0
 11
470.5000260641932
 21
226.9999104972787
 31
0.0
  0
ARC
  5
94
330
2
100
AcDbEntity
  8
0
  6
Continuous
 62
     7
 48
10.0
100
AcDbCircle
 10
485.5000260641933
 20
233.9999104972787
 30
0.0
 40
30.0
100
AcDbArc
 50
270.9549738737849
 51
0.0
  0
ARC
  5
95
330
2
100
AcDbEntity
  8
0
  6
Continuous
 62
     7
 48
10.0
100
AcDbCircle
 10
485.5000260641933
 20
233.9999104972787
 30
0.0
 40
30.5
100
AcDbArc
 50
270.9393171499808
 51
0.0
  0
ARC
  5
96
330
2
100
AcDbEntity
  8
0
  6
Continuous
 62
     7
 48
10.0
100
AcDbCircle
 10
485.5000260641933
 20
233.9999104972787
 30
0.0
 40
25.5
100
AcDbArc
 50
268.8764813422996
 51
0.0
  0
ARC
  5
97
330
2
100
AcDbEntity
  8
0
  6
Continuous
 62
     7
 48
10.0
100
AcDbCircle
 10
485.5000260641933
 20
233.9999104972787
 30
0.0
 40
19.0
100
AcDbArc
 50
326.0255240497083
 51
0.0
  0
ARC
  5
98
330
2
100
AcDbEntity
  8
0
  6
Continuous
 62
     7
 48
10.0
100
AcDbCircle
 10
485.5000260641933
 20
233.9999104972787
 30
0.0
 40
18.0
100
AcDbArc
 50
326.0255240497083
 51
0.0
  0
LINE
  5
99
330
2
100
AcDbEntity
  8
0
  6
Continuous
 62
     7
 48
10.0
100
AcDbLine
 10
490.5000260641933
 20
242.9999104972787
 30
0.0
 11
490.5000260641933
 21
226.9999104972787
 31
0.0
  0
LINE
  5
9A
330
2
100
AcDbEntity
  8
0
  6
Continuous
 62
     7
 48
10.0
100
AcDbLine
 10
493.5000260641933
 20
242.9999104972787
 30
0.0
 11
493.5000260641933
 21
226.9999104972787
 31
0.0
  0
LINE
  5
9B
330
2
100
AcDbEntity
  8
0
  6
Continuous
 62
     7
 48
10.0
100
AcDbLine
 10
500.5000260641933
 20
242.9999104972787
 30
0.0
 11
500.5000260641933
 21
226.9999104972787
 31
0.0
  0
LINE
  5
9C
330
2
100
AcDbEntity
  8
0
  6
Continuous
 62
     7
 48
10.0
100
AcDbLine
 10
469.2519492549215
 20
222.4999104972787
 30
0.0
 11
499.5978982440651
 21
222.4999104972787
 31
0.0
  0
LINE
  5
9D
330
2
100
AcDbEntity
  8
0
  6
Continuous
 62
     7
 48
10.0
100
AcDbLine
 10
469.2519492549215
 20
223.4999104972787
 30
0.0
 11
499.5978982440651
 21
223.4999104972787
 31
0.0
  0
LINE
  5
9E
330
2
100
AcDbEntity
  8
0
  6
Continuous
 62
     7
 48
10.0
100
AcDbLine
 10
481.5000260641933
 20
199.9999104972786
 30
0.0
 11
478.2673530521724
 21
199.9999104972786
 31
0.0
  0
LINE
  5
9F
330
2
100
AcDbEntity
  8
0
  6
Continuous
 62
     7
 48
10.0
100
AcDbLine
 10
472.5000260641933
 20
224.9999104972787
 30
0.0
 11
488.5000260641933
 21
224.9999104972787
 31
0.0
  0
LINE
  5
A0
330
2
100
AcDbEntity
  8
0
  6
Continuous
 62
     7
 48
10.0
100
AcDbLine
 10
476.1704813226915
 20
204.9618390234996
 30
0.0
 11
477.3014272258833
 21
200.7410914521763
 31
0.0
  0
ARC
  5
A1
330
2
100
AcDbEntity
  8
0
  6
Continuous
 62
     7
 48
10.0
100
AcDbCircle
 10
478.2673530521724
 20
200.9999104972787
 30
0.0
 40
1.0
100
AcDbArc
 50
195.0
 51
270.0
  0
ARC
  5
A2
330
2
100
AcDbEntity
  8
0
  6
Continuous
 62
     7
 48
10.0
100
AcDbCircle
 10
458.0
 20
221.9999545871778
 30
0.0
 40
1.5
100
AcDbArc
 50
131.5325812323702
 51
275.6167166495036
  0
ARC
  5
A3
330
2
100
AcDbEntity
  8
0
  6
Continuous
 62
     7
 48
10.0
100
AcDbCircle
 10
472.5000260641933
 20
226.9999104972787
 30
0.0
 40
2.0
100
AcDbArc
 50
180.0
 51
270.0
  0
ARC
  5
A4
330
2
100
AcDbEntity
  8
0
  6
Continuous
 62
     7
 48
10.0
100
AcDbCircle
 10
469.2519492549215
 20
221.4999104972787
 30
0.0
 40
2.0
100
AcDbArc
 50
90.0
 51
217.5718693196983
  0
ARC
  5
A5
330
2
100
AcDbEntity
  8
0
  6
Continuous
 62
     7
 48
10.0
100
AcDbCircle
 10
469.2519492549215
 20
221.4999104972787
 30
0.0
 40
1.0
100
AcDbArc
 50
90.0
 51
217.5718693196967
  0
LINE
  5
A6
330
2
100
AcDbEntity
  8
0
  6
Continuous
 62
     7
 48
10.0
100
AcDbLine
 10
486.0000260641933
 20
208.5048129293148
 30
0.0
 11
486.0000260641933
 21
203.5040091333249
 31
0.0
  0
LINE
  5
A7
330
2
100
AcDbEntity
  8
0
  6
Continuous
 62
     7
 48
10.0
100
AcDbLine
 10
485.0000260641933
 20
208.5048129293148
 30
0.0
 11
485.0000260641933
 21
203.5040091333249
 31
0.0
  0
LINE
  5
A8
330
2
100
AcDbEntity
  8
0
  6
Continuous
 62
     7
 48
10.0
100
AcDbLine
 10
494.8295708056953
 20
204.9618390234996
 30
0.0
 11
493.6986249025035
 21
200.7410914521763
 31
0.0
  0
LINE
  5
A9
330
2
100
AcDbEntity
  8
0
  6
Continuous
 62
     7
 48
10.0
100
AcDbLine
 10
489.5
 20
201.9999545871779
 30
0.0
 11
489.0
 21
201.9999545871778
 31
0.0
  0
LINE
  5
AA
330
2
100
AcDbEntity
  8
0
  6
Continuous
 62
     7
 48
10.0
100
AcDbLine
 10
489.5000260641933
 20
199.9999104972786
 30
0.0
 11
492.7326990762144
 21
199.9999104972786
 31
0.0
  0
LINE
  5
AB
330
2
100
AcDbEntity
  8
0
  6
Continuous
 62
     7
 48
10.0
100
AcDbLine
 10
489.5000260641933
 20
203.7633432317971
 30
0.0
 11
489.5000260641933
 21
199.9999104972786
 31
0.0
  0
LINE
  5
AC
330
2
100
AcDbEntity
  8
0
  6
Continuous
 62
     7
 48
10.0
100
AcDbLine
 10
481.5000260641933
 20
203.7633432317971
 30
0.0
 11
481.5000260641933
 21
199.9999104972786
 31
0.0
  0
ARC
  5
AD
330
2
100
AcDbEntity
  8
0
  6
Continuous
 62
     7
 48
10.0
100
AcDbCircle
 10
492.7326990762144
 20
200.9999104972787
 30
0.0
 40
1.0
100
AcDbArc
 50
270.0
 51
344.9999999999998
  0
LINE
  5
AE
330
2
100
AcDbEntity
  8
0
  6
Continuous
 62
     7
 48
10.0
100
AcDbLine
 10
485.0000260641933
 20
204.4999104972788
 30
0.0
 11
486.0000260641933
 21
204.4999104972788
 31
0.0
  0
LINE
  5
AF
330
2
100
AcDbEntity
  8
0
  6
Continuous
 62
     7
 48
10.0
100
AcDbLine
 10
485.0000260641933
 20
208.5048129293148
 30
0.0
 11
485.0000260641933
 21
204.4999104972788
 31
0.0
  0
ARC
  5
B0
330
2
100
AcDbEntity
  8
0
  6
Continuous
 62
     7
 48
10.0
100
AcDbCircle
 10
488.5000260641933
 20
226.9999104972787
 30
0.0
 40
2.0
100
AcDbArc
 50
270.0
 51
0.0
  0
ARC
  5
B1
330
2
100
AcDbEntity
  8
0
  6
Continuous
 62
     7
 48
10.0
100
AcDbCircle
 10
498.5000260641933
 20
226.9999104972787
 30
0.0
 40
2.0
100
AcDbArc
 50
270.0
 51
0.0
  0
ARC
  5
B2
330
2
100
AcDbEntity
  8
0
  6
Continuous
 62
     7
 48
10.0
100
AcDbCircle
 10
495.5000260641932
 20
226.9999104972787
 30
0.0
 40
2.0
100
AcDbArc
 50
180.0
 51
270.0
  0
LINE
  5
B3
330
2
100
AcDbEntity
  8
0
  6
Continuous
 62
     7
 48
10.0
100
AcDbLine
 10
495.5000260641932
 20
224.9999104972787
 30
0.0
 11
498.5000260641933
 21
224.9999104972787
 31
0.0
  0
ARC
  5
B4
330
2
100
AcDbEntity
  8
0
  6
Continuous
 62
     7
 48
10.0
100
AcDbCircle
 10
499.5978982440651
 20
224.4999104972787
 30
0.0
 40
2.0
100
AcDbArc
 50
270.0
 51
326.0255240497087
  0
ARC
  5
B5
330
2
100
AcDbEntity
  8
0
  6
Continuous
 62
     7
 48
10.0
100
AcDbCircle
 10
499.5978982440651
 20
224.4999104972787
 30
0.0
 40
1.0
100
AcDbArc
 50
270.0
 51
326.0255240497087
  0
ARC
  5
B6
330
2
100
AcDbEntity
  8
0
  6
Continuous
 62
     7
 48
10.0
100
AcDbCircle
 10
513.0
 20
221.9999545871778
 30
0.0
 40
1.5
100
AcDbArc
 50
264.3832833504964
 51
48.46741876762974
  0
LINE
  5
B7
330
2
100
AcDbEntity
  8
0
  6
Continuous
 62
     7
 48
10.0
100
AcDbLine
 10
475.0
 20
310.9999545871779
 30
0.0
 11
475.0
 21
334.4999545871778
 31
0.0
  0
LINE
  5
B8
330
2
100
AcDbEntity
  8
0
  6
Continuous
 62
     7
 48
10.0
100
AcDbLine
 10
477.5
 20
332.1999545871779
 30
0.0
 11
477.5
 21
313.7999545871778
 31
0.0
  0
LINE
  5
B9
330
2
100
AcDbEntity
  8
0
  6
Continuous
 62
     7
 48
10.0
100
AcDbLine
 10
473.0
 20
335.9999545871779
 30
0.0
 11
473.0
 21
309.9999545871778
 31
0.0
  0
ARC
  5
BA
330
2
100
AcDbEntity
  8
0
  6
Continuous
 62
     7
 48
10.0
100
AcDbCircle
 10
658.0527638411889
 20
268.5451010716276
 30
0.0
 40
200.0
100
AcDbArc
 50
160.3761762507214
 51
167.2296023051756
  0
ARC
  5
BB
330
2
100
AcDbEntity
  8
0
  6
Continuous
 62
     7
 48
10.0
100
AcDbCircle
 10
657.7442033757262
 20
267.0357246943264
 30
0.0
 40
199.0
100
AcDbArc
 50
159.897375185133
 51
166.8024912361809
  0
LINE
  5
BC
330
2
100
AcDbEntity
  8
0
  6
Continuous
 62
     7
 48
10.0
100
AcDbLine
 10
496.0
 20
310.9999545871779
 30
0.0
 11
496.0
 21
334.4999545871778
 31
0.0
  0
LINE
  5
BD
330
2
100
AcDbEntity
  8
0
  6
Continuous
 62
     7
 48
10.0
100
AcDbLine
 10
493.5
 20
332.1999545871779
 30
0.0
 11
493.5
 21
313.7999545871778
 31
0.0
  0
LINE
  5
BE
330
2
100
AcDbEntity
  8
0
  6
Continuous
 62
     7
 48
10.0
100
AcDbLine
 10
498.0
 20
335.9999545871779
 30
0.0
 11
498.0
 21
309.9999545871778
 31
0.0
  0
ARC
  5
BF
330
2
100
AcDbEntity
  8
0
  6
Continuous
 62
     7
 48
10.0
100
AcDbCircle
 10
313.2558487526605
 20
267.0357246943265
 30
0.0
 40
199.0
100
AcDbArc
 50
13.1975087638191
 51
20.10262481486689
  0
ARC
  5
C0
330
2
100
AcDbEntity
  8
0
  6
Continuous
 62
     7
 48
10.0
100
AcDbCircle
 10
312.9472882871978
 20
268.5451010716276
 30
0.0
 40
200.0
100
AcDbArc
 50
12.77039769482443
 51
19.62382374927853
  0
LINE
  5
C1
330
2
100
AcDbEntity
  8
0
  6
Continuous
 62
     7
 48
10.0
100
AcDbLine
 10
463.0000260641933
 20
312.7540310032443
 30
0.0
 11
463.0000260641933
 21
248.4999104972787
 31
0.0
  0
LINE
  5
C2
330
2
100
AcDbEntity
  8
0
  6
Continuous
 62
     7
 48
10.0
100
AcDbLine
 10
507.0000260641933
 20
312.4691238394187
 30
0.0
 11
507.0000260641933
 21
233.9999104972787
 31
0.0
  0
LINE
  5
C3
330
2
100
AcDbEntity
  8
0
  6
Continuous
 62
     7
 48
10.0
100
AcDbLine
 10
464.0000260641933
 20
312.4691238394188
 30
0.0
 11
464.0000260641933
 21
248.4999104972787
 31
0.0
  0
LINE
  5
C4
330
2
100
AcDbEntity
  8
0
  6
Continuous
 62
     7
 48
10.0
100
AcDbLine
 10
508.0000260641932
 20
312.7540310032441
 30
0.0
 11
508.0000260641932
 21
233.9999104972787
 31
0.0
  0
LINE
  5
C5
330
2
100
AcDbEntity
  8
0
  6
Continuous
 62
     7
 48
10.0
100
AcDbLine
 10
477.5000260641933
 20
300.4999104972787
 30
0.0
 11
477.5000260641933
 21
253.4999104972787
 31
0.0
  0
LINE
  5
C6
330
2
100
AcDbEntity
  8
0
  6
Continuous
 62
     7
 48
10.0
100
AcDbLine
 10
478.5000260641933
 20
300.4999104972787
 30
0.0
 11
478.5000260641933
 21
253.4999104972787
 31
0.0
  0
LINE
  5
C7
330
2
100
AcDbEntity
  8
0
  6
Continuous
 62
     7
 48
10.0
100
AcDbLine
 10
466.5000260641932
 20
300.4999104972787
 30
0.0
 11
466.5000260641932
 21
253.4999104972787
 31
0.0
  0
LINE
  5
C8
330
2
100
AcDbEntity
  8
0
  6
Continuous
 62
     7
 48
10.0
100
AcDbLine
 10
467.5000260641933
 20
300.4999104972787
 30
0.0
 11
467.5000260641933
 21
253.4999104972787
 31
0.0
  0
LINE
  5
C9
330
2
100
AcDbEntity
  8
0
  6
Continuous
 62
     7
 48
10.0
100
AcDbLine
 10
481.5000260641933
 20
300.4999104972787
 30
0.0
 11
481.5000260641933
 21
253.4999104972787
 31
0.0
  0
LINE
  5
CA
330
2
100
AcDbEntity
  8
0
  6
Continuous
 62
     7
 48
10.0
100
AcDbLine
 10
482.5000260641933
 20
300.4999104972787
 30
0.0
 11
482.5000260641933
 21
253.4999104972787
 31
0.0
  0
LINE
  5
CB
330
2
100
AcDbEntity
  8
0
  6
Continuous
 62
     7
 48
10.0
100
AcDbLine
 10
504.5000260641933
 20
300.4999104972787
 30
0.0
 11
504.5000260641933
 21
253.4999104972787
 31
0.0
  0
LINE
  5
CC
330
2
100
AcDbEntity
  8
0
  6
Continuous
 62
     7
 48
10.0
100
AcDbLine
 10
503.5000260641933
 20
300.4999104972787
 30
0.0
 11
503.5000260641933
 21
253.4999104972787
 31
0.0
  0
LINE
  5
CD
330
2
100
AcDbEntity
  8
0
  6
Continuous
 62
     7
 48
10.0
100
AcDbLine
 10
460.0000260641933
 20
289.9999104972788
 30
0.0
 11
460.0000260641933
 21
233.9999104972787
 31
0.0
  0
LINE
  5
CE
330
2
100
AcDbEntity
  8
0
  6
Continuous
 62
     7
 48
10.0
100
AcDbLine
 10
455.5000260641933
 20
289.9999104972788
 30
0.0
 11
455.5000260641933
 21
233.9999104972787
 31
0.0
  0
LINE
  5
CF
330
2
100
AcDbEntity
  8
0
  6
Continuous
 62
     7
 48
10.0
100
AcDbLine
 10
515.5000260641933
 20
289.9999104972788
 30
0.0
 11
515.5000260641933
 21
233.9999104972787
 31
0.0
  0
LINE
  5
D0
330
2
100
AcDbEntity
  8
0
  6
Continuous
 62
     7
 48
10.0
100
AcDbLine
 10
511.0000260641933
 20
289.9999104972788
 30
0.0
 11
511.0000260641933
 21
233.9999104972787
 31
0.0
  0
ARC
  5
D1
330
2
100
AcDbEntity
  8
0
  6
Continuous
 62
     7
 48
10.0
100
AcDbCircle
 10
475.5000260641933
 20
274.4999104972787
 30
0.0
 40
1.0
100
AcDbArc
 50
270.0
 51
0.0
  0
ARC
  5
D2
330
2
100
AcDbEntity
  8
0
  6
Continuous
 62
     7
 48
10.0
100
AcDbCircle
 10
469.5000260641933
 20
274.4999104972787
 30
0.0
 40
1.0
100
AcDbArc
 50
180.0
 51
270.0
  0
LINE
  5
D3
330
2
100
AcDbEntity
  8
0
  6
Continuous
 62
     7
 48
10.0
100
AcDbLine
 10
465.0000260641933
 20
247.4999104972787
 30
0.0
 11
502.5000260641933
 21
247.4999104972787
 31
0.0
  0
LINE
  5
D4
330
2
100
AcDbEntity
  8
0
  6
Continuous
 62
     7
 48
10.0
100
AcDbLine
 10
465.0000260641933
 20
246.4999104972787
 30
0.0
 11
502.5000260641933
 21
246.4999104972787
 31
0.0
  0
LINE
  5
D5
330
2
100
AcDbEntity
  8
0
  6
Continuous
 62
     7
 48
10.0
100
AcDbLine
 10
472.5000260641933
 20
244.9999104972787
 30
0.0
 11
488.5000260641933
 21
244.9999104972787
 31
0.0
  0
LINE
  5
D6
330
2
100
AcDbEntity
  8
0
  6
Continuous
 62
     7
 48
10.0
100
AcDbLine
 10
455.0000260641933
 20
233.9999104972787
 30
0.0
 11
455.0000260641933
 21
265.9999104972787
 31
0.0
  0
ARC
  5
D7
330
2
100
AcDbEntity
  8
0
  6
Continuous
 62
     7
 48
10.0
100
AcDbCircle
 10
455.4367048406793
 20
231.9999545871779
 30
0.0
 40
1.5
100
AcDbArc
 50
106.7194089160224
 51
260.8925669906589
  0
ARC
  5
D8
330
2
100
AcDbEntity
  8
0
  6
Continuous
 62
     7
 48
10.0
100
AcDbCircle
 10
455.2808719436624
 20
241.999954587178
 30
0.0
 40
1.5
100
AcDbArc
 50
100.7932353174994
 51
259.2067646825005
  0
ARC
  5
D9
330
2
100
AcDbEntity
  8
0
  6
Continuous
 62
     7
 48
10.0
100
AcDbCircle
 10
472.5000260641933
 20
242.9999104972787
 30
0.0
 40
2.0
100
AcDbArc
 50
90.0
 51
180.0
  0
ARC
  5
DA
330
2
100
AcDbEntity
  8
0
  6
Continuous
 62
     7
 48
10.0
100
AcDbCircle
 10
465.0000260641933
 20
248.4999104972787
 30
0.0
 40
2.0
100
AcDbArc
 50
180.0
 51
270.0
  0
ARC
  5
DB
330
2
100
AcDbEntity
  8
0
  6
Continuous
 62
     7
 48
10.0
100
AcDbCircle
 10
465.0000260641933
 20
248.4999104972787
 30
0.0
 40
1.0
100
AcDbArc
 50
180.0
 51
270.0
  0
LINE
  5
DC
330
2
100
AcDbEntity
  8
0
  6
Continuous
 62
     7
 48
10.0
100
AcDbLine
 10
455.0000260641933
 20
265.9999104972787
 30
0.0
 11
455.5000260641933
 21
265.9999104972787
 31
0.0
  0
LINE
  5
DD
330
2
100
AcDbEntity
  8
0
  6
Continuous
 62
     7
 48
10.0
100
AcDbLine
 10
468.5000260641933
 20
269.4999104972787
 30
0.0
 11
468.5000260641933
 21
264.4999104972787
 31
0.0
  0
LINE
  5
DE
330
2
100
AcDbEntity
  8
0
  6
Continuous
 62
     7
 48
10.0
100
AcDbLine
 10
476.5000260641933
 20
269.4999104972787
 30
0.0
 11
476.5000260641933
 21
264.4999104972787
 31
0.0
  0
ARC
  5
DF
330
2
100
AcDbEntity
  8
0
  6
Continuous
 62
     7
 48
10.0
100
AcDbCircle
 10
476.5000260641933
 20
253.4999104972787
 30
0.0
 40
2.0
100
AcDbArc
 50
270.0
 51
0.0
  0
ARC
  5
E0
330
2
100
AcDbEntity
  8
0
  6
Continuous
 62
     7
 48
10.0
100
AcDbCircle
 10
469.5000260641933
 20
264.4999104972787
 30
0.0
 40
1.0
100
AcDbArc
 50
180.0
 51
270.0
  0
LINE
  5
E1
330
2
100
AcDbEntity
  8
0
  6
Continuous
 62
     7
 48
10.0
100
AcDbLine
 10
469.5000260641933
 20
263.4999104972787
 30
0.0
 11
475.5000260641933
 21
263.4999104972787
 31
0.0
  0
ARC
  5
E2
330
2
100
AcDbEntity
  8
0
  6
Continuous
 62
     7
 48
10.0
100
AcDbCircle
 10
475.5000260641933
 20
264.4999104972787
 30
0.0
 40
1.0
100
AcDbArc
 50
270.0
 51
0.0
  0
ARC
  5
E3
330
2
100
AcDbEntity
  8
0
  6
Continuous
 62
     7
 48
10.0
100
AcDbCircle
 10
475.5000260641933
 20
259.4999104972787
 30
0.0
 40
1.0
100
AcDbArc
 50
0.0
 51
90.0
  0
LINE
  5
E4
330
2
100
AcDbEntity
  8
0
  6
Continuous
 62
     7
 48
10.0
100
AcDbLine
 10
476.5000260641933
 20
259.4999104972787
 30
0.0
 11
476.5000260641933
 21
254.4999104972788
 31
0.0
  0
LINE
  5
E5
330
2
100
AcDbEntity
  8
0
  6
Continuous
 62
     7
 48
10.0
100
AcDbLine
 10
469.5000260641933
 20
260.4999104972787
 30
0.0
 11
475.5000260641933
 21
260.4999104972787
 31
0.0
  0
ARC
  5
E6
330
2
100
AcDbEntity
  8
0
  6
Continuous
 62
     7
 48
10.0
100
AcDbCircle
 10
475.5000260641933
 20
254.4999104972788
 30
0.0
 40
1.0
100
AcDbArc
 50
270.0
 51
0.0
  0
LINE
  5
E7
330
2
100
AcDbEntity
  8
0
  6
Continuous
 62
     7
 48
10.0
100
AcDbLine
 10
469.5000260641933
 20
253.4999104972787
 30
0.0
 11
475.5000260641933
 21
253.4999104972787
 31
0.0
  0
ARC
  5
E8
330
2
100
AcDbEntity
  8
0
  6
Continuous
 62
     7
 48
10.0
100
AcDbCircle
 10
469.5000260641933
 20
254.4999104972788
 30
0.0
 40
1.0
100
AcDbArc
 50
180.0
 51
270.0
  0
LINE
  5
E9
330
2
100
AcDbEntity
  8
0
  6
Continuous
 62
     7
 48
10.0
100
AcDbLine
 10
468.5000260641933
 20
259.4999104972787
 30
0.0
 11
468.5000260641933
 21
254.4999104972788
 31
0.0
  0
ARC
  5
EA
330
2
100
AcDbEntity
  8
0
  6
Continuous
 62
     7
 48
10.0
100
AcDbCircle
 10
469.5000260641933
 20
259.4999104972787
 30
0.0
 40
1.0
100
AcDbArc
 50
90.0
 51
180.0
  0
ARC
  5
EB
330
2
100
AcDbEntity
  8
0
  6
Continuous
 62
     7
 48
10.0
100
AcDbCircle
 10
476.5000260641933
 20
253.4999104972787
 30
0.0
 40
1.0
100
AcDbArc
 50
270.0
 51
0.0
  0
ARC
  5
EC
330
2
100
AcDbEntity
  8
0
  6
Continuous
 62
     7
 48
10.0
100
AcDbCircle
 10
468.5000260641933
 20
253.4999104972787
 30
0.0
 40
1.0
100
AcDbArc
 50
180.0
 51
270.0
  0
ARC
  5
ED
330
2
100
AcDbEntity
  8
0
  6
Continuous
 62
     7
 48
10.0
100
AcDbCircle
 10
468.5000260641933
 20
253.4999104972787
 30
0.0
 40
2.0
100
AcDbArc
 50
180.0
 51
270.0
  0
LINE
  5
EE
330
2
100
AcDbEntity
  8
0
  6
Continuous
 62
     7
 48
10.0
100
AcDbLine
 10
468.5000260641933
 20
252.4999104972788
 30
0.0
 11
476.5000260641933
 21
252.4999104972788
 31
0.0
  0
LINE
  5
EF
330
2
100
AcDbEntity
  8
0
  6
Continuous
 62
     7
 48
10.0
100
AcDbLine
 10
468.5000260641933
 20
251.4999104972787
 30
0.0
 11
476.5000260641933
 21
251.4999104972787
 31
0.0
  0
ARC
  5
F0
330
2
100
AcDbEntity
  8
0
  6
Continuous
 62
     7
 48
10.0
100
AcDbCircle
 10
469.5000260641933
 20
269.4999104972787
 30
0.0
 40
1.0
100
AcDbArc
 50
90.0
 51
180.0
  0
LINE
  5
F1
330
2
100
AcDbEntity
  8
0
  6
Continuous
 62
     7
 48
10.0
100
AcDbLine
 10
469.5000260641933
 20
270.4999104972787
 30
0.0
 11
475.5000260641933
 21
270.4999104972787
 31
0.0
  0
ARC
  5
F2
330
2
100
AcDbEntity
  8
0
  6
Continuous
 62
     7
 48
10.0
100
AcDbCircle
 10
475.5000260641933
 20
269.4999104972787
 30
0.0
 40
1.0
100
AcDbArc
 50
0.0
 51
90.0
  0
LINE
  5
F3
330
2
100
AcDbEntity
  8
0
  6
Continuous
 62
     7
 48
10.0
100
AcDbLine
 10
469.5000260641933
 20
273.4999104972787
 30
0.0
 11
475.5000260641933
 21
273.4999104972787
 31
0.0
  0
LINE
  5
F4
330
2
100
AcDbEntity
  8
0
  6
Continuous
 62
     7
 48
10.0
100
AcDbLine
 10
516.0000260641933
 20
233.9999104972787
 30
0.0
 11
516.0000260641933
 21
265.9999104972787
 31
0.0
  0
ARC
  5
F5
330
2
100
AcDbEntity
  8
0
  6
Continuous
 62
     7
 48
10.0
100
AcDbCircle
 10
488.5000260641933
 20
242.9999104972787
 30
0.0
 40
2.0
100
AcDbArc
 50
0.0
 51
90.0
  0
ARC
  5
F6
330
2
100
AcDbEntity
  8
0
  6
Continuous
 62
     7
 48
10.0
100
AcDbCircle
 10
498.5000260641933
 20
242.9999104972787
 30
0.0
 40
2.0
100
AcDbArc
 50
0.0
 51
90.0
  0
ARC
  5
F7
330
2
100
AcDbEntity
  8
0
  6
Continuous
 62
     7
 48
10.0
100
AcDbCircle
 10
495.5000260641932
 20
242.9999104972787
 30
0.0
 40
2.0
100
AcDbArc
 50
90.0
 51
180.0
  0
LINE
  5
F8
330
2
100
AcDbEntity
  8
0
  6
Continuous
 62
     7
 48
10.0
100
AcDbLine
 10
495.5000260641932
 20
244.9999104972787
 30
0.0
 11
498.5000260641933
 21
244.9999104972787
 31
0.0
  0
LINE
  5
F9
330
2
100
AcDbEntity
  8
0
  6
Continuous
 62
     7
 48
10.0
100
AcDbLine
 10
504.5000260641933
 20
245.4999104972787
 30
0.0
 11
504.5000260641933
 21
233.9999104972787
 31
0.0
  0
LINE
  5
FA
330
2
100
AcDbEntity
  8
0
  6
Continuous
 62
     7
 48
10.0
100
AcDbLine
 10
503.5000260641933
 20
245.4999104972787
 30
0.0
 11
503.5000260641933
 21
233.9999104972787
 31
0.0
  0
ARC
  5
FB
330
2
100
AcDbEntity
  8
0
  6
Continuous
 62
     7
 48
10.0
100
AcDbCircle
 10
515.5632951593205
 20
231.9999545871779
 30
0.0
 40
1.5
100
AcDbArc
 50
279.107433009341
 51
73.28059108397757
  0
ARC
  5
FC
330
2
100
AcDbEntity
  8
0
  6
Continuous
 62
     7
 48
10.0
100
AcDbCircle
 10
515.7191280563373
 20
241.999954587178
 30
0.0
 40
1.5
100
AcDbArc
 50
280.7932353174995
 51
79.20676468250055
  0
ARC
  5
FD
330
2
100
AcDbEntity
  8
0
  6
Continuous
 62
     7
 48
10.0
100
AcDbCircle
 10
502.5000260641933
 20
245.4999104972787
 30
0.0
 40
2.0
100
AcDbArc
 50
0.0
 51
90.0
  0
ARC
  5
FE
330
2
100
AcDbEntity
  8
0
  6
Continuous
 62
     7
 48
10.0
100
AcDbCircle
 10
502.5000260641933
 20
245.4999104972787
 30
0.0
 40
1.0
100
AcDbArc
 50
0.0
 51
90.0
  0
LINE
  5
FF
330
2
100
AcDbEntity
  8
0
  6
Continuous
 62
     7
 48
10.0
100
AcDbLine
 10
483.5000260641932
 20
251.4999104972787
 30
0.0
 11
502.5000260641933
 21
251.4999104972787
 31
0.0
  0
LINE
  5
100
330
2
100
AcDbEntity
  8
0
  6
Continuous
 62
     7
 48
10.0
100
AcDbLine
 10
483.5000260641932
 20
252.4999104972788
 30
0.0
 11
502.5000260641933
 21
252.4999104972788
 31
0.0
  0
ARC
  5
101
330
2
100
AcDbEntity
  8
0
  6
Continuous
 62
     7
 48
10.0
100
AcDbCircle
 10
483.5000260641932
 20
253.4999104972787
 30
0.0
 40
2.0
100
AcDbArc
 50
180.0
 51
270.0
  0
ARC
  5
102
330
2
100
AcDbEntity
  8
0
  6
Continuous
 62
     7
 48
10.0
100
AcDbCircle
 10
483.5000260641932
 20
253.4999104972787
 30
0.0
 40
1.0
100
AcDbArc
 50
180.0
 51
270.0
  0
LINE
  5
103
330
2
100
AcDbEntity
  8
0
  6
Continuous
 62
     7
 48
10.0
100
AcDbLine
 10
516.0000260641933
 20
265.9999104972787
 30
0.0
 11
515.5000260641933
 21
265.9999104972787
 31
0.0
  0
ARC
  5
104
330
2
100
AcDbEntity
  8
0
  6
Continuous
 62
     7
 48
10.0
100
AcDbCircle
 10
502.5000260641933
 20
253.4999104972787
 30
0.0
 40
2.0
100
AcDbArc
 50
270.0
 51
0.0
  0
ARC
  5
105
330
2
100
AcDbEntity
  8
0
  6
Continuous
 62
     7
 48
10.0
100
AcDbCircle
 10
502.5000260641933
 20
253.4999104972787
 30
0.0
 40
1.0
100
AcDbArc
 50
270.0
 51
0.0
  0
LINE
  5
106
330
2
100
AcDbEntity
  8
0
  6
Continuous
 62
     7
 48
10.0
100
AcDbLine
 10
477.0
 20
308.9999545871779
 30
0.0
 11
494.0
 21
308.9999545871779
 31
0.0
  0
LINE
  5
107
330
2
100
AcDbEntity
  8
0
  6
Continuous
 62
     7
 48
10.0
100
AcDbLine
 10
492.6999999999999
 20
312.9999545871779
 30
0.0
 11
478.2999999999998
 21
312.9999545871779
 31
0.0
  0
LINE
  5
108
330
2
100
AcDbEntity
  8
0
  6
Continuous
 62
     7
 48
10.0
100
AcDbLine
 10
495.0
 20
306.9999545871779
 30
0.0
 11
476.0
 21
306.9999545871779
 31
0.0
  0
ARC
  5
109
330
2
100
AcDbEntity
  8
0
  6
Continuous
 62
     7
 48
10.0
100
AcDbCircle
 10
485.5000260641933
 20
289.9999104972788
 30
0.0
 40
25.5
100
AcDbArc
 50
151.9275130641469
 51
180.0
  0
ARC
  5
10A
330
2
100
AcDbEntity
  8
0
  6
Continuous
 62
     7
 48
10.0
100
AcDbCircle
 10
485.5000260641933
 20
289.9999104972788
 30
0.0
 40
30.0
100
AcDbArc
 50
138.5903778907291
 51
180.0
  0
LINE
  5
10B
330
2
100
AcDbEntity
  8
0
  6
Continuous
 62
     7
 48
10.0
100
AcDbLine
 10
468.5000260641933
 20
299.4999104972787
 30
0.0
 11
468.5000260641933
 21
294.4999104972787
 31
0.0
  0
LINE
  5
10C
330
2
100
AcDbEntity
  8
0
  6
Continuous
 62
     7
 48
10.0
100
AcDbLine
 10
476.5000260641933
 20
299.4999104972787
 30
0.0
 11
476.5000260641933
 21
294.4999104972787
 31
0.0
  0
ARC
  5
10D
330
2
100
AcDbEntity
  8
0
  6
Continuous
 62
     7
 48
10.0
100
AcDbCircle
 10
469.5000260641933
 20
289.4999104972787
 30
0.0
 40
1.0
100
AcDbArc
 50
90.0
 51
180.0
  0
ARC
  5
10E
330
2
100
AcDbEntity
  8
0
  6
Continuous
 62
     7
 48
10.0
100
AcDbCircle
 10
475.5000260641933
 20
289.4999104972787
 30
0.0
 40
1.0
100
AcDbArc
 50
0.0
 51
90.0
  0
LINE
  5
10F
330
2
100
AcDbEntity
  8
0
  6
Continuous
 62
     7
 48
10.0
100
AcDbLine
 10
469.5000260641933
 20
290.4999104972787
 30
0.0
 11
475.5000260641933
 21
290.4999104972787
 31
0.0
  0
LINE
  5
110
330
2
100
AcDbEntity
  8
0
  6
Continuous
 62
     7
 48
10.0
100
AcDbLine
 10
468.5000260641933
 20
289.4999104972787
 30
0.0
 11
468.5000260641933
 21
284.4999104972787
 31
0.0
  0
LINE
  5
111
330
2
100
AcDbEntity
  8
0
  6
Continuous
 62
     7
 48
10.0
100
AcDbLine
 10
476.5000260641933
 20
289.4999104972787
 30
0.0
 11
476.5000260641933
 21
284.4999104972787
 31
0.0
  0
ARC
  5
112
330
2
100
AcDbEntity
  8
0
  6
Continuous
 62
     7
 48
10.0
100
AcDbCircle
 10
469.5000260641933
 20
284.4999104972787
 30
0.0
 40
1.0
100
AcDbArc
 50
180.0
 51
270.0
  0
LINE
  5
113
330
2
100
AcDbEntity
  8
0
  6
Continuous
 62
     7
 48
10.0
100
AcDbLine
 10
469.5000260641933
 20
283.4999104972787
 30
0.0
 11
475.5000260641933
 21
283.4999104972787
 31
0.0
  0
ARC
  5
114
330
2
100
AcDbEntity
  8
0
  6
Continuous
 62
     7
 48
10.0
100
AcDbCircle
 10
475.5000260641933
 20
284.4999104972787
 30
0.0
 40
1.0
100
AcDbArc
 50
270.0
 51
0.0
  0
ARC
  5
115
330
2
100
AcDbEntity
  8
0
  6
Continuous
 62
     7
 48
10.0
100
AcDbCircle
 10
475.5000260641933
 20
279.4999104972788
 30
0.0
 40
1.0
100
AcDbArc
 50
0.0
 51
90.0
  0
ARC
  5
116
330
2
100
AcDbEntity
  8
0
  6
Continuous
 62
     7
 48
10.0
100
AcDbCircle
 10
469.5000260641933
 20
279.4999104972788
 30
0.0
 40
1.0
100
AcDbArc
 50
90.0
 51
180.0
  0
LINE
  5
117
330
2
100
AcDbEntity
  8
0
  6
Continuous
 62
     7
 48
10.0
100
AcDbLine
 10
469.5000260641933
 20
280.4999104972787
 30
0.0
 11
475.5000260641933
 21
280.4999104972787
 31
0.0
  0
LINE
  5
118
330
2
100
AcDbEntity
  8
0
  6
Continuous
 62
     7
 48
10.0
100
AcDbLine
 10
476.5000260641933
 20
279.4999104972788
 30
0.0
 11
476.5000260641933
 21
274.4999104972787
 31
0.0
  0
LINE
  5
119
330
2
100
AcDbEntity
  8
0
  6
Continuous
 62
     7
 48
10.0
100
AcDbLine
 10
468.5000260641933
 20
279.4999104972788
 30
0.0
 11
468.5000260641933
 21
274.4999104972787
 31
0.0
  0
ARC
  5
11A
330
2
100
AcDbEntity
  8
0
  6
Continuous
 62
     7
 48
10.0
100
AcDbCircle
 10
469.5000260641933
 20
294.4999104972787
 30
0.0
 40
1.0
100
AcDbArc
 50
180.0
 51
270.0
  0
ARC
  5
11B
330
2
100
AcDbEntity
  8
0
  6
Continuous
 62
     7
 48
10.0
100
AcDbCircle
 10
475.5000260641933
 20
294.4999104972787
 30
0.0
 40
1.0
100
AcDbArc
 50
270.0
 51
0.0
  0
LINE
  5
11C
330
2
100
AcDbEntity
  8
0
  6
Continuous
 62
     7
 48
10.0
100
AcDbLine
 10
469.5000260641933
 20
293.4999104972787
 30
0.0
 11
475.5000260641933
 21
293.4999104972787
 31
0.0
  0
LINE
  5
11D
330
2
100
AcDbEntity
  8
0
  6
Continuous
 62
     7
 48
10.0
100
AcDbLine
 10
477.5
 20
312.9999545871779
 30
0.0
 11
476.0
 21
310.9999545871779
 31
0.0
  0
ARC
  5
11E
330
2
100
AcDbEntity
  8
0
  6
Continuous
 62
     7
 48
10.0
100
AcDbCircle
 10
477.0
 20
310.9999545871779
 30
0.0
 40
2.0
100
AcDbArc
 50
180.0
 51
270.0
  0
ARC
  5
11F
330
2
100
AcDbEntity
  8
0
  6
Continuous
 62
     7
 48
10.0
100
AcDbCircle
 10
478.2999999999998
 20
313.7999545871778
 30
0.0
 40
0.8
100
AcDbArc
 50
180.0
 51
270.0
  0
ARC
  5
120
330
2
100
AcDbEntity
  8
0
  6
Continuous
 62
     7
 48
10.0
100
AcDbCircle
 10
476.0
 20
309.9999545871778
 30
0.0
 40
3.0
100
AcDbArc
 50
180.0
 51
270.0
  0
ARC
  5
121
330
2
100
AcDbEntity
  8
0
  6
Continuous
 62
     7
 48
10.0
100
AcDbCircle
 10
476.5000260641933
 20
300.4999104972787
 30
0.0
 40
2.0
100
AcDbArc
 50
0.0
 51
90.0
  0
ARC
  5
122
330
2
100
AcDbEntity
  8
0
  6
Continuous
 62
     7
 48
10.0
100
AcDbCircle
 10
469.5000260641933
 20
299.4999104972787
 30
0.0
 40
1.0
100
AcDbArc
 50
90.0
 51
180.0
  0
LINE
  5
123
330
2
100
AcDbEntity
  8
0
  6
Continuous
 62
     7
 48
10.0
100
AcDbLine
 10
469.5000260641933
 20
300.4999104972787
 30
0.0
 11
475.5000260641933
 21
300.4999104972787
 31
0.0
  0
ARC
  5
124
330
2
100
AcDbEntity
  8
0
  6
Continuous
 62
     7
 48
10.0
100
AcDbCircle
 10
475.5000260641933
 20
299.4999104972787
 30
0.0
 40
1.0
100
AcDbArc
 50
0.0
 51
90.0
  0
ARC
  5
125
330
2
100
AcDbEntity
  8
0
  6
Continuous
 62
     7
 48
10.0
100
AcDbCircle
 10
476.5000260641933
 20
300.4999104972787
 30
0.0
 40
1.0
100
AcDbArc
 50
0.0
 51
90.0
  0
ARC
  5
126
330
2
100
AcDbEntity
  8
0
  6
Continuous
 62
     7
 48
10.0
100
AcDbCircle
 10
468.5000260641933
 20
300.4999104972787
 30
0.0
 40
1.0
100
AcDbArc
 50
90.0
 51
180.0
  0
ARC
  5
127
330
2
100
AcDbEntity
  8
0
  6
Continuous
 62
     7
 48
10.0
100
AcDbCircle
 10
468.5000260641933
 20
300.4999104972787
 30
0.0
 40
2.0
100
AcDbArc
 50
90.0
 51
180.0
  0
LINE
  5
128
330
2
100
AcDbEntity
  8
0
  6
Continuous
 62
     7
 48
10.0
100
AcDbLine
 10
468.5000260641933
 20
302.4999104972788
 30
0.0
 11
476.5000260641933
 21
302.4999104972788
 31
0.0
  0
LINE
  5
129
330
2
100
AcDbEntity
  8
0
  6
Continuous
 62
     7
 48
10.0
100
AcDbLine
 10
468.5000260641933
 20
301.4999104972787
 30
0.0
 11
476.5000260641933
 21
301.4999104972787
 31
0.0
  0
ARC
  5
12A
330
2
100
AcDbEntity
  8
0
  6
Continuous
 62
     7
 48
10.0
100
AcDbCircle
 10
485.5000260641933
 20
289.9999104972788
 30
0.0
 40
25.5
100
AcDbArc
 50
0.0
 51
28.07248693585296
  0
ARC
  5
12B
330
2
100
AcDbEntity
  8
0
  6
Continuous
 62
     7
 48
10.0
100
AcDbCircle
 10
485.5000260641933
 20
289.9999104972788
 30
0.0
 40
30.0
100
AcDbArc
 50
0.0
 51
41.40962210927084
  0
LINE
  5
12C
330
2
100
AcDbEntity
  8
0
  6
Continuous
 62
     7
 48
10.0
100
AcDbLine
 10
483.5000260641932
 20
301.4999104972787
 30
0.0
 11
502.5000260641933
 21
301.4999104972787
 31
0.0
  0
LINE
  5
12D
330
2
100
AcDbEntity
  8
0
  6
Continuous
 62
     7
 48
10.0
100
AcDbLine
 10
483.5000260641932
 20
302.4999104972788
 30
0.0
 11
502.5000260641933
 21
302.4999104972788
 31
0.0
  0
LINE
  5
12E
330
2
100
AcDbEntity
  8
0
  6
Continuous
 62
     7
 48
10.0
100
AcDbLine
 10
493.5
 20
312.9999545871779
 30
0.0
 11
495.0
 21
310.9999545871779
 31
0.0
  0
ARC
  5
12F
330
2
100
AcDbEntity
  8
0
  6
Continuous
 62
     7
 48
10.0
100
AcDbCircle
 10
494.0
 20
310.9999545871779
 30
0.0
 40
2.0
100
AcDbArc
 50
270.0
 51
0.0
  0
ARC
  5
130
330
2
100
AcDbEntity
  8
0
  6
Continuous
 62
     7
 48
10.0
100
AcDbCircle
 10
492.6999999999999
 20
313.7999545871778
 30
0.0
 40
0.8
100
AcDbArc
 50
270.0
 51
0.0
  0
ARC
  5
131
330
2
100
AcDbEntity
  8
0
  6
Continuous
 62
     7
 48
10.0
100
AcDbCircle
 10
495.0
 20
309.9999545871778
 30
0.0
 40
3.0
100
AcDbArc
 50
270.0
 51
0.0
  0
ARC
  5
132
330
2
100
AcDbEntity
  8
0
  6
Continuous
 62
     7
 48
10.0
100
AcDbCircle
 10
483.5000260641932
 20
300.4999104972787
 30
0.0
 40
2.0
100
AcDbArc
 50
90.0
 51
180.0
  0
ARC
  5
133
330
2
100
AcDbEntity
  8
0
  6
Continuous
 62
     7
 48
10.0
100
AcDbCircle
 10
483.5000260641932
 20
300.4999104972787
 30
0.0
 40
1.0
100
AcDbArc
 50
90.0
 51
180.0
  0
ARC
  5
134
330
2
100
AcDbEntity
  8
0
  6
Continuous
 62
     7
 48
10.0
100
AcDbCircle
 10
502.5000260641933
 20
300.4999104972787
 30
0.0
 40
2.0
100
AcDbArc
 50
0.0
 51
90.0
  0
ARC
  5
135
330
2
100
AcDbEntity
  8
0
  6
Continuous
 62
     7
 48
10.0
100
AcDbCircle
 10
502.5000260641933
 20
300.4999104972787
 30
0.0
 40
1.0
100
AcDbArc
 50
0.0
 51
90.0
  0
LINE
  5
136
330
2
100
AcDbEntity
  8
0
  6
Continuous
 62
     7
 48
10.0
100
AcDbLine
 10
477.0
 20
336.4999545871778
 30
0.0
 11
494.0
 21
336.4999545871778
 31
0.0
  0
LINE
  5
137
330
2
100
AcDbEntity
  8
0
  6
Continuous
 62
     7
 48
10.0
100
AcDbLine
 10
478.2999999999998
 20
332.9999545871779
 30
0.0
 11
492.6999999999999
 21
332.9999545871779
 31
0.0
  0
LINE
  5
138
330
2
100
AcDbEntity
  8
0
  6
Continuous
 62
     7
 48
10.0
100
AcDbLine
 10
495.0
 20
338.9999545871778
 30
0.0
 11
476.0
 21
338.9999545871778
 31
0.0
  0
ARC
  5
139
330
2
100
AcDbEntity
  8
0
  6
Continuous
 62
     7
 48
10.0
100
AcDbCircle
 10
476.0
 20
335.9999545871779
 30
0.0
 40
3.0
100
AcDbArc
 50
90.0
 51
180.0
  0
ARC
  5
13A
330
2
100
AcDbEntity
  8
0
  6
Continuous
 62
     7
 48
10.0
100
AcDbCircle
 10
473.4368574736288
 20
334.3703782536052
 30
0.0
 40
4.0
100
AcDbArc
 50
97.21875638335669
 51
160.3761762507216
  0
ARC
  5
13B
330
2
100
AcDbEntity
  8
0
  6
Continuous
 62
     7
 48
10.0
100
AcDbCircle
 10
473.6848159081548
 20
334.4014569701831
 30
0.0
 40
3.0
100
AcDbArc
 50
97.06960912186602
 51
159.8973751851345
  0
LINE
  5
13C
330
2
100
AcDbEntity
  8
0
  6
Continuous
 62
     7
 48
10.0
100
AcDbLine
 10
477.5
 20
332.9999545871779
 30
0.0
 11
476.0
 21
334.9999545871778
 31
0.0
  0
ARC
  5
13D
330
2
100
AcDbEntity
  8
0
  6
Continuous
 62
     7
 48
10.0
100
AcDbCircle
 10
477.0
 20
334.4999545871778
 30
0.0
 40
2.0
100
AcDbArc
 50
90.0
 51
180.0
  0
ARC
  5
13E
330
2
100
AcDbEntity
  8
0
  6
Continuous
 62
     7
 48
10.0
100
AcDbCircle
 10
478.2999999999998
 20
332.1999545871779
 30
0.0
 40
0.8
100
AcDbArc
 50
90.0
 51
180.0
  0
ARC
  5
13F
330
2
100
AcDbEntity
  8
0
  6
Continuous
 62
     7
 48
10.0
100
AcDbCircle
 10
485.5000260641933
 20
239.1313104972787
 30
0.0
 40
99.0
100
AcDbArc
 50
97.0571601384168
 51
97.06960912186676
  0
ARC
  5
140
330
2
100
AcDbEntity
  8
0
  6
Continuous
 62
     7
 48
10.0
100
AcDbCircle
 10
485.5000260641933
 20
239.1313108308527
 30
0.0
 40
100.0
100
AcDbArc
 50
96.39937094037613
 51
97.21875638335699
  0
ARC
  5
141
330
2
100
AcDbEntity
  8
0
  6
Continuous
 62
     7
 48
10.0
100
AcDbCircle
 10
495.0
 20
335.9999545871779
 30
0.0
 40
3.0
100
AcDbArc
 50
0.0
 51
90.0
  0
ARC
  5
142
330
2
100
AcDbEntity
  8
0
  6
Continuous
 62
     7
 48
10.0
100
AcDbCircle
 10
497.5631946547579
 20
334.3703782536052
 30
0.0
 40
4.0
100
AcDbArc
 50
19.62382374927772
 51
82.7812436166433
  0
ARC
  5
143
330
2
100
AcDbEntity
  8
0
  6
Continuous
 62
     7
 48
10.0
100
AcDbCircle
 10
497.315236220232
 20
334.4014569701831
 30
0.0
 40
3.0
100
AcDbArc
 50
20.1026248148652
 51
82.93039087813397
  0
LINE
  5
144
330
2
100
AcDbEntity
  8
0
  6
Continuous
 62
     7
 48
10.0
100
AcDbLine
 10
493.5
 20
332.9999545871779
 30
0.0
 11
495.0
 21
334.9999545871778
 31
0.0
  0
ARC
  5
145
330
2
100
AcDbEntity
  8
0
  6
Continuous
 62
     7
 48
10.0
100
AcDbCircle
 10
494.0
 20
334.4999545871778
 30
0.0
 40
2.0
100
AcDbArc
 50
0.0
 51
90.0
  0
ARC
  5
146
330
2
100
AcDbEntity
  8
0
  6
Continuous
 62
     7
 48
10.0
100
AcDbCircle
 10
492.6999999999999
 20
332.1999545871779
 30
0.0
 40
0.8
100
AcDbArc
 50
0.0
 51
90.0
  0
ARC
  5
147
330
2
100
AcDbEntity
  8
0
  6
Continuous
 62
     7
 48
10.0
100
AcDbCircle
 10
485.5000260641933
 20
239.1313104972787
 30
0.0
 40
99.0
100
AcDbArc
 50
82.93039087813323
 51
82.94287234696309
  0
ARC
  5
148
330
2
100
AcDbEntity
  8
0
  6
Continuous
 62
     7
 48
10.0
100
AcDbCircle
 10
485.5000260641933
 20
239.1313108308527
 30
0.0
 40
100.0
100
AcDbArc
 50
82.781243616643
 51
83.60066531084646
  0
LINE
  5
149
330
2
100
AcDbEntity
  8
0
  6
Continuous
 62
     7
 48
10.0
100
AcDbLine
 10
75.5
 20
269.2333949298827
 30
0.0
 11
75.5
 21
217.4168306354009
 31
0.0
  0
LINE
  5
14A
330
2
100
AcDbEntity
  8
0
  6
Continuous
 62
     7
 48
10.0
100
AcDbLine
 10
125.5
 20
269.2333949298827
 30
0.0
 11
125.5
 21
217.4168306354009
 31
0.0
  0
ARC
  5
14B
330
2
100
AcDbEntity
  8
0
  6
Continuous
 62
     7
 48
10.0
100
AcDbCircle
 10
100.5
 20
233.9999545871779
 30
0.0
 40
30.0
100
AcDbArc
 50
180.0
 51
270.9549738737849
  0
ARC
  5
14C
330
2
100
AcDbEntity
  8
0
  6
Continuous
 62
     7
 48
10.0
100
AcDbCircle
 10
100.5
 20
233.9999545871779
 30
0.0
 40
30.5
100
AcDbArc
 50
180.0
 51
269.0606828500192
  0
ARC
  5
14D
330
2
100
AcDbEntity
  8
0
  6
Continuous
 62
     7
 48
10.0
100
AcDbCircle
 10
100.5
 20
233.9999545871779
 30
0.0
 40
25.0
100
AcDbArc
 50
180.0
 51
0.0
  0
ARC
  5
14E
330
2
100
AcDbEntity
  8
0
  6
Continuous
 62
     7
 48
10.0
100
AcDbCircle
 10
100.5
 20
233.9999545871779
 30
0.0
 40
30.5
100
AcDbArc
 50
270.9393171499808
 51
0.0000000000000267
  0
ARC
  5
14F
330
2
100
AcDbEntity
  8
0
  6
Continuous
 62
     7
 48
10.0
100
AcDbCircle
 10
100.5
 20
233.9999545871779
 30
0.0
 40
30.0
100
AcDbArc
 50
270.9549738737849
 51
0.0000000000000136
  0
ARC
  5
150
330
2
100
AcDbEntity
  8
0
  6
Continuous
 62
     7
 48
10.0
100
AcDbCircle
 10
73.0
 20
221.9999545871778
 30
0.0
 40
1.5
100
AcDbArc
 50
131.5325812323702
 51
275.6167166495036
  0
LINE
  5
151
330
2
100
AcDbEntity
  8
0
  6
Continuous
 62
     7
 48
10.0
100
AcDbLine
 10
100.0
 20
204.0041215432366
 30
0.0
 11
100.0
 21
203.504053223224
 31
0.0
  0
LINE
  5
152
330
2
100
AcDbEntity
  8
0
  6
Continuous
 62
     7
 48
10.0
100
AcDbLine
 10
101.0
 20
204.0041215432366
 30
0.0
 11
101.0
 21
203.504053223224
 31
0.0
  0
ARC
  5
153
330
2
100
AcDbEntity
  8
0
  6
Continuous
 62
     7
 48
10.0
100
AcDbCircle
 10
128.0
 20
221.9999545871778
 30
0.0
 40
1.5
100
AcDbArc
 50
264.3832833504964
 51
48.46741876762974
  0
ARC
  5
154
330
2
100
AcDbEntity
  8
0
  6
Continuous
 62
     7
 48
10.0
100
AcDbCircle
 10
100.5
 20
289.9999545871779
 30
0.0
 40
32.0
100
AcDbArc
 50
90.89528298657013
 51
200.364134806318
  0
ARC
  5
155
330
2
100
AcDbEntity
  8
0
  6
Continuous
 62
     7
 48
10.0
100
AcDbCircle
 10
100.5
 20
289.9999545871779
 30
0.0
 40
32.0
100
AcDbArc
 50
339.635865193682
 51
89.10471701342988
  0
CIRCLE
  5
156
330
2
100
AcDbEntity
  8
0
  6
Continuous
 62
     7
 48
10.0
100
AcDbCircle
 10
100.5
 20
289.9999545871779
 30
0.0
 40
31.5
  0
ARC
  5
157
330
2
100
AcDbEntity
  8
0
  6
Continuous
 62
     7
 48
10.0
100
AcDbCircle
 10
272.6277377995125
 20
267.4081013317423
 30
0.0
 40
200.0
100
AcDbArc
 50
159.8465227684215
 51
166.9579737879361
  0
ARC
  5
158
330
2
100
AcDbEntity
  8
0
  6
Continuous
 62
     7
 48
10.0
100
AcDbCircle
 10
-71.62773779951248
 20
267.4081013317423
 30
0.0
 40
200.0
100
AcDbArc
 50
13.04202621206392
 51
20.15347723157836
  0
LINE
  5
159
330
2
100
AcDbEntity
  8
0
  6
Continuous
 62
     7
 48
10.0
100
AcDbLine
 10
70.5
 20
278.8644258615179
 30
0.0
 11
70.5
 21
233.9999545871779
 31
0.0
  0
LINE
  5
15A
330
2
100
AcDbEntity
  8
0
  6
Continuous
 62
     7
 48
10.0
100
AcDbLine
 10
130.5
 20
278.8644258615179
 30
0.0
 11
130.5
 21
233.9999545871779
 31
0.0
  0
ARC
  5
15B
330
2
100
AcDbEntity
  8
0
  6
Continuous
 62
     7
 48
10.0
100
AcDbCircle
 10
100.5
 20
289.9999545871779
 30
0.0
 40
32.5
100
AcDbArc
 50
202.6198649480405
 51
219.7151372318262
  0
ARC
  5
15C
330
2
100
AcDbEntity
  8
0
  6
Continuous
 62
     7
 48
10.0
100
AcDbCircle
 10
100.5
 20
289.9999545871779
 30
0.0
 40
32.5
100
AcDbArc
 50
320.2848627681739
 51
337.3801350519594
  0
ARC
  5
15D
330
2
100
AcDbEntity
  8
0
  6
Continuous
 62
     7
 48
10.0
100
AcDbCircle
 10
100.5
 20
283.9999545871778
 30
0.0
 40
30.0
100
AcDbArc
 50
250.5287793655093
 51
289.4712206344907
  0
ARC
  5
15E
330
2
100
AcDbEntity
  8
0
  6
Continuous
 62
     7
 48
10.0
100
AcDbCircle
 10
100.5
 20
283.9999545871778
 30
0.0
 40
29.0
100
AcDbArc
 50
249.828728653535
 51
290.1712713464649
  0
ARC
  5
15F
330
2
100
AcDbEntity
  8
0
  6
Continuous
 62
     7
 48
10.0
100
AcDbCircle
 10
100.5
 20
282.2499545871778
 30
0.0
 40
29.0
100
AcDbArc
 50
249.828728653535
 51
290.1712713464649
  0
ARC
  5
160
330
2
100
AcDbEntity
  8
0
  6
Continuous
 62
     7
 48
10.0
100
AcDbCircle
 10
100.5
 20
282.2499545871778
 30
0.0
 40
30.0
100
AcDbArc
 50
250.5287793655093
 51
289.4712206344907
  0
ARC
  5
161
330
2
100
AcDbEntity
  8
0
  6
Continuous
 62
     7
 48
10.0
100
AcDbCircle
 10
100.5
 20
280.4999545871778
 30
0.0
 40
29.0
100
AcDbArc
 50
249.828728653535
 51
290.1712713464649
  0
ARC
  5
162
330
2
100
AcDbEntity
  8
0
  6
Continuous
 62
     7
 48
10.0
100
AcDbCircle
 10
100.5
 20
280.4999545871778
 30
0.0
 40
30.0
100
AcDbArc
 50
250.5287793655093
 51
289.4712206344907
  0
ARC
  5
163
330
2
100
AcDbEntity
  8
0
  6
Continuous
 62
     7
 48
10.0
100
AcDbCircle
 10
100.5
 20
289.9999545871779
 30
0.0
 40
32.5
100
AcDbArc
 50
222.320185931274
 51
317.6798140687258
  0
LINE
  5
164
330
2
100
AcDbEntity
  8
0
  6
Continuous
 62
     7
 48
10.0
100
AcDbLine
 10
70.0
 20
265.9999545871778
 30
0.0
 11
70.0
 21
233.9999545871779
 31
0.0
  0
ARC
  5
165
330
2
100
AcDbEntity
  8
0
  6
Continuous
 62
     7
 48
10.0
100
AcDbCircle
 10
70.43670484067934
 20
231.9999545871779
 30
0.0
 40
1.5
100
AcDbArc
 50
106.7194089160224
 51
260.8925669906589
  0
ARC
  5
166
330
2
100
AcDbEntity
  8
0
  6
Continuous
 62
     7
 48
10.0
100
AcDbCircle
 10
70.28087194366253
 20
241.999954587178
 30
0.0
 40
1.5
100
AcDbArc
 50
100.7932353174994
 51
259.2067646825005
  0
ARC
  5
167
330
2
100
AcDbEntity
  8
0
  6
Continuous
 62
     7
 48
10.0
100
AcDbCircle
 10
76.09999999999991
 20
267.7819438751451
 30
0.0
 40
0.5
100
AcDbArc
 50
42.32018593127249
 51
180.0
  0
LINE
  5
168
330
2
100
AcDbEntity
  8
0
  6
Continuous
 62
     7
 48
10.0
100
AcDbLine
 10
70.5
 20
265.9999545871778
 30
0.0
 11
70.0
 21
265.9999545871778
 31
0.0
  0
LINE
  5
169
330
2
100
AcDbEntity
  8
0
  6
Continuous
 62
     7
 48
10.0
100
AcDbLine
 10
90.5
 20
256.7786394095456
 30
0.0
 11
90.5
 21
255.715683339716
 31
0.0
  0
LINE
  5
16A
330
2
100
AcDbEntity
  8
0
  6
Continuous
 62
     7
 48
10.0
100
AcDbLine
 10
90.5
 20
255.0286394095456
 30
0.0
 11
90.5
 21
253.965683339716
 31
0.0
  0
LINE
  5
16B
330
2
100
AcDbEntity
  8
0
  6
Continuous
 62
     7
 48
10.0
100
AcDbLine
 10
90.5
 20
253.2786394095456
 30
0.0
 11
90.5
 21
252.215683339716
 31
0.0
  0
LINE
  5
16C
330
2
100
AcDbEntity
  8
0
  6
Continuous
 62
     7
 48
10.0
100
AcDbLine
 10
131.0
 20
265.9999545871778
 30
0.0
 11
131.0
 21
233.9999545871779
 31
0.0
  0
ARC
  5
16D
330
2
100
AcDbEntity
  8
0
  6
Continuous
 62
     7
 48
10.0
100
AcDbCircle
 10
130.7191280563374
 20
241.999954587178
 30
0.0
 40
1.5
100
AcDbArc
 50
280.7932353174995
 51
79.20676468250055
  0
ARC
  5
16E
330
2
100
AcDbEntity
  8
0
  6
Continuous
 62
     7
 48
10.0
100
AcDbCircle
 10
130.5632951593206
 20
231.9999545871779
 30
0.0
 40
1.5
100
AcDbArc
 50
279.107433009341
 51
73.28059108397757
  0
LINE
  5
16F
330
2
100
AcDbEntity
  8
0
  6
Continuous
 62
     7
 48
10.0
100
AcDbLine
 10
110.5
 20
256.7786394095456
 30
0.0
 11
110.5
 21
255.715683339716
 31
0.0
  0
LINE
  5
170
330
2
100
AcDbEntity
  8
0
  6
Continuous
 62
     7
 48
10.0
100
AcDbLine
 10
110.5
 20
255.0286394095456
 30
0.0
 11
110.5
 21
253.965683339716
 31
0.0
  0
LINE
  5
171
330
2
100
AcDbEntity
  8
0
  6
Continuous
 62
     7
 48
10.0
100
AcDbLine
 10
110.5
 20
253.2786394095456
 30
0.0
 11
110.5
 21
252.215683339716
 31
0.0
  0
LINE
  5
172
330
2
100
AcDbEntity
  8
0
  6
Continuous
 62
     7
 48
10.0
100
AcDbLine
 10
130.5
 20
265.9999545871778
 30
0.0
 11
131.0
 21
265.9999545871778
 31
0.0
  0
ARC
  5
173
330
2
100
AcDbEntity
  8
0
  6
Continuous
 62
     7
 48
10.0
100
AcDbCircle
 10
124.8999999999998
 20
267.7819438751451
 30
0.0
 40
0.5
100
AcDbArc
 50
0.0
 51
137.6798140687281
  0
LINE
  5
174
330
2
100
AcDbEntity
  8
0
  6
Continuous
 62
     7
 48
10.0
100
AcDbLine
 10
100.0
 20
324.9999545871779
 30
0.0
 11
81.09920614272665
 21
324.9999545871779
 31
0.0
  0
ARC
  5
175
330
2
100
AcDbEntity
  8
0
  6
Continuous
 62
     7
 48
10.0
100
AcDbCircle
 10
100.5
 20
239.1313549207521
 30
0.0
 40
100.0
100
AcDbArc
 50
90.28648009124095
 51
97.5890892648705
  0
ARC
  5
176
330
2
100
AcDbEntity
  8
0
  6
Continuous
 62
     7
 48
10.0
100
AcDbCircle
 10
87.68943965547803
 20
335.2817035610942
 30
0.0
 40
3.0
100
AcDbArc
 50
97.58908926487057
 51
159.8465227684235
  0
LINE
  5
177
330
2
100
AcDbEntity
  8
0
  6
Continuous
 62
     7
 48
10.0
100
AcDbLine
 10
101.0
 20
339.1301049129395
 30
0.0
 11
101.0
 21
321.499998677077
 31
0.0
  0
LINE
  5
178
330
2
100
AcDbEntity
  8
0
  6
Continuous
 62
     7
 48
10.0
100
AcDbLine
 10
100.0
 20
321.4999545871779
 30
0.0
 11
100.0
 21
339.1301049129395
 31
0.0
  0
ARC
  5
179
330
2
100
AcDbEntity
  8
0
  6
Continuous
 62
     7
 48
10.0
100
AcDbCircle
 10
113.3105603445219
 20
335.2817035610942
 30
0.0
 40
3.0
100
AcDbArc
 50
20.15347723157654
 51
82.41091073512942
  0
LINE
  5
17A
330
2
100
AcDbEntity
  8
0
  6
Continuous
 62
     7
 48
10.0
100
AcDbLine
 10
100.0
 20
321.4999545871779
 30
0.0
 11
101.0
 21
321.4999545871779
 31
0.0
  0
LINE
  5
17B
330
2
100
AcDbEntity
  8
0
  6
Continuous
 62
     7
 48
10.0
100
AcDbLine
 10
101.0
 20
324.9999545871779
 30
0.0
 11
119.9007938572733
 21
324.9999545871779
 31
0.0
  0
ARC
  5
17C
330
2
100
AcDbEntity
  8
0
  6
Continuous
 62
     7
 48
10.0
100
AcDbCircle
 10
100.5
 20
239.1313549207521
 30
0.0
 40
100.0
100
AcDbArc
 50
82.41091073512953
 51
89.71351990875902
  0
LINE
  5
17D
330
2
100
AcDbEntity
  8
0
  6
Continuous
 62
     7
 48
10.0
100
AcDbLine
 10
101.0
 20
338.4999545871778
 30
0.0
 11
100.0
 21
338.4999545871778
 31
0.0
  0
LINE
  5
17E
330
2
100
AcDbEntity
  8
0
  6
CENTER
 62
     4
 48
3.0
100
AcDbLine
 10
434.3378379813456
 20
289.9999545871779
 30
0.0
 11
531.4547292435794
 21
289.9999545871779
 31
0.0
  0
LINE
  5
180
330
2
100
AcDbEntity
  8
0
  6
CENTER
 62
     4
 48
3.0
100
AcDbLine
 10
100.5
 20
351.4103802827256
 30
0.0
 11
100.5
 21
192.5961503311503
 31
0.0
  0
LINE
  5
181
330
2
100
AcDbEntity
  8
0
  6
CENTER
 62
     4
 48
3.0
100
AcDbLine
 10
485.5
 20
343.596746732904
 30
0.0
 11
485.5
 21
192.8852821605562
 31
0.0
  0
LINE
  5
182
330
2
100
AcDbEntity
  8
0
  6
CENTER
 62
     4
 48
3.0
100
AcDbLine
 10
46.2230355253273
 20
289.9999545871779
 30
0.0
 11
153.8378379813457
 21
289.9999545871779
 31
0.0
  0
LINE
  5
183
330
2
100
AcDbEntity
  8
0
  6
Continuous
 62
     7
 48
10.0
100
AcDbLine
 10
351.5
 20
93.0
 30
0.0
 11
264.5
 21
93.0
 31
0.0
  0
LINE
  5
184
330
2
100
AcDbEntity
  8
0
  6
Continuous
 62
     7
 48
10.0
100
AcDbLine
 10
351.5
 20
91.0
 30
0.0
 11
264.5
 21
91.0
 31
0.0
  0
ARC
  5
185
330
2
100
AcDbEntity
  8
0
  6
Continuous
 62
     7
 48
10.0
100
AcDbCircle
 10
351.5
 20
92.0
 30
0.0
 40
1.0
100
AcDbArc
 50
269.4619671674551
 51
89.99999999999998
  0
ARC
  5
186
330
2
100
AcDbEntity
  8
0
  6
Continuous
 62
     7
 48
10.0
100
AcDbCircle
 10
264.5
 20
92.0
 30
0.0
 40
1.0
100
AcDbArc
 50
89.99999999999998
 51
270.0
  0
LINE
  5
187
330
2
100
AcDbEntity
  8
0
  6
Continuous
 62
     7
 48
10.0
100
AcDbLine
 10
351.5
 20
88.49999999999999
 30
0.0
 11
264.5
 21
88.49999999999999
 31
0.0
  0
ARC
  5
188
330
2
100
AcDbEntity
  8
0
  6
Continuous
 62
     7
 48
10.0
100
AcDbCircle
 10
351.5
 20
89.50000000000001
 30
0.0
 40
1.0
100
AcDbArc
 50
270.0
 51
0.000000000000007
  0
ARC
  5
189
330
2
100
AcDbEntity
  8
0
  6
Continuous
 62
     7
 48
10.0
100
AcDbCircle
 10
264.5
 20
89.50000000000001
 30
0.0
 40
1.0
100
AcDbArc
 50
180.0
 51
270.0
  0
ARC
  5
18A
330
2
100
AcDbEntity
  8
0
  6
Continuous
 62
     7
 48
10.0
100
AcDbCircle
 10
264.5
 20
150.5
 30
0.0
 40
1.0
100
AcDbArc
 50
90.0
 51
180.0
  0
ARC
  5
18B
330
2
100
AcDbEntity
  8
0
  6
Continuous
 62
     7
 48
10.0
100
AcDbCircle
 10
351.5
 20
150.5
 30
0.0
 40
1.0
100
AcDbArc
 50
0.000000000000007
 51
90.0
  0
LINE
  5
18C
330
2
100
AcDbEntity
  8
0
  6
Continuous
 62
     7
 48
10.0
100
AcDbLine
 10
351.5
 20
151.5
 30
0.0
 11
264.5
 21
151.5
 31
0.0
  0
ARC
  5
18D
330
2
100
AcDbEntity
  8
0
  6
Continuous
 62
     7
 48
10.0
100
AcDbCircle
 10
264.5
 20
148.0
 30
0.0
 40
1.0
100
AcDbArc
 50
90.0
 51
270.0
  0
ARC
  5
18E
330
2
100
AcDbEntity
  8
0
  6
Continuous
 62
     7
 48
10.0
100
AcDbCircle
 10
351.5
 20
148.0
 30
0.0
 40
1.0
100
AcDbArc
 50
270.0
 51
90.53803283254486
  0
LINE
  5
18F
330
2
100
AcDbEntity
  8
0
  6
Continuous
 62
     7
 48
10.0
100
AcDbLine
 10
351.5
 20
149.0
 30
0.0
 11
264.5
 21
149.0
 31
0.0
  0
LINE
  5
190
330
2
100
AcDbEntity
  8
0
  6
Continuous
 62
     7
 48
10.0
100
AcDbLine
 10
351.5
 20
147.0
 30
0.0
 11
264.5
 21
147.0
 31
0.0
  0
LINE
  5
191
330
2
100
AcDbEntity
  8
0
  6
CENTER
 62
     4
 48
3.0
100
AcDbLine
 10
383.9720019307346
 20
120.0
 30
0.0
 11
188.0381982494273
 21
120.0
 31
0.0
  0
LINE
  5
192
330
2
100
AcDbEntity
  8
0
  6
CENTER
 62
     4
 48
3.0
100
AcDbLine
 10
274.5000268943845
 20
110.2276061377561
 30
0.0
 11
274.5000268943845
 21
130.3424837607581
 31
0.0
  0
LINE
  5
193
330
2
100
AcDbEntity
  8
0
  6
Continuous
 62
     7
 48
10.0
100
AcDbLine
 10
201.5000008301913
 20
321.9999559101009
 30
0.0
 11
211.5000008301913
 21
321.9999559101009
 31
0.0
  0
LINE
  5
194
330
2
100
AcDbEntity
  8
0
  6
Continuous
 62
     7
 48
10.0
100
AcDbLine
 10
198.0
 20
321.4999541334573
 30
0.0
 11
201.5
 21
321.4999541334573
 31
0.0
  0
LINE
  5
195
330
2
100
AcDbEntity
  8
0
  6
Continuous
 62
     7
 48
10.0
100
AcDbLine
 10
211.8000000000002
 20
321.9999541334573
 30
0.0
 11
212.8000000000002
 21
321.9999541334573
 31
0.0
  0
LINE
  5
196
330
2
100
AcDbEntity
  8
0
  6
Continuous
 62
     7
 48
10.0
100
AcDbLine
 10
214.5
 20
321.9999541334573
 30
0.0
 11
230.5
 21
321.9999541334573
 31
0.0
  0
LINE
  5
197
330
2
100
AcDbEntity
  8
0
  6
Continuous
 62
     7
 48
10.0
100
AcDbLine
 10
212.8000000000002
 20
321.4999541334573
 30
0.0
 11
214.5
 21
321.4999541334573
 31
0.0
  0
ARC
  5
198
330
2
100
AcDbEntity
  8
0
  6
Continuous
 62
     7
 48
10.0
100
AcDbCircle
 10
249.5000008301913
 20
322.8901182540078
 30
0.0
 40
4.0
100
AcDbArc
 50
124.380344723845
 51
180.0
  0
LINE
  5
199
330
2
100
AcDbEntity
  8
0
  6
Continuous
 62
     7
 48
10.0
100
AcDbLine
 10
238.5000008301913
 20
321.9999559101009
 30
0.0
 11
245.5000008301913
 21
321.9999559101009
 31
0.0
  0
LINE
  5
19A
330
2
100
AcDbEntity
  8
0
  6
Continuous
 62
     7
 48
10.0
100
AcDbLine
 10
237.0
 20
321.9999541334573
 30
0.0
 11
238.5
 21
321.9999541334573
 31
0.0
  0
ARC
  5
19B
330
2
100
AcDbEntity
  8
0
  6
Continuous
 62
     7
 48
10.0
100
AcDbCircle
 10
267.0798502754833
 20
336.1301062358625
 30
0.0
 40
3.0
100
AcDbArc
 50
90.0
 51
124.380344723845
  0
ARC
  5
19C
330
2
100
AcDbEntity
  8
0
  6
Continuous
 62
     7
 48
10.0
100
AcDbCircle
 10
266.0468196249767
 20
332.9999559101009
 30
0.0
 40
5.0
100
AcDbArc
 50
90.0
 51
124.3803447238448
  0
LINE
  5
19D
330
2
100
AcDbEntity
  8
0
  6
Continuous
 62
     7
 48
10.0
100
AcDbLine
 10
247.2412651678232
 20
326.191347299007
 30
0.0
 11
265.3857985287073
 21
338.6060280196121
 31
0.0
  0
LINE
  5
19E
330
2
100
AcDbEntity
  8
0
  6
Continuous
 62
     7
 48
10.0
100
AcDbLine
 10
230.5
 20
321.4999541334573
 30
0.0
 11
237.0
 21
321.4999541334573
 31
0.0
  0
LINE
  5
19F
330
2
100
AcDbEntity
  8
0
  6
Continuous
 62
     7
 48
10.0
100
AcDbLine
 10
213.5000008301913
 20
276.0745587728122
 30
0.0
 11
213.5000008301913
 21
275.8569744425454
 31
0.0
  0
LINE
  5
1A0
330
2
100
AcDbEntity
  8
0
  6
Continuous
 62
     7
 48
10.0
100
AcDbLine
 10
201.5000008301913
 20
276.0745587728122
 30
0.0
 11
213.5000008301913
 21
276.0745587728122
 31
0.0
  0
LINE
  5
1A1
330
2
100
AcDbEntity
  8
0
  6
Continuous
 62
     7
 48
10.0
100
AcDbLine
 10
250.5000008301913
 20
309.8430907430854
 30
0.0
 11
252.5000008301913
 21
309.8430907430854
 31
0.0
  0
ARC
  5
1A2
330
2
100
AcDbEntity
  8
0
  6
Continuous
 62
     7
 48
10.0
100
AcDbCircle
 10
252.5000008301913
 20
308.8430907430855
 30
0.0
 40
1.0
100
AcDbArc
 50
90.0
 51
180.0
  0
ARC
  5
1A3
330
2
100
AcDbEntity
  8
0
  6
Continuous
 62
     7
 48
10.0
100
AcDbCircle
 10
250.5000008301913
 20
314.8430907430854
 30
0.0
 40
5.0
100
AcDbArc
 50
180.0
 51
270.0
  0
LINE
  5
1A4
330
2
100
AcDbEntity
  8
0
  6
Continuous
 62
     7
 48
10.0
100
AcDbLine
 10
236.5000008301913
 20
276.0745587728122
 30
0.0
 11
236.5000008301913
 21
275.8569744425454
 31
0.0
  0
ARC
  5
1A5
330
2
100
AcDbEntity
  8
0
  6
Continuous
 62
     7
 48
10.0
100
AcDbCircle
 10
247.0000008301913
 20
280.5745587728122
 30
0.0
 40
4.5
100
AcDbArc
 50
270.0
 51
0.000000000000007
  0
ARC
  5
1A6
330
2
100
AcDbEntity
  8
0
  6
Continuous
 62
     7
 48
10.0
100
AcDbCircle
 10
246.5000008301913
 20
280.4999559101009
 30
0.0
 40
5.0
100
AcDbArc
 50
270.0
 51
0.000000000000007
  0
LINE
  5
1A7
330
2
100
AcDbEntity
  8
0
  6
Continuous
 62
     7
 48
10.0
100
AcDbLine
 10
236.5000008301913
 20
276.0745587728122
 30
0.0
 11
247.0000008301913
 21
276.0745587728122
 31
0.0
  0
LINE
  5
1A8
330
2
100
AcDbEntity
  8
0
  6
Continuous
 62
     7
 48
10.0
100
AcDbLine
 10
251.5000008301913
 20
308.8430907430855
 30
0.0
 11
251.5000008301913
 21
280.5745587728122
 31
0.0
  0
LINE
  5
1A9
330
2
100
AcDbEntity
  8
0
  6
Continuous
 62
     7
 48
10.0
100
AcDbLine
 10
248.5000008301913
 20
310.2605150481295
 30
0.0
 11
248.5000008301913
 21
276.0745587728122
 31
0.0
  0
LINE
  5
1AA
330
2
100
AcDbEntity
  8
0
  6
Continuous
 62
     7
 48
10.0
100
AcDbLine
 10
201.5000008301913
 20
275.4999559101009
 30
0.0
 11
246.5000008301913
 21
275.4999559101009
 31
0.0
  0
LINE
  5
1AB
330
2
100
AcDbEntity
  8
0
  6
Continuous
 62
     7
 48
10.0
100
AcDbLine
 10
213.5000008301913
 20
275.8569744425454
 30
0.0
 11
236.5000008301913
 21
275.8569744425454
 31
0.0
  0
LINE
  5
1AC
330
2
100
AcDbEntity
  8
0
  6
Continuous
 62
     7
 48
10.0
100
AcDbLine
 10
198.0
 20
258.4999541334573
 30
0.0
 11
198.3843753171541
 21
258.4999541334573
 31
0.0
  0
LINE
  5
1AD
330
2
100
AcDbEntity
  8
0
  6
Continuous
 62
     7
 48
10.0
100
AcDbLine
 10
194.5
 20
263.7999541334574
 30
0.0
 11
194.5
 21
261.9999541334573
 31
0.0
  0
ARC
  5
1AE
330
2
100
AcDbEntity
  8
0
  6
Continuous
 62
     7
 48
10.0
100
AcDbCircle
 10
198.0
 20
261.9999541334573
 30
0.0
 40
3.5
100
AcDbArc
 50
180.0
 51
270.0
  0
LINE
  5
1AF
330
2
100
AcDbEntity
  8
0
  6
Continuous
 62
     7
 48
10.0
100
AcDbLine
 10
197.7372008301913
 20
254.9999559101009
 30
0.0
 11
198.2372001630433
 21
254.9999559101009
 31
0.0
  0
LINE
  5
1B0
330
2
100
AcDbEntity
  8
0
  6
Continuous
 62
     7
 48
10.0
100
AcDbLine
 10
197.7372008301913
 20
253.2499559101009
 30
0.0
 11
198.2372001630433
 21
253.2499559101009
 31
0.0
  0
LINE
  5
1B1
330
2
100
AcDbEntity
  8
0
  6
Continuous
 62
     7
 48
10.0
100
AcDbLine
 10
197.7372008301913
 20
251.4999559101009
 30
0.0
 11
198.2372001630433
 21
251.4999559101009
 31
0.0
  0
LINE
  5
1B2
330
2
100
AcDbEntity
  8
0
  6
Continuous
 62
     7
 48
10.0
100
AcDbLine
 10
198.2372001630433
 20
254.9999559101009
 30
0.0
 11
198.2372001630433
 21
257.4999559101009
 31
0.0
  0
LINE
  5
1B3
330
2
100
AcDbEntity
  8
0
  6
Continuous
 62
     7
 48
10.0
100
AcDbLine
 10
198.2372001630433
 20
253.2499559101009
 30
0.0
 11
198.2372001630433
 21
253.9999559101009
 31
0.0
  0
LINE
  5
1B4
330
2
100
AcDbEntity
  8
0
  6
Continuous
 62
     7
 48
10.0
100
AcDbLine
 10
198.2372001630433
 20
251.4999559101009
 30
0.0
 11
198.2372001630433
 21
252.2499559101009
 31
0.0
  0
LINE
  5
1B5
330
2
100
AcDbEntity
  8
0
  6
Continuous
 62
     7
 48
10.0
100
AcDbLine
 10
197.7372008301913
 20
251.4999559101009
 30
0.0
 11
197.7372008301913
 21
251.2499559101009
 31
0.0
  0
LINE
  5
1B6
330
2
100
AcDbEntity
  8
0
  6
Continuous
 62
     7
 48
10.0
100
AcDbLine
 10
197.7372008301913
 20
253.2499559101009
 30
0.0
 11
197.7372008301913
 21
252.9999559101009
 31
0.0
  0
LINE
  5
1B7
330
2
100
AcDbEntity
  8
0
  6
Continuous
 62
     7
 48
10.0
100
AcDbLine
 10
197.7372008301913
 20
254.9999559101009
 30
0.0
 11
197.7372008301913
 21
254.7499559101009
 31
0.0
  0
LINE
  5
1B8
330
2
100
AcDbEntity
  8
0
  6
Continuous
 62
     7
 48
10.0
100
AcDbLine
 10
197.7372008301913
 20
252.9999559101009
 30
0.0
 11
198.2372001630433
 21
252.2499559101009
 31
0.0
  0
LINE
  5
1B9
330
2
100
AcDbEntity
  8
0
  6
Continuous
 62
     7
 48
10.0
100
AcDbLine
 10
197.7372008301913
 20
254.7499559101009
 30
0.0
 11
198.2372001630433
 21
253.9999559101009
 31
0.0
  0
LINE
  5
1BA
330
2
100
AcDbEntity
  8
0
  6
Continuous
 62
     7
 48
10.0
100
AcDbLine
 10
199.8694860561352
 20
268.5907069472699
 30
0.0
 11
198.2372001630433
 21
257.4999559101009
 31
0.0
  0
LINE
  5
1BB
330
2
100
AcDbEntity
  8
0
  6
Continuous
 62
     7
 48
10.0
100
AcDbLine
 10
198.2372001630433
 20
233.9999559101009
 30
0.0
 11
198.2372001630433
 21
250.4999559101009
 31
0.0
  0
LINE
  5
1BC
330
2
100
AcDbEntity
  8
0
  6
Continuous
 62
     7
 48
10.0
100
AcDbLine
 10
197.7372008301913
 20
251.2499559101009
 30
0.0
 11
198.2372001630433
 21
250.4999559101009
 31
0.0
  0
ARC
  5
1BD
330
2
100
AcDbEntity
  8
0
  6
Continuous
 62
     7
 48
10.0
100
AcDbCircle
 10
261.5000008301913
 20
261.9999559101009
 30
0.0
 40
1.5
100
AcDbArc
 50
90.0
 51
180.0
  0
ARC
  5
1BE
330
2
100
AcDbEntity
  8
0
  6
Continuous
 62
     7
 48
10.0
100
AcDbCircle
 10
261.5000008301913
 20
261.9999559101009
 30
0.0
 40
2.5
100
AcDbArc
 50
90.0
 51
180.0
  0
ARC
  5
1BF
330
2
100
AcDbEntity
  8
0
  6
Continuous
 62
     7
 48
10.0
100
AcDbCircle
 10
262.0000008301913
 20
261.4999559101009
 30
0.0
 40
4.5
100
AcDbArc
 50
90.0
 51
180.0
  0
ARC
  5
1C0
330
2
100
AcDbEntity
  8
0
  6
Continuous
 62
     7
 48
10.0
100
AcDbCircle
 10
265.0000268943845
 20
232.0
 30
0.0
 40
1.5
100
AcDbArc
 50
90.0
 51
180.0
  0
LINE
  5
1C1
330
2
100
AcDbEntity
  8
0
  6
Continuous
 62
     7
 48
10.0
100
AcDbLine
 10
263.5000268943845
 20
232.0
 30
0.0
 11
263.5000268943845
 21
232.0
 31
0.0
  0
ARC
  5
1C2
330
2
100
AcDbEntity
  8
0
  6
Continuous
 62
     7
 48
10.0
100
AcDbCircle
 10
265.0000268943845
 20
232.0
 30
0.0
 40
1.5
100
AcDbArc
 50
180.0
 51
270.0
  0
ARC
  5
1C3
330
2
100
AcDbEntity
  8
0
  6
Continuous
 62
     7
 48
10.0
100
AcDbCircle
 10
265.0000268943845
 20
242.0
 30
0.0
 40
1.5
100
AcDbArc
 50
180.0
 51
270.0
  0
LINE
  5
1C4
330
2
100
AcDbEntity
  8
0
  6
Continuous
 62
     7
 48
10.0
100
AcDbLine
 10
263.5000268943845
 20
242.0
 30
0.0
 11
263.5000268943845
 21
242.0
 31
0.0
  0
ARC
  5
1C5
330
2
100
AcDbEntity
  8
0
  6
Continuous
 62
     7
 48
10.0
100
AcDbCircle
 10
265.0000268943845
 20
242.0
 30
0.0
 40
1.5
100
AcDbArc
 50
90.0
 51
180.0
  0
ARC
  5
1C6
330
2
100
AcDbEntity
  8
0
  6
Continuous
 62
     7
 48
10.0
100
AcDbCircle
 10
208.7347055398923
 20
270.2721325285124
 30
0.0
 40
8.92586631905563
100
AcDbArc
 50
144.1479904196939
 51
186.6828655059019
  0
LINE
  5
1C7
330
2
100
AcDbEntity
  8
0
  6
Continuous
 62
     7
 48
10.0
100
AcDbLine
 10
194.5
 20
263.7999541334574
 30
0.0
 11
194.5
 21
317.9999541334573
 31
0.0
  0
ARC
  5
1C8
330
2
100
AcDbEntity
  8
0
  6
Continuous
 62
     7
 48
10.0
100
AcDbCircle
 10
198.0
 20
317.9999541334573
 30
0.0
 40
3.5
100
AcDbArc
 50
90.0
 51
180.0
  0
LINE
  5
1C9
330
2
100
AcDbEntity
  8
0
  6
Continuous
 62
     7
 48
10.0
100
AcDbLine
 10
245.5000008301913
 20
322.8901182540078
 30
0.0
 11
245.5000008301913
 21
314.8430907430854
 31
0.0
  0
LINE
  5
1CA
330
2
100
AcDbEntity
  8
0
  6
Continuous
 62
     7
 48
10.0
100
AcDbLine
 10
211.5000008301913
 20
321.9999559101009
 30
0.0
 11
211.5000008301913
 21
276.0745587728122
 31
0.0
  0
LINE
  5
1CB
330
2
100
AcDbEntity
  8
0
  6
Continuous
 62
     7
 48
10.0
100
AcDbLine
 10
238.5000008301913
 20
321.9999559101009
 30
0.0
 11
238.5000008301913
 21
276.0745587728122
 31
0.0
  0
LINE
  5
1CC
330
2
100
AcDbEntity
  8
0
  6
Continuous
 62
     7
 48
10.0
100
AcDbLine
 10
201.5
 20
275.5019183484705
 30
0.0
 11
201.5
 21
321.4999541334573
 31
0.0
  0
LINE
  5
1CD
330
2
100
AcDbEntity
  8
0
  6
Continuous
 62
     7
 48
10.0
100
AcDbLine
 10
237.0
 20
321.9999541334573
 30
0.0
 11
237.0
 21
276.0745587728122
 31
0.0
  0
LINE
  5
1CE
330
2
100
AcDbEntity
  8
0
  6
Continuous
 62
     7
 48
10.0
100
AcDbLine
 10
212.8000000000002
 20
321.9999541334573
 30
0.0
 11
212.8000000000002
 21
276.0745587728122
 31
0.0
  0
LINE
  5
1CF
330
2
100
AcDbEntity
  8
0
  6
Continuous
 62
     7
 48
10.0
100
AcDbLine
 10
230.5
 20
321.9999541334573
 30
0.0
 11
230.5
 21
275.8569744425454
 31
0.0
  0
LINE
  5
1D0
330
2
100
AcDbEntity
  8
0
  6
Continuous
 62
     7
 48
10.0
100
AcDbLine
 10
205.0000008301913
 20
217.4999559101009
 30
0.0
 11
205.0000008301913
 21
203.9999559101009
 31
0.0
  0
LINE
  5
1D1
330
2
100
AcDbEntity
  8
0
  6
Continuous
 62
     7
 48
10.0
100
AcDbLine
 10
204.869486056135
 20
217.4999559101009
 30
0.0
 11
205.0000008301913
 21
217.4999559101009
 31
0.0
  0
LINE
  5
1D2
330
2
100
AcDbEntity
  8
0
  6
Continuous
 62
     7
 48
10.0
100
AcDbLine
 10
205.0000008301913
 20
217.3174172616114
 30
0.0
 11
205.0000008301913
 21
203.9999559101009
 31
0.0
  0
LINE
  5
1D3
330
2
100
AcDbEntity
  8
0
  6
Continuous
 62
     7
 48
10.0
100
AcDbLine
 10
204.846404104906
 20
203.9999559101009
 30
0.0
 11
205.0000008301913
 21
203.9999559101009
 31
0.0
  0
ARC
  5
1D4
330
2
100
AcDbEntity
  8
0
  6
Continuous
 62
     7
 48
10.0
100
AcDbCircle
 10
204.869486056135
 20
222.4999559101009
 30
0.0
 40
5.0
100
AcDbArc
 50
179.9999999999999
 51
270.0
  0
ARC
  5
1D5
330
2
100
AcDbEntity
  8
0
  6
Continuous
 62
     7
 48
10.0
100
AcDbCircle
 10
204.8000008301915
 20
222.2670541892396
 30
0.0
 40
5.0
100
AcDbArc
 50
179.9999999999999
 51
270.0
  0
LINE
  5
1D6
330
2
100
AcDbEntity
  8
0
  6
Continuous
 62
     7
 48
10.0
100
AcDbLine
 10
218.5000008301913
 20
204.3099559101008
 30
0.0
 11
218.5000008301913
 21
203.9999559101009
 31
0.0
  0
ARC
  5
1D7
330
2
100
AcDbEntity
  8
0
  6
Continuous
 62
     7
 48
10.0
100
AcDbCircle
 10
218.800000830191
 20
204.3099559101008
 30
0.0
 40
0.3
100
AcDbArc
 50
90.0
 51
180.0
  0
ARC
  5
1D8
330
2
100
AcDbEntity
  8
0
  6
Continuous
 62
     7
 48
10.0
100
AcDbCircle
 10
204.846404104906
 20
208.9999559101009
 30
0.0
 40
5.0
100
AcDbArc
 50
187.3658858289647
 51
270.0
  0
LINE
  5
1D9
330
2
100
AcDbEntity
  8
0
  6
Continuous
 62
     7
 48
10.0
100
AcDbLine
 10
256.5000008301913
 20
203.9999559101009
 30
0.0
 11
242.5000008301913
 21
203.9999559101009
 31
0.0
  0
LINE
  5
1DA
330
2
100
AcDbEntity
  8
0
  6
Continuous
 62
     7
 48
10.0
100
AcDbLine
 10
242.5000008301913
 20
204.3099559101008
 30
0.0
 11
242.5000008301913
 21
203.9999559101009
 31
0.0
  0
ARC
  5
1DB
330
2
100
AcDbEntity
  8
0
  6
Continuous
 62
     7
 48
10.0
100
AcDbCircle
 10
242.2000008301911
 20
204.3099559101008
 30
0.0
 40
0.3
100
AcDbArc
 50
0.000000000000007
 51
90.0
  0
LINE
  5
1DC
330
2
100
AcDbEntity
  8
0
  6
Continuous
 62
     7
 48
10.0
100
AcDbLine
 10
263.5000268943845
 20
222.0
 30
0.0
 11
263.5000268943845
 21
222.0
 31
0.0
  0
ARC
  5
1DD
330
2
100
AcDbEntity
  8
0
  6
Continuous
 62
     7
 48
10.0
100
AcDbCircle
 10
265.0000268943845
 20
222.0
 30
0.0
 40
1.5
100
AcDbArc
 50
90.0
 51
180.0
  0
ARC
  5
1DE
330
2
100
AcDbEntity
  8
0
  6
Continuous
 62
     7
 48
10.0
100
AcDbCircle
 10
261.5000008301913
 20
207.9091965874582
 30
0.0
 40
1.5
100
AcDbArc
 50
180.0
 51
270.0
  0
ARC
  5
1DF
330
2
100
AcDbEntity
  8
0
  6
Continuous
 62
     7
 48
10.0
100
AcDbCircle
 10
265.0000268943845
 20
222.0
 30
0.0
 40
1.5
100
AcDbArc
 50
180.0
 51
270.0
  0
LINE
  5
1E0
330
2
100
AcDbEntity
  8
0
  6
Continuous
 62
     7
 48
10.0
100
AcDbLine
 10
258.0000008301913
 20
203.504054546147
 30
0.0
 11
256.5000008301913
 21
203.9999559101009
 31
0.0
  0
LINE
  5
1E1
330
2
100
AcDbEntity
  8
0
  6
Continuous
 62
     7
 48
10.0
100
AcDbLine
 10
242.2000008301911
 20
204.609955910101
 30
0.0
 11
218.800000830191
 21
204.609955910101
 31
0.0
  0
LINE
  5
1E2
330
2
100
AcDbEntity
  8
0
  6
Continuous
 62
     7
 48
10.0
100
AcDbLine
 10
242.5000008301913
 20
203.9999559101009
 30
0.0
 11
205.0000008301913
 21
203.9999559101009
 31
0.0
  0
LINE
  5
1E3
330
2
100
AcDbEntity
  8
0
  6
Continuous
 62
     7
 48
10.0
100
AcDbLine
 10
201.5
 20
148.7150036307458
 30
0.0
 11
201.5
 21
151.4999541334573
 31
0.0
  0
LINE
  5
1E4
330
2
100
AcDbEntity
  8
0
  6
Continuous
 62
     7
 48
10.0
100
AcDbLine
 10
205.0000008301913
 20
144.9999559101009
 30
0.0
 11
200.5000008301913
 21
144.9999559101009
 31
0.0
  0
LINE
  5
1E5
330
2
100
AcDbEntity
  8
0
  6
Continuous
 62
     7
 48
10.0
100
AcDbLine
 10
200.5000008301913
 20
144.9999559101009
 30
0.0
 11
200.5000008301913
 21
145.4999559101008
 31
0.0
  0
ARC
  5
1E6
330
2
100
AcDbEntity
  8
0
  6
Continuous
 62
     7
 48
10.0
100
AcDbCircle
 10
398.2372001630433
 20
119.9999559101009
 30
0.0
 40
200.0
100
AcDbArc
 50
172.6341141710353
 51
172.67484934816
  0
LINE
  5
1E7
330
2
100
AcDbEntity
  8
0
  6
Continuous
 62
     7
 48
10.0
100
AcDbLine
 10
200.5000008301913
 20
145.4999559101008
 30
0.0
 11
199.8694860561349
 21
145.4999559101008
 31
0.0
  0
LINE
  5
1E8
330
2
100
AcDbEntity
  8
0
  6
Continuous
 62
     7
 48
10.0
100
AcDbLine
 10
201.5000008301913
 20
144.9999559101009
 30
0.0
 11
200.5000008301913
 21
144.9999559101009
 31
0.0
  0
LINE
  5
1E9
330
2
100
AcDbEntity
  8
0
  6
Continuous
 62
     7
 48
10.0
100
AcDbLine
 10
200.5000008301913
 20
144.9999559101009
 30
0.0
 11
200.5000008301913
 21
145.4999559101008
 31
0.0
  0
ARC
  5
1EA
330
2
100
AcDbEntity
  8
0
  6
Continuous
 62
     7
 48
10.0
100
AcDbCircle
 10
398.2372001630433
 20
119.9999559101009
 30
0.0
 40
200.0
100
AcDbArc
 50
172.6341141710353
 51
172.67484934816
  0
LINE
  5
1EB
330
2
100
AcDbEntity
  8
0
  6
Continuous
 62
     7
 48
10.0
100
AcDbLine
 10
200.5000008301913
 20
145.4999559101008
 30
0.0
 11
199.8694860561349
 21
145.4999559101008
 31
0.0
  0
LINE
  5
1EC
330
2
100
AcDbEntity
  8
0
  6
Continuous
 62
     7
 48
10.0
100
AcDbLine
 10
201.5000008301913
 20
144.9999559101009
 30
0.0
 11
200.5000008301913
 21
144.9999559101009
 31
0.0
  0
ARC
  5
1ED
330
2
100
AcDbEntity
  8
0
  6
Continuous
 62
     7
 48
10.0
100
AcDbCircle
 10
204.846404104906
 20
144.9999559101009
 30
0.0
 40
5.0
100
AcDbArc
 50
90.0
 51
172.6341141710364
  0
LINE
  5
1EE
330
2
100
AcDbEntity
  8
0
  6
Continuous
 62
     7
 48
10.0
100
AcDbLine
 10
198.0
 20
151.4999541334573
 30
0.0
 11
201.5
 21
151.4999541334573
 31
0.0
  0
ARC
  5
1EF
330
2
100
AcDbEntity
  8
0
  6
Continuous
 62
     7
 48
10.0
100
AcDbCircle
 10
198.0
 20
147.9999541334573
 30
0.0
 40
3.5
100
AcDbArc
 50
90.0
 51
180.0
  0
LINE
  5
1F0
330
2
100
AcDbEntity
  8
0
  6
Continuous
 62
     7
 48
10.0
100
AcDbLine
 10
205.0000008301913
 20
144.8999559101009
 30
0.0
 11
199.7932786134024
 21
144.8999559101009
 31
0.0
  0
LINE
  5
1F1
330
2
100
AcDbEntity
  8
0
  6
Continuous
 62
     7
 48
10.0
100
AcDbLine
 10
201.5000008301913
 20
152.0
 30
0.0
 11
201.5000008301913
 21
148.715004378557
 31
0.0
  0
LINE
  5
1F2
330
2
100
AcDbEntity
  8
0
  6
Continuous
 62
     7
 48
10.0
100
AcDbLine
 10
211.5000268943845
 20
152.0
 30
0.0
 11
201.5000268943845
 21
152.0
 31
0.0
  0
LINE
  5
1F3
330
2
100
AcDbEntity
  8
0
  6
Continuous
 62
     7
 48
10.0
100
AcDbLine
 10
211.5000008301913
 20
152.0
 30
0.0
 11
211.5000008301913
 21
149.9999559101009
 31
0.0
  0
LINE
  5
1F4
330
2
100
AcDbEntity
  8
0
  6
Continuous
 62
     7
 48
10.0
100
AcDbLine
 10
212.8000000000002
 20
151.4999541334573
 30
0.0
 11
214.3000000000002
 21
151.4999541334573
 31
0.0
  0
LINE
  5
1F5
330
2
100
AcDbEntity
  8
0
  6
Continuous
 62
     7
 48
10.0
100
AcDbLine
 10
212.8000000000002
 20
152.0
 30
0.0
 11
211.8000000000002
 21
152.0
 31
0.0
  0
LINE
  5
1F6
330
2
100
AcDbEntity
  8
0
  6
Continuous
 62
     7
 48
10.0
100
AcDbLine
 10
212.8000000000002
 20
152.0
 30
0.0
 11
212.8000000000002
 21
149.9999559101009
 31
0.0
  0
LINE
  5
1F7
330
2
100
AcDbEntity
  8
0
  6
Continuous
 62
     7
 48
10.0
100
AcDbLine
 10
211.8000000000002
 20
152.0
 30
0.0
 11
211.8000000000002
 21
149.9999559101009
 31
0.0
  0
LINE
  5
1F8
330
2
100
AcDbEntity
  8
0
  6
Continuous
 62
     7
 48
10.0
100
AcDbLine
 10
214.5
 20
149.9999559101009
 30
0.0
 11
214.5
 21
151.9999541334573
 31
0.0
  0
LINE
  5
1F9
330
2
100
AcDbEntity
  8
0
  6
Continuous
 62
     7
 48
10.0
100
AcDbLine
 10
214.3000000000002
 20
149.9999559101009
 30
0.0
 11
214.3000000000002
 21
151.4999541334573
 31
0.0
  0
LINE
  5
1FA
330
2
100
AcDbEntity
  8
0
  6
Continuous
 62
     7
 48
10.0
100
AcDbLine
 10
230.5
 20
149.9999559101009
 30
0.0
 11
230.5
 21
151.9999541334573
 31
0.0
  0
LINE
  5
1FB
330
2
100
AcDbEntity
  8
0
  6
Continuous
 62
     7
 48
10.0
100
AcDbLine
 10
214.5
 20
151.9999541334573
 30
0.0
 11
230.5
 21
151.9999541334573
 31
0.0
  0
LINE
  5
1FC
330
2
100
AcDbEntity
  8
0
  6
Continuous
 62
     7
 48
10.0
100
AcDbLine
 10
230.5
 20
150.4999541334573
 30
0.0
 11
230.5
 21
151.9999541334573
 31
0.0
  0
LINE
  5
1FD
330
2
100
AcDbEntity
  8
0
  6
Continuous
 62
     7
 48
10.0
100
AcDbLine
 10
205.0000008301913
 20
144.9999559101009
 30
0.0
 11
205.0000008301913
 21
119.1999559101009
 31
0.0
  0
LINE
  5
1FE
330
2
100
AcDbEntity
  8
0
  6
Continuous
 62
     7
 48
10.0
100
AcDbLine
 10
248.5000008301911
 20
152.0
 30
0.0
 11
248.5000008301911
 21
149.9999559101009
 31
0.0
  0
LINE
  5
1FF
330
2
100
AcDbEntity
  8
0
  6
Continuous
 62
     7
 48
10.0
100
AcDbLine
 10
238.5000008301913
 20
152.0
 30
0.0
 11
238.5000008301913
 21
149.9999559101009
 31
0.0
  0
LINE
  5
200
330
2
100
AcDbEntity
  8
0
  6
Continuous
 62
     7
 48
10.0
100
AcDbLine
 10
248.5000268943845
 20
152.0
 30
0.0
 11
238.5000268943845
 21
152.0
 31
0.0
  0
LINE
  5
201
330
2
100
AcDbEntity
  8
0
  6
Continuous
 62
     7
 48
10.0
100
AcDbLine
 10
248.5000268943845
 20
152.0
 30
0.0
 11
251.5000268943845
 21
150.0
 31
0.0
  0
LINE
  5
202
330
2
100
AcDbEntity
  8
0
  6
Continuous
 62
     7
 48
10.0
100
AcDbLine
 10
238.5000268943845
 20
152.0
 30
0.0
 11
237.0000268943845
 21
152.0
 31
0.0
  0
LINE
  5
203
330
2
100
AcDbEntity
  8
0
  6
Continuous
 62
     7
 48
10.0
100
AcDbLine
 10
237.0000268943845
 20
152.0
 30
0.0
 11
237.0000268943845
 21
150.0
 31
0.0
  0
LINE
  5
204
330
2
100
AcDbEntity
  8
0
  6
Continuous
 62
     7
 48
10.0
100
AcDbLine
 10
257.5000008301913
 20
149.9999559101009
 30
0.0
 11
257.5000008301913
 21
150.1999559101009
 31
0.0
  0
LINE
  5
205
330
2
100
AcDbEntity
  8
0
  6
Continuous
 62
     7
 48
10.0
100
AcDbLine
 10
257.5000008301913
 20
146.4999559101008
 30
0.0
 11
257.5000008301913
 21
147.4999559101008
 31
0.0
  0
LINE
  5
206
330
2
100
AcDbEntity
  8
0
  6
Continuous
 62
     7
 48
10.0
100
AcDbLine
 10
257.5000008301913
 20
150.1999559101009
 30
0.0
 11
259.0000008301913
 21
150.4999559101008
 31
0.0
  0
ARC
  5
207
330
2
100
AcDbEntity
  8
0
  6
Continuous
 62
     7
 48
10.0
100
AcDbCircle
 10
274.5000008301913
 20
119.9999559101009
 30
0.0
 40
4.0
100
AcDbArc
 50
7.180755781458291
 51
172.8192442185417
  0
LINE
  5
208
330
2
100
AcDbEntity
  8
0
  6
Continuous
 62
     7
 48
10.0
100
AcDbLine
 10
259.0000008301913
 20
119.499955910101
 30
0.0
 11
259.0000008301913
 21
120.4999559101008
 31
0.0
  0
CIRCLE
  5
209
330
2
100
AcDbEntity
  8
0
  6
Continuous
 62
     7
 48
10.0
100
AcDbCircle
 10
274.5000268943845
 20
120.0
 30
0.0
 40
3.0
  0
CIRCLE
  5
20A
330
2
100
AcDbEntity
  8
0
  6
Continuous
 62
     7
 48
10.0
100
AcDbCircle
 10
274.5000268943845
 20
120.0
 30
0.0
 40
2.5
  0
ARC
  5
20B
330
2
100
AcDbEntity
  8
0
  6
Continuous
 62
     7
 48
10.0
100
AcDbCircle
 10
261.5000008301913
 20
134.4999559101009
 30
0.0
 40
1.5
100
AcDbArc
 50
180.0
 51
270.0
  0
LINE
  5
20C
330
2
100
AcDbEntity
  8
0
  6
Continuous
 62
     7
 48
10.0
100
AcDbLine
 10
260.0000008301913
 20
134.4999559101009
 30
0.0
 11
260.0000008301913
 21
150.4999559101008
 31
0.0
  0
LINE
  5
20D
330
2
100
AcDbEntity
  8
0
  6
Continuous
 62
     7
 48
10.0
100
AcDbLine
 10
257.5000008301913
 20
150.1999559101009
 30
0.0
 11
257.5000008301913
 21
120.4999559101008
 31
0.0
  0
LINE
  5
20E
330
2
100
AcDbEntity
  8
0
  6
Continuous
 62
     7
 48
10.0
100
AcDbLine
 10
259.0000008301913
 20
150.4999559101008
 30
0.0
 11
259.0000008301913
 21
120.4999559101008
 31
0.0
  0
LINE
  5
20F
330
2
100
AcDbEntity
  8
0
  6
Continuous
 62
     7
 48
10.0
100
AcDbLine
 10
257.5000008301913
 20
149.9999559101009
 30
0.0
 11
204.846404104906
 21
149.9999559101009
 31
0.0
  0
LINE
  5
210
330
2
100
AcDbEntity
  8
0
  6
Continuous
 62
     7
 48
10.0
100
AcDbLine
 10
230.5
 20
151.4999541334573
 30
0.0
 11
237.0000268943845
 21
151.4999541334573
 31
0.0
  0
LINE
  5
211
330
2
100
AcDbEntity
  8
0
  6
Continuous
 62
     7
 48
10.0
100
AcDbLine
 10
270.5313738635946
 20
120.4999559101008
 30
0.0
 11
205.0000008301913
 21
120.4999559101008
 31
0.0
  0
LINE
  5
212
330
2
100
AcDbEntity
  8
0
  6
Continuous
 62
     7
 48
10.0
100
AcDbLine
 10
270.5313738635946
 20
119.4999559101008
 30
0.0
 11
205.0000008301913
 21
119.4999559101008
 31
0.0
  0
LINE
  5
213
330
2
100
AcDbEntity
  8
0
  6
Continuous
 62
     7
 48
10.0
100
AcDbLine
 10
208.0000008301913
 20
94.99995591010089
 30
0.0
 11
200.5000008301913
 21
94.99995591010089
 31
0.0
  0
LINE
  5
214
330
2
100
AcDbEntity
  8
0
  6
Continuous
 62
     7
 48
10.0
100
AcDbLine
 10
201.5000008301913
 20
94.99995591010089
 30
0.0
 11
200.5000008301913
 21
94.99995591010089
 31
0.0
  0
LINE
  5
215
330
2
100
AcDbEntity
  8
0
  6
Continuous
 62
     7
 48
10.0
100
AcDbLine
 10
200.5000008301913
 20
94.49995591010088
 30
0.0
 11
199.8694860561349
 21
94.49995591010088
 31
0.0
  0
ARC
  5
216
330
2
100
AcDbEntity
  8
0
  6
Continuous
 62
     7
 48
10.0
100
AcDbCircle
 10
398.2372001630433
 20
119.9999559101009
 30
0.0
 40
200.0
100
AcDbArc
 50
187.32515065184
 51
187.3658858289647
  0
LINE
  5
217
330
2
100
AcDbEntity
  8
0
  6
Continuous
 62
     7
 48
10.0
100
AcDbLine
 10
200.5000008301913
 20
94.99995591010089
 30
0.0
 11
200.5000008301913
 21
94.49995591010088
 31
0.0
  0
LINE
  5
218
330
2
100
AcDbEntity
  8
0
  6
Continuous
 62
     7
 48
10.0
100
AcDbLine
 10
200.5000008301913
 20
94.99995591010089
 30
0.0
 11
200.5000008301913
 21
94.49995591010088
 31
0.0
  0
ARC
  5
219
330
2
100
AcDbEntity
  8
0
  6
Continuous
 62
     7
 48
10.0
100
AcDbCircle
 10
398.2372001630433
 20
119.9999559101009
 30
0.0
 40
200.0
100
AcDbArc
 50
187.32515065184
 51
187.3658858289647
  0
LINE
  5
21A
330
2
100
AcDbEntity
  8
0
  6
Continuous
 62
     7
 48
10.0
100
AcDbLine
 10
200.5000008301913
 20
94.49995591010088
 30
0.0
 11
199.8694860561349
 21
94.49995591010088
 31
0.0
  0
LINE
  5
21B
330
2
100
AcDbEntity
  8
0
  6
Continuous
 62
     7
 48
10.0
100
AcDbLine
 10
201.5000008301913
 20
94.99995591010089
 30
0.0
 11
200.5000008301913
 21
94.99995591010089
 31
0.0
  0
LINE
  5
21C
330
2
100
AcDbEntity
  8
0
  6
Continuous
 62
     7
 48
10.0
100
AcDbLine
 10
205.0000008301913
 20
95.09995591010099
 30
0.0
 11
199.7932786134024
 21
95.09995591010099
 31
0.0
  0
LINE
  5
21D
330
2
100
AcDbEntity
  8
0
  6
Continuous
 62
     7
 48
10.0
100
AcDbLine
 10
198.0
 20
88.49995413345732
 30
0.0
 11
201.5
 21
88.49995413345732
 31
0.0
  0
ARC
  5
21E
330
2
100
AcDbEntity
  8
0
  6
Continuous
 62
     7
 48
10.0
100
AcDbCircle
 10
198.0
 20
91.99995413345732
 30
0.0
 40
3.5
100
AcDbArc
 50
180.0
 51
270.0
  0
LINE
  5
21F
330
2
100
AcDbEntity
  8
0
  6
Continuous
 62
     7
 48
10.0
100
AcDbLine
 10
201.5000008301913
 20
88.0
 30
0.0
 11
201.5000008301913
 21
91.28499562144293
 31
0.0
  0
LINE
  5
220
330
2
100
AcDbEntity
  8
0
  6
Continuous
 62
     7
 48
10.0
100
AcDbLine
 10
201.5
 20
91.28499636925415
 30
0.0
 11
201.5
 21
88.50004586654268
 31
0.0
  0
LINE
  5
221
330
2
100
AcDbEntity
  8
0
  6
Continuous
 62
     7
 48
10.0
100
AcDbLine
 10
211.5000268943845
 20
88.0
 30
0.0
 11
201.5000268943845
 21
88.0
 31
0.0
  0
LINE
  5
222
330
2
100
AcDbEntity
  8
0
  6
Continuous
 62
     7
 48
10.0
100
AcDbLine
 10
211.5000008301913
 20
88.0
 30
0.0
 11
211.5000008301913
 21
90.00004408989912
 31
0.0
  0
LINE
  5
223
330
2
100
AcDbEntity
  8
0
  6
Continuous
 62
     7
 48
10.0
100
AcDbLine
 10
210.5000008301913
 20
89.99995591010089
 30
0.0
 11
210.5000008301913
 21
92.5
 31
0.0
  0
LINE
  5
224
330
2
100
AcDbEntity
  8
0
  6
Continuous
 62
     7
 48
10.0
100
AcDbLine
 10
212.8000000000002
 20
88.49995413345743
 30
0.0
 11
214.3000000000002
 21
88.49995413345732
 31
0.0
  0
LINE
  5
225
330
2
100
AcDbEntity
  8
0
  6
Continuous
 62
     7
 48
10.0
100
AcDbLine
 10
212.8000000000002
 20
88.0
 30
0.0
 11
211.8000000000002
 21
88.0
 31
0.0
  0
LINE
  5
226
330
2
100
AcDbEntity
  8
0
  6
Continuous
 62
     7
 48
10.0
100
AcDbLine
 10
212.8000000000002
 20
88.0
 30
0.0
 11
212.8000000000002
 21
90.00004408989912
 31
0.0
  0
LINE
  5
227
330
2
100
AcDbEntity
  8
0
  6
Continuous
 62
     7
 48
10.0
100
AcDbLine
 10
211.8000000000002
 20
88.0
 30
0.0
 11
211.8000000000002
 21
90.00004408989912
 31
0.0
  0
LINE
  5
228
330
2
100
AcDbEntity
  8
0
  6
Continuous
 62
     7
 48
10.0
100
AcDbLine
 10
214.5
 20
87.99995413345731
 30
0.0
 11
230.5
 21
87.99995413345731
 31
0.0
  0
LINE
  5
229
330
2
100
AcDbEntity
  8
0
  6
Continuous
 62
     7
 48
10.0
100
AcDbLine
 10
214.3000000000002
 20
88.49995413345732
 30
0.0
 11
214.3000000000002
 21
89.99995591010089
 31
0.0
  0
LINE
  5
22A
330
2
100
AcDbEntity
  8
0
  6
Continuous
 62
     7
 48
10.0
100
AcDbLine
 10
230.5
 20
87.99995413345731
 30
0.0
 11
230.5
 21
89.99995591010089
 31
0.0
  0
LINE
  5
22B
330
2
100
AcDbEntity
  8
0
  6
Continuous
 62
     7
 48
10.0
100
AcDbLine
 10
214.5
 20
87.99995413345731
 30
0.0
 11
214.5
 21
89.99995591010089
 31
0.0
  0
ARC
  5
22C
330
2
100
AcDbEntity
  8
0
  6
Continuous
 62
     7
 48
10.0
100
AcDbCircle
 10
208.0000008301913
 20
92.49995591010089
 30
0.0
 40
2.5
100
AcDbArc
 50
0.000000000000007
 51
90.0
  0
ARC
  5
22D
330
2
100
AcDbEntity
  8
0
  6
Continuous
 62
     7
 48
10.0
100
AcDbCircle
 10
204.846404104906
 20
94.99995591010089
 30
0.0
 40
5.0
100
AcDbArc
 50
187.3658858289635
 51
270.0
  0
LINE
  5
22E
330
2
100
AcDbEntity
  8
0
  6
Continuous
 62
     7
 48
10.0
100
AcDbLine
 10
194.5
 20
93.79995413345742
 30
0.0
 11
194.5
 21
91.99995413345732
 31
0.0
  0
ARC
  5
22F
330
2
100
AcDbEntity
  8
0
  6
Continuous
 62
     7
 48
10.0
100
AcDbCircle
 10
261.5000008301913
 20
105.4999559101009
 30
0.0
 40
1.5
100
AcDbArc
 50
90.0
 51
180.0
  0
LINE
  5
230
330
2
100
AcDbEntity
  8
0
  6
Continuous
 62
     7
 48
10.0
100
AcDbLine
 10
248.5000008301911
 20
88.0
 30
0.0
 11
248.5000008301911
 21
90.00004408989912
 31
0.0
  0
LINE
  5
231
330
2
100
AcDbEntity
  8
0
  6
Continuous
 62
     7
 48
10.0
100
AcDbLine
 10
248.5000268943845
 20
88.0
 30
0.0
 11
251.5000268943845
 21
90.0
 31
0.0
  0
LINE
  5
232
330
2
100
AcDbEntity
  8
0
  6
Continuous
 62
     7
 48
10.0
100
AcDbLine
 10
248.5000268943845
 20
88.0
 30
0.0
 11
238.5000268943845
 21
88.0
 31
0.0
  0
LINE
  5
233
330
2
100
AcDbEntity
  8
0
  6
Continuous
 62
     7
 48
10.0
100
AcDbLine
 10
238.5000008301913
 20
88.0
 30
0.0
 11
238.5000008301913
 21
90.00004408989912
 31
0.0
  0
LINE
  5
234
330
2
100
AcDbEntity
  8
0
  6
Continuous
 62
     7
 48
10.0
100
AcDbLine
 10
238.5000268943845
 20
88.0
 30
0.0
 11
237.0000268943845
 21
88.0
 31
0.0
  0
LINE
  5
235
330
2
100
AcDbEntity
  8
0
  6
Continuous
 62
     7
 48
10.0
100
AcDbLine
 10
237.0000268943845
 20
88.0
 30
0.0
 11
237.0000268943845
 21
90.0
 31
0.0
  0
LINE
  5
236
330
2
100
AcDbEntity
  8
0
  6
Continuous
 62
     7
 48
10.0
100
AcDbLine
 10
257.5000008301913
 20
89.99995591010089
 30
0.0
 11
257.5000008301913
 21
89.79995591010084
 31
0.0
  0
LINE
  5
237
330
2
100
AcDbEntity
  8
0
  6
Continuous
 62
     7
 48
10.0
100
AcDbLine
 10
257.5000008301913
 20
89.79995591010084
 30
0.0
 11
259.0000008301913
 21
89.49995591010088
 31
0.0
  0
LINE
  5
238
330
2
100
AcDbEntity
  8
0
  6
Continuous
 62
     7
 48
10.0
100
AcDbLine
 10
260.0000008301913
 20
105.4999559101009
 30
0.0
 11
260.0000008301913
 21
89.49995591010088
 31
0.0
  0
LINE
  5
239
330
2
100
AcDbEntity
  8
0
  6
Continuous
 62
     7
 48
10.0
100
AcDbLine
 10
257.5000008301913
 20
89.99995591010089
 30
0.0
 11
204.846404104906
 21
89.99995591010089
 31
0.0
  0
LINE
  5
23A
330
2
100
AcDbEntity
  8
0
  6
Continuous
 62
     7
 48
10.0
100
AcDbLine
 10
230.5
 20
88.49995413345732
 30
0.0
 11
237.0000268943845
 21
88.49995413345732
 31
0.0
  0
ARC
  5
23B
330
2
100
AcDbEntity
  8
0
  6
Continuous
 62
     7
 48
10.0
100
AcDbCircle
 10
274.5000008301913
 20
119.9999559101009
 30
0.0
 40
4.0
100
AcDbArc
 50
187.1807557814583
 51
352.8192442185417
  0
LINE
  5
23C
330
2
100
AcDbEntity
  8
0
  6
Continuous
 62
     7
 48
10.0
100
AcDbLine
 10
259.0000008301913
 20
89.49995591010088
 30
0.0
 11
259.0000008301913
 21
119.499955910101
 31
0.0
  0
LINE
  5
23D
330
2
100
AcDbEntity
  8
0
  6
Continuous
 62
     7
 48
10.0
100
AcDbLine
 10
257.5000008301913
 20
89.79995591010084
 30
0.0
 11
257.5000008301913
 21
119.4999559101008
 31
0.0
  0
LINE
  5
23E
330
2
100
AcDbEntity
  8
0
  6
Continuous
 62
     7
 48
10.0
100
AcDbLine
 10
256.5000268943845
 20
119.5
 30
0.0
 11
256.5000268943845
 21
91.0
 31
0.0
  0
LINE
  5
23F
330
2
100
AcDbEntity
  8
0
  6
Continuous
 62
     7
 48
10.0
100
AcDbLine
 10
194.5
 20
93.79995413345742
 30
0.0
 11
194.5
 21
147.9999541334573
 31
0.0
  0
ARC
  5
240
330
2
100
AcDbEntity
  8
0
  6
Continuous
 62
     7
 48
10.0
100
AcDbCircle
 10
398.2372001630433
 20
119.9999559101009
 30
0.0
 40
200.0
100
AcDbArc
 50
172.848117661988
 51
187.1518823380119
  0
LINE
  5
241
330
2
100
AcDbEntity
  8
0
  6
Continuous
 62
     7
 48
10.0
100
AcDbLine
 10
205.0000008301913
 20
144.8999559101008
 30
0.0
 11
205.0000008301913
 21
95.09995591010113
 31
0.0
  0
ARC
  5
242
330
2
100
AcDbEntity
  8
0
  6
Continuous
 62
     7
 48
10.0
100
AcDbCircle
 10
398.2372001630433
 20
233.9999559101009
 30
0.0
 40
200.0
100
AcDbArc
 50
180.0
 51
187.3658858289647
  0
LINE
  5
243
330
2
100
AcDbEntity
  8
0
  6
Continuous
 62
     7
 48
10.0
100
AcDbLine
 10
199.8694860561349
 20
222.4999559101009
 30
0.0
 11
199.8694860561349
 21
269.2333962528057
 31
0.0
  0
LINE
  5
244
330
2
100
AcDbEntity
  8
0
  6
Continuous
 62
     7
 48
10.0
100
AcDbLine
 10
260.0000008301913
 20
261.9999559101009
 30
0.0
 11
260.0000008301913
 21
207.9091965874582
 31
0.0
  0
LINE
  5
245
330
2
100
AcDbEntity
  8
0
  6
Continuous
 62
     7
 48
10.0
100
AcDbLine
 10
259.0000008301913
 20
261.9999559101009
 30
0.0
 11
259.0000008301913
 21
203.504054546147
 31
0.0
  0
LINE
  5
246
330
2
100
AcDbEntity
  8
0
  6
Continuous
 62
     7
 48
10.0
100
AcDbLine
 10
257.5000008301913
 20
261.4999559101009
 30
0.0
 11
257.5000008301913
 21
203.6693550007983
 31
0.0
  0
LINE
  5
247
330
2
100
AcDbEntity
  8
0
  6
Continuous
 62
     7
 48
10.0
100
AcDbLine
 10
199.8000008301915
 20
268.118581724008
 30
0.0
 11
199.8000008301915
 21
222.2670541892396
 31
0.0
  0
LINE
  5
248
330
2
100
AcDbEntity
  8
0
  6
Continuous
 62
     7
 48
10.0
100
AcDbLine
 10
368.5000008301914
 20
339.1313562436749
 30
0.0
 11
369.5000008301914
 21
338.1313562436749
 31
0.0
  0
LINE
  5
249
330
2
100
AcDbEntity
  8
0
  6
Continuous
 62
     7
 48
10.0
100
AcDbLine
 10
368.5000008301914
 20
339.1313562436749
 30
0.0
 11
352.5000008301914
 21
339.1313562436749
 31
0.0
  0
LINE
  5
24A
330
2
100
AcDbEntity
  8
0
  6
Continuous
 62
     7
 48
10.0
100
AcDbLine
 10
352.5000268943845
 20
338.0
 30
0.0
 11
368.5000268943845
 21
338.0
 31
0.0
  0
ARC
  5
24B
330
2
100
AcDbEntity
  8
0
  6
Continuous
 62
     7
 48
10.0
100
AcDbCircle
 10
378.5000268943845
 20
337.8819660112502
 30
0.0
 40
1.0
100
AcDbArc
 50
0.000000000000007
 51
116.565051177078
  0
LINE
  5
24C
330
2
100
AcDbEntity
  8
0
  6
Continuous
 62
     7
 48
10.0
100
AcDbLine
 10
374.5000268943845
 20
337.0
 30
0.0
 11
378.0528132988848
 21
338.7763932022501
 31
0.0
  0
LINE
  5
24D
330
2
100
AcDbEntity
  8
0
  6
Continuous
 62
     7
 48
10.0
100
AcDbLine
 10
374.5000268943845
 20
337.0
 30
0.0
 11
369.5000268943845
 21
337.0
 31
0.0
  0
ARC
  5
24E
330
2
100
AcDbEntity
  8
0
  6
Continuous
 62
     7
 48
10.0
100
AcDbCircle
 10
362.1305156042472
 20
304.8430907430855
 30
0.0
 40
5.0
100
AcDbArc
 50
0.000000000000007
 51
90.0
  0
LINE
  5
24F
330
2
100
AcDbEntity
  8
0
  6
Continuous
 62
     7
 48
10.0
100
AcDbLine
 10
352.5000268943845
 20
313.4219373840274
 30
0.0
 11
368.5000268943845
 21
313.4219373840274
 31
0.0
  0
ARC
  5
250
330
2
100
AcDbEntity
  8
0
  6
Continuous
 62
     7
 48
10.0
100
AcDbCircle
 10
355.0000008301914
 20
261.4999559101009
 30
0.0
 40
4.5
100
AcDbArc
 50
0.000000000000007
 51
90.0
  0
ARC
  5
251
330
2
100
AcDbEntity
  8
0
  6
Continuous
 62
     7
 48
10.0
100
AcDbCircle
 10
355.5000008301913
 20
261.9999559101009
 30
0.0
 40
2.5
100
AcDbArc
 50
0.000000000000007
 51
90.0
  0
ARC
  5
252
330
2
100
AcDbEntity
  8
0
  6
Continuous
 62
     7
 48
10.0
100
AcDbCircle
 10
355.5000008301913
 20
261.9999559101009
 30
0.0
 40
1.5
100
AcDbArc
 50
0.000000000000007
 51
90.0
  0
ARC
  5
253
330
2
100
AcDbEntity
  8
0
  6
Continuous
 62
     7
 48
10.0
100
AcDbCircle
 10
351.0000268943845
 20
232.0
 30
0.0
 40
1.5
100
AcDbArc
 50
0.000000000000007
 51
90.0
  0
LINE
  5
254
330
2
100
AcDbEntity
  8
0
  6
Continuous
 62
     7
 48
10.0
100
AcDbLine
 10
352.5000268943845
 20
232.0
 30
0.0
 11
352.5000268943845
 21
232.0
 31
0.0
  0
ARC
  5
255
330
2
100
AcDbEntity
  8
0
  6
Continuous
 62
     7
 48
10.0
100
AcDbCircle
 10
351.0000268943845
 20
232.0
 30
0.0
 40
1.5
100
AcDbArc
 50
270.0
 51
0.000000000000007
  0
ARC
  5
256
330
2
100
AcDbEntity
  8
0
  6
Continuous
 62
     7
 48
10.0
100
AcDbCircle
 10
351.0000268943845
 20
242.0
 30
0.0
 40
1.5
100
AcDbArc
 50
270.0
 51
0.000000000000007
  0
LINE
  5
257
330
2
100
AcDbEntity
  8
0
  6
Continuous
 62
     7
 48
10.0
100
AcDbLine
 10
352.5000268943845
 20
242.0
 30
0.0
 11
352.5000268943845
 21
242.0
 31
0.0
  0
ARC
  5
258
330
2
100
AcDbEntity
  8
0
  6
Continuous
 62
     7
 48
10.0
100
AcDbCircle
 10
351.0000268943845
 20
242.0
 30
0.0
 40
1.5
100
AcDbArc
 50
0.000000000000007
 51
90.0
  0
ARC
  5
259
330
2
100
AcDbEntity
  8
0
  6
Continuous
 62
     7
 48
10.0
100
AcDbCircle
 10
378.5000268943845
 20
308.1180339887499
 30
0.0
 40
1.0
100
AcDbArc
 50
243.434948822922
 51
0.000000000000007
  0
LINE
  5
25A
330
2
100
AcDbEntity
  8
0
  6
Continuous
 62
     7
 48
10.0
100
AcDbLine
 10
374.5000268943845
 20
309.0
 30
0.0
 11
378.0528132988845
 21
307.22360679775
 31
0.0
  0
LINE
  5
25B
330
2
100
AcDbEntity
  8
0
  6
Continuous
 62
     7
 48
10.0
100
AcDbLine
 10
369.5000268943845
 20
309.0
 30
0.0
 11
374.5000268943845
 21
309.0
 31
0.0
  0
LINE
  5
25C
330
2
100
AcDbEntity
  8
0
  6
Continuous
 62
     7
 48
10.0
100
AcDbLine
 10
352.5000008301914
 20
339.1301062358623
 30
0.0
 11
352.5000008301914
 21
309.8430907430854
 31
0.0
  0
LINE
  5
25D
330
2
100
AcDbEntity
  8
0
  6
Continuous
 62
     7
 48
10.0
100
AcDbLine
 10
374.5000268943845
 20
337.0
 30
0.0
 11
374.5000268943845
 21
309.0
 31
0.0
  0
LINE
  5
25E
330
2
100
AcDbEntity
  8
0
  6
Continuous
 62
     7
 48
10.0
100
AcDbLine
 10
379.5000268943845
 20
337.8819660112502
 30
0.0
 11
379.5000268943845
 21
308.1180339887499
 31
0.0
  0
LINE
  5
25F
330
2
100
AcDbEntity
  8
0
  6
Continuous
 62
     7
 48
10.0
100
AcDbLine
 10
377.0000268943845
 20
337.5
 30
0.0
 11
377.0000268943845
 21
308.5
 31
0.0
  0
LINE
  5
260
330
2
100
AcDbEntity
  8
0
  6
Continuous
 62
     7
 48
10.0
100
AcDbLine
 10
352.5000268943845
 20
222.0
 30
0.0
 11
352.5000268943845
 21
222.0
 31
0.0
  0
ARC
  5
261
330
2
100
AcDbEntity
  8
0
  6
Continuous
 62
     7
 48
10.0
100
AcDbCircle
 10
351.0000268943845
 20
222.0
 30
0.0
 40
1.5
100
AcDbArc
 50
0.000000000000007
 51
90.0
  0
ARC
  5
262
330
2
100
AcDbEntity
  8
0
  6
Continuous
 62
     7
 48
10.0
100
AcDbCircle
 10
355.5000008301913
 20
207.9091965874582
 30
0.0
 40
1.5
100
AcDbArc
 50
270.0
 51
0.000000000000007
  0
LINE
  5
263
330
2
100
AcDbEntity
  8
0
  6
Continuous
 62
     7
 48
10.0
100
AcDbLine
 10
368.5000008301914
 20
211.4999559101009
 30
0.0
 11
367.5000008301914
 21
211.4999559101009
 31
0.0
  0
LINE
  5
264
330
2
100
AcDbEntity
  8
0
  6
Continuous
 62
     7
 48
10.0
100
AcDbLine
 10
369.5000008301914
 20
212.4999559101009
 30
0.0
 11
368.5000008301914
 21
211.4999559101009
 31
0.0
  0
ARC
  5
265
330
2
100
AcDbEntity
  8
0
  6
Continuous
 62
     7
 48
10.0
100
AcDbCircle
 10
171.1378493414618
 20
249.4723862078469
 30
0.0
 40
200.0
100
AcDbArc
 50
348.3248746810618
 51
349.0552603708978
  0
LINE
  5
266
330
2
100
AcDbEntity
  8
0
  6
Continuous
 62
     7
 48
10.0
100
AcDbLine
 10
359.5000008301914
 20
203.9999559101009
 30
0.0
 11
362.1305156042477
 21
203.9999559101009
 31
0.0
  0
ARC
  5
267
330
2
100
AcDbEntity
  8
0
  6
Continuous
 62
     7
 48
10.0
100
AcDbCircle
 10
351.0000268943845
 20
222.0
 30
0.0
 40
1.5
100
AcDbArc
 50
270.0
 51
0.000000000000007
  0
LINE
  5
268
330
2
100
AcDbEntity
  8
0
  6
Continuous
 62
     7
 48
10.0
100
AcDbLine
 10
343.5000008301913
 20
204.9999559101009
 30
0.0
 11
355.5000008301913
 21
204.9999559101009
 31
0.0
  0
ARC
  5
269
330
2
100
AcDbEntity
  8
0
  6
Continuous
 62
     7
 48
10.0
100
AcDbCircle
 10
346.6606459011337
 20
201.9999559101009
 30
0.0
 40
2.0
100
AcDbArc
 50
209.7448812969425
 51
270.0
  0
LINE
  5
26A
330
2
100
AcDbEntity
  8
0
  6
Continuous
 62
     7
 48
10.0
100
AcDbLine
 10
355.502342907932
 20
203.504054546147
 30
0.0
 11
358.0000008301914
 21
203.504054546147
 31
0.0
  0
ARC
  5
26B
330
2
100
AcDbEntity
  8
0
  6
Continuous
 62
     7
 48
10.0
100
AcDbCircle
 10
352.339355759249
 20
201.9999559101009
 30
0.0
 40
2.0
100
AcDbArc
 50
270.0
 51
330.2551187030575
  0
LINE
  5
26C
330
2
100
AcDbEntity
  8
0
  6
Continuous
 62
     7
 48
10.0
100
AcDbLine
 10
346.6606459011337
 20
199.9999559101009
 30
0.0
 11
352.339355759249
 21
199.9999559101009
 31
0.0
  0
LINE
  5
26D
330
2
100
AcDbEntity
  8
0
  6
Continuous
 62
     7
 48
10.0
100
AcDbLine
 10
344.924159616885
 20
201.0076780333873
 30
0.0
 11
342.6428579730482
 21
204.9999559101009
 31
0.0
  0
LINE
  5
26E
330
2
100
AcDbEntity
  8
0
  6
Continuous
 62
     7
 48
10.0
100
AcDbLine
 10
358.0000008301914
 20
203.504054546147
 30
0.0
 11
359.5000008301914
 21
203.9999559101009
 31
0.0
  0
LINE
  5
26F
330
2
100
AcDbEntity
  8
0
  6
Continuous
 62
     7
 48
10.0
100
AcDbLine
 10
354.0758420434977
 20
201.0076780333873
 30
0.0
 11
356.357143687334
 21
204.9999559101009
 31
0.0
  0
ARC
  5
270
330
2
100
AcDbEntity
  8
0
  6
Continuous
 62
     7
 48
10.0
100
AcDbCircle
 10
362.1305156042477
 20
208.9999559101009
 30
0.0
 40
5.0
100
AcDbArc
 50
270.0
 51
0.000000000000007
  0
LINE
  5
271
330
2
100
AcDbEntity
  8
0
  6
Continuous
 62
     7
 48
10.0
100
AcDbLine
 10
359.5000008301914
 20
149.9999559101009
 30
0.0
 11
359.5000008301914
 21
150.1999559101009
 31
0.0
  0
LINE
  5
272
330
2
100
AcDbEntity
  8
0
  6
Continuous
 62
     7
 48
10.0
100
AcDbLine
 10
359.5000008301914
 20
150.1999559101009
 30
0.0
 11
358.0000008301914
 21
150.4999559101008
 31
0.0
  0
ARC
  5
273
330
2
100
AcDbEntity
  8
0
  6
Continuous
 62
     7
 48
10.0
100
AcDbCircle
 10
168.7628014973393
 20
119.9999559101009
 30
0.0
 40
200.0
100
AcDbArc
 50
7.325150651840042
 51
7.365885828964677
  0
LINE
  5
274
330
2
100
AcDbEntity
  8
0
  6
Continuous
 62
     7
 48
10.0
100
AcDbLine
 10
367.1305156042476
 20
144.9999559101009
 30
0.0
 11
367.5000008301914
 21
144.9999559101009
 31
0.0
  0
ARC
  5
275
330
2
100
AcDbEntity
  8
0
  6
Continuous
 62
     7
 48
10.0
100
AcDbCircle
 10
168.7628014973393
 20
119.9999559101009
 30
0.0
 40
200.0
100
AcDbArc
 50
7.325150651840042
 51
7.365885828964677
  0
ARC
  5
276
330
2
100
AcDbEntity
  8
0
  6
Continuous
 62
     7
 48
10.0
100
AcDbCircle
 10
362.1535975554766
 20
144.9999559101009
 30
0.0
 40
5.0
100
AcDbArc
 50
5.507520240818608
 51
90.0
  0
LINE
  5
277
330
2
100
AcDbEntity
  8
0
  6
Continuous
 62
     7
 48
10.0
100
AcDbLine
 10
368.5000008301914
 20
142.4999559101008
 30
0.0
 11
367.798997440419
 21
142.4999559101008
 31
0.0
  0
LINE
  5
278
330
2
100
AcDbEntity
  8
0
  6
Continuous
 62
     7
 48
10.0
100
AcDbLine
 10
368.5000008301914
 20
142.4999559101008
 30
0.0
 11
369.5000008301914
 21
141.4999559101008
 31
0.0
  0
ARC
  5
279
330
2
100
AcDbEntity
  8
0
  6
Continuous
 62
     7
 48
10.0
100
AcDbCircle
 10
169.0686525003471
 20
119.9999559101009
 30
0.0
 40
200.0
100
AcDbArc
 50
6.45944977735509
 51
7.180755781458291
  0
LINE
  5
27A
330
2
100
AcDbEntity
  8
0
  6
Continuous
 62
     7
 48
10.0
100
AcDbLine
 10
362.1535975554766
 20
149.9999559101009
 30
0.0
 11
359.5000008301914
 21
149.9999559101009
 31
0.0
  0
ARC
  5
27B
330
2
100
AcDbEntity
  8
0
  6
Continuous
 62
     7
 48
10.0
100
AcDbCircle
 10
347.6606459011336
 20
126.9999559101009
 30
0.0
 40
1.0
100
AcDbArc
 50
89.99999999999982
 51
180.0
  0
LINE
  5
27C
330
2
100
AcDbEntity
  8
0
  6
Continuous
 62
     7
 48
10.0
100
AcDbLine
 10
346.5000008301914
 20
127.9999559101009
 30
0.0
 11
344.5000008301914
 21
128.9999559101008
 31
0.0
  0
ARC
  5
27D
330
2
100
AcDbEntity
  8
0
  6
Continuous
 62
     7
 48
10.0
100
AcDbCircle
 10
345.5000008301914
 20
127.4999559101009
 30
0.0
 40
2.0
100
AcDbArc
 50
90.0
 51
180.0
  0
LINE
  5
27E
330
2
100
AcDbEntity
  8
0
  6
Continuous
 62
     7
 48
10.0
100
AcDbLine
 10
343.5000008301913
 20
119.1999559101009
 30
0.0
 11
343.5000008301913
 21
127.4999559101009
 31
0.0
  0
LINE
  5
27F
330
2
100
AcDbEntity
  8
0
  6
Continuous
 62
     7
 48
10.0
100
AcDbLine
 10
346.6606459011337
 20
123.4999545871778
 30
0.0
 11
346.6606459011337
 21
126.9999559101009
 31
0.0
  0
LINE
  5
280
330
2
100
AcDbEntity
  8
0
  6
Continuous
 62
     7
 48
10.0
100
AcDbLine
 10
352.5000008301914
 20
127.9999559101009
 30
0.0
 11
354.0000008301914
 21
128.9999559101008
 31
0.0
  0
ARC
  5
281
330
2
100
AcDbEntity
  8
0
  6
Continuous
 62
     7
 48
10.0
100
AcDbCircle
 10
353.5000008301914
 20
127.4999559101009
 30
0.0
 40
2.0
100
AcDbArc
 50
0.000000000000007
 51
90.0
  0
ARC
  5
282
330
2
100
AcDbEntity
  8
0
  6
Continuous
 62
     7
 48
10.0
100
AcDbCircle
 10
351.339355759249
 20
126.9999559101009
 30
0.0
 40
1.0
100
AcDbArc
 50
0.000000000000007
 51
90.0
  0
LINE
  5
283
330
2
100
AcDbEntity
  8
0
  6
Continuous
 62
     7
 48
10.0
100
AcDbLine
 10
355.5000008301913
 20
123.4999545871778
 30
0.0
 11
355.5000008301913
 21
127.4999559101009
 31
0.0
  0
LINE
  5
284
330
2
100
AcDbEntity
  8
0
  6
Continuous
 62
     7
 48
10.0
100
AcDbLine
 10
352.339355759249
 20
123.4999545871778
 30
0.0
 11
352.339355759249
 21
126.9999559101009
 31
0.0
  0
ARC
  5
285
330
2
100
AcDbEntity
  8
0
  6
Continuous
 62
     7
 48
10.0
100
AcDbCircle
 10
355.5000008301913
 20
134.4999559101009
 30
0.0
 40
1.5
100
AcDbArc
 50
270.0
 51
0.000000000000007
  0
ELLIPSE
  5
286
330
2
100
AcDbEntity
  8
0
  6
Continuous
 62
     7
 48
10.0
100
AcDbEllipse
 10
349.5000008301914
 20
128.9999559101008
 30
0.0
 11
1.5
 21
0.0
 31
0.0
210
0.0
220
0.0
230
1.0
 40
0.3333333333333333
 41
0.0
 42
6.283185307179585
  0
LINE
  5
287
330
2
100
AcDbEntity
  8
0
  6
Continuous
 62
     7
 48
10.0
100
AcDbLine
 10
353.5000008301914
 20
129.4999559101009
 30
0.0
 11
345.5000008301914
 21
129.4999559101009
 31
0.0
  0
LINE
  5
288
330
2
100
AcDbEntity
  8
0
  6
Continuous
 62
     7
 48
10.0
100
AcDbLine
 10
355.5000008301913
 20
123.9999559101009
 30
0.0
 11
343.5000008301913
 21
123.9999559101009
 31
0.0
  0
LINE
  5
289
330
2
100
AcDbEntity
  8
0
  6
Continuous
 62
     7
 48
10.0
100
AcDbLine
 10
351.339355759249
 20
127.9999559101009
 30
0.0
 11
347.6606459011336
 21
127.9999559101009
 31
0.0
  0
LINE
  5
28A
330
2
100
AcDbEntity
  8
0
  6
Continuous
 62
     7
 48
10.0
100
AcDbLine
 10
357.0000008301914
 20
134.4999559101009
 30
0.0
 11
357.0000008301914
 21
150.4999559101008
 31
0.0
  0
LINE
  5
28B
330
2
100
AcDbEntity
  8
0
  6
Continuous
 62
     7
 48
10.0
100
AcDbLine
 10
358.0000008301914
 20
150.4999559101008
 30
0.0
 11
358.0000008301914
 21
123.4999545871778
 31
0.0
  0
LINE
  5
28C
330
2
100
AcDbEntity
  8
0
  6
Continuous
 62
     7
 48
10.0
100
AcDbLine
 10
367.1305156042476
 20
145.4798379120734
 30
0.0
 11
367.1305156042476
 21
123.9999545871778
 31
0.0
  0
LINE
  5
28D
330
2
100
AcDbEntity
  8
0
  6
Continuous
 62
     7
 48
10.0
100
AcDbLine
 10
359.5000008301914
 20
150.1999559101009
 30
0.0
 11
359.5000008301914
 21
123.4999545871778
 31
0.0
  0
ARC
  5
28E
330
2
100
AcDbEntity
  8
0
  6
Continuous
 62
     7
 48
10.0
100
AcDbCircle
 10
347.6606459011336
 20
112.9999559101009
 30
0.0
 40
1.0
100
AcDbArc
 50
180.0
 51
270.0000000000002
  0
ARC
  5
28F
330
2
100
AcDbEntity
  8
0
  6
Continuous
 62
     7
 48
10.0
100
AcDbCircle
 10
345.5000008301914
 20
112.4999559101009
 30
0.0
 40
2.0
100
AcDbArc
 50
180.0
 51
270.0
  0
LINE
  5
290
330
2
100
AcDbEntity
  8
0
  6
Continuous
 62
     7
 48
10.0
100
AcDbLine
 10
346.5000008301914
 20
111.9999559101009
 30
0.0
 11
344.5000008301914
 21
110.9999559101009
 31
0.0
  0
LINE
  5
291
330
2
100
AcDbEntity
  8
0
  6
Continuous
 62
     7
 48
10.0
100
AcDbLine
 10
352.5000008301914
 20
111.9999559101009
 30
0.0
 11
354.0000008301914
 21
110.9999559101009
 31
0.0
  0
ARC
  5
292
330
2
100
AcDbEntity
  8
0
  6
Continuous
 62
     7
 48
10.0
100
AcDbCircle
 10
353.5000008301914
 20
112.4999559101009
 30
0.0
 40
2.0
100
AcDbArc
 50
270.0
 51
0.000000000000007
  0
ARC
  5
293
330
2
100
AcDbEntity
  8
0
  6
Continuous
 62
     7
 48
10.0
100
AcDbCircle
 10
351.339355759249
 20
112.9999559101009
 30
0.0
 40
1.0
100
AcDbArc
 50
270.0
 51
0.000000000000007
  0
ARC
  5
294
330
2
100
AcDbEntity
  8
0
  6
Continuous
 62
     7
 48
10.0
100
AcDbCircle
 10
355.5000008301913
 20
105.4999559101009
 30
0.0
 40
1.5
100
AcDbArc
 50
0.000000000000007
 51
90.0
  0
LINE
  5
295
330
2
100
AcDbEntity
  8
0
  6
Continuous
 62
     7
 48
10.0
100
AcDbLine
 10
368.5000008301914
 20
97.49995591010089
 30
0.0
 11
367.798997440419
 21
97.49995591010089
 31
0.0
  0
LINE
  5
296
330
2
100
AcDbEntity
  8
0
  6
Continuous
 62
     7
 48
10.0
100
AcDbLine
 10
369.5000008301914
 20
98.49995591010088
 30
0.0
 11
368.5000008301914
 21
97.49995591010089
 31
0.0
  0
ARC
  5
297
330
2
100
AcDbEntity
  8
0
  6
Continuous
 62
     7
 48
10.0
100
AcDbCircle
 10
168.7628014973393
 20
119.9999559101009
 30
0.0
 40
200.0
100
AcDbArc
 50
352.6341141710354
 51
352.67484934816
  0
LINE
  5
298
330
2
100
AcDbEntity
  8
0
  6
Continuous
 62
     7
 48
10.0
100
AcDbLine
 10
367.1305156042476
 20
94.99995591010089
 30
0.0
 11
367.5000008301914
 21
94.99995591010089
 31
0.0
  0
ARC
  5
299
330
2
100
AcDbEntity
  8
0
  6
Continuous
 62
     7
 48
10.0
100
AcDbCircle
 10
168.7628014973393
 20
119.9999559101009
 30
0.0
 40
200.0
100
AcDbArc
 50
352.6341141710354
 51
352.67484934816
  0
ARC
  5
29A
330
2
100
AcDbEntity
  8
0
  6
Continuous
 62
     7
 48
10.0
100
AcDbCircle
 10
169.0686525003471
 20
119.9999559101009
 30
0.0
 40
200.0
100
AcDbArc
 50
352.8192442185417
 51
353.5405502226451
  0
ELLIPSE
  5
29B
330
2
100
AcDbEntity
  8
0
  6
Continuous
 62
     7
 48
10.0
100
AcDbEllipse
 10
349.5000008301914
 20
110.9999559101009
 30
0.0
 11
1.5
 21
0.0
 31
0.0
210
0.0
220
0.0
230
-1.0
 40
0.3333333333333333
 41
0.0
 42
6.283185307179585
  0
LINE
  5
29C
330
2
100
AcDbEntity
  8
0
  6
Continuous
 62
     7
 48
10.0
100
AcDbLine
 10
355.5000008301913
 20
115.9999559101009
 30
0.0
 11
343.5000008301913
 21
115.9999559101009
 31
0.0
  0
LINE
  5
29D
330
2
100
AcDbEntity
  8
0
  6
Continuous
 62
     7
 48
10.0
100
AcDbLine
 10
353.5000008301914
 20
110.4999559101009
 30
0.0
 11
345.5000008301914
 21
110.4999559101009
 31
0.0
  0
LINE
  5
29E
330
2
100
AcDbEntity
  8
0
  6
Continuous
 62
     7
 48
10.0
100
AcDbLine
 10
351.339355759249
 20
111.9999559101009
 30
0.0
 11
347.6606459011336
 21
111.9999559101009
 31
0.0
  0
LINE
  5
29F
330
2
100
AcDbEntity
  8
0
  6
Continuous
 62
     7
 48
10.0
100
AcDbLine
 10
359.5000008301914
 20
89.79995591010084
 30
0.0
 11
358.0000008301914
 21
89.49995591010088
 31
0.0
  0
LINE
  5
2A0
330
2
100
AcDbEntity
  8
0
  6
Continuous
 62
     7
 48
10.0
100
AcDbLine
 10
359.5000008301914
 20
89.99995591010089
 30
0.0
 11
359.5000008301914
 21
89.79995591010084
 31
0.0
  0
LINE
  5
2A1
330
2
100
AcDbEntity
  8
0
  6
Continuous
 62
     7
 48
10.0
100
AcDbLine
 10
362.1535975554766
 20
89.99995591010089
 30
0.0
 11
359.5000008301914
 21
89.99995591010089
 31
0.0
  0
LINE
  5
2A2
330
2
100
AcDbEntity
  8
0
  6
Continuous
 62
     7
 48
10.0
100
AcDbLine
 10
357.0000008301914
 20
105.4999559101009
 30
0.0
 11
357.0000008301914
 21
89.49995591010088
 31
0.0
  0
ARC
  5
2A3
330
2
100
AcDbEntity
  8
0
  6
Continuous
 62
     7
 48
10.0
100
AcDbCircle
 10
362.1535975554766
 20
94.99995591010089
 30
0.0
 40
5.0
100
AcDbArc
 50
270.0
 51
354.4924797591814
  0
LINE
  5
2A4
330
2
100
AcDbEntity
  8
0
  6
Continuous
 62
     7
 48
10.0
100
AcDbLine
 10
343.5000008301913
 20
120.7999559101009
 30
0.0
 11
343.5000008301913
 21
112.4999559101009
 31
0.0
  0
LINE
  5
2A5
330
2
100
AcDbEntity
  8
0
  6
Continuous
 62
     7
 48
10.0
100
AcDbLine
 10
346.6606459011337
 20
116.4999545871778
 30
0.0
 11
346.6606459011337
 21
112.9999559101009
 31
0.0
  0
LINE
  5
2A6
330
2
100
AcDbEntity
  8
0
  6
Continuous
 62
     7
 48
10.0
100
AcDbLine
 10
355.5000008301913
 20
116.4999545871778
 30
0.0
 11
355.5000008301913
 21
112.4999559101009
 31
0.0
  0
LINE
  5
2A7
330
2
100
AcDbEntity
  8
0
  6
Continuous
 62
     7
 48
10.0
100
AcDbLine
 10
352.339355759249
 20
116.4999545871778
 30
0.0
 11
352.339355759249
 21
112.9999559101009
 31
0.0
  0
LINE
  5
2A8
330
2
100
AcDbEntity
  8
0
  6
Continuous
 62
     7
 48
10.0
100
AcDbLine
 10
348.0000268943845
 20
116.0
 30
0.0
 11
348.0000268943845
 21
116.4999545871778
 31
0.0
  0
LINE
  5
2A9
330
2
100
AcDbEntity
  8
0
  6
Continuous
 62
     7
 48
10.0
100
AcDbLine
 10
351.0000268943845
 20
124.0
 30
0.0
 11
351.0000268943845
 21
123.4999545871778
 31
0.0
  0
LINE
  5
2AA
330
2
100
AcDbEntity
  8
0
  6
Continuous
 62
     7
 48
10.0
100
AcDbLine
 10
358.0000008301914
 20
89.49995591010088
 30
0.0
 11
358.0000008301914
 21
116.4999545871778
 31
0.0
  0
LINE
  5
2AB
330
2
100
AcDbEntity
  8
0
  6
Continuous
 62
     7
 48
10.0
100
AcDbLine
 10
367.1305156042476
 20
94.52007390812857
 30
0.0
 11
367.1305156042476
 21
115.9999545871778
 31
0.0
  0
LINE
  5
2AC
330
2
100
AcDbEntity
  8
0
  6
Continuous
 62
     7
 48
10.0
100
AcDbLine
 10
359.5000008301914
 20
89.79995591010084
 30
0.0
 11
359.5000008301914
 21
116.4999545871778
 31
0.0
  0
LINE
  5
2AD
330
2
100
AcDbEntity
  8
0
  6
Continuous
 62
     7
 48
10.0
100
AcDbLine
 10
369.5000268943845
 20
130.5
 30
0.0
 11
369.5000268943845
 21
123.9999545871778
 31
0.0
  0
LINE
  5
2AE
330
2
100
AcDbEntity
  8
0
  6
Continuous
 62
     7
 48
10.0
100
AcDbLine
 10
369.5000008301914
 20
141.4999559101008
 30
0.0
 11
369.5000008301914
 21
123.9999545871778
 31
0.0
  0
LINE
  5
2AF
330
2
100
AcDbEntity
  8
0
  6
Continuous
 62
     7
 48
10.0
100
AcDbLine
 10
368.5000008301914
 20
97.49995591010089
 30
0.0
 11
368.5000008301914
 21
115.9999545871778
 31
0.0
  0
LINE
  5
2B0
330
2
100
AcDbEntity
  8
0
  6
Continuous
 62
     7
 48
10.0
100
AcDbLine
 10
367.798997440419
 20
142.4999559101008
 30
0.0
 11
367.798997440419
 21
123.9999545871778
 31
0.0
  0
LINE
  5
2B1
330
2
100
AcDbEntity
  8
0
  6
Continuous
 62
     7
 48
10.0
100
AcDbLine
 10
374.5000268943845
 20
130.5
 30
0.0
 11
378.0528132988848
 21
132.27639320225
 31
0.0
  0
ARC
  5
2B2
330
2
100
AcDbEntity
  8
0
  6
Continuous
 62
     7
 48
10.0
100
AcDbCircle
 10
378.5000268943845
 20
131.3819660112501
 30
0.0
 40
1.0
100
AcDbArc
 50
0.000000000000007
 51
116.565051177078
  0
ARC
  5
2B3
330
2
100
AcDbEntity
  8
0
  6
Continuous
 62
     7
 48
10.0
100
AcDbCircle
 10
378.5000268943845
 20
108.6180339887498
 30
0.0
 40
1.0
100
AcDbArc
 50
243.434948822922
 51
0.000000000000007
  0
LINE
  5
2B4
330
2
100
AcDbEntity
  8
0
  6
Continuous
 62
     7
 48
10.0
100
AcDbLine
 10
374.5000268943845
 20
109.5
 30
0.0
 11
378.0528132988845
 21
107.72360679775
 31
0.0
  0
LINE
  5
2B5
330
2
100
AcDbEntity
  8
0
  6
Continuous
 62
     7
 48
10.0
100
AcDbLine
 10
379.5000268943845
 20
131.3819660112501
 30
0.0
 11
379.5000268943845
 21
123.4999545871778
 31
0.0
  0
LINE
  5
2B6
330
2
100
AcDbEntity
  8
0
  6
Continuous
 62
     7
 48
10.0
100
AcDbLine
 10
374.5000268943845
 20
130.5
 30
0.0
 11
374.5000268943845
 21
123.9999545871778
 31
0.0
  0
LINE
  5
2B7
330
2
100
AcDbEntity
  8
0
  6
Continuous
 62
     7
 48
10.0
100
AcDbLine
 10
377.0000268943845
 20
131.0
 30
0.0
 11
377.0000268943845
 21
123.4999545871778
 31
0.0
  0
LINE
  5
2B8
330
2
100
AcDbEntity
  8
0
  6
Continuous
 62
     7
 48
10.0
100
AcDbLine
 10
374.5000268943845
 20
130.5
 30
0.0
 11
369.5000268943845
 21
130.5
 31
0.0
  0
LINE
  5
2B9
330
2
100
AcDbEntity
  8
0
  6
Continuous
 62
     7
 48
10.0
100
AcDbLine
 10
369.5000268943845
 20
109.5
 30
0.0
 11
374.5000268943845
 21
109.5
 31
0.0
  0
LINE
  5
2BA
330
2
100
AcDbEntity
  8
0
  6
Continuous
 62
     7
 48
10.0
100
AcDbLine
 10
358.0000008301914
 20
261.9999559101009
 30
0.0
 11
358.0000008301914
 21
203.504054546147
 31
0.0
  0
LINE
  5
2BB
330
2
100
AcDbEntity
  8
0
  6
Continuous
 62
     7
 48
10.0
100
AcDbLine
 10
357.0000008301914
 20
261.9999559101009
 30
0.0
 11
357.0000008301914
 21
207.9091965874582
 31
0.0
  0
LINE
  5
2BC
330
2
100
AcDbEntity
  8
0
  6
Continuous
 62
     7
 48
10.0
100
AcDbLine
 10
359.5000008301914
 20
261.4999559101009
 30
0.0
 11
359.5000008301914
 21
203.9999559101009
 31
0.0
  0
LINE
  5
2BD
330
2
100
AcDbEntity
  8
0
  6
Continuous
 62
     7
 48
10.0
100
AcDbLine
 10
367.1305156042476
 20
208.9999559101009
 30
0.0
 11
367.1305156042472
 21
304.8430907430855
 31
0.0
  0
LINE
  5
2BE
330
2
100
AcDbEntity
  8
0
  6
Continuous
 62
     7
 48
10.0
100
AcDbLine
 10
369.5000008301914
 20
338.1313562436749
 30
0.0
 11
369.5000008301914
 21
212.4999559101009
 31
0.0
  0
LINE
  5
2BF
330
2
100
AcDbEntity
  8
0
  6
Continuous
 62
     7
 48
5.0
100
AcDbLine
 10
368.5000268943845
 20
339.0
 30
0.0
 11
368.5000268943845
 21
211.5
 31
0.0
  0
LINE
  5
2C0
330
2
100
AcDbEntity
  8
0
  6
Continuous
 62
     7
 48
10.0
100
AcDbLine
 10
252.5000008301913
 20
309.8430907430854
 30
0.0
 11
362.1305156042472
 21
309.8430907430854
 31
0.0
  0
LINE
  5
2C1
330
2
100
AcDbEntity
  8
0
  6
Continuous
 62
     7
 48
10.0
100
AcDbLine
 10
245.5000008301913
 20
313.452034709218
 30
0.0
 11
352.5000008301914
 21
313.452034709218
 31
0.0
  0
LINE
  5
2C2
330
2
100
AcDbEntity
  8
0
  6
Continuous
 62
     7
 48
10.0
100
AcDbLine
 10
267.0798502754833
 20
339.1301062358625
 30
0.0
 11
352.5000008301914
 21
339.1301062358625
 31
0.0
  0
LINE
  5
2C3
330
2
100
AcDbEntity
  8
0
  6
Continuous
 62
     7
 48
10.0
100
AcDbLine
 10
266.0468196249767
 20
337.9999559101009
 30
0.0
 11
352.5000008301914
 21
337.9999559101009
 31
0.0
  0
LINE
  5
2C4
330
2
100
AcDbEntity
  8
0
  6
Continuous
 62
     7
 48
10.0
100
AcDbLine
 10
358.0000008301914
 20
89.49995591010088
 30
0.0
 11
258.9589260118155
 21
89.49995591010088
 31
0.0
  0
LINE
  5
2C5
330
2
100
AcDbEntity
  8
0
  6
Continuous
 62
     7
 48
10.0
100
AcDbLine
 10
355.5000008301913
 20
106.9999559101008
 30
0.0
 11
261.5000008301913
 21
106.9999559101008
 31
0.0
  0
LINE
  5
2C6
330
2
100
AcDbEntity
  8
0
  6
Continuous
 62
     7
 48
10.0
100
AcDbLine
 10
355.5000008301913
 20
132.9999559101008
 30
0.0
 11
261.5000008301913
 21
132.9999559101008
 31
0.0
  0
LINE
  5
2C7
330
2
100
AcDbEntity
  8
0
  6
Continuous
 62
     7
 48
10.0
100
AcDbLine
 10
358.0000008301914
 20
150.4999559101008
 30
0.0
 11
258.9589260118155
 21
150.4999559101008
 31
0.0
  0
LINE
  5
2C8
330
2
100
AcDbEntity
  8
0
  6
Continuous
 62
     7
 48
10.0
100
AcDbLine
 10
262.0000008301913
 20
265.9999559101009
 30
0.0
 11
355.0000008301914
 21
265.9999559101009
 31
0.0
  0
LINE
  5
2C9
330
2
100
AcDbEntity
  8
0
  6
Continuous
 62
     7
 48
10.0
100
AcDbLine
 10
261.5000008301913
 20
264.4999559101009
 30
0.0
 11
355.5000008301913
 21
264.4999559101009
 31
0.0
  0
LINE
  5
2CA
330
2
100
AcDbEntity
  8
0
  6
Continuous
 62
     7
 48
10.0
100
AcDbLine
 10
261.5000008301913
 20
263.4999559101009
 30
0.0
 11
355.5000008301913
 21
263.4999559101009
 31
0.0
  0
LINE
  5
2CB
330
2
100
AcDbEntity
  8
0
  6
Continuous
 62
     7
 48
10.0
100
AcDbLine
 10
261.5000008301913
 20
206.4091965874581
 30
0.0
 11
355.5000008301913
 21
206.4091965874581
 31
0.0
  0
LINE
  5
2CC
330
2
100
AcDbEntity
  8
0
  6
Continuous
 62
     7
 48
10.0
100
AcDbLine
 10
258.0000008301911
 20
203.504054546147
 30
0.0
 11
343.4976587524507
 21
203.504054546147
 31
0.0
  0
LINE
  5
2CD
330
2
100
AcDbEntity
  8
0
  6
Continuous
 62
     7
 48
10.0
100
AcDbLine
 10
346.1621614106667
 20
120.4999559101008
 30
0.0
 11
278.468627796788
 21
120.4999559101008
 31
0.0
  0
LINE
  5
2CE
330
2
100
AcDbEntity
  8
0
  6
Continuous
 62
     7
 48
10.0
100
AcDbLine
 10
346.1621614106667
 20
119.4999559101008
 30
0.0
 11
278.468627796788
 21
119.4999559101008
 31
0.0
  0
LINE
  5
2CF
330
2
100
AcDbEntity
  8
0
  6
Continuous
 62
     7
 48
10.0
100
AcDbLine
 10
265.0000268943845
 20
233.5
 30
0.0
 11
351.0000268943845
 21
233.5
 31
0.0
  0
LINE
  5
2D0
330
2
100
AcDbEntity
  8
0
  6
Continuous
 62
     7
 48
10.0
100
AcDbLine
 10
265.0000268943845
 20
230.5
 30
0.0
 11
351.0000268943845
 21
230.5
 31
0.0
  0
LINE
  5
2D1
330
2
100
AcDbEntity
  8
0
  6
Continuous
 62
     7
 48
10.0
100
AcDbLine
 10
265.0000268943845
 20
240.5
 30
0.0
 11
351.0000268943845
 21
240.5
 31
0.0
  0
LINE
  5
2D2
330
2
100
AcDbEntity
  8
0
  6
Continuous
 62
     7
 48
10.0
100
AcDbLine
 10
265.0000268943845
 20
243.5
 30
0.0
 11
351.0000268943845
 21
243.5
 31
0.0
  0
LINE
  5
2D3
330
2
100
AcDbEntity
  8
0
  6
Continuous
 62
     7
 48
10.0
100
AcDbLine
 10
265.0000268943845
 20
220.5
 30
0.0
 11
351.0000268943845
 21
220.5
 31
0.0
  0
LINE
  5
2D4
330
2
100
AcDbEntity
  8
0
  6
Continuous
 62
     7
 48
10.0
100
AcDbLine
 10
265.0000268943845
 20
223.5
 30
0.0
 11
351.0000268943845
 21
223.5
 31
0.0
  0
LINE
  5
2D5
330
2
100
AcDbEntity
  8
0
  6
Continuous
 62
     7
 48
10.0
100
AcDbLine
 10
215.0075505406682
 20
292.5002711348504
 30
0.0
 11
217.5075505406683
 21
290.0002711348504
 31
0.0
  0
LINE
  5
2D6
330
2
100
AcDbEntity
  8
0
  6
Continuous
 62
     7
 48
10.0
100
AcDbLine
 10
217.5075505406683
 20
292.5002711348504
 30
0.0
 11
215.0075505406682
 21
290.0002711348504
 31
0.0
  0
LINE
  5
2D7
330
2
100
AcDbEntity
  8
0
  6
Continuous
 62
     7
 48
10.0
100
AcDbLine
 10
222.5075505406683
 20
290.0002711348504
 30
0.0
 11
225.0075505406682
 21
292.5002711348504
 31
0.0
  0
LINE
  5
2D8
330
2
100
AcDbEntity
  8
0
  6
Continuous
 62
     7
 48
10.0
100
AcDbLine
 10
225.0075505406682
 20
290.0002711348504
 30
0.0
 11
222.5075505406683
 21
292.5002711348504
 31
0.0
  0
LINE
  5
2D9
330
2
100
AcDbEntity
  8
0
  6
Continuous
 62
     7
 48
10.0
100
AcDbLine
 10
220.0075505406683
 20
292.5002711348504
 30
0.0
 11
222.5075505406683
 21
290.0002711348504
 31
0.0
  0
LINE
  5
2DA
330
2
100
AcDbEntity
  8
0
  6
Continuous
 62
     7
 48
10.0
100
AcDbLine
 10
222.5075505406683
 20
292.5002711348504
 30
0.0
 11
220.0075505406683
 21
290.0002711348504
 31
0.0
  0
LINE
  5
2DB
330
2
100
AcDbEntity
  8
0
  6
Continuous
 62
     7
 48
10.0
100
AcDbLine
 10
217.5075505406683
 20
290.0002711348504
 30
0.0
 11
220.0075505406683
 21
292.5002711348504
 31
0.0
  0
LINE
  5
2DC
330
2
100
AcDbEntity
  8
0
  6
Continuous
 62
     7
 48
10.0
100
AcDbLine
 10
220.0075505406683
 20
290.0002711348504
 30
0.0
 11
217.5075505406683
 21
292.5002711348504
 31
0.0
  0
LINE
  5
2DD
330
2
100
AcDbEntity
  8
0
  6
Continuous
 62
     7
 48
10.0
100
AcDbLine
 10
227.5075505406682
 20
290.0002711348504
 30
0.0
 11
230.0075505406683
 21
292.5002711348504
 31
0.0
  0
LINE
  5
2DE
330
2
100
AcDbEntity
  8
0
  6
Continuous
 62
     7
 48
10.0
100
AcDbLine
 10
227.5075505406682
 20
292.5002711348504
 30
0.0
 11
230.0075505406683
 21
290.0002711348504
 31
0.0
  0
LINE
  5
2DF
330
2
100
AcDbEntity
  8
0
  6
Continuous
 62
     7
 48
10.0
100
AcDbLine
 10
225.0075505406682
 20
290.0002711348504
 30
0.0
 11
227.5075505406682
 21
292.5002711348504
 31
0.0
  0
LINE
  5
2E0
330
2
100
AcDbEntity
  8
0
  6
Continuous
 62
     7
 48
10.0
100
AcDbLine
 10
227.5075505406682
 20
290.0002711348504
 30
0.0
 11
225.0075505406682
 21
292.5002711348504
 31
0.0
  0
LINE
  5
2E1
330
2
100
AcDbEntity
  8
0
  6
Continuous
 62
     7
 48
10.0
100
AcDbLine
 10
217.5075505406683
 20
302.5002711348504
 30
0.0
 11
217.5075505406683
 21
282.5002711348505
 31
0.0
  0
LINE
  5
2E2
330
2
100
AcDbEntity
  8
0
  6
Continuous
 62
     7
 48
10.0
100
AcDbLine
 10
220.0075505406683
 20
302.5002711348504
 30
0.0
 11
220.0075505406683
 21
282.5002711348505
 31
0.0
  0
LINE
  5
2E3
330
2
100
AcDbEntity
  8
0
  6
Continuous
 62
     7
 48
10.0
100
AcDbLine
 10
222.5075505406683
 20
302.5002711348504
 30
0.0
 11
222.5075505406683
 21
282.5002711348505
 31
0.0
  0
LINE
  5
2E4
330
2
100
AcDbEntity
  8
0
  6
Continuous
 62
     7
 48
10.0
100
AcDbLine
 10
225.0075505406682
 20
302.5002711348504
 30
0.0
 11
225.0075505406682
 21
282.5002711348505
 31
0.0
  0
LINE
  5
2E5
330
2
100
AcDbEntity
  8
0
  6
Continuous
 62
     7
 48
10.0
100
AcDbLine
 10
227.5075505406682
 20
302.5002711348504
 30
0.0
 11
227.5075505406682
 21
282.5002711348505
 31
0.0
  0
LINE
  5
2E6
330
2
100
AcDbEntity
  8
0
  6
Continuous
 62
     7
 48
10.0
100
AcDbLine
 10
214.5075505406683
 20
322.0002711348505
 30
0.0
 11
214.5075505406683
 21
275.8569744425454
 31
0.0
  0
LINE
  5
2E7
330
2
100
AcDbEntity
  8
0
  6
Continuous
 62
     7
 48
10.0
100
AcDbLine
 10
230.5075505406683
 20
275.8569744425454
 30
0.0
 11
230.5075505406683
 21
322.0002711348505
 31
0.0
  0
LINE
  5
2E8
330
2
100
AcDbEntity
  8
0
  6
Continuous
 62
     7
 48
10.0
100
AcDbLine
 10
230.0075505406683
 20
290.0002711348504
 30
0.0
 11
215.0075505406682
 21
290.0002711348504
 31
0.0
  0
LINE
  5
2E9
330
2
100
AcDbEntity
  8
0
  6
Continuous
 62
     7
 48
10.0
100
AcDbLine
 10
230.0075505406683
 20
287.5002711348504
 30
0.0
 11
215.0075505406682
 21
287.5002711348504
 31
0.0
  0
LINE
  5
2EA
330
2
100
AcDbEntity
  8
0
  6
Continuous
 62
     7
 48
10.0
100
AcDbLine
 10
227.5075505406682
 20
290.0002711348504
 30
0.0
 11
225.0075505406682
 21
287.5002711348504
 31
0.0
  0
LINE
  5
2EB
330
2
100
AcDbEntity
  8
0
  6
Continuous
 62
     7
 48
10.0
100
AcDbLine
 10
225.0075505406682
 20
290.0002711348504
 30
0.0
 11
227.5075505406682
 21
287.5002711348504
 31
0.0
  0
LINE
  5
2EC
330
2
100
AcDbEntity
  8
0
  6
Continuous
 62
     7
 48
10.0
100
AcDbLine
 10
225.0075505406682
 20
287.5002711348504
 30
0.0
 11
227.5075505406682
 21
285.0002711348505
 31
0.0
  0
LINE
  5
2ED
330
2
100
AcDbEntity
  8
0
  6
Continuous
 62
     7
 48
10.0
100
AcDbLine
 10
227.5075505406682
 20
287.5002711348504
 30
0.0
 11
225.0075505406682
 21
285.0002711348505
 31
0.0
  0
LINE
  5
2EE
330
2
100
AcDbEntity
  8
0
  6
Continuous
 62
     7
 48
10.0
100
AcDbLine
 10
230.0075505406683
 20
285.0002711348505
 30
0.0
 11
215.0075505406682
 21
285.0002711348505
 31
0.0
  0
LINE
  5
2EF
330
2
100
AcDbEntity
  8
0
  6
Continuous
 62
     7
 48
10.0
100
AcDbLine
 10
225.0075505406682
 20
285.0002711348505
 30
0.0
 11
227.5075505406682
 21
282.5002711348505
 31
0.0
  0
LINE
  5
2F0
330
2
100
AcDbEntity
  8
0
  6
Continuous
 62
     7
 48
10.0
100
AcDbLine
 10
227.5075505406682
 20
285.0002711348505
 30
0.0
 11
225.0075505406682
 21
282.5002711348505
 31
0.0
  0
LINE
  5
2F1
330
2
100
AcDbEntity
  8
0
  6
Continuous
 62
     7
 48
10.0
100
AcDbLine
 10
227.5075505406682
 20
287.5002711348504
 30
0.0
 11
230.0075505406683
 21
285.0002711348505
 31
0.0
  0
LINE
  5
2F2
330
2
100
AcDbEntity
  8
0
  6
Continuous
 62
     7
 48
10.0
100
AcDbLine
 10
227.5075505406682
 20
285.0002711348505
 30
0.0
 11
230.0075505406683
 21
287.5002711348504
 31
0.0
  0
LINE
  5
2F3
330
2
100
AcDbEntity
  8
0
  6
Continuous
 62
     7
 48
10.0
100
AcDbLine
 10
227.5075505406682
 20
285.0002711348505
 30
0.0
 11
230.0075505406683
 21
282.5002711348505
 31
0.0
  0
LINE
  5
2F4
330
2
100
AcDbEntity
  8
0
  6
Continuous
 62
     7
 48
10.0
100
AcDbLine
 10
227.5075505406682
 20
282.5002711348505
 30
0.0
 11
230.0075505406683
 21
285.0002711348505
 31
0.0
  0
LINE
  5
2F5
330
2
100
AcDbEntity
  8
0
  6
Continuous
 62
     7
 48
10.0
100
AcDbLine
 10
227.5075505406682
 20
287.5002711348504
 30
0.0
 11
230.0075505406683
 21
290.0002711348504
 31
0.0
  0
LINE
  5
2F6
330
2
100
AcDbEntity
  8
0
  6
Continuous
 62
     7
 48
10.0
100
AcDbLine
 10
227.5075505406682
 20
290.0002711348504
 30
0.0
 11
230.0075505406683
 21
287.5002711348504
 31
0.0
  0
LINE
  5
2F7
330
2
100
AcDbEntity
  8
0
  6
Continuous
 62
     7
 48
10.0
100
AcDbLine
 10
217.5075505406683
 20
285.0002711348505
 30
0.0
 11
220.0075505406683
 21
282.5002711348505
 31
0.0
  0
LINE
  5
2F8
330
2
100
AcDbEntity
  8
0
  6
Continuous
 62
     7
 48
10.0
100
AcDbLine
 10
220.0075505406683
 20
285.0002711348505
 30
0.0
 11
217.5075505406683
 21
282.5002711348505
 31
0.0
  0
LINE
  5
2F9
330
2
100
AcDbEntity
  8
0
  6
Continuous
 62
     7
 48
10.0
100
AcDbLine
 10
217.5075505406683
 20
287.5002711348504
 30
0.0
 11
220.0075505406683
 21
285.0002711348505
 31
0.0
  0
LINE
  5
2FA
330
2
100
AcDbEntity
  8
0
  6
Continuous
 62
     7
 48
10.0
100
AcDbLine
 10
220.0075505406683
 20
287.5002711348504
 30
0.0
 11
217.5075505406683
 21
285.0002711348505
 31
0.0
  0
LINE
  5
2FB
330
2
100
AcDbEntity
  8
0
  6
Continuous
 62
     7
 48
10.0
100
AcDbLine
 10
220.0075505406683
 20
290.0002711348504
 30
0.0
 11
217.5075505406683
 21
287.5002711348504
 31
0.0
  0
LINE
  5
2FC
330
2
100
AcDbEntity
  8
0
  6
Continuous
 62
     7
 48
10.0
100
AcDbLine
 10
217.5075505406683
 20
290.0002711348504
 30
0.0
 11
220.0075505406683
 21
287.5002711348504
 31
0.0
  0
LINE
  5
2FD
330
2
100
AcDbEntity
  8
0
  6
Continuous
 62
     7
 48
10.0
100
AcDbLine
 10
222.5075505406683
 20
287.5002711348504
 30
0.0
 11
225.0075505406682
 21
285.0002711348505
 31
0.0
  0
LINE
  5
2FE
330
2
100
AcDbEntity
  8
0
  6
Continuous
 62
     7
 48
10.0
100
AcDbLine
 10
225.0075505406682
 20
287.5002711348504
 30
0.0
 11
222.5075505406683
 21
285.0002711348505
 31
0.0
  0
LINE
  5
2FF
330
2
100
AcDbEntity
  8
0
  6
Continuous
 62
     7
 48
10.0
100
AcDbLine
 10
220.0075505406683
 20
285.0002711348505
 30
0.0
 11
222.5075505406683
 21
287.5002711348504
 31
0.0
  0
LINE
  5
300
330
2
100
AcDbEntity
  8
0
  6
Continuous
 62
     7
 48
10.0
100
AcDbLine
 10
222.5075505406683
 20
285.0002711348505
 30
0.0
 11
220.0075505406683
 21
287.5002711348504
 31
0.0
  0
LINE
  5
301
330
2
100
AcDbEntity
  8
0
  6
Continuous
 62
     7
 48
10.0
100
AcDbLine
 10
220.0075505406683
 20
282.5002711348505
 30
0.0
 11
222.5075505406683
 21
285.0002711348505
 31
0.0
  0
LINE
  5
302
330
2
100
AcDbEntity
  8
0
  6
Continuous
 62
     7
 48
10.0
100
AcDbLine
 10
222.5075505406683
 20
282.5002711348505
 30
0.0
 11
220.0075505406683
 21
285.0002711348505
 31
0.0
  0
LINE
  5
303
330
2
100
AcDbEntity
  8
0
  6
Continuous
 62
     7
 48
10.0
100
AcDbLine
 10
222.5075505406683
 20
285.0002711348505
 30
0.0
 11
225.0075505406682
 21
282.5002711348505
 31
0.0
  0
LINE
  5
304
330
2
100
AcDbEntity
  8
0
  6
Continuous
 62
     7
 48
10.0
100
AcDbLine
 10
225.0075505406682
 20
285.0002711348505
 30
0.0
 11
222.5075505406683
 21
282.5002711348505
 31
0.0
  0
LINE
  5
305
330
2
100
AcDbEntity
  8
0
  6
Continuous
 62
     7
 48
10.0
100
AcDbLine
 10
222.5075505406683
 20
287.5002711348504
 30
0.0
 11
220.0075505406683
 21
290.0002711348504
 31
0.0
  0
LINE
  5
306
330
2
100
AcDbEntity
  8
0
  6
Continuous
 62
     7
 48
10.0
100
AcDbLine
 10
220.0075505406683
 20
287.5002711348504
 30
0.0
 11
222.5075505406683
 21
290.0002711348504
 31
0.0
  0
LINE
  5
307
330
2
100
AcDbEntity
  8
0
  6
Continuous
 62
     7
 48
10.0
100
AcDbLine
 10
225.0075505406682
 20
290.0002711348504
 30
0.0
 11
222.5075505406683
 21
287.5002711348504
 31
0.0
  0
LINE
  5
308
330
2
100
AcDbEntity
  8
0
  6
Continuous
 62
     7
 48
10.0
100
AcDbLine
 10
222.5075505406683
 20
290.0002711348504
 30
0.0
 11
225.0075505406682
 21
287.5002711348504
 31
0.0
  0
LINE
  5
309
330
2
100
AcDbEntity
  8
0
  6
Continuous
 62
     7
 48
10.0
100
AcDbLine
 10
215.0075505406682
 20
285.0002711348505
 30
0.0
 11
217.5075505406683
 21
287.5002711348504
 31
0.0
  0
LINE
  5
30A
330
2
100
AcDbEntity
  8
0
  6
Continuous
 62
     7
 48
10.0
100
AcDbLine
 10
217.5075505406683
 20
285.0002711348505
 30
0.0
 11
215.0075505406682
 21
287.5002711348504
 31
0.0
  0
LINE
  5
30B
330
2
100
AcDbEntity
  8
0
  6
Continuous
 62
     7
 48
10.0
100
AcDbLine
 10
215.0075505406682
 20
282.5002711348505
 30
0.0
 11
217.5075505406683
 21
285.0002711348505
 31
0.0
  0
LINE
  5
30C
330
2
100
AcDbEntity
  8
0
  6
Continuous
 62
     7
 48
10.0
100
AcDbLine
 10
217.5075505406683
 20
282.5002711348505
 30
0.0
 11
215.0075505406682
 21
285.0002711348505
 31
0.0
  0
LINE
  5
30D
330
2
100
AcDbEntity
  8
0
  6
Continuous
 62
     7
 48
10.0
100
AcDbLine
 10
217.5075505406683
 20
287.5002711348504
 30
0.0
 11
215.0075505406682
 21
290.0002711348504
 31
0.0
  0
LINE
  5
30E
330
2
100
AcDbEntity
  8
0
  6
Continuous
 62
     7
 48
10.0
100
AcDbLine
 10
215.0075505406682
 20
287.5002711348504
 30
0.0
 11
217.5075505406683
 21
290.0002711348504
 31
0.0
  0
LINE
  5
30F
330
2
100
AcDbEntity
  8
0
  6
Continuous
 62
     7
 48
10.0
100
AcDbLine
 10
230.5075505406683
 20
322.0002711348505
 30
0.0
 11
214.5075505406683
 21
322.0002711348505
 31
0.0
  0
LINE
  5
310
330
2
100
AcDbEntity
  8
0
  6
Continuous
 62
     7
 48
10.0
100
AcDbLine
 10
230.0075505406683
 20
300.0002711348504
 30
0.0
 11
215.0075505406682
 21
300.0002711348504
 31
0.0
  0
LINE
  5
311
330
2
100
AcDbEntity
  8
0
  6
Continuous
 62
     7
 48
10.0
100
AcDbLine
 10
227.5075505406682
 20
297.5002711348505
 30
0.0
 11
225.0075505406682
 21
300.0002711348504
 31
0.0
  0
LINE
  5
312
330
2
100
AcDbEntity
  8
0
  6
Continuous
 62
     7
 48
10.0
100
AcDbLine
 10
225.0075505406682
 20
297.5002711348505
 30
0.0
 11
227.5075505406682
 21
300.0002711348504
 31
0.0
  0
LINE
  5
313
330
2
100
AcDbEntity
  8
0
  6
Continuous
 62
     7
 48
10.0
100
AcDbLine
 10
230.0075505406683
 20
297.5002711348505
 30
0.0
 11
215.0075505406682
 21
297.5002711348505
 31
0.0
  0
LINE
  5
314
330
2
100
AcDbEntity
  8
0
  6
Continuous
 62
     7
 48
10.0
100
AcDbLine
 10
227.5075505406682
 20
295.0002711348505
 30
0.0
 11
225.0075505406682
 21
297.5002711348505
 31
0.0
  0
LINE
  5
315
330
2
100
AcDbEntity
  8
0
  6
Continuous
 62
     7
 48
10.0
100
AcDbLine
 10
225.0075505406682
 20
295.0002711348505
 30
0.0
 11
227.5075505406682
 21
297.5002711348505
 31
0.0
  0
LINE
  5
316
330
2
100
AcDbEntity
  8
0
  6
Continuous
 62
     7
 48
10.0
100
AcDbLine
 10
230.0075505406683
 20
295.0002711348505
 30
0.0
 11
215.0075505406682
 21
295.0002711348505
 31
0.0
  0
LINE
  5
317
330
2
100
AcDbEntity
  8
0
  6
Continuous
 62
     7
 48
10.0
100
AcDbLine
 10
227.5075505406682
 20
292.5002711348504
 30
0.0
 11
225.0075505406682
 21
295.0002711348505
 31
0.0
  0
LINE
  5
318
330
2
100
AcDbEntity
  8
0
  6
Continuous
 62
     7
 48
10.0
100
AcDbLine
 10
225.0075505406682
 20
292.5002711348504
 30
0.0
 11
227.5075505406682
 21
295.0002711348505
 31
0.0
  0
LINE
  5
319
330
2
100
AcDbEntity
  8
0
  6
Continuous
 62
     7
 48
10.0
100
AcDbLine
 10
230.0075505406683
 20
292.5002711348504
 30
0.0
 11
215.0075505406682
 21
292.5002711348504
 31
0.0
  0
LINE
  5
31A
330
2
100
AcDbEntity
  8
0
  6
Continuous
 62
     7
 48
10.0
100
AcDbLine
 10
227.5075505406682
 20
300.0002711348504
 30
0.0
 11
225.0075505406682
 21
302.5002711348504
 31
0.0
  0
LINE
  5
31B
330
2
100
AcDbEntity
  8
0
  6
Continuous
 62
     7
 48
10.0
100
AcDbLine
 10
225.0075505406682
 20
300.0002711348504
 30
0.0
 11
227.5075505406682
 21
302.5002711348504
 31
0.0
  0
LINE
  5
31C
330
2
100
AcDbEntity
  8
0
  6
Continuous
 62
     7
 48
10.0
100
AcDbLine
 10
227.5075505406682
 20
300.0002711348504
 30
0.0
 11
230.0075505406683
 21
297.5002711348505
 31
0.0
  0
LINE
  5
31D
330
2
100
AcDbEntity
  8
0
  6
Continuous
 62
     7
 48
10.0
100
AcDbLine
 10
227.5075505406682
 20
297.5002711348505
 30
0.0
 11
230.0075505406683
 21
300.0002711348504
 31
0.0
  0
LINE
  5
31E
330
2
100
AcDbEntity
  8
0
  6
Continuous
 62
     7
 48
10.0
100
AcDbLine
 10
227.5075505406682
 20
297.5002711348505
 30
0.0
 11
230.0075505406683
 21
295.0002711348505
 31
0.0
  0
LINE
  5
31F
330
2
100
AcDbEntity
  8
0
  6
Continuous
 62
     7
 48
10.0
100
AcDbLine
 10
227.5075505406682
 20
295.0002711348505
 30
0.0
 11
230.0075505406683
 21
297.5002711348505
 31
0.0
  0
LINE
  5
320
330
2
100
AcDbEntity
  8
0
  6
Continuous
 62
     7
 48
10.0
100
AcDbLine
 10
227.5075505406682
 20
295.0002711348505
 30
0.0
 11
230.0075505406683
 21
292.5002711348504
 31
0.0
  0
LINE
  5
321
330
2
100
AcDbEntity
  8
0
  6
Continuous
 62
     7
 48
10.0
100
AcDbLine
 10
227.5075505406682
 20
292.5002711348504
 30
0.0
 11
230.0075505406683
 21
295.0002711348505
 31
0.0
  0
LINE
  5
322
330
2
100
AcDbEntity
  8
0
  6
Continuous
 62
     7
 48
10.0
100
AcDbLine
 10
227.5075505406682
 20
302.5002711348504
 30
0.0
 11
230.0075505406683
 21
300.0002711348504
 31
0.0
  0
LINE
  5
323
330
2
100
AcDbEntity
  8
0
  6
Continuous
 62
     7
 48
10.0
100
AcDbLine
 10
227.5075505406682
 20
300.0002711348504
 30
0.0
 11
230.0075505406683
 21
302.5002711348504
 31
0.0
  0
LINE
  5
324
330
2
100
AcDbEntity
  8
0
  6
Continuous
 62
     7
 48
10.0
100
AcDbLine
 10
220.0075505406683
 20
292.5002711348504
 30
0.0
 11
217.5075505406683
 21
295.0002711348505
 31
0.0
  0
LINE
  5
325
330
2
100
AcDbEntity
  8
0
  6
Continuous
 62
     7
 48
10.0
100
AcDbLine
 10
217.5075505406683
 20
292.5002711348504
 30
0.0
 11
220.0075505406683
 21
295.0002711348505
 31
0.0
  0
LINE
  5
326
330
2
100
AcDbEntity
  8
0
  6
Continuous
 62
     7
 48
10.0
100
AcDbLine
 10
220.0075505406683
 20
297.5002711348505
 30
0.0
 11
217.5075505406683
 21
300.0002711348504
 31
0.0
  0
LINE
  5
327
330
2
100
AcDbEntity
  8
0
  6
Continuous
 62
     7
 48
10.0
100
AcDbLine
 10
217.5075505406683
 20
297.5002711348505
 30
0.0
 11
220.0075505406683
 21
300.0002711348504
 31
0.0
  0
LINE
  5
328
330
2
100
AcDbEntity
  8
0
  6
Continuous
 62
     7
 48
10.0
100
AcDbLine
 10
220.0075505406683
 20
295.0002711348505
 30
0.0
 11
217.5075505406683
 21
297.5002711348505
 31
0.0
  0
LINE
  5
329
330
2
100
AcDbEntity
  8
0
  6
Continuous
 62
     7
 48
10.0
100
AcDbLine
 10
217.5075505406683
 20
295.0002711348505
 30
0.0
 11
220.0075505406683
 21
297.5002711348505
 31
0.0
  0
LINE
  5
32A
330
2
100
AcDbEntity
  8
0
  6
Continuous
 62
     7
 48
10.0
100
AcDbLine
 10
220.0075505406683
 20
300.0002711348504
 30
0.0
 11
217.5075505406683
 21
302.5002711348504
 31
0.0
  0
LINE
  5
32B
330
2
100
AcDbEntity
  8
0
  6
Continuous
 62
     7
 48
10.0
100
AcDbLine
 10
217.5075505406683
 20
300.0002711348504
 30
0.0
 11
220.0075505406683
 21
302.5002711348504
 31
0.0
  0
LINE
  5
32C
330
2
100
AcDbEntity
  8
0
  6
Continuous
 62
     7
 48
10.0
100
AcDbLine
 10
225.0075505406682
 20
297.5002711348505
 30
0.0
 11
222.5075505406683
 21
300.0002711348504
 31
0.0
  0
LINE
  5
32D
330
2
100
AcDbEntity
  8
0
  6
Continuous
 62
     7
 48
10.0
100
AcDbLine
 10
222.5075505406683
 20
297.5002711348505
 30
0.0
 11
225.0075505406682
 21
300.0002711348504
 31
0.0
  0
LINE
  5
32E
330
2
100
AcDbEntity
  8
0
  6
Continuous
 62
     7
 48
10.0
100
AcDbLine
 10
222.5075505406683
 20
300.0002711348504
 30
0.0
 11
220.0075505406683
 21
297.5002711348505
 31
0.0
  0
LINE
  5
32F
330
2
100
AcDbEntity
  8
0
  6
Continuous
 62
     7
 48
10.0
100
AcDbLine
 10
220.0075505406683
 20
300.0002711348504
 30
0.0
 11
222.5075505406683
 21
297.5002711348505
 31
0.0
  0
LINE
  5
330
330
2
100
AcDbEntity
  8
0
  6
Continuous
 62
     7
 48
10.0
100
AcDbLine
 10
222.5075505406683
 20
297.5002711348505
 30
0.0
 11
220.0075505406683
 21
295.0002711348505
 31
0.0
  0
LINE
  5
331
330
2
100
AcDbEntity
  8
0
  6
Continuous
 62
     7
 48
10.0
100
AcDbLine
 10
220.0075505406683
 20
297.5002711348505
 30
0.0
 11
222.5075505406683
 21
295.0002711348505
 31
0.0
  0
LINE
  5
332
330
2
100
AcDbEntity
  8
0
  6
Continuous
 62
     7
 48
10.0
100
AcDbLine
 10
222.5075505406683
 20
295.0002711348505
 30
0.0
 11
220.0075505406683
 21
292.5002711348504
 31
0.0
  0
LINE
  5
333
330
2
100
AcDbEntity
  8
0
  6
Continuous
 62
     7
 48
10.0
100
AcDbLine
 10
220.0075505406683
 20
295.0002711348505
 30
0.0
 11
222.5075505406683
 21
292.5002711348504
 31
0.0
  0
LINE
  5
334
330
2
100
AcDbEntity
  8
0
  6
Continuous
 62
     7
 48
10.0
100
AcDbLine
 10
225.0075505406682
 20
295.0002711348505
 30
0.0
 11
222.5075505406683
 21
297.5002711348505
 31
0.0
  0
LINE
  5
335
330
2
100
AcDbEntity
  8
0
  6
Continuous
 62
     7
 48
10.0
100
AcDbLine
 10
222.5075505406683
 20
295.0002711348505
 30
0.0
 11
225.0075505406682
 21
297.5002711348505
 31
0.0
  0
LINE
  5
336
330
2
100
AcDbEntity
  8
0
  6
Continuous
 62
     7
 48
10.0
100
AcDbLine
 10
225.0075505406682
 20
292.5002711348504
 30
0.0
 11
222.5075505406683
 21
295.0002711348505
 31
0.0
  0
LINE
  5
337
330
2
100
AcDbEntity
  8
0
  6
Continuous
 62
     7
 48
10.0
100
AcDbLine
 10
222.5075505406683
 20
292.5002711348504
 30
0.0
 11
225.0075505406682
 21
295.0002711348505
 31
0.0
  0
LINE
  5
338
330
2
100
AcDbEntity
  8
0
  6
Continuous
 62
     7
 48
10.0
100
AcDbLine
 10
222.5075505406683
 20
302.5002711348504
 30
0.0
 11
220.0075505406683
 21
300.0002711348504
 31
0.0
  0
LINE
  5
339
330
2
100
AcDbEntity
  8
0
  6
Continuous
 62
     7
 48
10.0
100
AcDbLine
 10
220.0075505406683
 20
302.5002711348504
 30
0.0
 11
222.5075505406683
 21
300.0002711348504
 31
0.0
  0
LINE
  5
33A
330
2
100
AcDbEntity
  8
0
  6
Continuous
 62
     7
 48
10.0
100
AcDbLine
 10
225.0075505406682
 20
300.0002711348504
 30
0.0
 11
222.5075505406683
 21
302.5002711348504
 31
0.0
  0
LINE
  5
33B
330
2
100
AcDbEntity
  8
0
  6
Continuous
 62
     7
 48
10.0
100
AcDbLine
 10
222.5075505406683
 20
300.0002711348504
 30
0.0
 11
225.0075505406682
 21
302.5002711348504
 31
0.0
  0
LINE
  5
33C
330
2
100
AcDbEntity
  8
0
  6
Continuous
 62
     7
 48
10.0
100
AcDbLine
 10
217.5075505406683
 20
300.0002711348504
 30
0.0
 11
215.0075505406682
 21
297.5002711348505
 31
0.0
  0
LINE
  5
33D
330
2
100
AcDbEntity
  8
0
  6
Continuous
 62
     7
 48
10.0
100
AcDbLine
 10
215.0075505406682
 20
300.0002711348504
 30
0.0
 11
217.5075505406683
 21
297.5002711348505
 31
0.0
  0
LINE
  5
33E
330
2
100
AcDbEntity
  8
0
  6
Continuous
 62
     7
 48
10.0
100
AcDbLine
 10
217.5075505406683
 20
297.5002711348505
 30
0.0
 11
215.0075505406682
 21
295.0002711348505
 31
0.0
  0
LINE
  5
33F
330
2
100
AcDbEntity
  8
0
  6
Continuous
 62
     7
 48
10.0
100
AcDbLine
 10
215.0075505406682
 20
297.5002711348505
 30
0.0
 11
217.5075505406683
 21
295.0002711348505
 31
0.0
  0
LINE
  5
340
330
2
100
AcDbEntity
  8
0
  6
Continuous
 62
     7
 48
10.0
100
AcDbLine
 10
217.5075505406683
 20
295.0002711348505
 30
0.0
 11
215.0075505406682
 21
292.5002711348504
 31
0.0
  0
LINE
  5
341
330
2
100
AcDbEntity
  8
0
  6
Continuous
 62
     7
 48
10.0
100
AcDbLine
 10
215.0075505406682
 20
295.0002711348505
 30
0.0
 11
217.5075505406683
 21
292.5002711348504
 31
0.0
  0
LINE
  5
342
330
2
100
AcDbEntity
  8
0
  6
Continuous
 62
     7
 48
10.0
100
AcDbLine
 10
217.5075505406683
 20
302.5002711348504
 30
0.0
 11
215.0075505406682
 21
300.0002711348504
 31
0.0
  0
LINE
  5
343
330
2
100
AcDbEntity
  8
0
  6
Continuous
 62
     7
 48
10.0
100
AcDbLine
 10
215.0075505406682
 20
302.5002711348504
 30
0.0
 11
217.5075505406683
 21
300.0002711348504
 31
0.0
  0
LINE
  5
344
330
2
100
AcDbEntity
  8
0
  6
Continuous
 62
     7
 48
10.0
100
AcDbLine
 10
230.0075505406683
 20
88.01837559654925
 30
0.0
 11
230.0075505406683
 21
90.01837559654928
 31
0.0
  0
LINE
  5
345
330
2
100
AcDbEntity
  8
0
  6
Continuous
 62
     7
 48
10.0
100
AcDbLine
 10
215.0075505406682
 20
88.01837559654925
 30
0.0
 11
215.0075505406682
 21
90.01837559654928
 31
0.0
  0
LINE
  5
346
330
2
100
AcDbEntity
  8
0
  6
Continuous
 62
     7
 48
10.0
100
AcDbLine
 10
194.5
 20
93.79995413345742
 30
0.0
 11
194.5
 21
147.9999541334573
 31
0.0
  0
LINE
  5
347
330
2
100
AcDbEntity
  8
0
  6
Continuous
 62
     7
 48
10.0
100
AcDbLine
 10
194.5
 20
93.79995413345742
 30
0.0
 11
194.5
 21
91.99995413345732
 31
0.0
  0
LINE
  5
348
330
2
100
AcDbEntity
  8
0
  6
Continuous
 62
     7
 48
10.0
100
AcDbLine
 10
354.0512875917947
 20
200.9658914049964
 30
0.0
 11
364.3845932750021
 21
194.9999545871778
 31
0.0
  0
LINE
  5
349
330
2
100
AcDbEntity
  8
0
  6
Continuous
 62
     7
 48
10.0
100
AcDbLine
 10
365.6345932750022
 20
197.165018096639
 30
0.0
 11
363.1345932750022
 21
192.8348910777167
 31
0.0
  0
LINE
  5
34A
330
2
100
AcDbEntity
  8
0
  6
Continuous
 62
     7
 48
10.0
100
AcDbLine
 10
363.1345932750022
 20
192.8348910777167
 30
0.0
 11
376.1249743317687
 21
185.3348910777168
 31
0.0
  0
LINE
  5
34B
330
2
100
AcDbEntity
  8
0
  6
Continuous
 62
     7
 48
10.0
100
AcDbLine
 10
376.1249743317687
 20
185.3348910777168
 30
0.0
 11
378.6249743317687
 21
189.6650180966389
 31
0.0
  0
LINE
  5
34C
330
2
100
AcDbEntity
  8
0
  6
Continuous
 62
     7
 48
10.0
100
AcDbLine
 10
378.6249743317687
 20
189.6650180966389
 30
0.0
 11
365.6345932750022
 21
197.165018096639
 31
0.0
  0
LINE
  5
34D
330
2
100
AcDbEntity
  8
0
  6
Continuous
 62
     7
 48
10.0
100
AcDbLine
 10
365.3845932750022
 20
196.7320053947467
 30
0.0
 11
357.8167054212938
 21
201.1013274842821
 31
0.0
  0
LINE
  5
34E
330
2
100
AcDbEntity
  8
0
  6
Continuous
 62
     7
 48
10.0
100
AcDbLine
 10
363.3845932750022
 20
193.267903779609
 30
0.0
 11
355.8167054212936
 21
197.6372258691444
 31
0.0
  0
ARC
  5
34F
330
2
100
AcDbEntity
  8
0
  6
Continuous
 62
     7
 48
10.0
100
AcDbCircle
 10
345.8167054212938
 20
180.3167177934556
 30
0.0
 40
20.0
100
AcDbArc
 50
60.00000000000006
 51
80.58196921150054
  0
ARC
  5
350
330
2
100
AcDbEntity
  8
0
  6
Continuous
 62
     7
 48
10.0
100
AcDbCircle
 10
367.8167054212936
 20
218.4218355599709
 30
0.0
 40
20.0
100
AcDbArc
 50
230.7852771059365
 51
240.0
  0
ARC
  5
351
330
2
100
AcDbEntity
  8
0
  6
Continuous
 62
     7
 48
10.0
100
AcDbCircle
 10
403.3749743317687
 20
232.5332755839687
 30
0.0
 40
54.0
100
AcDbArc
 50
240.0
 51
268.0856553747423
  0
ARC
  5
352
330
2
100
AcDbEntity
  8
0
  6
Continuous
 62
     7
 48
10.0
100
AcDbCircle
 10
403.3749743317687
 20
232.5332755839687
 30
0.0
 40
52.0
100
AcDbArc
 50
240.0
 51
268.4105669597162
  0
ARC
  5
353
330
2
100
AcDbEntity
  8
0
  6
Continuous
 62
     7
 48
10.0
100
AcDbCircle
 10
390.1249743317687
 20
209.5836023836811
 30
0.0
 40
23.5
100
AcDbArc
 50
240.0
 51
289.2576244870672
  0
ARC
  5
354
330
2
100
AcDbEntity
  8
0
  6
Continuous
 62
     7
 48
10.0
100
AcDbCircle
 10
390.1249743317687
 20
209.5836023836811
 30
0.0
 40
25.5
100
AcDbArc
 50
240.0
 51
290.8739609190972
  0
SPLINE
  5
355
330
2
100
AcDbEntity
  8
0
  6
Continuous
 62
     7
 48
10.0
100
AcDbSpline
210
0.0
220
0.0
230
1.0
 70
     8
 71
     3
 72
     9
 73
     5
 74
     0
 42
0.0000000001
 43
0.0000000001
 40
0.8161125104833908
 40
0.8161125104833908
 40
0.8161125104833908
 40
0.8161125104833908
 40
2.0
 40
2.828973238368658
 40
2.828973238368658
 40
2.828973238368658
 40
2.828973238368658
 10
397.8756567834111
 20
187.3985416099577
 30
0.0
 10
398.2381686112794
 20
187.2437306705038
 30
0.0
 10
398.8034269844133
 20
186.875885108412
 30
0.0
 10
399.1558176526114
 20
186.0720700167991
 30
0.0
 10
399.2109659486073
 20
185.7572565384042
 30
0.0
  0
SPLINE
  5
356
330
2
100
AcDbEntity
  8
0
  6
Continuous
 62
     7
 48
10.0
100
AcDbSpline
210
0.0
220
0.0
230
1.0
 70
     8
 71
     3
 72
    10
 73
     6
 74
     0
 42
0.0000000001
 43
0.0000000001
 40
0.6887854759517645
 40
0.6887854759517645
 40
0.6887854759517645
 40
0.6887854759517645
 40
1.118033988749894
 40
2.118033988749894
 40
2.889143677452156
 40
2.889143677452156
 40
2.889143677452156
 40
2.889143677452156
 10
401.9326356721067
 20
180.5532827098748
 30
0.0
 10
402.0048111593516
 20
180.4339265170657
 30
0.0
 10
402.1315877351421
 20
180.0373323747878
 30
0.0
 10
401.3820171369119
 20
179.4335947312077
 30
0.0
 10
401.4736875192836
 20
178.8199350843674
 30
0.0
 10
401.5710826970424
 20
178.563413855684
 30
0.0
  0
LINE
  5
357
330
2
100
AcDbEntity
  8
0
  6
Continuous
 62
     7
 48
10.0
100
AcDbLine
 10
363.1345932750022
 20
123.9999545871778
 30
0.0
 11
363.1345932750022
 21
115.9999545871778
 31
0.0
  0
LINE
  5
358
330
2
100
AcDbEntity
  8
0
  6
Continuous
 62
     7
 48
10.0
100
AcDbLine
 10
376.1249743317687
 20
123.9999545871778
 30
0.0
 11
376.1249743317687
 21
115.9999545871778
 31
0.0
  0
LINE
  5
359
330
2
100
AcDbEntity
  8
0
  6
Continuous
 62
     7
 48
10.0
100
AcDbLine
 10
346.1621614106667
 20
123.4999545871778
 30
0.0
 11
346.1621614106667
 21
116.4999545871778
 31
0.0
  0
LINE
  5
35A
330
2
100
AcDbEntity
  8
0
  6
Continuous
 62
     7
 48
10.0
100
AcDbLine
 10
376.1249743317687
 20
123.9999545871778
 30
0.0
 11
363.1345932750022
 21
123.9999545871778
 31
0.0
  0
LINE
  5
35B
330
2
100
AcDbEntity
  8
0
  6
Continuous
 62
     7
 48
10.0
100
AcDbLine
 10
363.1345932750022
 20
115.9999545871778
 30
0.0
 11
376.1249743317687
 21
115.9999545871778
 31
0.0
  0
LINE
  5
35C
330
2
100
AcDbEntity
  8
0
  6
Continuous
 62
     7
 48
10.0
100
AcDbLine
 10
363.1345932750022
 20
123.4999545871778
 30
0.0
 11
346.1621614106667
 21
123.4999545871778
 31
0.0
  0
LINE
  5
35D
330
2
100
AcDbEntity
  8
0
  6
Continuous
 62
     7
 48
10.0
100
AcDbLine
 10
346.1621614106667
 20
116.4999545871778
 30
0.0
 11
363.1345932750022
 21
116.4999545871778
 31
0.0
  0
LINE
  5
35E
330
2
100
AcDbEntity
  8
0
  6
Continuous
 62
     7
 48
10.0
100
AcDbLine
 10
376.1249743317687
 20
123.4999545871778
 30
0.0
 11
401.3956119858999
 21
123.4999545871778
 31
0.0
  0
LINE
  5
35F
330
2
100
AcDbEntity
  8
0
  6
Continuous
 62
     7
 48
10.0
100
AcDbLine
 10
376.1249743317687
 20
116.4999545871778
 30
0.0
 11
401.1417927089247
 21
116.4999545871778
 31
0.0
  0
SPLINE
  5
360
330
2
100
AcDbEntity
  8
0
  6
Continuous
 62
     7
 48
10.0
100
AcDbSpline
210
0.0
220
0.0
230
1.0
 70
     8
 71
     3
 72
    10
 73
     6
 74
     0
 42
0.0000000001
 43
0.0000000001
 40
1.872281969253018
 40
1.872281969253018
 40
1.872281969253018
 40
1.872281969253018
 40
4.272001872658765
 40
6.772001872658764
 40
8.1423217664207
 40
8.1423217664207
 40
8.1423217664207
 40
8.1423217664207
 10
401.3956119858999
 20
123.4999545871778
 30
0.0
 10
401.8988056966332
 20
122.5346385726431
 30
0.0
 10
402.9836546566566
 20
119.2784630137615
 30
0.0
 10
400.1078307963966
 20
118.6051300503047
 30
0.0
 10
400.9030567959338
 20
117.0298323946703
 30
0.0
 10
401.1417927089247
 20
116.4999545871778
 30
0.0
  0
LINE
  5
361
330
2
100
AcDbEntity
  8
0
  6
Continuous
 62
     7
 48
10.0
100
AcDbLine
 10
377.0000268943845
 20
116.4999545871778
 30
0.0
 11
377.0000268943845
 21
109.0
 31
0.0
  0
LINE
  5
362
330
2
100
AcDbEntity
  8
0
  6
Continuous
 62
     7
 48
10.0
100
AcDbLine
 10
379.5000268943845
 20
116.4999545871778
 30
0.0
 11
379.5000268943845
 21
108.6180339887498
 31
0.0
  0
LINE
  5
363
330
2
100
AcDbEntity
  8
0
  6
Continuous
 62
     7
 48
10.0
100
AcDbLine
 10
374.5000268943845
 20
115.9999545871778
 30
0.0
 11
374.5000268943845
 21
109.5
 31
0.0
  0
LINE
  5
364
330
2
100
AcDbEntity
  8
0
  6
Continuous
 62
     7
 48
10.0
100
AcDbLine
 10
369.5000008301914
 20
115.9999545871778
 30
0.0
 11
369.5000008301914
 21
98.49995591010088
 31
0.0
  0
LINE
  5
365
330
2
100
AcDbEntity
  8
0
  6
Continuous
 62
     7
 48
10.0
100
AcDbLine
 10
369.5000268943845
 20
115.9999545871778
 30
0.0
 11
369.5000268943845
 21
109.5
 31
0.0
  0
LINE
  5
366
330
2
100
AcDbEntity
  8
0
  6
Continuous
 62
     7
 48
10.0
100
AcDbLine
 10
368.5000008301914
 20
123.9999545871778
 30
0.0
 11
368.5000008301914
 21
142.4999559101008
 31
0.0
  0
LINE
  5
367
330
2
100
AcDbEntity
  8
0
  6
Continuous
 62
     7
 48
10.0
100
AcDbLine
 10
367.798997440419
 20
115.9999545871778
 30
0.0
 11
367.798997440419
 21
97.49995591010089
 31
0.0
  0
LINE
  5
368
330
2
100
AcDbEntity
  8
0
  6
Continuous
 62
     7
 48
10.0
100
AcDbLine
 10
351.0000268943845
 20
116.4999545871778
 30
0.0
 11
351.0000268943845
 21
116.0
 31
0.0
  0
LINE
  5
369
330
2
100
AcDbEntity
  8
0
  6
Continuous
 62
     7
 48
10.0
100
AcDbLine
 10
348.0000268943845
 20
123.4999545871778
 30
0.0
 11
348.0000268943845
 21
124.0
 31
0.0
  0
LINE
  5
36A
330
2
100
AcDbEntity
  8
0
  6
Continuous
 62
     7
 48
10.0
100
AcDbLine
 10
257.0
 20
225.5
 30
0.0
 11
210.3000008301914
 21
225.5
 31
0.0
  0
ARC
  5
36B
330
2
100
AcDbEntity
  8
0
  6
Continuous
 62
     7
 48
10.0
100
AcDbCircle
 10
205.1999991698085
 20
222.2670541892396
 30
0.0
 40
5.0
100
AcDbArc
 50
270.0
 51
0.0000000000001088
  0
LINE
  5
36C
330
2
100
AcDbEntity
  8
0
  6
Continuous
 62
     7
 48
10.0
100
AcDbLine
 10
210.3000008301915
 20
225.5
 30
0.0
 11
210.3000008301915
 21
222.2670541892396
 31
0.0
  0
LINE
  5
36D
330
2
100
AcDbEntity
  8
0
  6
Continuous
 62
     7
 48
10.0
100
AcDbLine
 10
240.5000008301913
 20
114.0000440898991
 30
0.0
 11
222.5000008301913
 21
114.0000440898991
 31
0.0
  0
LINE
  5
36E
330
2
100
AcDbEntity
  8
0
  6
Continuous
 62
     7
 48
10.0
100
AcDbLine
 10
243.5000008301913
 20
117.0000440898991
 30
0.0
 11
243.5000008301913
 21
119.5000440898991
 31
0.0
  0
ARC
  5
36F
330
2
100
AcDbEntity
  8
0
  6
Continuous
 62
     7
 48
10.0
100
AcDbCircle
 10
240.5000008301913
 20
117.0000440898991
 30
0.0
 40
3.0
100
AcDbArc
 50
270.0
 51
0.0
  0
ARC
  5
370
330
2
100
AcDbEntity
  8
0
  6
Continuous
 62
     7
 48
10.0
100
AcDbCircle
 10
222.5000008301913
 20
117.0000440898991
 30
0.0
 40
3.0
100
AcDbArc
 50
180.0
 51
270.0
  0
LINE
  5
371
330
2
100
AcDbEntity
  8
0
  6
Continuous
 62
     7
 48
10.0
100
AcDbLine
 10
219.5000008301913
 20
117.0000440898991
 30
0.0
 11
219.5000008301913
 21
119.5000440898991
 31
0.0
  0
LINE
  5
372
330
2
100
AcDbEntity
  8
0
  6
Continuous
 62
     7
 48
10.0
100
AcDbLine
 10
205.5000268943845
 20
144.5
 30
0.0
 11
205.5000268943845
 21
120.5
 31
0.0
  0
LINE
  5
373
330
2
100
AcDbEntity
  8
0
  6
Continuous
 62
     7
 48
10.0
100
AcDbLine
 10
208.5000268943845
 20
144.5
 30
0.0
 11
205.5000268943845
 21
144.5
 31
0.0
  0
ARC
  5
374
330
2
100
AcDbEntity
  8
0
  6
Continuous
 62
     7
 48
10.0
100
AcDbCircle
 10
208.5000268943845
 20
147.0
 30
0.0
 40
2.5
100
AcDbArc
 50
270.0
 51
0.0
  0
LINE
  5
375
330
2
100
AcDbEntity
  8
0
  6
Continuous
 62
     7
 48
10.0
100
AcDbLine
 10
211.0000268943845
 20
147.0
 30
0.0
 11
211.0000268943845
 21
149.0
 31
0.0
  0
LINE
  5
376
330
2
100
AcDbEntity
  8
0
  6
Continuous
 62
     7
 48
10.0
100
AcDbLine
 10
256.0000268943845
 20
147.5
 30
0.0
 11
211.5000268943845
 21
147.5
 31
0.0
  0
LINE
  5
377
330
2
100
AcDbEntity
  8
0
  6
Continuous
 62
     7
 48
10.0
100
AcDbLine
 10
256.5000268943845
 20
149.0
 30
0.0
 11
211.0000268943845
 21
149.0
 31
0.0
  0
LINE
  5
378
330
2
100
AcDbEntity
  8
0
  6
Continuous
 62
     7
 48
10.0
100
AcDbLine
 10
241.5
 20
292.0
 30
0.0
 11
245.5
 21
292.0
 31
0.0
  0
LINE
  5
379
330
2
100
AcDbEntity
  8
0
  6
Continuous
 62
     7
 48
10.0
100
AcDbLine
 10
241.5
 20
288.0
 30
0.0
 11
245.5
 21
288.0
 31
0.0
  0
ARC
  5
37A
330
2
100
AcDbEntity
  8
0
  6
Continuous
 62
     7
 48
10.0
100
AcDbCircle
 10
245.5
 20
290.0
 30
0.0
 40
2.0
100
AcDbArc
 50
270.0
 51
90.0
  0
ARC
  5
37B
330
2
100
AcDbEntity
  8
0
  6
Continuous
 62
     7
 48
10.0
100
AcDbCircle
 10
241.5
 20
290.0
 30
0.0
 40
2.0
100
AcDbArc
 50
90.0
 51
270.0
  0
LINE
  5
37C
330
2
100
AcDbEntity
  8
0
  6
CENTER
 62
     4
 48
3.0
100
AcDbLine
 10
175.6470592189146
 20
290.0
 30
0.0
 11
395.6125192932209
 21
290.0
 31
0.0
  0
ARC
  5
37D
330
2
100
AcDbEntity
  8
0
  6
Continuous
 62
     7
 48
10.0
100
AcDbCircle
 10
485.5
 20
289.9999545871779
 30
0.0
 40
32.0
100
AcDbArc
 50
134.6781469861049
 51
200.3642689143253
  0
ARC
  5
37E
330
2
100
AcDbEntity
  8
0
  6
Continuous
 62
     7
 48
10.0
100
AcDbCircle
 10
485.5
 20
289.9999545871779
 30
0.0
 40
32.0
100
AcDbArc
 50
339.6359993025354
 51
45.32168383661645
  0
CIRCLE
  5
37F
330
2
100
AcDbEntity
  8
0
  6
Continuous
 62
     7
 48
10.0
100
AcDbCircle
 10
100.5
 20
289.9999545871779
 30
0.0
 40
25.0
  0
CIRCLE
  5
380
330
2
100
AcDbEntity
  8
0
  6
Continuous
 62
     7
 48
10.0
100
AcDbCircle
 10
100.5
 20
289.9999545871779
 30
0.0
 40
22.0
  0
CIRCLE
  5
381
330
2
100
AcDbEntity
  8
0
  6
Continuous
 62
     7
 48
10.0
100
AcDbCircle
 10
100.5
 20
289.9999091743557
 30
0.0
 40
20.0
  0
CIRCLE
  5
382
330
2
100
AcDbEntity
  8
0
  6
Continuous
 62
     7
 48
10.0
100
AcDbCircle
 10
100.5
 20
289.9999091743557
 30
0.0
 40
27.0
  0
ENDSEC
  0
SECTION
  2
OBJECTS
  0
DICTIONARY
  5
9
330
0
100
AcDbDictionary
281
     1
  3
ACAD_COLOR
350
4B
  3
ACAD_GROUP
350
3F
  3
ACAD_LAYOUT
350
20
  3
ACAD_MATERIAL
350
B
  3
ACAD_MLEADERSTYLE
350
4E
  3
ACAD_MLINESTYLE
350
40
  3
ACAD_PLOTSETTINGS
350
41
  3
ACAD_PLOTSTYLENAME
350
8
  3
ACAD_SCALELIST
350
4C
  3
ACAD_TABLESTYLE
350
4D
  3
ACAD_VISUALSTYLE
350
31
  3
ACDB_RECOMPOSE_DATA
350
38D
  3
AcDbVariableDictionary
350
383
  0
DICTIONARY
  5
5
330
4
100
AcDbDictionary
280
     1
281
     1
  3
ADSK_XREC_LAYER_RECONCILED
360
6
  0
DICTIONARY
  5
4B
102
{ACAD_REACTORS
330
9
102
}
330
9
100
AcDbDictionary
281
     1
  0
DICTIONARY
  5
3F
102
{ACAD_REACTORS
330
9
102
}
330
9
100
AcDbDictionary
281
     1
  0
DICTIONARY
  5
20
102
{ACAD_REACTORS
330
9
102
}
330
9
100
AcDbDictionary
281
     1
  3
Model
350
1F
  3
レイアウト1
350
24
  0
DICTIONARY
  5
B
102
{ACAD_REACTORS
330
9
102
}
330
9
100
AcDbDictionary
281
     1
  3
ByBlock
350
42
  3
ByLayer
350
15
  3
Global
350
A
  0
DICTIONARY
  5
4E
102
{ACAD_REACTORS
330
9
102
}
330
9
100
AcDbDictionary
281
     1
  0
DICTIONARY
  5
40
102
{ACAD_REACTORS
330
9
102
}
330
9
100
AcDbDictionary
281
     1
  3
STANDARD
350
56
  0
DICTIONARY
  5
41
102
{ACAD_REACTORS
330
9
102
}
330
9
100
AcDbDictionary
281
     1
  0
ACDBDICTIONARYWDFLT
  5
8
102
{ACAD_REACTORS
330
9
102
}
330
9
100
AcDbDictionary
281
     1
  3
Normal
350
7
100
AcDbDictionaryWithDefault
340
7
  0
DICTIONARY
  5
4C
102
{ACAD_REACTORS
330
9
102
}
330
9
100
AcDbDictionary
281
     1
  3
A0
350
5B
  3
A1
350
5C
  3
A2
350
5D
  3
A3
350
5E
  3
A4
350
5F
  3
A5
350
60
  3
A6
350
61
  3
A7
350
62
  3
A8
350
63
  3
A9
350
64
  3
B0
350
65
  3
B1
350
66
  3
B2
350
67
  3
B3
350
68
  3
B4
350
69
  3
B5
350
6A
  3
B6
350
6B
  0
DICTIONARY
  5
4D
102
{ACAD_REACTORS
330
9
102
}
330
9
100
AcDbDictionary
281
     1
  3
Standard
350
57
  0
DICTIONARY
  5
31
102
{ACAD_REACTORS
330
9
102
}
330
9
100
AcDbDictionary
281
     1
  3
2dWireframe
350
30
  3
Realistic
350
59
  3
Wireframe
350
5A
  0
XRECORD
  5
38D
102
{ACAD_REACTORS
330
9
102
}
330
9
100
AcDbXrecord
280
     1
 90
        1
330
57
  0
DICTIONARY
  5
383
102
{ACAD_REACTORS
330
9
102
}
330
9
100
AcDbDictionary
281
     1
  3
CANNOSCALE
350
386
  3
CMLEADERSTYLE
350
385
  3
CTABLESTYLE
350
384
  3
DIMASSOC
350
38A
  3
HIDETEXT
350
389
  3
INDEXCTL
350
388
  3
SORTENTS
350
387
  3
XCLIPFRAME
350
38B
  0
XRECORD
  5
6
102
{ACAD_REACTORS
330
5
102
}
330
5
100
AcDbXrecord
280
     1
290
     1
  0
LAYOUT
  5
1F
102
{ACAD_XDICTIONARY
360
38E
102
}
102
{ACAD_REACTORS
330
20
102
}
330
20
100
AcDbPlotSettings
  1

  2
C:\Users\onodera\appdata\roaming\autodesk\autocad lt 2012 - japanese\r17\jpn\plotters\postscript level 1 plus.pc3
  4

  6

 40
0.0
 41
0.0
 42
0.0
 43
0.0
 44
0.0
 45
0.0
 46
0.0
 47
0.0
 48
0.0
 49
0.0
140
0.0
141
0.0
142
1.0
143
1.0
 70
  1712
 72
     0
 73
     0
 74
     0
  7

 75
     0
147
1.0
148
0.0
149
0.0
100
AcDbLayout
  1
Model
 70
     1
 71
     0
 10
0.0
 20
0.0
 11
12.0
 21
9.0
 12
0.0
 22
0.0
 32
0.0
 14
0.0
 24
0.0
 34
0.0
 15
0.0
 25
0.0
 35
0.0
146
0.0
 13
0.0
 23
0.0
 33
0.0
 16
1.0
 26
0.0
 36
0.0
 17
0.0
 27
1.0
 37
0.0
 76
     0
330
2
331
2F
  0
LAYOUT
  5
24
102
{ACAD_XDICTIONARY
360
390
102
}
102
{ACAD_REACTORS
330
20
102
}
330
20
100
AcDbPlotSettings
  1

  2
C:\Users\onodera\appdata\roaming\autodesk\autocad lt 2012 - japanese\r17\jpn\plotters\postscript level 1 plus.pc3
  4

  6

 40
0.0
 41
0.0
 42
0.0
 43
0.0
 44
0.0
 45
0.0
 46
0.0
 47
0.0
 48
0.0
 49
0.0
140
0.0
141
0.0
142
1.0
143
1.0
 70
   688
 72
     0
 73
     0
 74
     5
  7

 75
    16
147
1.0
148
0.0
149
0.0
100
AcDbLayout
  1
レイアウト1
 70
     0
 71
     1
 10
0.0
 20
0.0
 11
12.0
 21
9.0
 12
0.0
 22
0.0
 32
0.0
 14
1.000000000000000E+20
 24
1.000000000000000E+20
 34
1.000000000000000E+20
 15
-1.000000000000000E+20
 25
-1.000000000000000E+20
 35
-1.000000000000000E+20
146
0.0
 13
0.0
 23
0.0
 33
0.0
 16
1.0
 26
0.0
 36
0.0
 17
0.0
 27
1.0
 37
0.0
 76
     0
330
21
  0
MATERIAL
  5
42
102
{ACAD_XDICTIONARY
360
43
102
}
102
{ACAD_REACTORS
330
B
102
}
330
B
100
AcDbMaterial
  1
ByBlock
 72
     0
 43
0.0208333333333333
 43
0.0
 43
0.0
 43
0.0
 43
0.0
 43
0.0208333333333333
 43
0.0
 43
0.0
 43
0.0
 43
0.0
 43
1.0
 43
0.0
 43
0.0
 43
0.0
 43
0.0
 43
1.0
 77
     0
 47
0.0208333333333333
 47
0.0
 47
0.0
 47
0.0
 47
0.0
 47
0.0208333333333333
 47
0.0
 47
0.0
 47
0.0
 47
0.0
 47
1.0
 47
0.0
 47
0.0
 47
0.0
 47
0.0
 47
1.0
171
     0
 49
0.0208333333333333
 49
0.0
 49
0.0
 49
0.0
 49
0.0
 49
0.0208333333333333
 49
0.0
 49
0.0
 49
0.0
 49
0.0
 49
1.0
 49
0.0
 49
0.0
 49
0.0
 49
0.0
 49
1.0
175
     0
142
0.0208333333333333
142
0.0
142
0.0
142
0.0
142
0.0
142
0.0208333333333333
142
0.0
142
0.0
142
0.0
142
0.0
142
1.0
142
0.0
142
0.0
142
0.0
142
0.0
142
1.0
179
     0
144
0.0208333333333333
144
0.0
144
0.0
144
0.0
144
0.0
144
0.0208333333333333
144
0.0
144
0.0
144
0.0
144
0.0
144
1.0
144
0.0
144
0.0
144
0.0
144
0.0
144
1.0
147
0.0208333333333333
147
0.0
147
0.0
147
0.0
147
0.0
147
0.0208333333333333
147
0.0
147
0.0
147
0.0
147
0.0
147
1.0
147
0.0
147
0.0
147
0.0
147
0.0
147
1.0
  0
MATERIAL
  5
15
102
{ACAD_XDICTIONARY
360
16
102
}
102
{ACAD_REACTORS
330
B
102
}
330
B
100
AcDbMaterial
  1
ByLayer
 72
     0
 43
0.0208333333333333
 43
0.0
 43
0.0
 43
0.0
 43
0.0
 43
0.0208333333333333
 43
0.0
 43
0.0
 43
0.0
 43
0.0
 43
1.0
 43
0.0
 43
0.0
 43
0.0
 43
0.0
 43
1.0
 77
     0
 47
0.0208333333333333
 47
0.0
 47
0.0
 47
0.0
 47
0.0
 47
0.0208333333333333
 47
0.0
 47
0.0
 47
0.0
 47
0.0
 47
1.0
 47
0.0
 47
0.0
 47
0.0
 47
0.0
 47
1.0
171
     0
 49
0.0208333333333333
 49
0.0
 49
0.0
 49
0.0
 49
0.0
 49
0.0208333333333333
 49
0.0
 49
0.0
 49
0.0
 49
0.0
 49
1.0
 49
0.0
 49
0.0
 49
0.0
 49
0.0
 49
1.0
175
     0
142
0.0208333333333333
142
0.0
142
0.0
142
0.0
142
0.0
142
0.0208333333333333
142
0.0
142
0.0
142
0.0
142
0.0
142
1.0
142
0.0
142
0.0
142
0.0
142
0.0
142
1.0
179
     0
144
0.0208333333333333
144
0.0
144
0.0
144
0.0
144
0.0
144
0.0208333333333333
144
0.0
144
0.0
144
0.0
144
0.0
144
1.0
144
0.0
144
0.0
144
0.0
144
0.0
144
1.0
147
0.0208333333333333
147
0.0
147
0.0
147
0.0
147
0.0
147
0.0208333333333333
147
0.0
147
0.0
147
0.0
147
0.0
147
1.0
147
0.0
147
0.0
147
0.0
147
0.0
147
1.0
  0
MATERIAL
  5
A
102
{ACAD_XDICTIONARY
360
C
102
}
102
{ACAD_REACTORS
330
B
102
}
330
B
100
AcDbMaterial
  1
Global
 72
     0
 43
0.0208333333333333
 43
0.0
 43
0.0
 43
0.0
 43
0.0
 43
0.0208333333333333
 43
0.0
 43
0.0
 43
0.0
 43
0.0
 43
1.0
 43
0.0
 43
0.0
 43
0.0
 43
0.0
 43
1.0
 77
     0
 47
0.0208333333333333
 47
0.0
 47
0.0
 47
0.0
 47
0.0
 47
0.0208333333333333
 47
0.0
 47
0.0
 47
0.0
 47
0.0
 47
1.0
 47
0.0
 47
0.0
 47
0.0
 47
0.0
 47
1.0
171
     0
 49
0.0208333333333333
 49
0.0
 49
0.0
 49
0.0
 49
0.0
 49
0.0208333333333333
 49
0.0
 49
0.0
 49
0.0
 49
0.0
 49
1.0
 49
0.0
 49
0.0
 49
0.0
 49
0.0
 49
1.0
175
     0
142
0.0208333333333333
142
0.0
142
0.0
142
0.0
142
0.0
142
0.0208333333333333
142
0.0
142
0.0
142
0.0
142
0.0
142
1.0
142
0.0
142
0.0
142
0.0
142
0.0
142
1.0
179
     0
144
0.0208333333333333
144
0.0
144
0.0
144
0.0
144
0.0
144
0.0208333333333333
144
0.0
144
0.0
144
0.0
144
0.0
144
1.0
144
0.0
144
0.0
144
0.0
144
0.0
144
1.0
147
0.0208333333333333
147
0.0
147
0.0
147
0.0
147
0.0
147
0.0208333333333333
147
0.0
147
0.0
147
0.0
147
0.0
147
1.0
147
0.0
147
0.0
147
0.0
147
0.0
147
1.0
  0
MLINESTYLE
  5
56
102
{ACAD_REACTORS
330
40
102
}
330
40
100
AcDbMlineStyle
  2
STANDARD
 70
     0
  3

 62
     0
 51
90.0
 52
90.0
 71
     2
 49
0.5
 62
   256
  6
BYLAYER
 49
-0.5
 62
   256
  6
BYLAYER
  0
ACDBPLACEHOLDER
  5
7
102
{ACAD_REACTORS
330
8
102
}
330
8
  0
SCALE
  5
5B
102
{ACAD_REACTORS
330
4C
102
}
330
4C
100
AcDbScale
 70
     0
300
1:1
140
1.0
141
1.0
290
     1
  0
SCALE
  5
5C
102
{ACAD_REACTORS
330
4C
102
}
330
4C
100
AcDbScale
 70
     0
300
1/128" = 1'-0"
140
0.0078125
141
12.0
290
     0
  0
SCALE
  5
5D
102
{ACAD_REACTORS
330
4C
102
}
330
4C
100
AcDbScale
 70
     0
300
1/64" = 1'-0"
140
0.015625
141
12.0
290
     0
  0
SCALE
  5
5E
102
{ACAD_REACTORS
330
4C
102
}
330
4C
100
AcDbScale
 70
     0
300
1/32" = 1'-0"
140
0.03125
141
12.0
290
     0
  0
SCALE
  5
5F
102
{ACAD_REACTORS
330
4C
102
}
330
4C
100
AcDbScale
 70
     0
300
1/16" = 1'-0"
140
0.0625
141
12.0
290
     0
  0
SCALE
  5
60
102
{ACAD_REACTORS
330
4C
102
}
330
4C
100
AcDbScale
 70
     0
300
3/32" = 1'-0"
140
0.09375
141
12.0
290
     0
  0
SCALE
  5
61
102
{ACAD_REACTORS
330
4C
102
}
330
4C
100
AcDbScale
 70
     0
300
1/8" = 1'-0"
140
0.125
141
12.0
290
     0
  0
SCALE
  5
62
102
{ACAD_REACTORS
330
4C
102
}
330
4C
100
AcDbScale
 70
     0
300
3/16" = 1'-0"
140
0.1875
141
12.0
290
     0
  0
SCALE
  5
63
102
{ACAD_REACTORS
330
4C
102
}
330
4C
100
AcDbScale
 70
     0
300
1/4" = 1'-0"
140
0.25
141
12.0
290
     0
  0
SCALE
  5
64
102
{ACAD_REACTORS
330
4C
102
}
330
4C
100
AcDbScale
 70
     0
300
3/8" = 1'-0"
140
0.375
141
12.0
290
     0
  0
SCALE
  5
65
102
{ACAD_REACTORS
330
4C
102
}
330
4C
100
AcDbScale
 70
     0
300
1/2" = 1'-0"
140
0.5
141
12.0
290
     0
  0
SCALE
  5
66
102
{ACAD_REACTORS
330
4C
102
}
330
4C
100
AcDbScale
 70
     0
300
3/4" = 1'-0"
140
0.75
141
12.0
290
     0
  0
SCALE
  5
67
102
{ACAD_REACTORS
330
4C
102
}
330
4C
100
AcDbScale
 70
     0
300
1" = 1'-0"
140
1.0
141
12.0
290
     0
  0
SCALE
  5
68
102
{ACAD_REACTORS
330
4C
102
}
330
4C
100
AcDbScale
 70
     0
300
1-1/2" = 1'-0"
140
1.5
141
12.0
290
     0
  0
SCALE
  5
69
102
{ACAD_REACTORS
330
4C
102
}
330
4C
100
AcDbScale
 70
     0
300
3" = 1'-0"
140
3.0
141
12.0
290
     0
  0
SCALE
  5
6A
102
{ACAD_REACTORS
330
4C
102
}
330
4C
100
AcDbScale
 70
     0
300
6" = 1'-0"
140
6.0
141
12.0
290
     0
  0
SCALE
  5
6B
102
{ACAD_REACTORS
330
4C
102
}
330
4C
100
AcDbScale
 70
     0
300
1'-0" = 1'-0"
140
12.0
141
12.0
290
     0
  0
TABLESTYLE
  5
57
102
{ACAD_XDICTIONARY
360
58
102
}
102
{ACAD_REACTORS
330
4D
102
}
330
4D
100
AcDbTableStyle
  3
Standard
 70
     0
 71
     0
 40
0.06
 41
0.06
280
     0
281
     0
  7
STANDARD
140
0.18
170
     2
 62
     0
 63
     7
283
     0
274
    -2
284
     1
 64
     0
275
    -2
285
     1
 65
     0
276
    -2
286
     1
 66
     0
277
    -2
287
     1
 67
     0
278
    -2
288
     1
 68
     0
279
    -2
289
     1
 69
     0
  7
STANDARD
140
0.25
170
     5
 62
     0
 63
     7
283
     0
274
    -2
284
     1
 64
     0
275
    -2
285
     1
 65
     0
276
    -2
286
     1
 66
     0
277
    -2
287
     1
 67
     0
278
    -2
288
     1
 68
     0
279
    -2
289
     1
 69
     0
  7
STANDARD
140
0.18
170
     5
 62
     0
 63
     7
283
     0
274
    -2
284
     1
 64
     0
275
    -2
285
     1
 65
     0
276
    -2
286
     1
 66
     0
277
    -2
287
     1
 67
     0
278
    -2
288
     1
 68
     0
279
    -2
289
     1
 69
     0
  0
VISUALSTYLE
  5
30
102
{ACAD_XDICTIONARY
360
392
102
}
102
{ACAD_REACTORS
330
31
102
}
330
31
100
AcDbVisualStyle
  2

 70
     4
 71
     0
 72
     2
 73
     0
 90
        0
 40
-0.6
 41
-30.0
 62
     5
 63
     7
 74
     1
 91
        4
 64
     7
 65
   257
 75
     1
175
     1
 42
1.0
 92
        0
 66
   257
 43
1.0
 76
     1
 77
     6
 78
     2
 67
     7
 79
     5
170
     0
171
     0
290
     0
174
     0
 93
        1
 44
0.0
173
     0
291
     0
 45
0.0
1001
ACAD
1000
AcDbSavedByObjectVersion
1070
     0
  0
VISUALSTYLE
  5
59
102
{ACAD_XDICTIONARY
360
395
102
}
102
{ACAD_REACTORS
330
31
102
}
330
31
100
AcDbVisualStyle
  2

 70
     8
 71
     2
 72
     3
 73
     0
 90
        2
 40
-0.6
 41
30.0
 62
     5
 63
     7
 74
     0
 91
        0
 64
     7
 65
   257
 75
     1
175
     1
 42
1.0
 92
        8
 66
   257
 43
1.0
 76
     1
 77
     6
 78
     2
 67
     7
 79
     3
170
     0
171
     0
290
     0
174
     0
 93
       13
 44
0.0
173
     0
291
     0
 45
0.0
1001
ACAD
1000
AcDbSavedByObjectVersion
1070
     0
  0
VISUALSTYLE
  5
5A
102
{ACAD_XDICTIONARY
360
397
102
}
102
{ACAD_REACTORS
330
31
102
}
330
31
100
AcDbVisualStyle
  2

 70
     5
 71
     0
 72
     2
 73
     0
 90
        0
 40
-0.6
 41
-30.0
 62
     5
 63
     7
 74
     1
 91
        4
 64
     7
 65
   257
 75
     1
175
     1
 42
1.0
 92
        0
 66
   257
 43
1.0
 76
     1
 77
     6
 78
     2
 67
     7
 79
     3
170
     0
171
     0
290
     0
174
     0
 93
        1
 44
0.0
173
     0
291
     0
 45
0.0
1001
ACAD
1000
AcDbSavedByObjectVersion
1070
     0
  0
DICTIONARYVAR
  5
386
102
{ACAD_REACTORS
330
383
102
}
330
383
100
DictionaryVariables
280
     0
  1
1:1
  0
DICTIONARYVAR
  5
385
102
{ACAD_REACTORS
330
383
102
}
330
383
100
DictionaryVariables
280
     0
  1
STANDARD
  0
DICTIONARYVAR
  5
384
102
{ACAD_REACTORS
330
383
102
}
330
383
100
DictionaryVariables
280
     0
  1
STANDARD
  0
DICTIONARYVAR
  5
38A
102
{ACAD_REACTORS
330
383
102
}
330
383
100
DictionaryVariables
280
     0
  1
1
  0
DICTIONARYVAR
  5
389
102
{ACAD_REACTORS
330
383
102
}
330
383
100
DictionaryVariables
280
     0
  1
1
  0
DICTIONARYVAR
  5
388
102
{ACAD_REACTORS
330
383
102
}
330
383
100
DictionaryVariables
280
     0
  1
0
  0
DICTIONARYVAR
  5
387
102
{ACAD_REACTORS
330
383
102
}
330
383
100
DictionaryVariables
280
     0
  1
127
  0
DICTIONARYVAR
  5
38B
102
{ACAD_REACTORS
330
383
102
}
330
383
100
DictionaryVariables
280
     0
  1
2
  0
DICTIONARY
  5
38E
330
1F
100
AcDbDictionary
280
     1
281
     1
  3
ACAD_XREC_ROUNDTRIP
360
38F
  0
DICTIONARY
  5
390
330
24
100
AcDbDictionary
280
     1
281
     1
  3
ACAD_XREC_ROUNDTRIP
360
391
  0
DICTIONARY
  5
43
330
42
100
AcDbDictionary
280
     1
281
     1
  3
ACAD_XREC_ROUNDTRIP
360
44
  3
BUMPTILE
360
45
  3
DIFFUSETILE
360
46
  3
OPACITYTILE
360
47
  3
REFLECTIONTILE
360
48
  3
REFRACTIONTILE
360
49
  3
SPECULARTILE
360
4A
  0
DICTIONARY
  5
16
330
15
100
AcDbDictionary
280
     1
281
     1
  3
ACAD_XREC_ROUNDTRIP
360
17
  3
BUMPTILE
360
18
  3
DIFFUSETILE
360
19
  3
OPACITYTILE
360
1A
  3
REFLECTIONTILE
360
1B
  3
REFRACTIONTILE
360
1C
  3
SPECULARTILE
360
1D
  0
DICTIONARY
  5
C
330
A
100
AcDbDictionary
280
     1
281
     1
  3
ACAD_XREC_ROUNDTRIP
360
D
  3
BUMPTILE
360
E
  3
DIFFUSETILE
360
F
  3
OPACITYTILE
360
10
  3
REFLECTIONTILE
360
11
  3
REFRACTIONTILE
360
12
  3
SPECULARTILE
360
13
  0
DICTIONARY
  5
58
330
57
100
AcDbDictionary
280
     1
281
     1
  3
ACAD_ROUNDTRIP_2008_TABLESTYLE_CELLSTYLEMAP
360
38C
  3
ACAD_XREC_ROUNDTRIP
360
394
  0
DICTIONARY
  5
392
330
30
100
AcDbDictionary
280
     1
281
     1
  3
ACAD_XREC_ROUNDTRIP
360
393
  0
DICTIONARY
  5
395
330
59
100
AcDbDictionary
280
     1
281
     1
  3
ACAD_XREC_ROUNDTRIP
360
396
  0
DICTIONARY
  5
397
330
5A
100
AcDbDictionary
280
     1
281
     1
  3
ACAD_XREC_ROUNDTRIP
360
398
  0
XRECORD
  5
38F
102
{ACAD_REACTORS
330
38E
102
}
330
38E
100
AcDbXrecord
280
     1
102
SHADEPLOT
 70
     0
102
SHADEPLOTRESLEVEL
 70
     2
102
SHADEPLOTCUSTOMDPI
 70
   300
  0
XRECORD
  5
391
102
{ACAD_REACTORS
330
390
102
}
330
390
100
AcDbXrecord
280
     1
102
SHADEPLOT
 70
     0
102
SHADEPLOTRESLEVEL
 70
     2
102
SHADEPLOTCUSTOMDPI
 70
   300
  0
XRECORD
  5
44
102
{ACAD_REACTORS
330
43
102
}
330
43
100
AcDbXrecord
280
     1
102
MATERIAL
148
0.0
149
0.0
149
0.0
 93
        0
 94
      127
282
     0
 72
     0
 77
     0
171
     0
175
     0
179
     0
273
     0
  0
XRECORD
  5
45
102
{ACAD_REACTORS
330
43
102
}
330
43
100
AcDbXrecord
280
     1
270
     1
271
     1
  0
XRECORD
  5
46
102
{ACAD_REACTORS
330
43
102
}
330
43
100
AcDbXrecord
280
     1
270
     1
271
     1
  0
XRECORD
  5
47
102
{ACAD_REACTORS
330
43
102
}
330
43
100
AcDbXrecord
280
     1
270
     1
271
     1
  0
XRECORD
  5
48
102
{ACAD_REACTORS
330
43
102
}
330
43
100
AcDbXrecord
280
     1
270
     1
271
     1
  0
XRECORD
  5
49
102
{ACAD_REACTORS
330
43
102
}
330
43
100
AcDbXrecord
280
     1
270
     1
271
     1
  0
XRECORD
  5
4A
102
{ACAD_REACTORS
330
43
102
}
330
43
100
AcDbXrecord
280
     1
270
     1
271
     1
  0
XRECORD
  5
17
102
{ACAD_REACTORS
330
16
102
}
330
16
100
AcDbXrecord
280
     1
102
MATERIAL
148
0.0
149
0.0
149
0.0
 93
        0
 94
      127
282
     0
 72
     0
 77
     0
171
     0
175
     0
179
     0
273
     0
  0
XRECORD
  5
18
102
{ACAD_REACTORS
330
16
102
}
330
16
100
AcDbXrecord
280
     1
270
     1
271
     1
  0
XRECORD
  5
19
102
{ACAD_REACTORS
330
16
102
}
330
16
100
AcDbXrecord
280
     1
270
     1
271
     1
  0
XRECORD
  5
1A
102
{ACAD_REACTORS
330
16
102
}
330
16
100
AcDbXrecord
280
     1
270
     1
271
     1
  0
XRECORD
  5
1B
102
{ACAD_REACTORS
330
16
102
}
330
16
100
AcDbXrecord
280
     1
270
     1
271
     1
  0
XRECORD
  5
1C
102
{ACAD_REACTORS
330
16
102
}
330
16
100
AcDbXrecord
280
     1
270
     1
271
     1
  0
XRECORD
  5
1D
102
{ACAD_REACTORS
330
16
102
}
330
16
100
AcDbXrecord
280
     1
270
     1
271
     1
  0
XRECORD
  5
D
102
{ACAD_REACTORS
330
C
102
}
330
C
100
AcDbXrecord
280
     1
102
MATERIAL
148
0.0
149
0.0
149
0.0
 93
        0
 94
      127
282
     0
 72
     0
 77
     0
171
     0
175
     0
179
     0
273
     0
  0
XRECORD
  5
E
102
{ACAD_REACTORS
330
C
102
}
330
C
100
AcDbXrecord
280
     1
270
     1
271
     1
  0
XRECORD
  5
F
102
{ACAD_REACTORS
330
C
102
}
330
C
100
AcDbXrecord
280
     1
270
     1
271
     1
  0
XRECORD
  5
10
102
{ACAD_REACTORS
330
C
102
}
330
C
100
AcDbXrecord
280
     1
270
     1
271
     1
  0
XRECORD
  5
11
102
{ACAD_REACTORS
330
C
102
}
330
C
100
AcDbXrecord
280
     1
270
     1
271
     1
  0
XRECORD
  5
12
102
{ACAD_REACTORS
330
C
102
}
330
C
100
AcDbXrecord
280
     1
270
     1
271
     1
  0
XRECORD
  5
13
102
{ACAD_REACTORS
330
C
102
}
330
C
100
AcDbXrecord
280
     1
270
     1
271
     1
  0
CELLSTYLEMAP
  5
38C
102
{ACAD_REACTORS
330
58
102
}
330
58
100
AcDbCellStyleMap
 90
        3
300
CELLSTYLE
  1
TABLEFORMAT_BEGIN
 90
        5
170
     1
 91
        0
 92
    32768
 62
   257
 93
        1
300
CONTENTFORMAT
  1
CONTENTFORMAT_BEGIN
 90
        0
 91
        0
 92
      512
 93
        0
300

 40
0.0
140
1.0
 94
        5
 62
     0
340
27
144
0.25
309
CONTENTFORMAT_END
171
     1
301
MARGIN
  1
CELLMARGIN_BEGIN
 40
0.06
 40
0.06
 40
0.06
 40
0.06
 40
0.18
 40
0.18
309
CELLMARGIN_END
 94
        6
 95
        1
302
GRIDFORMAT
  1
GRIDFORMAT_BEGIN
 90
        0
 91
        1
 62
     0
 92
       -2
340
0
 93
        0
 40
0.045
309
GRIDFORMAT_END
 95
        2
302
GRIDFORMAT
  1
GRIDFORMAT_BEGIN
 90
        0
 91
        1
 62
     0
 92
       -2
340
0
 93
        0
 40
0.045
309
GRIDFORMAT_END
 95
        4
302
GRIDFORMAT
  1
GRIDFORMAT_BEGIN
 90
        0
 91
        1
 62
     0
 92
       -2
340
0
 93
        0
 40
0.045
309
GRIDFORMAT_END
 95
        8
302
GRIDFORMAT
  1
GRIDFORMAT_BEGIN
 90
        0
 91
        1
 62
     0
 92
       -2
340
0
 93
        0
 40
0.045
309
GRIDFORMAT_END
 95
       16
302
GRIDFORMAT
  1
GRIDFORMAT_BEGIN
 90
        0
 91
        1
 62
     0
 92
       -2
340
0
 93
        0
 40
0.045
309
GRIDFORMAT_END
 95
       32
302
GRIDFORMAT
  1
GRIDFORMAT_BEGIN
 90
        0
 91
        1
 62
     0
 92
       -2
340
0
 93
        0
 40
0.045
309
GRIDFORMAT_END
309
TABLEFORMAT_END
  1
CELLSTYLE_BEGIN
 90
        1
 91
        1
300
_TITLE
309
CELLSTYLE_END
300
CELLSTYLE
  1
TABLEFORMAT_BEGIN
 90
        5
170
     1
 91
        0
 92
        0
 62
   257
 93
        1
300
CONTENTFORMAT
  1
CONTENTFORMAT_BEGIN
 90
        0
 91
        0
 92
      512
 93
        0
300

 40
0.0
140
1.0
 94
        5
 62
     0
340
27
144
0.18
309
CONTENTFORMAT_END
171
     1
301
MARGIN
  1
CELLMARGIN_BEGIN
 40
0.06
 40
0.06
 40
0.06
 40
0.06
 40
0.18
 40
0.18
309
CELLMARGIN_END
 94
        6
 95
        1
302
GRIDFORMAT
  1
GRIDFORMAT_BEGIN
 90
        0
 91
        1
 62
     0
 92
       -2
340
0
 93
        0
 40
0.045
309
GRIDFORMAT_END
 95
        2
302
GRIDFORMAT
  1
GRIDFORMAT_BEGIN
 90
        0
 91
        1
 62
     0
 92
       -2
340
0
 93
        0
 40
0.045
309
GRIDFORMAT_END
 95
        4
302
GRIDFORMAT
  1
GRIDFORMAT_BEGIN
 90
        0
 91
        1
 62
     0
 92
       -2
340
0
 93
        0
 40
0.045
309
GRIDFORMAT_END
 95
        8
302
GRIDFORMAT
  1
GRIDFORMAT_BEGIN
 90
        0
 91
        1
 62
     0
 92
       -2
340
0
 93
        0
 40
0.045
309
GRIDFORMAT_END
 95
       16
302
GRIDFORMAT
  1
GRIDFORMAT_BEGIN
 90
        0
 91
        1
 62
     0
 92
       -2
340
0
 93
        0
 40
0.045
309
GRIDFORMAT_END
 95
       32
302
GRIDFORMAT
  1
GRIDFORMAT_BEGIN
 90
        0
 91
        1
 62
     0
 92
       -2
340
0
 93
        0
 40
0.045
309
GRIDFORMAT_END
309
TABLEFORMAT_END
  1
CELLSTYLE_BEGIN
 90
        2
 91
        1
300
_HEADER
309
CELLSTYLE_END
300
CELLSTYLE
  1
TABLEFORMAT_BEGIN
 90
        5
170
     1
 91
        0
 92
        0
 62
   257
 93
        1
300
CONTENTFORMAT
  1
CONTENTFORMAT_BEGIN
 90
        0
 91
        0
 92
      512
 93
        0
300

 40
0.0
140
1.0
 94
        2
 62
     0
340
27
144
0.18
309
CONTENTFORMAT_END
171
     1
301
MARGIN
  1
CELLMARGIN_BEGIN
 40
0.06
 40
0.06
 40
0.06
 40
0.06
 40
0.18
 40
0.18
309
CELLMARGIN_END
 94
        6
 95
        1
302
GRIDFORMAT
  1
GRIDFORMAT_BEGIN
 90
        0
 91
        1
 62
     0
 92
       -2
340
0
 93
        0
 40
0.045
309
GRIDFORMAT_END
 95
        2
302
GRIDFORMAT
  1
GRIDFORMAT_BEGIN
 90
        0
 91
        1
 62
     0
 92
       -2
340
0
 93
        0
 40
0.045
309
GRIDFORMAT_END
 95
        4
302
GRIDFORMAT
  1
GRIDFORMAT_BEGIN
 90
        0
 91
        1
 62
     0
 92
       -2
340
0
 93
        0
 40
0.045
309
GRIDFORMAT_END
 95
        8
302
GRIDFORMAT
  1
GRIDFORMAT_BEGIN
 90
        0
 91
        1
 62
     0
 92
       -2
340
0
 93
        0
 40
0.045
309
GRIDFORMAT_END
 95
       16
302
GRIDFORMAT
  1
GRIDFORMAT_BEGIN
 90
        0
 91
        1
 62
     0
 92
       -2
340
0
 93
        0
 40
0.045
309
GRIDFORMAT_END
 95
       32
302
GRIDFORMAT
  1
GRIDFORMAT_BEGIN
 90
        0
 91
        1
 62
     0
 92
       -2
340
0
 93
        0
 40
0.045
309
GRIDFORMAT_END
309
TABLEFORMAT_END
  1
CELLSTYLE_BEGIN
 90
        3
 91
        2
300
_DATA
309
CELLSTYLE_END
  0
XRECORD
  5
394
102
{ACAD_REACTORS
330
58
102
}
330
58
100
AcDbXrecord
280
     1
102
ACAD_ROUNDTRIP_PRE2007_TABLESTYLE
 90
      512
 91
        0
  1

 92
      512
 93
        0
  2

 94
      512
 95
        0
  3

  0
XRECORD
  5
393
102
{ACAD_REACTORS
330
392
102
}
330
392
100
AcDbXrecord
280
     1
102
RTVSPropertyOp0
 70
     1
102
RTVSPropertyOp1
 70
     1
102
RTVSPropertyOp2
 70
     1
102
RTVSPropertyOp3
 70
     1
102
RTVSPropertyOp4
 70
     1
102
RTVSPropertyOp5
 70
     1
102
RTVSPropertyOp6
 70
     1
102
RTVSPropertyOp7
 70
     1
102
RTVSPropertyOp8
 70
     1
102
RTVSPropertyOp9
 70
     1
102
RTVSPropertyOp10
 70
     1
102
RTVSPropertyOp11
 70
     1
102
RTVSPropertyOp12
 70
     1
102
RTVSPropertyOp13
 70
     1
102
RTVSPropertyOp14
 70
     1
102
RTVSPropertyOp15
 70
     1
102
RTVSPropertyOp16
 70
     1
102
RTVSPropertyOp17
 70
     1
102
RTVSPropertyOp18
 70
     1
102
RTVSPropertyOp19
 70
     1
102
RTVSPropertyOp20
 70
     1
102
RTVSPropertyOp21
 70
     1
102
RTVSPropertyOp22
 70
     1
102
RTVSPropertyOp23
 70
     1
102
RTVSPropertyOp24
 70
     1
102
RTVSPropertyOp25
 70
     1
102
RTVSPropertyOp26
 70
     1
102
RTVSPropertyOp27
 70
     1
102
RTVSPropertyOp28
 70
     1
102
RTVSPropertyOp29
 70
     1
102
RTVSPropertyOp30
 70
     1
102
RTVSPropertyOp31
 70
     1
102
RTVSPropertyOp32
 70
     1
  0
XRECORD
  5
396
102
{ACAD_REACTORS
330
395
102
}
330
395
100
AcDbXrecord
280
     1
102
RTVSPropertyOp0
 70
     1
102
RTVSPropertyOp1
 70
     1
102
RTVSPropertyOp2
 70
     1
102
RTVSPropertyOp3
 70
     1
102
RTVSPropertyOp4
 70
     1
102
RTVSPropertyOp5
 70
     1
102
RTVSPropertyOp6
 70
     1
102
RTVSPropertyOp7
 70
     1
102
RTVSPropertyOp8
 70
     1
102
RTVSPropertyOp9
 70
     1
102
RTVSPropertyOp10
 70
     1
102
RTVSPropertyOp11
 70
     1
102
RTVSPropertyOp12
 70
     1
102
RTVSPropertyOp13
 70
     1
102
RTVSPropertyOp14
 70
     1
102
RTVSPropertyOp15
 70
     1
102
RTVSPropertyOp16
 70
     1
102
RTVSPropertyOp17
 70
     1
102
RTVSPropertyOp18
 70
     1
102
RTVSPropertyOp19
 70
     1
102
RTVSPropertyOp20
 70
     1
102
RTVSPropertyOp21
 70
     1
102
RTVSPropertyOp22
 70
     1
102
RTVSPropertyOp23
 70
     1
102
RTVSPropertyOp24
 70
     1
102
RTVSPropertyOp25
 70
     1
102
RTVSPropertyOp26
 70
     1
102
RTVSPropertyOp27
 70
     1
102
RTVSPropertyOp28
 70
     1
102
RTVSPropertyOp29
 70
     1
102
RTVSPropertyOp30
 70
     1
102
RTVSPropertyOp31
 70
     1
102
RTVSPropertyOp32
 70
     1
  0
XRECORD
  5
398
102
{ACAD_REACTORS
330
397
102
}
330
397
100
AcDbXrecord
280
     1
102
RTVSPropertyOp0
 70
     1
102
RTVSPropertyOp1
 70
     1
102
RTVSPropertyOp2
 70
     1
102
RTVSPropertyOp3
 70
     1
102
RTVSPropertyOp4
 70
     1
102
RTVSPropertyOp5
 70
     1
102
RTVSPropertyOp6
 70
     1
102
RTVSPropertyOp7
 70
     1
102
RTVSPropertyOp8
 70
     1
102
RTVSPropertyOp9
 70
     1
102
RTVSPropertyOp10
 70
     1
102
RTVSPropertyOp11
 70
     1
102
RTVSPropertyOp12
 70
     1
102
RTVSPropertyOp13
 70
     1
102
RTVSPropertyOp14
 70
     1
102
RTVSPropertyOp15
 70
     1
102
RTVSPropertyOp16
 70
     1
102
RTVSPropertyOp17
 70
     1
102
RTVSPropertyOp18
 70
     1
102
RTVSPropertyOp19
 70
     1
102
RTVSPropertyOp20
 70
     1
102
RTVSPropertyOp21
 70
     1
102
RTVSPropertyOp22
 70
     1
102
RTVSPropertyOp23
 70
     1
102
RTVSPropertyOp24
 70
     1
102
RTVSPropertyOp25
 70
     1
102
RTVSPropertyOp26
 70
     1
102
RTVSPropertyOp27
 70
     1
102
RTVSPropertyOp28
 70
     1
102
RTVSPropertyOp29
 70
     1
102
RTVSPropertyOp30
 70
     1
102
RTVSPropertyOp31
 70
     1
102
RTVSPropertyOp32
 70
     1
  0
ENDSEC
  0
EOF
