  0
SECTION
  2
HEADER
  9
$ACADVER
  1
AC1015
  9
$ACADMAINTVER
 70
    20
  9
$DWGCODEPAGE
  3
ANSI_932
  9
$INSBASE
 10
0.0
 20
0.0
 30
0.0
  9
$EXTMIN
 10
784.9000148574519
 20
61.25709981706017
 30
0.0
  9
$EXTMAX
 10
1124.400014857452
 20
290.7570998170602
 30
0.0
  9
$LIMMIN
 10
0.0
 20
0.0
  9
$LIMMAX
 10
594.0
 20
420.0
  9
$ORTHOMODE
 70
     1
  9
$REGENMODE
 70
     1
  9
$FILLMODE
 70
     1
  9
$QTEXTMODE
 70
     0
  9
$MIRRTEXT
 70
     0
  9
$LTSCALE
 40
5.0
  9
$ATTMODE
 70
     1
  9
$TEXTSIZE
 40
5.0
  9
$TRACEWID
 40
0.05
  9
$TEXTSTYLE
  7
STYLE2
  9
$CLAYER
  8
0
  9
$CELTYPE
  6
BYLAYER
  9
$CECOLOR
 62
   256
  9
$CELTSCALE
 40
1.0
  9
$DISPSILH
 70
     0
  9
$DIMSCALE
 40
2.0
  9
$DIMASZ
 40
2.0
  9
$DIMEXO
 40
1.0
  9
$DIMDLI
 40
6.0
  9
$DIMRND
 40
0.0
  9
$DIMDLE
 40
0.0
  9
$DIMEXE
 40
2.0
  9
$DIMTP
 40
495.0
  9
$DIMTM
 40
0.0
  9
$DIMTXT
 40
3.0
  9
$DIMCEN
 40
0.0
  9
$DIMTSZ
 40
0.0
  9
$DIMTOL
 70
     0
  9
$DIMLIM
 70
     0
  9
$DIMTIH
 70
     0
  9
$DIMTOH
 70
     0
  9
$DIMSE1
 70
     0
  9
$DIMSE2
 70
     0
  9
$DIMTAD
 70
     3
  9
$DIMZIN
 70
     8
  9
$DIMBLK
  1
ARROW
  9
$DIMASO
 70
     1
  9
$DIMSHO
 70
     0
  9
$DIMPOST
  1

  9
$DIMAPOST
  1

  9
$DIMALT
 70
     0
  9
$DIMALTD
 70
     2
  9
$DIMALTF
 40
25.4
  9
$DIMLFAC
 40
1.0
  9
$DIMTOFL
 70
     1
  9
$DIMTVP
 40
0.0
  9
$DIMTIX
 70
     1
  9
$DIMSOXD
 70
     0
  9
$DIMSAH
 70
     1
  9
$DIMBLK1
  1
OPEN
  9
$DIMBLK2
  1
OPEN
  9
$DIMSTYLE
  2
IMAO
  9
$DIMCLRD
 70
     0
  9
$DIMCLRE
 70
     0
  9
$DIMCLRT
 70
     0
  9
$DIMTFAC
 40
1.0
  9
$DIMGAP
 40
1.0
  9
$DIMJUST
 70
     0
  9
$DIMSD1
 70
     0
  9
$DIMSD2
 70
     0
  9
$DIMTOLJ
 70
     1
  9
$DIMTZIN
 70
     0
  9
$DIMALTZ
 70
     0
  9
$DIMALTTZ
 70
     0
  9
$DIMUPT
 70
     1
  9
$DIMDEC
 70
     4
  9
$DIMTDEC
 70
     4
  9
$DIMALTU
 70
     2
  9
$DIMALTTD
 70
     2
  9
$DIMTXSTY
  7
STYLE2
  9
$DIMAUNIT
 70
     0
  9
$DIMADEC
 70
     0
  9
$DIMALTRND
 40
0.0
  9
$DIMAZIN
 70
     0
  9
$DIMDSEP
 70
    46
  9
$DIMATFIT
 70
     3
  9
$DIMFRAC
 70
     0
  9
$DIMLDRBLK
  1

  9
$DIMLUNIT
 70
     2
  9
$DIMLWD
 70
    -2
  9
$DIMLWE
 70
    -2
  9
$DIMTMOVE
 70
     0
  9
$LUNITS
 70
     2
  9
$LUPREC
 70
     2
  9
$SKETCHINC
 40
0.1
  9
$FILLETRAD
 40
20.0
  9
$AUNITS
 70
     0
  9
$AUPREC
 70
     2
  9
$MENU
  1
STDR12J
  9
$ELEVATION
 40
0.0
  9
$PELEVATION
 40
0.0
  9
$THICKNESS
 40
0.0
  9
$LIMCHECK
 70
     0
  9
$CHAMFERA
 40
0.5
  9
$CHAMFERB
 40
0.5
  9
$CHAMFERC
 40
0.0
  9
$CHAMFERD
 40
0.0
  9
$SKPOLY
 70
     0
  9
$TDCREATE
 40
2450690.700081019
  9
$TDUCREATE
 40
2450690.325083218
  9
$TDUPDATE
 40
2459548.436828704
  9
$TDUUPDATE
 40
2459548.061828704
  9
$TDINDWG
 40
0.3773508796
  9
$TDUSRTIMER
 40
0.3773507060
  9
$USRTIMER
 70
     1
  9
$ANGBASE
 50
0.0
  9
$ANGDIR
 70
     0
  9
$PDMODE
 70
     3
  9
$PDSIZE
 40
0.0
  9
$PLINEWID
 40
0.0
  9
$SPLFRAME
 70
     0
  9
$SPLINETYPE
 70
     6
  9
$SPLINESEGS
 70
     8
  9
$HANDSEED
  5
1552
  9
$SURFTAB1
 70
     6
  9
$SURFTAB2
 70
     6
  9
$SURFTYPE
 70
     6
  9
$SURFU
 70
     6
  9
$SURFV
 70
     6
  9
$UCSBASE
  2

  9
$UCSNAME
  2

  9
$UCSORG
 10
0.0
 20
0.0
 30
0.0
  9
$UCSXDIR
 10
1.0
 20
0.0
 30
0.0
  9
$UCSYDIR
 10
0.0
 20
1.0
 30
0.0
  9
$UCSORTHOREF
  2

  9
$UCSORTHOVIEW
 70
     0
  9
$UCSORGTOP
 10
0.0
 20
0.0
 30
0.0
  9
$UCSORGBOTTOM
 10
0.0
 20
0.0
 30
0.0
  9
$UCSORGLEFT
 10
0.0
 20
0.0
 30
0.0
  9
$UCSORGRIGHT
 10
0.0
 20
0.0
 30
0.0
  9
$UCSORGFRONT
 10
0.0
 20
0.0
 30
0.0
  9
$UCSORGBACK
 10
0.0
 20
0.0
 30
0.0
  9
$PUCSBASE
  2

  9
$PUCSNAME
  2

  9
$PUCSORG
 10
0.0
 20
0.0
 30
0.0
  9
$PUCSXDIR
 10
1.0
 20
0.0
 30
0.0
  9
$PUCSYDIR
 10
0.0
 20
1.0
 30
0.0
  9
$PUCSORTHOREF
  2

  9
$PUCSORTHOVIEW
 70
     0
  9
$PUCSORGTOP
 10
0.0
 20
0.0
 30
0.0
  9
$PUCSORGBOTTOM
 10
0.0
 20
0.0
 30
0.0
  9
$PUCSORGLEFT
 10
0.0
 20
0.0
 30
0.0
  9
$PUCSORGRIGHT
 10
0.0
 20
0.0
 30
0.0
  9
$PUCSORGFRONT
 10
0.0
 20
0.0
 30
0.0
  9
$PUCSORGBACK
 10
0.0
 20
0.0
 30
0.0
  9
$USERI1
 70
     3
  9
$USERI2
 70
     1
  9
$USERI3
 70
     1
  9
$USERI4
 70
     1
  9
$USERI5
 70
     1
  9
$USERR1
 40
1.0
  9
$USERR2
 40
3.0
  9
$USERR3
 40
3.0
  9
$USERR4
 40
1.5
  9
$USERR5
 40
10.0
  9
$WORLDVIEW
 70
     1
  9
$SHADEDGE
 70
     3
  9
$SHADEDIF
 70
    70
  9
$TILEMODE
 70
     1
  9
$MAXACTVP
 70
    16
  9
$PINSBASE
 10
0.0
 20
0.0
 30
0.0
  9
$PLIMCHECK
 70
     0
  9
$PEXTMIN
 10
1.000000000000000E+20
 20
1.000000000000000E+20
 30
1.000000000000000E+20
  9
$PEXTMAX
 10
-1.000000000000000E+20
 20
-1.000000000000000E+20
 30
-1.000000000000000E+20
  9
$PLIMMIN
 10
0.0
 20
0.0
  9
$PLIMMAX
 10
12.0
 20
9.0
  9
$UNITMODE
 70
     0
  9
$VISRETAIN
 70
     0
  9
$PLINEGEN
 70
     0
  9
$PSLTSCALE
 70
     0
  9
$TREEDEPTH
 70
     0
  9
$CMLSTYLE
  2
STANDARD
  9
$CMLJUST
 70
     0
  9
$CMLSCALE
 40
1.0
  9
$PROXYGRAPHICS
 70
     1
  9
$MEASUREMENT
 70
     0
  9
$CELWEIGHT
370
    -1
  9
$ENDCAPS
280
     0
  9
$JOINSTYLE
280
     0
  9
$LWDISPLAY
290
     0
  9
$INSUNITS
 70
     0
  9
$HYPERLINKBASE
  1

  9
$STYLESHEET
  1

  9
$XEDIT
290
     1
  9
$CEPSNTYPE
380
     0
  9
$PSTYLEMODE
290
     1
  9
$FINGERPRINTGUID
  2
{635BB1EA-724A-4C04-9F46-C8B6B581BDF0}
  9
$VERSIONGUID
  2
{DFF98C5E-93C2-B343-9A4F-6EA55491C3BD}
  9
$EXTNAMES
290
     1
  9
$PSVPSCALE
 40
0.0
  9
$OLESTARTUP
290
     0
  0
ENDSEC
  0
SECTION
  2
CLASSES
  0
CLASS
  1
ACDBDICTIONARYWDFLT
  2
AcDbDictionaryWithDefault
  3
ObjectDBX Classes
 90
        0
280
     0
281
     0
  0
CLASS
  1
MATERIAL
  2
AcDbMaterial
  3
ObjectDBX Classes
 90
     1153
280
     0
281
     0
  0
CLASS
  1
VISUALSTYLE
  2
AcDbVisualStyle
  3
ObjectDBX Classes
 90
     4095
280
     0
281
     0
  0
CLASS
  1
TABLESTYLE
  2
AcDbTableStyle
  3
ObjectDBX Classes
 90
     4095
280
     0
281
     0
  0
CLASS
  1
SCALE
  2
AcDbScale
  3
ObjectDBX Classes
 90
     1153
280
     0
281
     0
  0
CLASS
  1
MLEADERSTYLE
  2
AcDbMLeaderStyle
  3
ACDB_MLEADERSTYLE_CLASS
 90
     4095
280
     0
281
     0
  0
CLASS
  1
DICTIONARYVAR
  2
AcDbDictionaryVar
  3
ObjectDBX Classes
 90
        0
280
     0
281
     0
  0
CLASS
  1
CELLSTYLEMAP
  2
AcDbCellStyleMap
  3
ObjectDBX Classes
 90
     1152
280
     0
281
     0
  0
CLASS
  1
ACDBSECTIONVIEWSTYLE
  2
AcDbSectionViewStyle
  3
ObjectDBX Classes
 90
     1025
280
     0
281
     0
  0
CLASS
  1
ACDBDETAILVIEWSTYLE
  2
AcDbDetailViewStyle
  3
ObjectDBX Classes
 90
     1025
280
     0
281
     0
  0
CLASS
  1
SORTENTSTABLE
  2
AcDbSortentsTable
  3
ObjectDBX Classes
 90
    32768
280
     0
281
     0
  0
CLASS
  1
ACDBPLACEHOLDER
  2
AcDbPlaceHolder
  3
ObjectDBX Classes
 90
        0
280
     0
281
     0
  0
CLASS
  1
LAYOUT
  2
AcDbLayout
  3
ObjectDBX Classes
 90
        0
280
     0
281
     0
  0
ENDSEC
  0
SECTION
  2
TABLES
  0
TABLE
  2
VPORT
  5
2E
330
0
100
AcDbSymbolTable
 70
     1
1001
ACAD
1000
DbSaveVer
1071
      205
  0
VPORT
  5
2F
330
2E
100
AcDbSymbolTableRecord
100
AcDbViewportTableRecord
  2
*ACTIVE
 70
     0
 10
0.0
 20
0.0
 11
1.0
 21
1.0
 12
963.6550714651757
 22
172.2287921716943
 13
0.0
 23
0.0
 14
0.5
 24
0.5
 15
10.0
 25
10.0
 16
0.0
 26
0.0
 36
1.0
 17
0.0
 27
0.0
 37
0.0
 40
336.1268295999896
 41
1.301690507152145
 42
50.0
 43
0.0
 44
0.0
 50
0.0
 51
0.0
 71
     0
 72
   500
 73
     1
 74
     0
 75
     1
 76
     0
 77
     0
 78
     0
281
     0
 65
     1
110
0.0
120
0.0
130
0.0
111
1.0
121
0.0
131
0.0
112
0.0
122
1.0
132
0.0
 79
     0
146
0.0
1001
ACAD_NAV_VCDISPLAY
1070
     3
  0
ENDTAB
  0
TABLE
  2
LTYPE
  5
29
330
0
100
AcDbSymbolTable
 70
     2
  0
LTYPE
  5
2A
330
29
100
AcDbSymbolTableRecord
100
AcDbLinetypeTableRecord
  2
BYBLOCK
 70
     0
  3

 72
    65
 73
     0
 40
0.0
  0
LTYPE
  5
2B
330
29
100
AcDbSymbolTableRecord
100
AcDbLinetypeTableRecord
  2
BYLAYER
 70
     0
  3

 72
    65
 73
     0
 40
0.0
  0
LTYPE
  5
14
330
29
100
AcDbSymbolTableRecord
100
AcDbLinetypeTableRecord
  2
CONTINUOUS
 70
     0
  3
実線
 72
    65
 73
     0
 40
0.0
  0
LTYPE
  5
17F
330
29
100
AcDbSymbolTableRecord
100
AcDbLinetypeTableRecord
  2
CENTER
 70
     0
  3
____ _ ____ _ ____ _ ____ _ ____ _ ____ _ ____
 72
    65
 73
     4
 40
2.0
 49
1.25
 74
     0
 49
-0.25
 74
     0
 49
0.25
 74
     0
 49
-0.25
 74
     0
  0
ENDTAB
  0
TABLE
  2
LAYER
  5
25
102
{ACAD_XDICTIONARY
360
3BD
102
}
330
0
100
AcDbSymbolTable
 70
     1
  0
LAYER
  5
4
102
{ACAD_XDICTIONARY
360
5
102
}
330
25
100
AcDbSymbolTableRecord
100
AcDbLayerTableRecord
  2
0
 70
     0
 62
     7
  6
CONTINUOUS
370
    -3
390
7
  0
ENDTAB
  0
TABLE
  2
STYLE
  5
26
330
0
100
AcDbSymbolTable
 70
     4
  0
STYLE
  5
27
330
26
100
AcDbSymbolTableRecord
100
AcDbTextStyleTableRecord
  2
STANDARD
 70
     0
 40
0.0
 41
1.0
 50
0.0
 71
     0
 42
5.0
  3
ROMANS
  4
bigfont.shx
  0
STYLE
  5
37
330
26
100
AcDbSymbolTableRecord
100
AcDbTextStyleTableRecord
  2
K
 70
     0
 40
0.0
 41
1.0
 50
0.0
 71
     0
 42
1.0
  3
ROMANS
  4
bigfont.shx
  0
STYLE
  5
4F
330
26
100
AcDbSymbolTableRecord
100
AcDbTextStyleTableRecord
  2
STYLE2
 70
     0
 40
0.0
 41
1.0
 50
0.0
 71
     0
 42
5.0
  3

  4

1001
ACAD
1000
DHPHSGothic-W5
1071
    32770
  0
STYLE
  5
3B9
330
26
100
AcDbSymbolTableRecord
100
AcDbTextStyleTableRecord
  2
BIGFONT
 70
     0
 40
3.0
 41
1.0
 50
0.0
 71
     0
 42
3.0
  3
txt
  4
extfont.shx
  0
ENDTAB
  0
TABLE
  2
VIEW
  5
2C
330
0
100
AcDbSymbolTable
 70
     0
  0
ENDTAB
  0
TABLE
  2
UCS
  5
2D
330
0
100
AcDbSymbolTable
 70
     0
  0
ENDTAB
  0
TABLE
  2
APPID
  5
34
330
0
100
AcDbSymbolTable
 70
     8
  0
APPID
  5
32
330
34
100
AcDbSymbolTableRecord
100
AcDbRegAppTableRecord
  2
ACAD
 70
     0
  0
APPID
  5
33
330
34
100
AcDbSymbolTableRecord
100
AcDbRegAppTableRecord
  2
ACAD_NAV_VCDISPLAY
 70
     0
  0
APPID
  5
3BA
330
34
100
AcDbSymbolTableRecord
100
AcDbRegAppTableRecord
  2
GENIUS_GENODEF_13
 70
     0
  0
APPID
  5
3BB
330
34
100
AcDbSymbolTableRecord
100
AcDbRegAppTableRecord
  2
GENIUS_GENOBJ-N-CEN_13
 70
     0
  0
APPID
  5
3BC
330
34
100
AcDbSymbolTableRecord
100
AcDbRegAppTableRecord
  2
GENIUS_GENCEN_19
 70
     0
  0
APPID
  5
FC6
330
34
100
AcDbSymbolTableRecord
100
AcDbRegAppTableRecord
  2
ACAD_PSEXT
 70
     0
  0
APPID
  5
FC7
330
34
100
AcDbSymbolTableRecord
100
AcDbRegAppTableRecord
  2
AcAecLayerStandard
 70
     0
  0
APPID
  5
1503
330
34
100
AcDbSymbolTableRecord
100
AcDbRegAppTableRecord
  2
ACAD_MLEADERVER
 70
     0
  0
ENDTAB
  0
TABLE
  2
DIMSTYLE
  5
35
330
0
100
AcDbSymbolTable
 70
     5
100
AcDbDimStyleTable
 71
     1
340
36
  0
DIMSTYLE
105
36
330
35
100
AcDbSymbolTableRecord
100
AcDbDimStyleTableRecord
  2
IMAO
 70
     0
 41
1.5
 42
1.0
 43
6.0
 44
1.0
 47
495.0
 73
     0
 74
     0
 77
     1
 78
     8
140
3.0
141
0.0
172
     1
174
     1
271
     2
272
     2
279
     2
284
     8
285
     8
286
     8
340
37
341
38
342
38
  0
DIMSTYLE
105
FC2
330
35
100
AcDbSymbolTableRecord
100
AcDbDimStyleTableRecord
  2
Standard
 70
     0
340
27
  0
DIMSTYLE
105
FC3
330
35
100
AcDbSymbolTableRecord
100
AcDbDimStyleTableRecord
  2
ISO-25
 70
     0
 41
2.5
 42
0.625
 43
3.75
 44
1.25
 73
     0
 74
     0
 77
     1
 78
     8
140
2.5
141
2.5
143
0.03937007874016
147
0.625
171
     3
172
     1
271
     2
272
     2
274
     3
278
    44
283
     0
284
     8
340
27
  0
DIMSTYLE
105
FC4
330
35
100
AcDbSymbolTableRecord
100
AcDbDimStyleTableRecord
  2
AM_ISO
 70
     0
  4
"
 41
2.5
 42
1.0
 43
10.0
 44
1.0
 47
0.1
 48
0.1
 73
     0
 74
     0
 77
     1
 78
     8
 79
     2
140
3.5
141
0.0
143
0.0393701
146
0.71
147
1.5
172
     1
176
   256
177
   256
178
     2
271
     2
272
     3
274
     4
283
     0
284
     8
340
27
371
    -1
372
    -1
  0
DIMSTYLE
105
FC5
330
35
100
AcDbSymbolTableRecord
100
AcDbDimStyleTableRecord
  2
AM_JIS
 70
     0
  4
"
 41
15.0
 42
10.0
 43
80.0
 44
10.0
 47
0.1
 48
0.1
 73
     0
 74
     0
 77
     3
 78
     8
 79
     2
140
30.0
141
0.0
143
0.0393701
146
0.71
147
5.0
172
     1
176
   256
177
   256
178
     2
271
     2
272
     2
283
     0
284
     8
340
27
341
FBB
342
FBB
371
    -1
372
    -1
  0
ENDTAB
  0
TABLE
  2
BLOCK_RECORD
  5
1
330
0
100
AcDbSymbolTable
 70
     3
  0
BLOCK_RECORD
  5
2
330
1
100
AcDbSymbolTableRecord
100
AcDbBlockTableRecord
  2
*MODEL_SPACE
340
1F
  0
BLOCK_RECORD
  5
21
330
1
100
AcDbSymbolTableRecord
100
AcDbBlockTableRecord
  2
*PAPER_SPACE
340
24
  0
BLOCK_RECORD
  5
50
330
1
100
AcDbSymbolTableRecord
100
AcDbBlockTableRecord
  2
_OPEN
340
0
  0
BLOCK_RECORD
  5
38
330
1
100
AcDbSymbolTableRecord
100
AcDbBlockTableRecord
  2
ARROW
340
0
  0
BLOCK_RECORD
  5
FBB
330
1
100
AcDbSymbolTableRecord
100
AcDbBlockTableRecord
  2
_Open30
340
0
  0
ENDTAB
  0
ENDSEC
  0
SECTION
  2
BLOCKS
  0
BLOCK
  5
3
330
2
100
AcDbEntity
  8
0
100
AcDbBlockBegin
  2
*MODEL_SPACE
 70
     0
 10
0.0
 20
0.0
 30
0.0
  3
*MODEL_SPACE
  1

  0
ENDBLK
  5
1E
330
2
100
AcDbEntity
  8
0
100
AcDbBlockEnd
  0
BLOCK
  5
22
330
21
100
AcDbEntity
 67
     1
  8
0
100
AcDbBlockBegin
  2
*PAPER_SPACE
 70
     0
 10
0.0
 20
0.0
 30
0.0
  3
*PAPER_SPACE
  1

  0
ENDBLK
  5
23
330
21
100
AcDbEntity
 67
     1
  8
0
100
AcDbBlockEnd
  0
BLOCK
  5
51
330
50
100
AcDbEntity
  8
0
100
AcDbBlockBegin
  2
_OPEN
 70
     0
 10
0.0
 20
0.0
 30
0.0
  3
_OPEN
  1

  0
LINE
  5
52
330
50
100
AcDbEntity
  8
0
  6
ByBlock
 62
     0
100
AcDbLine
 10
-1.0
 20
0.1666666666666666
 30
0.0
 11
0.0
 21
0.0
 31
0.0
  0
LINE
  5
53
330
50
100
AcDbEntity
  8
0
  6
ByBlock
 62
     0
100
AcDbLine
 10
0.0
 20
0.0
 30
0.0
 11
-1.0
 21
-0.1666666666666666
 31
0.0
  0
LINE
  5
54
330
50
100
AcDbEntity
  8
0
  6
ByBlock
 62
     0
100
AcDbLine
 10
0.0
 20
0.0
 30
0.0
 11
-1.0
 21
0.0
 31
0.0
  0
ENDBLK
  5
55
330
50
100
AcDbEntity
  8
0
100
AcDbBlockEnd
  0
BLOCK
  5
39
330
38
100
AcDbEntity
  8
0
100
AcDbBlockBegin
  2
ARROW
 70
     0
 10
1.0
 20
0.5
 30
0.0
  3
ARROW
  1

  0
LINE
  5
3A
330
38
100
AcDbEntity
  8
0
100
AcDbLine
 10
1.0
 20
0.5
 30
0.0
 11
-0.5000000000000214
 21
0.0980762113533018
 31
0.0
  0
LINE
  5
3B
330
38
100
AcDbEntity
  8
0
100
AcDbLine
 10
0.0
 20
0.5
 30
0.0
 11
1.0
 21
0.5
 31
0.0
  0
LINE
  5
3C
330
38
100
AcDbEntity
  8
0
100
AcDbLine
 10
1.0
 20
0.5
 30
0.0
 11
-0.4999999999999575
 21
0.9019237886467408
 31
0.0
  0
ENDBLK
  5
3D
330
38
100
AcDbEntity
  8
0
100
AcDbBlockEnd
  0
BLOCK
  5
FBC
330
FBB
100
AcDbEntity
  8
0
100
AcDbBlockBegin
  2
_Open30
 70
     0
 10
0.0
 20
0.0
 30
0.0
  3
_Open30
  1

  0
LINE
  5
FBD
330
FBB
100
AcDbEntity
  8
0
  6
ByBlock
 62
     0
370
    -2
100
AcDbLine
 10
-1.0
 20
0.26794919
 30
0.0
 11
0.0
 21
0.0
 31
0.0
  0
LINE
  5
FBE
330
FBB
100
AcDbEntity
  8
0
  6
ByBlock
 62
     0
370
    -2
100
AcDbLine
 10
0.0
 20
0.0
 30
0.0
 11
-1.0
 21
-0.26794919
 31
0.0
  0
LINE
  5
FBF
330
FBB
100
AcDbEntity
  8
0
  6
ByBlock
 62
     0
370
    -2
100
AcDbLine
 10
0.0
 20
0.0
 30
0.0
 11
-1.0
 21
0.0
 31
0.0
  0
ENDBLK
  5
FC0
330
FBB
100
AcDbEntity
  8
0
100
AcDbBlockEnd
  0
ENDSEC
  0
SECTION
  2
ENTITIES
  0
LINE
  5
1234
330
2
100
AcDbEntity
  8
0
 62
     0
 48
0.2
100
AcDbLine
 10
861.4000148574517
 20
221.0070998170602
 30
0.0
 11
861.4000148574517
 21
188.5070998170601
 31
0.0
  0
LINE
  5
1235
330
2
100
AcDbEntity
  8
0
 62
     0
 48
0.2
100
AcDbLine
 10
861.9000148574519
 20
221.5070998170602
 30
0.0
 11
861.4000148574517
 21
221.0070998170602
 31
0.0
  0
LINE
  5
1236
330
2
100
AcDbEntity
  8
0
 62
     0
 48
0.2
100
AcDbLine
 10
871.4000148574518
 20
221.5070998170602
 30
0.0
 11
867.9000148574518
 21
221.5070998170602
 31
0.0
  0
LINE
  5
1237
330
2
100
AcDbEntity
  8
0
 62
     0
 48
0.2
100
AcDbLine
 10
865.9000148574518
 20
221.5070998170602
 30
0.0
 11
861.9000148574519
 21
221.5070998170602
 31
0.0
  0
LINE
  5
1238
330
2
100
AcDbEntity
  8
0
 62
     0
 48
0.2
100
AcDbLine
 10
867.9000148574518
 20
221.2570998170602
 30
0.0
 11
865.9000148574518
 21
221.2570998170602
 31
0.0
  0
LINE
  5
1239
330
2
100
AcDbEntity
  8
0
 62
     0
 48
0.2
100
AcDbLine
 10
871.4000148574518
 20
188.0070998170602
 30
0.0
 11
867.9000148574518
 21
188.0070998170602
 31
0.0
  0
LINE
  5
123A
330
2
100
AcDbEntity
  8
0
 62
     0
 48
0.2
100
AcDbLine
 10
865.9000148574518
 20
188.0070998170602
 30
0.0
 11
861.9000148574519
 21
188.0070998170602
 31
0.0
  0
LINE
  5
123B
330
2
100
AcDbEntity
  8
0
 62
     0
 48
0.2
100
AcDbLine
 10
867.9000148574518
 20
188.2570998170601
 30
0.0
 11
865.9000148574518
 21
188.2570998170601
 31
0.0
  0
LINE
  5
123C
330
2
100
AcDbEntity
  8
0
 62
     0
 48
0.2
100
AcDbLine
 10
861.4000148574517
 20
188.5070998170601
 30
0.0
 11
861.9000148574519
 21
188.0070998170602
 31
0.0
  0
LINE
  5
123D
330
2
100
AcDbEntity
  8
0
 62
     0
 48
0.2
100
AcDbLine
 10
871.4000148574518
 20
221.5070998170602
 30
0.0
 11
871.4000148574518
 21
217.7570998170602
 31
0.0
  0
LINE
  5
123E
330
2
100
AcDbEntity
  8
0
 62
     0
 48
0.2
100
AcDbLine
 10
871.4000148574518
 20
191.7570998170601
 30
0.0
 11
871.4000148574518
 21
188.0070998170602
 31
0.0
  0
LINE
  5
123F
330
2
100
AcDbEntity
  8
0
 62
     0
 48
0.2
100
AcDbLine
 10
876.4000148574519
 20
219.2570998170597
 30
0.0
 11
876.4000148574519
 21
159.2570998170597
 31
0.0
  0
LINE
  5
1240
330
2
100
AcDbEntity
  8
0
 62
     0
 48
0.2
100
AcDbLine
 10
871.4000148574518
 20
159.2570998170597
 30
0.0
 11
871.4000148574518
 21
219.2570998170597
 31
0.0
  0
CIRCLE
  5
1241
330
2
100
AcDbEntity
  8
0
 62
     4
 48
0.2
100
AcDbCircle
 10
873.9000148574517
 20
259.7570998170602
 30
0.0
 40
1.5
  0
CIRCLE
  5
1242
330
2
100
AcDbEntity
  8
0
 62
     0
 48
0.2
100
AcDbCircle
 10
873.9000148574517
 20
259.7570998170602
 30
0.0
 40
1.25
  0
LINE
  5
1243
330
2
100
AcDbEntity
  8
0
 62
     0
 48
0.2
100
AcDbLine
 10
871.4000148574518
 20
221.6570998170598
 30
0.0
 11
876.4000148574519
 21
221.6570998170598
 31
0.0
  0
LINE
  5
1244
330
2
100
AcDbEntity
  8
0
 62
     0
 48
0.2
100
AcDbLine
 10
876.4000148574519
 20
221.6570998170598
 30
0.0
 11
876.4000148574519
 21
156.8570998170601
 31
0.0
  0
LINE
  5
1245
330
2
100
AcDbEntity
  8
0
 62
     0
 48
0.2
100
AcDbLine
 10
876.4000148574519
 20
156.8570998170601
 30
0.0
 11
871.4000148574518
 21
156.8570998170601
 31
0.0
  0
LINE
  5
1246
330
2
100
AcDbEntity
  8
0
 62
     0
 48
0.2
100
AcDbLine
 10
871.4000148574518
 20
156.8570998170601
 30
0.0
 11
871.4000148574518
 21
221.6570998170598
 31
0.0
  0
LINE
  5
1247
330
2
100
AcDbEntity
  8
0
 62
     0
 48
0.2
100
AcDbLine
 10
876.4000148574519
 20
241.7570998170602
 30
0.0
 11
876.4000148574519
 21
228.8570998170601
 31
0.0
  0
LINE
  5
1248
330
2
100
AcDbEntity
  8
0
 62
     0
 48
0.2
100
AcDbLine
 10
876.4000148574519
 20
228.8570998170601
 30
0.0
 11
871.4000148574518
 21
228.8570998170601
 31
0.0
  0
LINE
  5
1249
330
2
100
AcDbEntity
  8
0
 62
     0
 48
0.2
100
AcDbLine
 10
871.4000148574518
 20
228.8570998170601
 30
0.0
 11
871.4000148574518
 21
290.6570998170603
 31
0.0
  0
LINE
  5
124A
330
2
100
AcDbEntity
  8
0
 62
     0
 48
0.2
100
AcDbLine
 10
871.4000148574518
 20
290.6570998170603
 30
0.0
 11
876.4000148574519
 21
290.6570998170603
 31
0.0
  0
LINE
  5
124B
330
2
100
AcDbEntity
  8
0
 62
     0
 48
0.2
100
AcDbLine
 10
876.4000148574519
 20
290.6570998170603
 30
0.0
 11
876.4000148574519
 21
277.7570998170602
 31
0.0
  0
LINE
  5
124C
330
2
100
AcDbEntity
  8
0
 62
     0
 48
0.2
100
AcDbLine
 10
861.4000148574517
 20
276.0070998170602
 30
0.0
 11
861.4000148574517
 21
243.5070998170602
 31
0.0
  0
LINE
  5
124D
330
2
100
AcDbEntity
  8
0
 62
     0
 48
0.2
100
AcDbLine
 10
861.9000148574519
 20
276.5070998170602
 30
0.0
 11
861.4000148574517
 21
276.0070998170602
 31
0.0
  0
LINE
  5
124E
330
2
100
AcDbEntity
  8
0
 62
     0
 48
0.2
100
AcDbLine
 10
861.9000148574519
 20
243.0070998170602
 30
0.0
 11
861.4000148574517
 21
243.5070998170602
 31
0.0
  0
LINE
  5
124F
330
2
100
AcDbEntity
  8
0
 62
     0
 48
0.2
100
AcDbLine
 10
1026.400014857452
 20
221.6570998170598
 30
0.0
 11
1030.900014857452
 21
221.6570998170598
 31
0.0
  0
LINE
  5
1250
330
2
100
AcDbEntity
  8
0
 62
     0
 48
0.2
100
AcDbLine
 10
1030.900014857452
 20
221.5070998170597
 30
0.0
 11
1031.400014857452
 21
221.5070998170597
 31
0.0
  0
LINE
  5
1251
330
2
100
AcDbEntity
  8
0
 62
     0
 48
0.2
100
AcDbLine
 10
1031.400014857452
 20
221.6570998170598
 30
0.0
 11
1031.400014857452
 21
189.2570998170599
 31
0.0
  0
LINE
  5
1252
330
2
100
AcDbEntity
  8
0
 62
     0
 48
0.2
100
AcDbLine
 10
1030.900014857452
 20
221.6570998170598
 30
0.0
 11
1030.900014857452
 21
189.2570998170599
 31
0.0
  0
LINE
  5
1253
330
2
100
AcDbEntity
  8
0
 62
     0
 48
0.2
100
AcDbLine
 10
1033.400014857452
 20
219.6570998170598
 30
0.0
 11
1033.400014857452
 21
158.8570998170601
 31
0.0
  0
LINE
  5
1254
330
2
100
AcDbEntity
  8
0
 62
     0
 48
0.2
100
AcDbLine
 10
1031.400014857452
 20
156.8570998170601
 30
0.0
 11
1033.400014857452
 21
158.8570998170601
 31
0.0
  0
LINE
  5
1255
330
2
100
AcDbEntity
  8
0
 62
     0
 48
0.2
100
AcDbLine
 10
1031.400014857452
 20
221.6570998170598
 30
0.0
 11
1033.400014857452
 21
219.6570998170598
 31
0.0
  0
LINE
  5
1256
330
2
100
AcDbEntity
  8
0
 62
     0
 48
0.2
100
AcDbLine
 10
1031.400014857452
 20
156.8570998170601
 30
0.0
 11
1026.400014857452
 21
156.8570998170601
 31
0.0
  0
LINE
  5
1257
330
2
100
AcDbEntity
  8
0
 62
     0
 48
0.2
100
AcDbLine
 10
1026.400014857452
 20
149.8570998170601
 30
0.0
 11
1026.400014857452
 21
221.6570998170598
 31
0.0
  0
LINE
  5
1258
330
2
100
AcDbEntity
  8
0
 62
     0
 48
0.2
100
AcDbLine
 10
876.9000148574518
 20
221.7570998170597
 30
0.0
 11
1025.900014857452
 21
221.7570998170597
 31
0.0
  0
LINE
  5
1259
330
2
100
AcDbEntity
  8
0
 62
     0
 48
0.2
100
AcDbLine
 10
1025.900014857452
 20
221.7570998170597
 30
0.0
 11
1025.900014857452
 21
156.7570998170597
 31
0.0
  0
LINE
  5
125A
330
2
100
AcDbEntity
  8
0
 62
     0
 48
0.2
100
AcDbLine
 10
1025.900014857452
 20
156.7570998170597
 30
0.0
 11
876.9000148574518
 21
156.7570998170597
 31
0.0
  0
LINE
  5
125B
330
2
100
AcDbEntity
  8
0
 62
     0
 48
0.2
100
AcDbLine
 10
876.9000148574518
 20
156.7570998170597
 30
0.0
 11
876.9000148574518
 21
221.7570998170597
 31
0.0
  0
LINE
  5
125C
330
2
100
AcDbEntity
  8
0
 62
     0
 48
0.2
100
AcDbLine
 10
1025.900014857452
 20
219.0070998170597
 30
0.0
 11
1025.900014857452
 21
159.5070998170597
 31
0.0
  0
LINE
  5
125D
330
2
100
AcDbEntity
  8
0
 62
     0
 48
0.2
100
AcDbLine
 10
876.9000148574518
 20
159.5070998170597
 30
0.0
 11
876.9000148574518
 21
219.0070998170597
 31
0.0
  0
LINE
  5
125E
330
2
100
AcDbEntity
  8
0
 62
     0
 48
0.2
100
AcDbLine
 10
1066.400014857452
 20
221.7570998170602
 30
0.0
 11
1120.400014857452
 21
221.7570998170602
 31
0.0
  0
ARC
  5
125F
330
2
100
AcDbEntity
  8
0
 62
     0
 48
0.2
100
AcDbCircle
 10
1120.400014857452
 20
217.7570998170602
 30
0.0
 40
4.0
100
AcDbArc
 50
0.0
 51
90.0
  0
LINE
  5
1260
330
2
100
AcDbEntity
  8
0
 62
     0
 48
0.2
100
AcDbLine
 10
1124.400014857452
 20
217.7570998170602
 30
0.0
 11
1124.400014857452
 21
160.7570998170602
 31
0.0
  0
ARC
  5
1261
330
2
100
AcDbEntity
  8
0
 62
     0
 48
0.2
100
AcDbCircle
 10
1120.400014857452
 20
160.7570998170602
 30
0.0
 40
4.0
100
AcDbArc
 50
270.0
 51
0.0
  0
LINE
  5
1262
330
2
100
AcDbEntity
  8
0
 62
     0
 48
0.2
100
AcDbLine
 10
1120.400014857452
 20
156.7570998170602
 30
0.0
 11
1066.400014857452
 21
156.7570998170602
 31
0.0
  0
ARC
  5
1263
330
2
100
AcDbEntity
  8
0
 62
     0
 48
0.2
100
AcDbCircle
 10
1066.400014857452
 20
160.7570998170602
 30
0.0
 40
4.0
100
AcDbArc
 50
180.0
 51
270.0
  0
LINE
  5
1264
330
2
100
AcDbEntity
  8
0
 62
     0
 48
0.2
100
AcDbLine
 10
1062.400014857452
 20
160.7570998170602
 30
0.0
 11
1062.400014857452
 21
217.7570998170602
 31
0.0
  0
ARC
  5
1265
330
2
100
AcDbEntity
  8
0
 62
     0
 48
0.2
100
AcDbCircle
 10
1066.400014857452
 20
217.7570998170602
 30
0.0
 40
4.0
100
AcDbArc
 50
90.0
 51
180.0
  0
LINE
  5
1266
330
2
100
AcDbEntity
  8
0
 62
     0
 48
0.2
100
AcDbLine
 10
876.9000148574518
 20
290.7570998170602
 30
0.0
 11
1025.900014857452
 21
290.7570998170602
 31
0.0
  0
LINE
  5
1267
330
2
100
AcDbEntity
  8
0
 62
     0
 48
0.2
100
AcDbLine
 10
1025.900014857452
 20
290.7570998170602
 30
0.0
 11
1025.900014857452
 21
228.7570998170602
 31
0.0
  0
LINE
  5
1268
330
2
100
AcDbEntity
  8
0
 62
     0
 48
0.2
100
AcDbLine
 10
1025.900014857452
 20
228.7570998170602
 30
0.0
 11
876.9000148574518
 21
228.7570998170602
 31
0.0
  0
LINE
  5
1269
330
2
100
AcDbEntity
  8
0
 62
     0
 48
0.2
100
AcDbLine
 10
876.9000148574518
 20
228.7570998170602
 30
0.0
 11
876.9000148574518
 21
290.7570998170602
 31
0.0
  0
LINE
  5
126A
330
2
100
AcDbEntity
  8
0
 62
     0
 48
0.2
100
AcDbLine
 10
1026.400014857452
 20
290.6570998170603
 30
0.0
 11
1030.900014857452
 21
290.6570998170603
 31
0.0
  0
LINE
  5
126B
330
2
100
AcDbEntity
  8
0
 62
     0
 48
0.2
100
AcDbLine
 10
1031.400014857452
 20
290.6570998170603
 30
0.0
 11
1031.400014857452
 21
228.8570998170601
 31
0.0
  0
LINE
  5
126C
330
2
100
AcDbEntity
  8
0
 62
     0
 48
0.2
100
AcDbLine
 10
1030.900014857452
 20
290.6570998170603
 30
0.0
 11
1030.900014857452
 21
228.8570998170601
 31
0.0
  0
LINE
  5
126D
330
2
100
AcDbEntity
  8
0
 62
     0
 48
0.2
100
AcDbLine
 10
1033.400014857452
 20
288.6570998170603
 30
0.0
 11
1033.400014857452
 21
230.8570998170603
 31
0.0
  0
LINE
  5
126E
330
2
100
AcDbEntity
  8
0
 62
     0
 48
0.2
100
AcDbLine
 10
1031.400014857452
 20
228.8570998170603
 30
0.0
 11
1033.400014857452
 21
230.8570998170603
 31
0.0
  0
LINE
  5
126F
330
2
100
AcDbEntity
  8
0
 62
     0
 48
0.2
100
AcDbLine
 10
1031.400014857452
 20
290.6570998170603
 30
0.0
 11
1033.400014857452
 21
288.6570998170603
 31
0.0
  0
LINE
  5
1270
330
2
100
AcDbEntity
  8
0
 62
     0
 48
0.2
100
AcDbLine
 10
1030.900014857452
 20
228.8570998170603
 30
0.0
 11
1026.400014857452
 21
228.8570998170601
 31
0.0
  0
LINE
  5
1271
330
2
100
AcDbEntity
  8
0
 62
     0
 48
0.2
100
AcDbLine
 10
1026.400014857452
 20
228.8570998170601
 30
0.0
 11
1026.400014857452
 21
290.6570998170603
 31
0.0
  0
LINE
  5
1272
330
2
100
AcDbEntity
  8
0
 62
     0
 48
0.2
100
AcDbLine
 10
871.4000148574518
 20
276.5070998170602
 30
0.0
 11
867.9000148574518
 21
276.5070998170602
 31
0.0
  0
LINE
  5
1273
330
2
100
AcDbEntity
  8
0
 62
     0
 48
0.2
100
AcDbLine
 10
865.9000148574518
 20
276.5070998170602
 30
0.0
 11
861.9000148574519
 21
276.5070998170602
 31
0.0
  0
LINE
  5
1274
330
2
100
AcDbEntity
  8
0
 62
     0
 48
0.2
100
AcDbLine
 10
867.9000148574518
 20
276.2570998170602
 30
0.0
 11
865.9000148574518
 21
276.2570998170602
 31
0.0
  0
LINE
  5
1275
330
2
100
AcDbEntity
  8
0
 62
     0
 48
0.2
100
AcDbLine
 10
871.4000148574518
 20
243.0070998170602
 30
0.0
 11
867.9000148574518
 21
243.0070998170602
 31
0.0
  0
LINE
  5
1276
330
2
100
AcDbEntity
  8
0
 62
     0
 48
0.2
100
AcDbLine
 10
865.9000148574518
 20
243.0070998170602
 30
0.0
 11
861.9000148574519
 21
243.0070998170602
 31
0.0
  0
LINE
  5
1277
330
2
100
AcDbEntity
  8
0
 62
     0
 48
0.2
100
AcDbLine
 10
867.9000148574518
 20
243.2570998170602
 30
0.0
 11
865.9000148574518
 21
243.2570998170602
 31
0.0
  0
LINE
  5
1278
330
2
100
AcDbEntity
  8
0
 62
     0
 48
0.2
100
AcDbLine
 10
871.4000148574518
 20
276.5070998170602
 30
0.0
 11
871.4000148574518
 21
272.7570998170606
 31
0.0
  0
LINE
  5
1279
330
2
100
AcDbEntity
  8
0
 62
     0
 48
0.2
100
AcDbLine
 10
871.4000148574518
 20
246.7570998170602
 30
0.0
 11
871.4000148574518
 21
243.0070998170602
 31
0.0
  0
LINE
  5
127A
330
2
100
AcDbEntity
  8
0
 62
     0
 48
0.5
100
AcDbLine
 10
1073.400014857452
 20
149.7570998170601
 30
0.0
 11
1113.400014857452
 21
149.7570998170601
 31
0.0
  0
LINE
  5
127B
330
2
100
AcDbEntity
  8
0
 62
     0
 48
0.5
100
AcDbLine
 10
1113.400014857452
 20
149.7570998170601
 30
0.0
 11
1118.400014857452
 21
156.7570998170602
 31
0.0
  0
LINE
  5
127C
330
2
100
AcDbEntity
  8
0
 62
     0
 48
0.5
100
AcDbLine
 10
1073.400014857452
 20
149.7570998170601
 30
0.0
 11
1068.400014857452
 21
156.7570998170602
 31
0.0
  0
LINE
  5
127D
330
2
100
AcDbEntity
  8
0
 62
     0
 48
0.5
100
AcDbLine
 10
876.9000148574518
 20
156.7570998170597
 30
0.0
 11
876.9000148574518
 21
149.7570998170601
 31
0.0
  0
LINE
  5
127E
330
2
100
AcDbEntity
  8
0
 62
     0
 48
0.5
100
AcDbLine
 10
1025.900014857452
 20
149.7570998170601
 30
0.0
 11
876.9000148574518
 21
149.7570998170601
 31
0.0
  0
LINE
  5
127F
330
2
100
AcDbEntity
  8
0
 62
     0
 48
0.5
100
AcDbLine
 10
1025.900014857452
 20
156.7570998170597
 30
0.0
 11
1025.900014857452
 21
149.7570998170601
 31
0.0
  0
LINE
  5
1281
330
2
100
AcDbEntity
  8
0
 62
     0
 48
0.5
100
AcDbLine
 10
861.9000148574519
 20
221.5070998170602
 30
0.0
 11
861.9000148574519
 21
188.0070998170602
 31
0.0
  0
LINE
  5
1282
330
2
100
AcDbEntity
  8
0
 62
     0
 48
0.5
100
AcDbLine
 10
865.9000148574518
 20
221.5070998170602
 30
0.0
 11
865.9000148574518
 21
188.0070998170602
 31
0.0
  0
LINE
  5
1283
330
2
100
AcDbEntity
  8
0
 62
     0
 48
0.5
100
AcDbLine
 10
867.9000148574518
 20
221.5070998170602
 30
0.0
 11
867.9000148574518
 21
188.0070998170602
 31
0.0
  0
LINE
  5
1284
330
2
100
AcDbEntity
  8
0
 62
     0
 48
0.5
100
AcDbLine
 10
861.9000148574519
 20
276.5070998170602
 30
0.0
 11
861.9000148574519
 21
243.0070998170602
 31
0.0
  0
LINE
  5
1285
330
2
100
AcDbEntity
  8
0
 62
     0
 48
0.5
100
AcDbLine
 10
865.9000148574518
 20
276.5070998170602
 30
0.0
 11
865.9000148574518
 21
243.0070998170606
 31
0.0
  0
LINE
  5
1286
330
2
100
AcDbEntity
  8
0
 62
     0
 48
0.5
100
AcDbLine
 10
867.9000148574518
 20
276.5070998170602
 30
0.0
 11
867.9000148574518
 21
243.0070998170606
 31
0.0
  0
LINE
  5
1287
330
2
100
AcDbEntity
  8
0
 62
     0
 48
0.5
100
AcDbLine
 10
1025.900014857452
 20
221.5070998170597
 30
0.0
 11
1026.400014857452
 21
221.5070998170597
 31
0.0
  0
LINE
  5
1288
330
2
100
AcDbEntity
  8
0
 62
     0
 48
0.5
100
AcDbLine
 10
1026.400014857452
 20
221.5070998170597
 30
0.0
 11
1026.400014857452
 21
157.0070998170597
 31
0.0
  0
LINE
  5
1289
330
2
100
AcDbEntity
  8
0
 62
     0
 48
0.5
100
AcDbLine
 10
1026.400014857452
 20
157.0070998170597
 30
0.0
 11
1025.900014857452
 21
157.0070998170597
 31
0.0
  0
LINE
  5
128A
330
2
100
AcDbEntity
  8
0
 62
     0
 48
0.5
100
AcDbLine
 10
1025.900014857452
 20
157.0070998170597
 30
0.0
 11
1025.900014857452
 21
221.5070998170597
 31
0.0
  0
LWPOLYLINE
  5
128B
330
2
100
AcDbEntity
  8
0
 62
     0
 48
0.5
100
AcDbPolyline
 90
        4
 70
     1
 43
0.0
 10
876.9000148574518
 20
221.5070998170597
 10
876.4000148574519
 20
221.5070998170597
 10
876.4000148574519
 20
157.0070998170597
 10
876.9000148574518
 20
157.0070998170597
  0
LWPOLYLINE
  5
128C
330
2
100
AcDbEntity
  8
0
 62
     0
 48
0.5
100
AcDbPolyline
 90
        4
 70
     1
 43
0.0
 10
1025.900014857452
 20
229.0070998170602
 10
1025.900014857452
 20
290.5070998170602
 10
1026.400014857452
 20
290.5070998170602
 10
1026.400014857452
 20
229.0070998170602
  0
LWPOLYLINE
  5
128D
330
2
100
AcDbEntity
  8
0
 62
     0
 48
0.5
100
AcDbPolyline
 90
        4
 70
     1
 43
0.0
 10
876.9000148574518
 20
229.0070998170602
 10
876.9000148574518
 20
290.5070998170602
 10
876.4000148574519
 20
290.5070998170602
 10
876.4000148574519
 20
229.0070998170602
  0
CIRCLE
  5
128E
330
2
100
AcDbEntity
  8
0
 62
     0
100
AcDbCircle
 10
842.9000148574518
 20
217.7570998170602
 30
0.0
 40
2.75
  0
LWPOLYLINE
  5
128F
330
2
100
AcDbEntity
  8
0
 62
     0
100
AcDbPolyline
 90
        6
 70
     1
 43
0.0
 10
842.3226645882618
 20
216.7570998170602
 10
841.7453143190737
 20
217.7570998170602
 10
842.3226645882618
 20
218.7570998170602
 10
843.4773651266416
 20
218.7570998170602
 10
844.0547153958316
 20
217.7570998170602
 10
843.4773651266416
 20
216.7570998170602
  0
CIRCLE
  5
1290
330
2
100
AcDbEntity
  8
0
 62
     0
100
AcDbCircle
 10
788.9000148574519
 20
217.7570998170602
 30
0.0
 40
2.75
  0
LWPOLYLINE
  5
1291
330
2
100
AcDbEntity
  8
0
 62
     0
100
AcDbPolyline
 90
        6
 70
     1
 43
0.0
 10
789.4773651266419
 20
216.7570998170602
 10
790.0547153958317
 20
217.7570998170602
 10
789.4773651266419
 20
218.7570998170602
 10
788.3226645882619
 20
218.7570998170602
 10
787.7453143190738
 20
217.7570998170602
 10
788.3226645882619
 20
216.7570998170602
  0
CIRCLE
  5
1292
330
2
100
AcDbEntity
  8
0
 62
     0
100
AcDbCircle
 10
842.9000148574518
 20
160.7570998170602
 30
0.0
 40
2.75
  0
LWPOLYLINE
  5
1293
330
2
100
AcDbEntity
  8
0
 62
     0
100
AcDbPolyline
 90
        6
 70
     1
 43
0.0
 10
842.3226645882618
 20
161.7570998170602
 10
841.7453143190737
 20
160.7570998170602
 10
842.3226645882618
 20
159.7570998170602
 10
843.4773651266416
 20
159.7570998170602
 10
844.0547153958316
 20
160.7570998170602
 10
843.4773651266416
 20
161.7570998170602
  0
CIRCLE
  5
1294
330
2
100
AcDbEntity
  8
0
 62
     0
100
AcDbCircle
 10
788.9000148574519
 20
160.7570998170602
 30
0.0
 40
2.75
  0
LWPOLYLINE
  5
1295
330
2
100
AcDbEntity
  8
0
 62
     0
100
AcDbPolyline
 90
        6
 70
     1
 43
0.0
 10
789.4773651266419
 20
161.7570998170602
 10
790.0547153958317
 20
160.7570998170602
 10
789.4773651266419
 20
159.7570998170602
 10
788.3226645882619
 20
159.7570998170602
 10
787.7453143190738
 20
160.7570998170602
 10
788.3226645882619
 20
161.7570998170602
  0
CIRCLE
  5
1296
330
2
100
AcDbEntity
  8
0
 62
     0
 48
0.2
100
AcDbCircle
 10
842.9000148574518
 20
217.7570998170602
 30
0.0
 40
3.0
  0
CIRCLE
  5
1297
330
2
100
AcDbEntity
  8
0
 62
     0
 48
0.2
100
AcDbCircle
 10
788.9000148574519
 20
217.7570998170602
 30
0.0
 40
3.0
  0
CIRCLE
  5
1298
330
2
100
AcDbEntity
  8
0
 62
     0
 48
0.2
100
AcDbCircle
 10
842.9000148574518
 20
160.7570998170602
 30
0.0
 40
3.0
  0
CIRCLE
  5
1299
330
2
100
AcDbEntity
  8
0
 62
     0
 48
0.2
100
AcDbCircle
 10
788.9000148574519
 20
160.7570998170602
 30
0.0
 40
3.0
  0
LWPOLYLINE
  5
129A
330
2
100
AcDbEntity
  8
0
 62
     0
 48
0.2
100
AcDbPolyline
 90
        8
 70
     1
 43
0.0
 10
842.9000148574518
 20
221.7570998170602
 10
788.9000148574519
 20
221.7570998170602
 42
0.4142135623730951
 10
784.9000148574519
 20
217.7570998170602
 10
784.9000148574519
 20
160.7570998170602
 42
0.4142135623730951
 10
788.9000148574519
 20
156.7570998170602
 10
842.9000148574518
 20
156.7570998170602
 42
0.4142135623730951
 10
846.9000148574519
 20
160.7570998170602
 10
846.9000148574519
 20
217.7570998170602
 42
0.4142135623730951
  0
LINE
  5
129B
330
2
100
AcDbEntity
  8
0
 62
     0
 48
0.5
100
AcDbLine
 10
835.9000148574519
 20
149.7570998170601
 30
0.0
 11
795.9000148574517
 21
149.7570998170601
 31
0.0
  0
LINE
  5
129C
330
2
100
AcDbEntity
  8
0
 62
     0
 48
0.5
100
AcDbLine
 10
795.9000148574517
 20
149.7570998170601
 30
0.0
 11
790.9000148574517
 21
156.7570998170602
 31
0.0
  0
LINE
  5
129D
330
2
100
AcDbEntity
  8
0
 62
     0
 48
0.5
100
AcDbLine
 10
835.9000148574519
 20
149.7570998170601
 30
0.0
 11
840.9000148574516
 21
156.7570998170602
 31
0.0
  0
CIRCLE
  5
129E
330
2
100
AcDbEntity
  8
0
 62
     0
100
AcDbCircle
 10
815.9000148574516
 20
204.7570998170602
 30
0.0
 40
16.75
  0
CIRCLE
  5
129F
330
2
100
AcDbEntity
  8
0
 62
     0
100
AcDbCircle
 10
815.9000148574516
 20
204.7570998170602
 30
0.0
 40
15.75
  0
CIRCLE
  5
12A0
330
2
100
AcDbEntity
  8
0
 62
     0
100
AcDbCircle
 10
815.9000148574516
 20
204.7570998170602
 30
0.0
 40
12.0
  0
CIRCLE
  5
12A1
330
2
100
AcDbEntity
  8
0
 62
     0
100
AcDbCircle
 10
815.9000148574516
 20
204.7570998170602
 30
0.0
 40
11.0
  0
LINE
  5
12A2
330
2
100
AcDbEntity
  8
0
  6
CENTER
 62
     4
 48
2.0
100
AcDbLine
 10
795.9000148574517
 20
204.7570998170602
 30
0.0
 11
835.9000148574519
 21
204.7570998170602
 31
0.0
1001
GENIUS_GENOBJ-N-CEN_13
1002
{
1000
OWNER
1000
GEN
1002
}
1001
GENIUS_GENODEF_13
1002
{
1000
HIER
1070
     0
1002
}
1002
{
1000
MANEDIT
1070
     0
1002
}
1002
{
1000
NOSEL
1070
     0
1002
}
1002
{
1000
BEHIND
1070
     0
1002
}
1002
{
1000
OTHER
1070
     0
1002
}
1002
{
1000
REACTOR
1002
}
1001
GENIUS_GENCEN_19
1002
{
1040
3.0
1002
}
  0
LINE
  5
12A3
330
2
100
AcDbEntity
  8
0
  6
CENTER
 62
     4
 48
2.0
100
AcDbLine
 10
1081.900014857452
 20
204.7570998170602
 30
0.0
 11
1104.900014857452
 21
204.7570998170602
 31
0.0
1001
GENIUS_GENOBJ-N-CEN_13
1002
{
1000
OWNER
1000
GEN
1002
}
1001
GENIUS_GENODEF_13
1002
{
1000
HIER
1070
     0
1002
}
1002
{
1000
MANEDIT
1070
     0
1002
}
1002
{
1000
NOSEL
1070
     0
1002
}
1002
{
1000
BEHIND
1070
     0
1002
}
1002
{
1000
OTHER
1070
     0
1002
}
1002
{
1000
REACTOR
1002
}
1001
GENIUS_GENCEN_19
1002
{
1040
3.0
1002
}
  0
LINE
  5
12A4
330
2
100
AcDbEntity
  8
0
 62
     0
 48
0.2
100
AcDbLine
 10
876.4000148574519
 20
110.2570998170602
 30
0.0
 11
876.4000148574519
 21
123.1570998170602
 31
0.0
  0
LINE
  5
12A5
330
2
100
AcDbEntity
  8
0
 62
     0
 48
0.2
100
AcDbLine
 10
876.4000148574519
 20
123.1570998170602
 30
0.0
 11
871.4000148574518
 21
123.1570998170602
 31
0.0
  0
LINE
  5
12A6
330
2
100
AcDbEntity
  8
0
 62
     0
 48
0.2
100
AcDbLine
 10
871.4000148574518
 20
123.1570998170602
 30
0.0
 11
871.4000148574518
 21
61.35709981706009
 31
0.0
  0
LINE
  5
12A7
330
2
100
AcDbEntity
  8
0
 62
     0
 48
0.2
100
AcDbLine
 10
871.4000148574518
 20
61.35709981706009
 30
0.0
 11
876.4000148574519
 21
61.35709981706009
 31
0.0
  0
LINE
  5
12A8
330
2
100
AcDbEntity
  8
0
 62
     0
 48
0.2
100
AcDbLine
 10
876.4000148574519
 20
61.35709981706009
 30
0.0
 11
876.4000148574519
 21
74.25709981706018
 31
0.0
  0
LINE
  5
12A9
330
2
100
AcDbEntity
  8
0
 62
     0
 48
0.2
100
AcDbLine
 10
861.4000148574517
 20
76.00709981706017
 30
0.0
 11
861.4000148574517
 21
108.5070998170602
 31
0.0
  0
LINE
  5
12AA
330
2
100
AcDbEntity
  8
0
 62
     0
 48
0.2
100
AcDbLine
 10
861.9000148574519
 20
75.50709981706018
 30
0.0
 11
861.4000148574517
 21
76.00709981706017
 31
0.0
  0
LINE
  5
12AB
330
2
100
AcDbEntity
  8
0
 62
     0
 48
0.2
100
AcDbLine
 10
861.9000148574519
 20
109.0070998170602
 30
0.0
 11
861.4000148574517
 21
108.5070998170602
 31
0.0
  0
LINE
  5
12AC
330
2
100
AcDbEntity
  8
0
 62
     0
 48
0.2
100
AcDbLine
 10
876.9000148574518
 20
61.25709981706017
 30
0.0
 11
1025.900014857452
 21
61.25709981706017
 31
0.0
  0
LINE
  5
12AD
330
2
100
AcDbEntity
  8
0
 62
     0
 48
0.2
100
AcDbLine
 10
1025.900014857452
 20
61.25709981706017
 30
0.0
 11
1025.900014857452
 21
123.2570998170602
 31
0.0
  0
LINE
  5
12AE
330
2
100
AcDbEntity
  8
0
 62
     0
 48
0.2
100
AcDbLine
 10
1025.900014857452
 20
123.2570998170602
 30
0.0
 11
876.9000148574518
 21
123.2570998170602
 31
0.0
  0
LINE
  5
12AF
330
2
100
AcDbEntity
  8
0
 62
     0
 48
0.2
100
AcDbLine
 10
876.9000148574518
 20
123.2570998170602
 30
0.0
 11
876.9000148574518
 21
61.25709981706017
 31
0.0
  0
LINE
  5
12B0
330
2
100
AcDbEntity
  8
0
 62
     0
 48
0.2
100
AcDbLine
 10
1026.400014857452
 20
61.35709981706009
 30
0.0
 11
1031.400014857452
 21
61.35709981706009
 31
0.0
  0
LINE
  5
12B1
330
2
100
AcDbEntity
  8
0
 62
     0
 48
0.2
100
AcDbLine
 10
1031.400014857452
 20
61.35709981706009
 30
0.0
 11
1031.400014857452
 21
70.507099817057
 31
0.0
  0
LINE
  5
12B2
330
2
100
AcDbEntity
  8
0
 62
     0
 48
0.2
100
AcDbLine
 10
1031.400014857452
 20
74.00709981705677
 30
0.0
 11
1031.400014857452
 21
110.507099817057
 31
0.0
  0
LINE
  5
12B3
330
2
100
AcDbEntity
  8
0
 62
     0
 48
0.2
100
AcDbLine
 10
1031.400014857452
 20
114.007099817057
 30
0.0
 11
1031.400014857452
 21
123.1570998170602
 31
0.0
  0
LINE
  5
12B4
330
2
100
AcDbEntity
  8
0
 62
     0
 48
0.2
100
AcDbLine
 10
1033.400014857452
 20
63.35709981706009
 30
0.0
 11
1033.400014857452
 21
121.1570998170605
 31
0.0
  0
LINE
  5
12B5
330
2
100
AcDbEntity
  8
0
 62
     0
 48
0.2
100
AcDbLine
 10
1031.400014857452
 20
61.35709981706009
 30
0.0
 11
1033.400014857452
 21
63.35709981706009
 31
0.0
  0
LINE
  5
12B6
330
2
100
AcDbEntity
  8
0
 62
     0
 48
0.2
100
AcDbLine
 10
1031.400014857452
 20
123.1570998170605
 30
0.0
 11
1033.400014857452
 21
121.1570998170605
 31
0.0
  0
LINE
  5
12B7
330
2
100
AcDbEntity
  8
0
 62
     0
 48
0.2
100
AcDbLine
 10
1031.400014857452
 20
123.1570998170605
 30
0.0
 11
1026.400014857452
 21
123.1570998170602
 31
0.0
  0
LINE
  5
12B8
330
2
100
AcDbEntity
  8
0
 62
     0
 48
0.2
100
AcDbLine
 10
1026.400014857452
 20
123.1570998170602
 30
0.0
 11
1026.400014857452
 21
61.35709981706009
 31
0.0
  0
LINE
  5
12B9
330
2
100
AcDbEntity
  8
0
 62
     0
 48
0.2
100
AcDbLine
 10
871.4000148574518
 20
75.50709981706018
 30
0.0
 11
867.9000148574518
 21
75.50709981706018
 31
0.0
  0
LINE
  5
12BA
330
2
100
AcDbEntity
  8
0
 62
     0
 48
0.2
100
AcDbLine
 10
865.9000148574518
 20
75.50709981706018
 30
0.0
 11
861.9000148574519
 21
75.50709981706018
 31
0.0
  0
LINE
  5
12BB
330
2
100
AcDbEntity
  8
0
 62
     0
 48
0.2
100
AcDbLine
 10
867.9000148574518
 20
75.75709981706018
 30
0.0
 11
865.9000148574518
 21
75.75709981706018
 31
0.0
  0
LINE
  5
12BC
330
2
100
AcDbEntity
  8
0
 62
     0
 48
0.2
100
AcDbLine
 10
871.4000148574518
 20
109.0070998170602
 30
0.0
 11
867.9000148574518
 21
109.0070998170602
 31
0.0
  0
LINE
  5
12BD
330
2
100
AcDbEntity
  8
0
 62
     0
 48
0.2
100
AcDbLine
 10
865.9000148574518
 20
109.0070998170602
 30
0.0
 11
861.9000148574519
 21
109.0070998170602
 31
0.0
  0
LINE
  5
12BE
330
2
100
AcDbEntity
  8
0
 62
     0
 48
0.2
100
AcDbLine
 10
867.9000148574518
 20
108.7570998170602
 30
0.0
 11
865.9000148574518
 21
108.7570998170602
 31
0.0
  0
LINE
  5
12BF
330
2
100
AcDbEntity
  8
0
 62
     0
 48
0.2
100
AcDbLine
 10
871.4000148574518
 20
75.50709981706018
 30
0.0
 11
871.4000148574518
 21
79.25709981705971
 31
0.0
  0
LINE
  5
12C0
330
2
100
AcDbEntity
  8
0
 62
     0
 48
0.2
100
AcDbLine
 10
871.4000148574518
 20
105.2570998170601
 30
0.0
 11
871.4000148574518
 21
109.0070998170602
 31
0.0
  0
LINE
  5
12C1
330
2
100
AcDbEntity
  8
0
 62
     0
 48
0.5
100
AcDbLine
 10
861.9000148574519
 20
75.50709981706018
 30
0.0
 11
861.9000148574519
 21
109.0070998170602
 31
0.0
  0
LINE
  5
12C2
330
2
100
AcDbEntity
  8
0
 62
     0
 48
0.5
100
AcDbLine
 10
865.9000148574518
 20
75.50709981706018
 30
0.0
 11
865.9000148574518
 21
109.0070998170597
 31
0.0
  0
LINE
  5
12C3
330
2
100
AcDbEntity
  8
0
 62
     0
 48
0.5
100
AcDbLine
 10
867.9000148574518
 20
75.50709981706018
 30
0.0
 11
867.9000148574518
 21
109.0070998170597
 31
0.0
  0
LWPOLYLINE
  5
12C4
330
2
100
AcDbEntity
  8
0
 62
     0
 48
0.5
100
AcDbPolyline
 90
        4
 70
     1
 43
0.0
 10
1025.900014857452
 20
123.0070998170601
 10
1025.900014857452
 20
61.50709981706017
 10
1026.400014857452
 20
61.50709981706017
 10
1026.400014857452
 20
123.0070998170601
  0
LWPOLYLINE
  5
12C5
330
2
100
AcDbEntity
  8
0
 62
     0
 48
0.5
100
AcDbPolyline
 90
        4
 70
     1
 43
0.0
 10
876.9000148574518
 20
123.0070998170601
 10
876.9000148574518
 20
61.50709981706017
 10
876.4000148574519
 20
61.50709981706017
 10
876.4000148574519
 20
123.0070998170601
  0
CIRCLE
  5
12C6
330
2
100
AcDbEntity
  8
0
 62
     0
 48
0.5
100
AcDbCircle
 10
951.4000148574519
 20
92.25709981706016
 30
0.0
 40
2.680000000000003
  0
CIRCLE
  5
12C7
330
2
100
AcDbEntity
  8
0
 62
     4
 48
0.5
100
AcDbCircle
 10
951.4000148574519
 20
92.25709981706016
 30
0.0
 40
3.175000000000011
  0
CIRCLE
  5
12C8
330
2
100
AcDbEntity
  8
0
 62
     0
 48
0.5
100
AcDbCircle
 10
916.4000148574519
 20
77.25709981706017
 30
0.0
 40
1.650000000000004
  0
CIRCLE
  5
12C9
330
2
100
AcDbEntity
  8
0
 62
     4
 48
0.5
100
AcDbCircle
 10
916.4000148574519
 20
77.25709981706017
 30
0.0
 40
2.0
  0
CIRCLE
  5
12CA
330
2
100
AcDbEntity
  8
0
 62
     0
 48
0.5
100
AcDbCircle
 10
916.4000148574519
 20
107.2570998170601
 30
0.0
 40
1.650000000000004
  0
CIRCLE
  5
12CB
330
2
100
AcDbEntity
  8
0
 62
     4
 48
0.5
100
AcDbCircle
 10
916.4000148574519
 20
107.2570998170601
 30
0.0
 40
2.0
  0
CIRCLE
  5
12CC
330
2
100
AcDbEntity
  8
0
 62
     0
 48
0.5
100
AcDbCircle
 10
986.4000148574517
 20
107.2570998170601
 30
0.0
 40
1.650000000000004
  0
CIRCLE
  5
12CD
330
2
100
AcDbEntity
  8
0
 62
     4
 48
0.5
100
AcDbCircle
 10
986.4000148574517
 20
107.2570998170601
 30
0.0
 40
2.0
  0
CIRCLE
  5
12CE
330
2
100
AcDbEntity
  8
0
 62
     0
 48
0.5
100
AcDbCircle
 10
986.4000148574517
 20
77.25709981706017
 30
0.0
 40
1.650000000000004
  0
CIRCLE
  5
12CF
330
2
100
AcDbEntity
  8
0
 62
     4
 48
0.5
100
AcDbCircle
 10
986.4000148574517
 20
77.25709981706017
 30
0.0
 40
2.0
  0
LINE
  5
12D0
330
2
100
AcDbEntity
  8
0
 62
     0
100
AcDbLine
 10
876.9000148574518
 20
117.2570998170602
 30
0.0
 11
1025.900014857452
 21
117.2570998170602
 31
0.0
  0
LINE
  5
12D1
330
2
100
AcDbEntity
  8
0
 62
     0
100
AcDbLine
 10
1026.400014857452
 20
117.2570998170602
 30
0.0
 11
1030.400014857452
 21
117.2570998170602
 31
0.0
  0
LINE
  5
12D2
330
2
100
AcDbEntity
  8
0
 62
     0
100
AcDbLine
 10
1030.400014857452
 20
112.2570998170602
 30
0.0
 11
1026.400014857452
 21
112.2570998170602
 31
0.0
  0
LINE
  5
12D3
330
2
100
AcDbEntity
  8
0
 62
     0
100
AcDbLine
 10
1025.900014857452
 20
112.2570998170602
 30
0.0
 11
876.9000148574518
 21
112.2570998170602
 31
0.0
  0
LINE
  5
12D4
330
2
100
AcDbEntity
  8
0
 62
     0
100
AcDbLine
 10
876.9000148574518
 20
67.25709981706017
 30
0.0
 11
1025.900014857452
 21
67.25709981706017
 31
0.0
  0
LINE
  5
12D5
330
2
100
AcDbEntity
  8
0
 62
     0
100
AcDbLine
 10
1025.900014857452
 20
72.25709981706017
 30
0.0
 11
876.9000148574518
 21
72.25709981706017
 31
0.0
  0
LINE
  5
12D6
330
2
100
AcDbEntity
  8
0
  6
CENTER
 62
     4
 48
2.0
100
AcDbLine
 10
912.4000148574518
 20
107.2570998170601
 30
0.0
 11
920.4000148574518
 21
107.2570998170601
 31
0.0
1001
GENIUS_GENOBJ-N-CEN_13
1002
{
1000
OWNER
1000
GEN
1002
}
1001
GENIUS_GENODEF_13
1002
{
1000
HIER
1070
     0
1002
}
1002
{
1000
MANEDIT
1070
     0
1002
}
1002
{
1000
NOSEL
1070
     0
1002
}
1002
{
1000
BEHIND
1070
     0
1002
}
1002
{
1000
OTHER
1070
     0
1002
}
1002
{
1000
REACTOR
1002
}
1001
GENIUS_GENCEN_19
1002
{
1040
3.0
1002
}
  0
LINE
  5
12D7
330
2
100
AcDbEntity
  8
0
  6
CENTER
 62
     4
 48
2.0
100
AcDbLine
 10
916.4000148574519
 20
103.2570998170601
 30
0.0
 11
916.4000148574519
 21
111.2570998170602
 31
0.0
1001
GENIUS_GENODEF_13
1002
{
1000
HIER
1070
     0
1002
}
1002
{
1000
MANEDIT
1070
     0
1002
}
1002
{
1000
NOSEL
1070
     0
1002
}
1002
{
1000
BEHIND
1070
     0
1002
}
1002
{
1000
OTHER
1070
     0
1002
}
1002
{
1000
REACTOR
1002
}
1001
GENIUS_GENOBJ-N-CEN_13
1002
{
1000
OWNER
1000
GEN
1002
}
1001
GENIUS_GENCEN_19
1002
{
1040
3.0
1002
}
  0
LINE
  5
12D8
330
2
100
AcDbEntity
  8
0
  6
CENTER
 62
     4
 48
2.0
100
AcDbLine
 10
982.4000148574519
 20
107.2570998170601
 30
0.0
 11
990.4000148574519
 21
107.2570998170601
 31
0.0
1001
GENIUS_GENOBJ-N-CEN_13
1002
{
1000
OWNER
1000
GEN
1002
}
1001
GENIUS_GENODEF_13
1002
{
1000
HIER
1070
     0
1002
}
1002
{
1000
MANEDIT
1070
     0
1002
}
1002
{
1000
NOSEL
1070
     0
1002
}
1002
{
1000
BEHIND
1070
     0
1002
}
1002
{
1000
OTHER
1070
     0
1002
}
1002
{
1000
REACTOR
1002
}
1001
GENIUS_GENCEN_19
1002
{
1040
3.0
1002
}
  0
LINE
  5
12D9
330
2
100
AcDbEntity
  8
0
  6
CENTER
 62
     4
 48
2.0
100
AcDbLine
 10
986.4000148574517
 20
103.2570998170601
 30
0.0
 11
986.4000148574517
 21
111.2570998170602
 31
0.0
1001
GENIUS_GENODEF_13
1002
{
1000
HIER
1070
     0
1002
}
1002
{
1000
MANEDIT
1070
     0
1002
}
1002
{
1000
NOSEL
1070
     0
1002
}
1002
{
1000
BEHIND
1070
     0
1002
}
1002
{
1000
OTHER
1070
     0
1002
}
1002
{
1000
REACTOR
1002
}
1001
GENIUS_GENOBJ-N-CEN_13
1002
{
1000
OWNER
1000
GEN
1002
}
1001
GENIUS_GENCEN_19
1002
{
1040
3.0
1002
}
  0
LINE
  5
12DA
330
2
100
AcDbEntity
  8
0
  6
CENTER
 62
     4
 48
2.0
100
AcDbLine
 10
912.4000148574518
 20
77.25709981706017
 30
0.0
 11
920.4000148574518
 21
77.25709981706017
 31
0.0
1001
GENIUS_GENOBJ-N-CEN_13
1002
{
1000
OWNER
1000
GEN
1002
}
1001
GENIUS_GENODEF_13
1002
{
1000
HIER
1070
     0
1002
}
1002
{
1000
MANEDIT
1070
     0
1002
}
1002
{
1000
NOSEL
1070
     0
1002
}
1002
{
1000
BEHIND
1070
     0
1002
}
1002
{
1000
OTHER
1070
     0
1002
}
1002
{
1000
REACTOR
1002
}
1001
GENIUS_GENCEN_19
1002
{
1040
3.0
1002
}
  0
LINE
  5
12DB
330
2
100
AcDbEntity
  8
0
  6
CENTER
 62
     4
 48
2.0
100
AcDbLine
 10
916.4000148574519
 20
73.25709981706018
 30
0.0
 11
916.4000148574519
 21
81.25709981706018
 31
0.0
1001
GENIUS_GENODEF_13
1002
{
1000
HIER
1070
     0
1002
}
1002
{
1000
MANEDIT
1070
     0
1002
}
1002
{
1000
NOSEL
1070
     0
1002
}
1002
{
1000
BEHIND
1070
     0
1002
}
1002
{
1000
OTHER
1070
     0
1002
}
1002
{
1000
REACTOR
1002
}
1001
GENIUS_GENOBJ-N-CEN_13
1002
{
1000
OWNER
1000
GEN
1002
}
1001
GENIUS_GENCEN_19
1002
{
1040
3.0
1002
}
  0
LINE
  5
12DC
330
2
100
AcDbEntity
  8
0
  6
CENTER
 62
     4
 48
2.0
100
AcDbLine
 10
982.4000148574519
 20
77.25709981706017
 30
0.0
 11
990.4000148574519
 21
77.25709981706017
 31
0.0
1001
GENIUS_GENOBJ-N-CEN_13
1002
{
1000
OWNER
1000
GEN
1002
}
1001
GENIUS_GENODEF_13
1002
{
1000
HIER
1070
     0
1002
}
1002
{
1000
MANEDIT
1070
     0
1002
}
1002
{
1000
NOSEL
1070
     0
1002
}
1002
{
1000
BEHIND
1070
     0
1002
}
1002
{
1000
OTHER
1070
     0
1002
}
1002
{
1000
REACTOR
1002
}
1001
GENIUS_GENCEN_19
1002
{
1040
3.0
1002
}
  0
LINE
  5
12DD
330
2
100
AcDbEntity
  8
0
  6
CENTER
 62
     4
 48
2.0
100
AcDbLine
 10
986.4000148574517
 20
73.25709981706018
 30
0.0
 11
986.4000148574517
 21
81.25709981706018
 31
0.0
1001
GENIUS_GENODEF_13
1002
{
1000
HIER
1070
     0
1002
}
1002
{
1000
MANEDIT
1070
     0
1002
}
1002
{
1000
NOSEL
1070
     0
1002
}
1002
{
1000
BEHIND
1070
     0
1002
}
1002
{
1000
OTHER
1070
     0
1002
}
1002
{
1000
REACTOR
1002
}
1001
GENIUS_GENOBJ-N-CEN_13
1002
{
1000
OWNER
1000
GEN
1002
}
1001
GENIUS_GENCEN_19
1002
{
1040
3.0
1002
}
  0
LINE
  5
12DE
330
2
100
AcDbEntity
  8
0
  6
CENTER
 62
     4
 48
2.0
100
AcDbLine
 10
951.4000148574519
 20
85.75709981706017
 30
0.0
 11
951.4000148574519
 21
98.75709981706018
 31
0.0
1001
GENIUS_GENODEF_13
1002
{
1000
HIER
1070
     0
1002
}
1002
{
1000
MANEDIT
1070
     0
1002
}
1002
{
1000
NOSEL
1070
     0
1002
}
1002
{
1000
BEHIND
1070
     0
1002
}
1002
{
1000
OTHER
1070
     0
1002
}
1002
{
1000
REACTOR
1002
}
1001
GENIUS_GENOBJ-N-CEN_13
1002
{
1000
OWNER
1000
GEN
1002
}
1001
GENIUS_GENCEN_19
1002
{
1040
3.0
1002
}
  0
LINE
  5
12DF
330
2
100
AcDbEntity
  8
0
 62
     0
 48
0.5
100
AcDbLine
 10
857.4000148574519
 20
276.5070998170602
 30
0.0
 11
856.4000148574519
 21
275.5070998170602
 31
0.0
  0
LINE
  5
12E0
330
2
100
AcDbEntity
  8
0
 62
     0
 48
0.5
100
AcDbLine
 10
861.4000148574517
 20
243.0070998170602
 30
0.0
 11
861.4000148574517
 21
276.5070998170602
 31
0.0
  0
LINE
  5
12E1
330
2
100
AcDbEntity
  8
0
 62
     0
 48
0.5
100
AcDbLine
 10
861.4000148574517
 20
276.5070998170602
 30
0.0
 11
857.4000148574519
 21
276.5070998170602
 31
0.0
  0
LINE
  5
12E2
330
2
100
AcDbEntity
  8
0
 62
     0
 48
0.5
100
AcDbLine
 10
856.4000148574519
 20
275.5070998170602
 30
0.0
 11
856.4000148574519
 21
244.0070998170602
 31
0.0
  0
LINE
  5
12E3
330
2
100
AcDbEntity
  8
0
 62
     0
 48
0.5
100
AcDbLine
 10
857.4000148574519
 20
243.0070998170602
 30
0.0
 11
856.4000148574519
 21
244.0070998170602
 31
0.0
  0
LINE
  5
12E4
330
2
100
AcDbEntity
  8
0
 62
     0
 48
0.5
100
AcDbLine
 10
861.4000148574517
 20
243.0070998170602
 30
0.0
 11
857.4000148574519
 21
243.0070998170602
 31
0.0
  0
LINE
  5
12E5
330
2
100
AcDbEntity
  8
0
 62
     0
100
AcDbLine
 10
857.4000148574519
 20
276.5070998170602
 30
0.0
 11
857.4000148574519
 21
243.0070998170602
 31
0.0
  0
LINE
  5
12E6
330
2
100
AcDbEntity
  8
0
 62
     0
 48
0.5
100
AcDbLine
 10
857.4000148574519
 20
221.5070998170602
 30
0.0
 11
856.4000148574519
 21
220.5070998170602
 31
0.0
  0
LINE
  5
12E7
330
2
100
AcDbEntity
  8
0
 62
     0
 48
0.5
100
AcDbLine
 10
861.4000148574517
 20
188.0070998170602
 30
0.0
 11
861.4000148574517
 21
221.5070998170602
 31
0.0
  0
LINE
  5
12E8
330
2
100
AcDbEntity
  8
0
 62
     0
 48
0.5
100
AcDbLine
 10
861.4000148574517
 20
221.5070998170602
 30
0.0
 11
857.4000148574519
 21
221.5070998170602
 31
0.0
  0
LINE
  5
12E9
330
2
100
AcDbEntity
  8
0
 62
     0
 48
0.5
100
AcDbLine
 10
856.4000148574519
 20
220.5070998170602
 30
0.0
 11
856.4000148574519
 21
189.0070998170602
 31
0.0
  0
LINE
  5
12EA
330
2
100
AcDbEntity
  8
0
 62
     0
 48
0.5
100
AcDbLine
 10
857.4000148574519
 20
188.0070998170602
 30
0.0
 11
856.4000148574519
 21
189.0070998170602
 31
0.0
  0
LINE
  5
12EB
330
2
100
AcDbEntity
  8
0
 62
     0
 48
0.5
100
AcDbLine
 10
861.4000148574517
 20
188.0070998170602
 30
0.0
 11
857.4000148574519
 21
188.0070998170602
 31
0.0
  0
LINE
  5
12EC
330
2
100
AcDbEntity
  8
0
 62
     0
100
AcDbLine
 10
857.4000148574519
 20
221.5070998170602
 30
0.0
 11
857.4000148574519
 21
188.0070998170602
 31
0.0
  0
LINE
  5
12ED
330
2
100
AcDbEntity
  8
0
 62
     0
 48
0.5
100
AcDbLine
 10
857.4000148574519
 20
109.0070998170602
 30
0.0
 11
856.4000148574519
 21
108.0070998170602
 31
0.0
  0
LINE
  5
12EE
330
2
100
AcDbEntity
  8
0
 62
     0
 48
0.5
100
AcDbLine
 10
861.4000148574517
 20
75.50709981706018
 30
0.0
 11
861.4000148574517
 21
109.0070998170602
 31
0.0
  0
LINE
  5
12EF
330
2
100
AcDbEntity
  8
0
 62
     0
 48
0.5
100
AcDbLine
 10
861.4000148574517
 20
109.0070998170602
 30
0.0
 11
857.4000148574519
 21
109.0070998170602
 31
0.0
  0
LINE
  5
12F0
330
2
100
AcDbEntity
  8
0
 62
     0
 48
0.5
100
AcDbLine
 10
856.4000148574519
 20
108.0070998170602
 30
0.0
 11
856.4000148574519
 21
76.50709981706018
 31
0.0
  0
LINE
  5
12F1
330
2
100
AcDbEntity
  8
0
 62
     0
 48
0.5
100
AcDbLine
 10
857.4000148574519
 20
75.50709981706018
 30
0.0
 11
856.4000148574519
 21
76.50709981706018
 31
0.0
  0
LINE
  5
12F2
330
2
100
AcDbEntity
  8
0
 62
     0
 48
0.5
100
AcDbLine
 10
861.4000148574517
 20
75.50709981706018
 30
0.0
 11
857.4000148574519
 21
75.50709981706018
 31
0.0
  0
LINE
  5
12F3
330
2
100
AcDbEntity
  8
0
 62
     0
100
AcDbLine
 10
857.4000148574519
 20
109.0070998170602
 30
0.0
 11
857.4000148574519
 21
75.50709981706018
 31
0.0
  0
LINE
  5
12F4
330
2
100
AcDbEntity
  8
0
 62
     0
100
AcDbLine
 10
1033.400014857452
 20
189.2570998170599
 30
0.0
 11
1030.900014857452
 21
189.2570998170599
 31
0.0
  0
LINE
  5
12F5
330
2
100
AcDbEntity
  8
0
 62
     0
100
AcDbLine
 10
1031.400014857452
 20
156.8570998170601
 30
0.0
 11
1031.400014857452
 21
189.2570998170599
 31
0.0
  0
LINE
  5
12F6
330
2
100
AcDbEntity
  8
0
 62
     0
 48
0.2
100
AcDbLine
 10
1030.900014857452
 20
290.5070998170602
 30
0.0
 11
1031.400014857452
 21
290.5070998170602
 31
0.0
  0
LINE
  5
12F7
330
2
100
AcDbEntity
  8
0
 62
     0
 48
0.2
100
AcDbLine
 10
1030.900014857452
 20
229.0070998170606
 30
0.0
 11
1031.400014857452
 21
229.0070998170606
 31
0.0
  0
CIRCLE
  5
12F8
330
2
100
AcDbEntity
  8
0
 62
     0
 48
0.5
100
AcDbCircle
 10
883.9000148574518
 20
79.75709981706017
 30
0.0
 40
1.650000000000004
  0
CIRCLE
  5
12F9
330
2
100
AcDbEntity
  8
0
 62
     4
 48
0.5
100
AcDbCircle
 10
883.9000148574518
 20
79.75709981706017
 30
0.0
 40
2.0
  0
CIRCLE
  5
12FA
330
2
100
AcDbEntity
  8
0
 62
     0
 48
0.5
100
AcDbCircle
 10
883.9000148574518
 20
104.7570998170602
 30
0.0
 40
1.650000000000004
  0
CIRCLE
  5
12FB
330
2
100
AcDbEntity
  8
0
 62
     4
 48
0.5
100
AcDbCircle
 10
883.9000148574518
 20
104.7570998170602
 30
0.0
 40
2.0
  0
CIRCLE
  5
12FC
330
2
100
AcDbEntity
  8
0
 62
     0
 48
0.5
100
AcDbCircle
 10
1018.900014857452
 20
104.7570998170602
 30
0.0
 40
1.650000000000004
  0
CIRCLE
  5
12FD
330
2
100
AcDbEntity
  8
0
 62
     4
 48
0.5
100
AcDbCircle
 10
1018.900014857452
 20
104.7570998170602
 30
0.0
 40
2.0
  0
CIRCLE
  5
12FE
330
2
100
AcDbEntity
  8
0
 62
     0
 48
0.5
100
AcDbCircle
 10
1018.900014857452
 20
79.75709981706017
 30
0.0
 40
1.650000000000004
  0
CIRCLE
  5
12FF
330
2
100
AcDbEntity
  8
0
 62
     4
 48
0.5
100
AcDbCircle
 10
1018.900014857452
 20
79.75709981706017
 30
0.0
 40
2.0
  0
LINE
  5
1300
330
2
100
AcDbEntity
  8
0
 62
     0
100
AcDbLine
 10
1062.400014857452
 20
189.2570998170602
 30
0.0
 11
1124.400014857452
 21
189.2570998170602
 31
0.0
  0
LINE
  5
1301
330
2
100
AcDbEntity
  8
0
  6
CENTER
 62
     4
 48
2.0
100
AcDbLine
 10
879.9000148574519
 20
104.7570998170602
 30
0.0
 11
887.9000148574519
 21
104.7570998170602
 31
0.0
1001
GENIUS_GENODEF_13
1002
{
1000
HIER
1070
     0
1002
}
1002
{
1000
MANEDIT
1070
     0
1002
}
1002
{
1000
NOSEL
1070
     0
1002
}
1002
{
1000
BEHIND
1070
     0
1002
}
1002
{
1000
OTHER
1070
     0
1002
}
1002
{
1000
REACTOR
1002
}
1001
GENIUS_GENOBJ-N-CEN_13
1002
{
1000
OWNER
1000
GEN
1002
}
1001
GENIUS_GENCEN_19
1002
{
1040
3.0
1002
}
  0
LINE
  5
1302
330
2
100
AcDbEntity
  8
0
  6
CENTER
 62
     4
 48
2.0
100
AcDbLine
 10
883.9000148574518
 20
100.7570998170602
 30
0.0
 11
883.9000148574518
 21
108.7570998170602
 31
0.0
1001
GENIUS_GENODEF_13
1002
{
1000
HIER
1070
     0
1002
}
1002
{
1000
MANEDIT
1070
     0
1002
}
1002
{
1000
NOSEL
1070
     0
1002
}
1002
{
1000
BEHIND
1070
     0
1002
}
1002
{
1000
OTHER
1070
     0
1002
}
1002
{
1000
REACTOR
1002
}
1001
GENIUS_GENOBJ-N-CEN_13
1002
{
1000
OWNER
1000
GEN
1002
}
1001
GENIUS_GENCEN_19
1002
{
1040
3.0
1002
}
  0
LINE
  5
1303
330
2
100
AcDbEntity
  8
0
  6
CENTER
 62
     4
 48
2.0
100
AcDbLine
 10
879.9000148574519
 20
79.75709981706017
 30
0.0
 11
887.9000148574519
 21
79.75709981706017
 31
0.0
1001
GENIUS_GENODEF_13
1002
{
1000
HIER
1070
     0
1002
}
1002
{
1000
MANEDIT
1070
     0
1002
}
1002
{
1000
NOSEL
1070
     0
1002
}
1002
{
1000
BEHIND
1070
     0
1002
}
1002
{
1000
OTHER
1070
     0
1002
}
1002
{
1000
REACTOR
1002
}
1001
GENIUS_GENOBJ-N-CEN_13
1002
{
1000
OWNER
1000
GEN
1002
}
1001
GENIUS_GENCEN_19
1002
{
1040
3.0
1002
}
  0
LINE
  5
1304
330
2
100
AcDbEntity
  8
0
  6
CENTER
 62
     4
 48
2.0
100
AcDbLine
 10
883.9000148574518
 20
83.75709981706018
 30
0.0
 11
883.9000148574518
 21
75.75709981706018
 31
0.0
1001
GENIUS_GENODEF_13
1002
{
1000
HIER
1070
     0
1002
}
1002
{
1000
MANEDIT
1070
     0
1002
}
1002
{
1000
NOSEL
1070
     0
1002
}
1002
{
1000
BEHIND
1070
     0
1002
}
1002
{
1000
OTHER
1070
     0
1002
}
1002
{
1000
REACTOR
1002
}
1001
GENIUS_GENOBJ-N-CEN_13
1002
{
1000
OWNER
1000
GEN
1002
}
1001
GENIUS_GENCEN_19
1002
{
1040
3.0
1002
}
  0
LINE
  5
1305
330
2
100
AcDbEntity
  8
0
  6
CENTER
 62
     4
 48
2.0
100
AcDbLine
 10
1022.900014857452
 20
104.7570998170602
 30
0.0
 11
1014.900014857452
 21
104.7570998170602
 31
0.0
1001
GENIUS_GENODEF_13
1002
{
1000
HIER
1070
     0
1002
}
1002
{
1000
MANEDIT
1070
     0
1002
}
1002
{
1000
NOSEL
1070
     0
1002
}
1002
{
1000
BEHIND
1070
     0
1002
}
1002
{
1000
OTHER
1070
     0
1002
}
1002
{
1000
REACTOR
1002
}
1001
GENIUS_GENOBJ-N-CEN_13
1002
{
1000
OWNER
1000
GEN
1002
}
1001
GENIUS_GENCEN_19
1002
{
1040
3.0
1002
}
  0
LINE
  5
1306
330
2
100
AcDbEntity
  8
0
  6
CENTER
 62
     4
 48
2.0
100
AcDbLine
 10
1018.900014857452
 20
100.7570998170602
 30
0.0
 11
1018.900014857452
 21
108.7570998170602
 31
0.0
1001
GENIUS_GENODEF_13
1002
{
1000
HIER
1070
     0
1002
}
1002
{
1000
MANEDIT
1070
     0
1002
}
1002
{
1000
NOSEL
1070
     0
1002
}
1002
{
1000
BEHIND
1070
     0
1002
}
1002
{
1000
OTHER
1070
     0
1002
}
1002
{
1000
REACTOR
1002
}
1001
GENIUS_GENOBJ-N-CEN_13
1002
{
1000
OWNER
1000
GEN
1002
}
1001
GENIUS_GENCEN_19
1002
{
1040
3.0
1002
}
  0
LINE
  5
1307
330
2
100
AcDbEntity
  8
0
  6
CENTER
 62
     4
 48
2.0
100
AcDbLine
 10
1022.900014857452
 20
79.75709981706017
 30
0.0
 11
1014.900014857452
 21
79.75709981706017
 31
0.0
1001
GENIUS_GENODEF_13
1002
{
1000
HIER
1070
     0
1002
}
1002
{
1000
MANEDIT
1070
     0
1002
}
1002
{
1000
NOSEL
1070
     0
1002
}
1002
{
1000
BEHIND
1070
     0
1002
}
1002
{
1000
OTHER
1070
     0
1002
}
1002
{
1000
REACTOR
1002
}
1001
GENIUS_GENOBJ-N-CEN_13
1002
{
1000
OWNER
1000
GEN
1002
}
1001
GENIUS_GENCEN_19
1002
{
1040
3.0
1002
}
  0
LINE
  5
1308
330
2
100
AcDbEntity
  8
0
  6
CENTER
 62
     4
 48
2.0
100
AcDbLine
 10
1018.900014857452
 20
83.75709981706018
 30
0.0
 11
1018.900014857452
 21
75.75709981706018
 31
0.0
1001
GENIUS_GENODEF_13
1002
{
1000
HIER
1070
     0
1002
}
1002
{
1000
MANEDIT
1070
     0
1002
}
1002
{
1000
NOSEL
1070
     0
1002
}
1002
{
1000
BEHIND
1070
     0
1002
}
1002
{
1000
OTHER
1070
     0
1002
}
1002
{
1000
REACTOR
1002
}
1001
GENIUS_GENOBJ-N-CEN_13
1002
{
1000
OWNER
1000
GEN
1002
}
1001
GENIUS_GENCEN_19
1002
{
1040
3.0
1002
}
  0
LINE
  5
1309
330
2
100
AcDbEntity
  8
0
  6
CENTER
 62
     4
 48
2.0
100
AcDbLine
 10
873.9000148574517
 20
256.2570998170602
 30
0.0
 11
873.9000148574517
 21
263.2570998170602
 31
0.0
1001
GENIUS_GENODEF_13
1002
{
1000
HIER
1070
     0
1002
}
1002
{
1000
MANEDIT
1070
     0
1002
}
1002
{
1000
NOSEL
1070
     0
1002
}
1002
{
1000
BEHIND
1070
     0
1002
}
1002
{
1000
OTHER
1070
     0
1002
}
1002
{
1000
REACTOR
1002
}
1001
GENIUS_GENOBJ-N-CEN_13
1002
{
1000
OWNER
1000
GEN
1002
}
1001
GENIUS_GENCEN_19
1002
{
1040
3.0
1002
}
  0
LWPOLYLINE
  5
130A
330
2
100
AcDbEntity
  8
0
 62
     0
100
AcDbPolyline
 90
        4
 70
     1
 43
0.0
 10
1030.400014857452
 20
156.8570998170601
 10
1030.900014857452
 20
156.8570998170601
 10
1030.900014857452
 20
150.0570998170606
 10
1030.400014857452
 20
150.0570998170606
  0
LINE
  5
130B
330
2
100
AcDbEntity
  8
0
 62
     0
100
AcDbLine
 10
1033.200014857451
 20
154.0570998170603
 30
0.0
 11
1032.56685749959
 21
153.5226360974841
 31
0.0
  0
LINE
  5
130C
330
2
100
AcDbEntity
  8
0
 62
     0
100
AcDbLine
 10
1031.800014857451
 20
153.9621544562408
 30
0.0
 11
1031.300014857451
 21
153.6602078521134
 31
0.0
  0
LWPOLYLINE
  5
130D
330
2
100
AcDbEntity
  8
0
 62
     0
100
AcDbPolyline
 90
        6
 70
     1
 43
0.0
 10
1033.200014857451
 20
154.8070998170599
 10
1033.200014857451
 20
153.3070998170603
 42
-0.4142135623730951
 10
1032.200014857451
 20
152.3070998170603
 10
1031.800014857451
 20
152.3070998170603
 10
1031.800014857451
 20
155.8070998170603
 10
1032.200014857451
 20
155.8070998170599
 42
-0.4142135623730951
  0
LWPOLYLINE
  5
130E
330
2
100
AcDbEntity
  8
0
 62
     0
100
AcDbPolyline
 90
        4
 70
     1
 43
0.0
 10
1030.900014857452
 20
156.0570998170604
 10
1030.900014857452
 20
152.0570998170603
 10
1031.300014857451
 20
152.0570998170603
 10
1031.300014857451
 20
156.0570998170604
  0
LINE
  5
130F
330
2
100
AcDbEntity
  8
0
 62
     0
100
AcDbLine
 10
1031.300014857451
 20
155.8070998170603
 30
0.0
 11
1031.300014857451
 21
152.3070998170603
 31
0.0
  0
LINE
  5
1310
330
2
100
AcDbEntity
  8
0
 62
     0
100
AcDbLine
 10
1031.300014857451
 20
152.3070998170603
 30
0.0
 11
1031.800014857451
 21
152.3070998170603
 31
0.0
  0
LINE
  5
1311
330
2
100
AcDbEntity
  8
0
 62
     0
100
AcDbLine
 10
1031.800014857451
 20
152.3070998170603
 30
0.0
 11
1031.800014857451
 21
155.8070998170603
 31
0.0
  0
LINE
  5
1312
330
2
100
AcDbEntity
  8
0
 62
     0
100
AcDbLine
 10
1031.800014857451
 20
155.8070998170603
 30
0.0
 11
1031.300014857451
 21
155.8070998170603
 31
0.0
  0
LINE
  5
1313
330
2
100
AcDbEntity
  8
0
 62
     0
100
AcDbLine
 10
1033.200014857451
 20
154.0570998170603
 30
0.0
 11
1032.56685749959
 21
154.5915635366366
 31
0.0
  0
LINE
  5
1314
330
2
100
AcDbEntity
  8
0
 62
     0
100
AcDbLine
 10
1031.800014857451
 20
154.5462535503541
 30
0.0
 11
1031.300014857451
 21
154.2443069462267
 31
0.0
  0
LINE
  5
1315
330
2
100
AcDbEntity
  8
0
 62
     0
100
AcDbLine
 10
1030.900014857452
 20
155.0570998170603
 30
0.0
 11
1030.900014857452
 21
153.0570998170603
 31
0.0
  0
CIRCLE
  5
1316
330
2
100
AcDbEntity
  8
0
 62
     0
100
AcDbCircle
 10
1093.400014857452
 20
204.757099817057
 30
0.0
 40
8.75
  0
LINE
  5
1317
330
2
100
AcDbEntity
  8
0
 62
     0
100
AcDbLine
 10
1030.400014857452
 20
68.3444339010482
 30
0.0
 11
1030.900014857452
 21
68.3444339010473
 31
0.0
  0
LINE
  5
1318
330
2
100
AcDbEntity
  8
0
 62
     0
100
AcDbLine
 10
1030.400014857452
 20
116.1697657330721
 30
0.0
 11
1030.900014857452
 21
116.1697657330721
 31
0.0
  0
LINE
  5
1319
330
2
100
AcDbEntity
  8
0
 62
     0
 48
0.2
100
AcDbLine
 10
1030.400014857452
 20
116.169765733073
 30
0.0
 11
1030.400014857452
 21
67.25709981706017
 31
0.0
  0
LINE
  5
131A
330
2
100
AcDbEntity
  8
0
 62
     0
 48
0.2
100
AcDbLine
 10
1030.900014857452
 20
116.169765733073
 30
0.0
 11
1030.900014857452
 21
68.3444339010473
 31
0.0
  0
LINE
  5
131B
330
2
100
AcDbEntity
  8
0
 62
     0
100
AcDbLine
 10
1033.200014857451
 20
112.257099817057
 30
0.0
 11
1032.56685749959
 21
111.7226360974807
 31
0.0
  0
LINE
  5
131C
330
2
100
AcDbEntity
  8
0
 62
     0
100
AcDbLine
 10
1031.800014857451
 20
112.1621544562374
 30
0.0
 11
1031.300014857451
 21
111.8602078521101
 31
0.0
  0
LWPOLYLINE
  5
131D
330
2
100
AcDbEntity
  8
0
 62
     0
100
AcDbPolyline
 90
        6
 70
     1
 43
0.0
 10
1033.200014857451
 20
113.0070998170565
 10
1033.200014857451
 20
111.507099817057
 42
-0.4142135623730951
 10
1032.200014857451
 20
110.507099817057
 10
1031.800014857451
 20
110.507099817057
 10
1031.800014857451
 20
114.007099817057
 10
1032.200014857451
 20
114.0070998170565
 42
-0.4142135623730951
  0
LWPOLYLINE
  5
131E
330
2
100
AcDbEntity
  8
0
 62
     0
100
AcDbPolyline
 90
        4
 70
     1
 43
0.0
 10
1030.900014857452
 20
114.257099817057
 10
1030.900014857452
 20
110.257099817057
 10
1031.300014857451
 20
110.257099817057
 10
1031.300014857451
 20
114.257099817057
  0
LINE
  5
131F
330
2
100
AcDbEntity
  8
0
 62
     0
100
AcDbLine
 10
1031.300014857451
 20
114.007099817057
 30
0.0
 11
1031.300014857451
 21
110.507099817057
 31
0.0
  0
LINE
  5
1320
330
2
100
AcDbEntity
  8
0
 62
     0
100
AcDbLine
 10
1031.300014857451
 20
110.507099817057
 30
0.0
 11
1031.800014857451
 21
110.507099817057
 31
0.0
  0
LINE
  5
1321
330
2
100
AcDbEntity
  8
0
 62
     0
100
AcDbLine
 10
1031.800014857451
 20
110.507099817057
 30
0.0
 11
1031.800014857451
 21
114.007099817057
 31
0.0
  0
LINE
  5
1322
330
2
100
AcDbEntity
  8
0
 62
     0
100
AcDbLine
 10
1031.800014857451
 20
114.007099817057
 30
0.0
 11
1031.300014857451
 21
114.007099817057
 31
0.0
  0
LINE
  5
1323
330
2
100
AcDbEntity
  8
0
 62
     0
100
AcDbLine
 10
1033.200014857451
 20
112.257099817057
 30
0.0
 11
1032.56685749959
 21
112.7915635366332
 31
0.0
  0
LINE
  5
1324
330
2
100
AcDbEntity
  8
0
 62
     0
100
AcDbLine
 10
1031.800014857451
 20
112.7462535503507
 30
0.0
 11
1031.300014857451
 21
112.4443069462234
 31
0.0
  0
LINE
  5
1325
330
2
100
AcDbEntity
  8
0
 62
     0
100
AcDbLine
 10
1030.900014857452
 20
113.257099817057
 30
0.0
 11
1030.900014857452
 21
111.257099817057
 31
0.0
  0
LINE
  5
1326
330
2
100
AcDbEntity
  8
0
 62
     0
100
AcDbLine
 10
1033.200014857451
 20
72.257099817057
 30
0.0
 11
1032.56685749959
 21
71.72263609748075
 31
0.0
  0
LINE
  5
1327
330
2
100
AcDbEntity
  8
0
 62
     0
100
AcDbLine
 10
1031.800014857451
 20
72.16215445623745
 30
0.0
 11
1031.300014857451
 21
71.86020785211008
 31
0.0
  0
LWPOLYLINE
  5
1328
330
2
100
AcDbEntity
  8
0
 62
     0
100
AcDbPolyline
 90
        6
 70
     1
 43
0.0
 10
1033.200014857451
 20
73.00709981705655
 10
1033.200014857451
 20
71.50709981705698
 42
-0.4142135623730951
 10
1032.200014857451
 20
70.507099817057
 10
1031.800014857451
 20
70.507099817057
 10
1031.800014857451
 20
74.00709981705698
 10
1032.200014857451
 20
74.00709981705656
 42
-0.4142135623730951
  0
LWPOLYLINE
  5
1329
330
2
100
AcDbEntity
  8
0
 62
     0
100
AcDbPolyline
 90
        4
 70
     1
 43
0.0
 10
1030.900014857452
 20
74.257099817057
 10
1030.900014857452
 20
70.25709981705699
 10
1031.300014857451
 20
70.25709981705699
 10
1031.300014857451
 20
74.257099817057
  0
LINE
  5
132A
330
2
100
AcDbEntity
  8
0
 62
     0
100
AcDbLine
 10
1031.300014857451
 20
74.00709981705698
 30
0.0
 11
1031.300014857451
 21
70.507099817057
 31
0.0
  0
LINE
  5
132B
330
2
100
AcDbEntity
  8
0
 62
     0
100
AcDbLine
 10
1031.300014857451
 20
70.507099817057
 30
0.0
 11
1031.800014857451
 21
70.507099817057
 31
0.0
  0
LINE
  5
132C
330
2
100
AcDbEntity
  8
0
 62
     0
100
AcDbLine
 10
1031.800014857451
 20
70.507099817057
 30
0.0
 11
1031.800014857451
 21
74.00709981705698
 31
0.0
  0
LINE
  5
132D
330
2
100
AcDbEntity
  8
0
 62
     0
100
AcDbLine
 10
1031.800014857451
 20
74.00709981705698
 30
0.0
 11
1031.300014857451
 21
74.00709981705698
 31
0.0
  0
LINE
  5
132E
330
2
100
AcDbEntity
  8
0
 62
     0
100
AcDbLine
 10
1033.200014857451
 20
72.257099817057
 30
0.0
 11
1032.56685749959
 21
72.79156353663323
 31
0.0
  0
LINE
  5
132F
330
2
100
AcDbEntity
  8
0
 62
     0
100
AcDbLine
 10
1031.800014857451
 20
72.74625355035073
 30
0.0
 11
1031.300014857451
 21
72.44430694622337
 31
0.0
  0
LINE
  5
1330
330
2
100
AcDbEntity
  8
0
 62
     0
100
AcDbLine
 10
1026.400014857452
 20
73.25709981705698
 30
0.0
 11
1026.400014857452
 21
71.257099817057
 31
0.0
  0
LINE
  5
1331
330
2
100
AcDbEntity
  8
0
 62
     0
 48
0.0351
100
AcDbLine
 10
1092.193459232452
 20
215.50709981706
 30
0.0
 11
1094.606570482452
 21
215.50709981706
 31
0.0
  0
LINE
  5
1332
330
2
100
AcDbEntity
  8
0
 62
     0
 48
0.005062
100
AcDbLine
 10
1094.606570482452
 20
215.50709981706
 30
0.0
 11
1094.606570482452
 21
215.8551466920601
 31
0.0
  0
LINE
  5
1333
330
2
100
AcDbEntity
  8
0
 62
     0
 48
0.00945
100
AcDbLine
 10
1094.606570482452
 20
215.8551466920601
 30
0.0
 11
1093.9568984512
 21
215.8551466920601
 31
0.0
  0
LINE
  5
1334
330
2
100
AcDbEntity
  8
0
 62
     0
 48
0.03375
100
AcDbLine
 10
1093.9568984512
 20
215.8551466920601
 30
0.0
 11
1093.9568984512
 21
218.1754695045599
 31
0.0
  0
LINE
  5
1335
330
2
100
AcDbEntity
  8
0
 62
     0
 48
0.00945
100
AcDbLine
 10
1093.9568984512
 20
218.1754695045599
 30
0.0
 11
1094.606570482452
 21
218.1754695045599
 31
0.0
  0
LINE
  5
1336
330
2
100
AcDbEntity
  8
0
 62
     0
 48
0.005062
100
AcDbLine
 10
1094.606570482452
 20
218.1754695045599
 30
0.0
 11
1094.606570482452
 21
218.5235146608099
 31
0.0
  0
LINE
  5
1337
330
2
100
AcDbEntity
  8
0
 62
     0
 48
0.0351
100
AcDbLine
 10
1094.606570482452
 20
218.5235146608099
 30
0.0
 11
1092.193459232452
 21
218.5235146608099
 31
0.0
  0
LINE
  5
1338
330
2
100
AcDbEntity
  8
0
 62
     0
 48
0.005062
100
AcDbLine
 10
1092.193459232452
 20
218.5235146608099
 30
0.0
 11
1092.193459232452
 21
218.1754695045599
 31
0.0
  0
LINE
  5
1339
330
2
100
AcDbEntity
  8
0
 62
     0
 48
0.00945
100
AcDbLine
 10
1092.193459232452
 20
218.1754695045599
 30
0.0
 11
1092.843131263701
 21
218.1754695045599
 31
0.0
  0
LINE
  5
133A
330
2
100
AcDbEntity
  8
0
 62
     0
 48
0.03375
100
AcDbLine
 10
1092.843131263701
 20
218.1754695045599
 30
0.0
 11
1092.843131263701
 21
215.8551466920601
 31
0.0
  0
LINE
  5
133B
330
2
100
AcDbEntity
  8
0
 62
     0
 48
0.00945
100
AcDbLine
 10
1092.843131263701
 20
215.8551466920601
 30
0.0
 11
1092.193459232452
 21
215.8551466920601
 31
0.0
  0
LINE
  5
133C
330
2
100
AcDbEntity
  8
0
 62
     0
 48
0.005062
100
AcDbLine
 10
1092.193459232452
 20
215.8551466920601
 30
0.0
 11
1092.193459232452
 21
215.50709981706
 31
0.0
  0
LINE
  5
133D
330
2
100
AcDbEntity
  8
0
 62
     0
 48
0.005062
100
AcDbLine
 10
1091.033297826202
 20
215.50709981706
 30
0.0
 11
1091.033297826202
 21
215.8551466920601
 31
0.0
  0
LINE
  5
133E
330
2
100
AcDbEntity
  8
0
 62
     0
 48
0.00945
100
AcDbLine
 10
1091.033297826202
 20
215.8551466920601
 30
0.0
 11
1090.383600013703
 21
215.8551466920601
 31
0.0
  0
LINE
  5
133F
330
2
100
AcDbEntity
  8
0
 62
     0
 48
0.03375
100
AcDbLine
 10
1090.383600013703
 20
215.8551466920601
 30
0.0
 11
1090.383600013703
 21
218.1754695045599
 31
0.0
  0
LINE
  5
1340
330
2
100
AcDbEntity
  8
0
 62
     0
 48
0.00945
100
AcDbLine
 10
1090.383600013703
 20
218.1754695045599
 30
0.0
 11
1091.033297826202
 21
218.1754695045599
 31
0.0
  0
LINE
  5
1341
330
2
100
AcDbEntity
  8
0
 62
     0
 48
0.005062
100
AcDbLine
 10
1091.033297826202
 20
218.1754695045599
 30
0.0
 11
1091.033297826202
 21
218.5235146608099
 31
0.0
  0
LINE
  5
1342
330
2
100
AcDbEntity
  8
0
 62
     0
 48
0.03375
100
AcDbLine
 10
1091.033297826202
 20
218.5235146608099
 30
0.0
 11
1088.7129750137
 21
218.5235146608099
 31
0.0
  0
LINE
  5
1343
330
2
100
AcDbEntity
  8
0
 62
     0
 48
0.005062
100
AcDbLine
 10
1088.7129750137
 20
218.5235146608099
 30
0.0
 11
1088.7129750137
 21
218.1754695045599
 31
0.0
  0
LINE
  5
1344
330
2
100
AcDbEntity
  8
0
 62
     0
 48
0.00945
100
AcDbLine
 10
1088.7129750137
 20
218.1754695045599
 30
0.0
 11
1089.3626728262
 21
218.1754695045599
 31
0.0
  0
LINE
  5
1345
330
2
100
AcDbEntity
  8
0
 62
     0
 48
0.012825
100
AcDbLine
 10
1089.3626728262
 20
218.1754695045599
 30
0.0
 11
1089.3626728262
 21
217.2937490358099
 31
0.0
  0
LINE
  5
1346
330
2
100
AcDbEntity
  8
0
 62
     0
 48
0.0324
100
AcDbLine
 10
1089.3626728262
 20
217.2937490358099
 30
0.0
 11
1087.135162513701
 21
217.2937490358099
 31
0.0
  0
LINE
  5
1347
330
2
100
AcDbEntity
  8
0
 62
     0
 48
0.012825
100
AcDbLine
 10
1087.135162513701
 20
217.2937490358099
 30
0.0
 11
1087.135162513701
 21
218.1754695045599
 31
0.0
  0
LINE
  5
1348
330
2
100
AcDbEntity
  8
0
 62
     0
 48
0.00945
100
AcDbLine
 10
1087.135162513701
 20
218.1754695045599
 30
0.0
 11
1087.784860326202
 21
218.1754695045599
 31
0.0
  0
LINE
  5
1349
330
2
100
AcDbEntity
  8
0
 62
     0
 48
0.005062
100
AcDbLine
 10
1087.784860326202
 20
218.1754695045599
 30
0.0
 11
1087.784860326202
 21
218.5235146608099
 31
0.0
  0
LINE
  5
134A
330
2
100
AcDbEntity
  8
0
 62
     0
 48
0.03375
100
AcDbLine
 10
1087.784860326202
 20
218.5235146608099
 30
0.0
 11
1085.464537513702
 21
218.5235146608099
 31
0.0
  0
LINE
  5
134B
330
2
100
AcDbEntity
  8
0
 62
     0
 48
0.005062
100
AcDbLine
 10
1085.464537513702
 20
218.5235146608099
 30
0.0
 11
1085.464537513702
 21
218.1754695045599
 31
0.0
  0
LINE
  5
134C
330
2
100
AcDbEntity
  8
0
 62
     0
 48
0.00945
100
AcDbLine
 10
1085.464537513702
 20
218.1754695045599
 30
0.0
 11
1086.114235326201
 21
218.1754695045599
 31
0.0
  0
LINE
  5
134D
330
2
100
AcDbEntity
  8
0
 62
     0
 48
0.03375
100
AcDbLine
 10
1086.114235326201
 20
218.1754695045599
 30
0.0
 11
1086.114235326201
 21
215.8551466920601
 31
0.0
  0
LINE
  5
134E
330
2
100
AcDbEntity
  8
0
 62
     0
 48
0.00945
100
AcDbLine
 10
1086.114235326201
 20
215.8551466920601
 30
0.0
 11
1085.464537513702
 21
215.8551466920601
 31
0.0
  0
LINE
  5
134F
330
2
100
AcDbEntity
  8
0
 62
     0
 48
0.005062
100
AcDbLine
 10
1085.464537513702
 20
215.8551466920601
 30
0.0
 11
1085.464537513702
 21
215.50709981706
 31
0.0
  0
LINE
  5
1350
330
2
100
AcDbEntity
  8
0
 62
     0
 48
0.03375
100
AcDbLine
 10
1085.464537513702
 20
215.50709981706
 30
0.0
 11
1087.784860326202
 21
215.50709981706
 31
0.0
  0
LINE
  5
1351
330
2
100
AcDbEntity
  8
0
 62
     0
 48
0.005062
100
AcDbLine
 10
1087.784860326202
 20
215.50709981706
 30
0.0
 11
1087.784860326202
 21
215.8551466920601
 31
0.0
  0
LINE
  5
1352
330
2
100
AcDbEntity
  8
0
 62
     0
 48
0.00945
100
AcDbLine
 10
1087.784860326202
 20
215.8551466920601
 30
0.0
 11
1087.135162513701
 21
215.8551466920601
 31
0.0
  0
LINE
  5
1353
330
2
100
AcDbEntity
  8
0
 62
     0
 48
0.012825
100
AcDbLine
 10
1087.135162513701
 20
215.8551466920601
 30
0.0
 11
1087.135162513701
 21
216.7368654420597
 31
0.0
  0
LINE
  5
1354
330
2
100
AcDbEntity
  8
0
 62
     0
 48
0.0324
100
AcDbLine
 10
1087.135162513701
 20
216.7368654420597
 30
0.0
 11
1089.3626728262
 21
216.7368654420597
 31
0.0
  0
LINE
  5
1355
330
2
100
AcDbEntity
  8
0
 62
     0
 48
0.012825
100
AcDbLine
 10
1089.3626728262
 20
216.7368654420597
 30
0.0
 11
1089.3626728262
 21
215.8551466920601
 31
0.0
  0
LINE
  5
1356
330
2
100
AcDbEntity
  8
0
 62
     0
 48
0.00945
100
AcDbLine
 10
1089.3626728262
 20
215.8551466920601
 30
0.0
 11
1088.7129750137
 21
215.8551466920601
 31
0.0
  0
LINE
  5
1357
330
2
100
AcDbEntity
  8
0
 62
     0
 48
0.005062
100
AcDbLine
 10
1088.7129750137
 20
215.8551466920601
 30
0.0
 11
1088.7129750137
 21
215.50709981706
 31
0.0
  0
LINE
  5
1358
330
2
100
AcDbEntity
  8
0
 62
     0
 48
0.03375
100
AcDbLine
 10
1088.7129750137
 20
215.50709981706
 30
0.0
 11
1091.033297826202
 21
215.50709981706
 31
0.0
  0
LINE
  5
1359
330
2
100
AcDbEntity
  8
0
 62
     0
 48
0.029025
100
AcDbLine
 10
1097.76219204495
 20
215.50709981706
 30
0.0
 11
1095.766731888703
 21
215.50709981706
 31
0.0
  0
LINE
  5
135A
330
2
100
AcDbEntity
  8
0
 62
     0
 48
0.005062
100
AcDbLine
 10
1097.76219204495
 20
215.8551466920601
 30
0.0
 11
1097.76219204495
 21
215.50709981706
 31
0.0
  0
LINE
  5
135B
330
2
100
AcDbEntity
  8
0
 62
     0
 48
0.00945
100
AcDbLine
 10
1097.112520013702
 20
215.8551466920601
 30
0.0
 11
1097.76219204495
 21
215.8551466920601
 31
0.0
  0
LINE
  5
135C
330
2
100
AcDbEntity
  8
0
 62
     0
 48
0.023288
100
AcDbLine
 10
1097.112520013702
 20
217.45616747331
 30
0.0
 11
1097.112520013702
 21
215.8551466920601
 31
0.0
  0
LINE
  5
135D
330
2
100
AcDbEntity
  8
0
 62
     0
 48
0.045119
100
AcDbLine
 10
1099.525631263702
 20
215.50709981706
 30
0.0
 11
1097.112520013702
 21
217.45616747331
 31
0.0
  0
LINE
  5
135E
330
2
100
AcDbEntity
  8
0
 62
     0
 48
0.0135
100
AcDbLine
 10
1100.453771732452
 20
215.50709981706
 30
0.0
 11
1099.525631263702
 21
215.50709981706
 31
0.0
  0
LINE
  5
135F
330
2
100
AcDbEntity
  8
0
 62
     0
 48
0.038813
100
AcDbLine
 10
1100.453771732452
 20
218.1754695045599
 30
0.0
 11
1100.453771732452
 21
215.50709981706
 31
0.0
  0
LINE
  5
1360
330
2
100
AcDbEntity
  8
0
 62
     0
 48
0.00945
100
AcDbLine
 10
1101.103442044952
 20
218.1754695045599
 30
0.0
 11
1100.453771732452
 21
218.1754695045599
 31
0.0
  0
LINE
  5
1361
330
2
100
AcDbEntity
  8
0
 62
     0
 48
0.005062
100
AcDbLine
 10
1101.103442044952
 20
218.5235146608099
 30
0.0
 11
1101.103442044952
 21
218.1754695045599
 31
0.0
  0
LINE
  5
1362
330
2
100
AcDbEntity
  8
0
 62
     0
 48
0.029025
100
AcDbLine
 10
1099.107981888702
 20
218.5235146608099
 30
0.0
 11
1101.103442044952
 21
218.5235146608099
 31
0.0
  0
LINE
  5
1363
330
2
100
AcDbEntity
  8
0
 62
     0
 48
0.005062
100
AcDbLine
 10
1099.107981888702
 20
218.1754695045599
 30
0.0
 11
1099.107981888702
 21
218.5235146608099
 31
0.0
  0
LINE
  5
1364
330
2
100
AcDbEntity
  8
0
 62
     0
 48
0.00945
100
AcDbLine
 10
1099.7576797012
 20
218.1754695045599
 30
0.0
 11
1099.107981888702
 21
218.1754695045599
 31
0.0
  0
LINE
  5
1365
330
2
100
AcDbEntity
  8
0
 62
     0
 48
0.023288
100
AcDbLine
 10
1099.7576797012
 20
216.5744487233098
 30
0.0
 11
1099.7576797012
 21
218.1754695045599
 31
0.0
  0
LINE
  5
1366
330
2
100
AcDbEntity
  8
0
 62
     0
 48
0.045119
100
AcDbLine
 10
1097.344542669952
 20
218.5235146608099
 30
0.0
 11
1099.7576797012
 21
216.5744487233098
 31
0.0
  0
LINE
  5
1367
330
2
100
AcDbEntity
  8
0
 62
     0
 48
0.02295
100
AcDbLine
 10
1095.766731888703
 20
218.5235146608099
 30
0.0
 11
1097.344542669952
 21
218.5235146608099
 31
0.0
  0
LINE
  5
1368
330
2
100
AcDbEntity
  8
0
 62
     0
 48
0.005062
100
AcDbLine
 10
1095.766731888703
 20
218.1754695045599
 30
0.0
 11
1095.766731888703
 21
218.5235146608099
 31
0.0
  0
LINE
  5
1369
330
2
100
AcDbEntity
  8
0
 62
     0
 48
0.00945
100
AcDbLine
 10
1096.416429701202
 20
218.1754695045599
 30
0.0
 11
1095.766731888703
 21
218.1754695045599
 31
0.0
  0
LINE
  5
136A
330
2
100
AcDbEntity
  8
0
 62
     0
 48
0.03375
100
AcDbLine
 10
1096.416429701202
 20
215.8551466920601
 30
0.0
 11
1096.416429701202
 21
218.1754695045599
 31
0.0
  0
LINE
  5
136B
330
2
100
AcDbEntity
  8
0
 62
     0
 48
0.00945
100
AcDbLine
 10
1095.766731888703
 20
215.8551466920601
 30
0.0
 11
1096.416429701202
 21
215.8551466920601
 31
0.0
  0
LINE
  5
136C
330
2
100
AcDbEntity
  8
0
 62
     0
 48
0.005062
100
AcDbLine
 10
1095.766731888703
 20
215.50709981706
 30
0.0
 11
1095.766731888703
 21
215.8551466920601
 31
0.0
  0
ARC
  5
136D
330
2
100
AcDbEntity
  8
0
 62
     0
100
AcDbCircle
 10
1104.467903763703
 20
214.0453132545599
 30
0.0
 40
4.594218749999997
100
AcDbArc
 50
64.72499000000555
 51
115.2750149999926
  0
ARC
  5
136E
330
2
100
AcDbEntity
  8
0
 62
     0
100
AcDbCircle
 10
1103.145323919952
 20
217.0153080983102
 30
0.0
 40
1.345781249999999
100
AcDbArc
 50
118.3467549999783
 51
241.6532420000241
  0
ARC
  5
136F
330
2
100
AcDbEntity
  8
0
 62
     0
100
AcDbCircle
 10
1104.467903763703
 20
219.9853029420601
 30
0.0
 40
4.594218749999997
100
AcDbArc
 50
244.7249960000025
 51
295.2750069999961
  0
ARC
  5
1370
330
2
100
AcDbEntity
  8
0
 62
     0
100
AcDbCircle
 10
1105.790481888701
 20
217.0153080983102
 30
0.0
 40
1.345781249999999
100
AcDbArc
 50
298.3467619999716
 51
61.65324300002336
  0
ARC
  5
1371
330
2
100
AcDbEntity
  8
0
 62
     0
100
AcDbCircle
 10
1104.769554701202
 20
217.0153080983102
 30
0.0
 40
1.206562499999997
100
AcDbArc
 50
305.4392029999962
 51
70.52459300000347
  0
ARC
  5
1372
330
2
100
AcDbEntity
  8
0
 62
     0
100
AcDbCircle
 10
1104.467903763703
 20
217.5953759108101
 30
0.0
 40
1.85628609375
100
AcDbArc
 50
237.3582280000162
 51
302.641775000008
  0
ARC
  5
1373
330
2
100
AcDbEntity
  8
0
 62
     0
100
AcDbCircle
 10
1104.166276888703
 20
217.0153080983102
 30
0.0
 40
1.206562499999997
100
AcDbArc
 50
125.4734560000058
 51
234.5607989999682
  0
ARC
  5
1374
330
2
100
AcDbEntity
  8
0
 62
     0
100
AcDbCircle
 10
1104.467903763703
 20
216.43521450456
 30
0.0
 40
1.85625
100
AcDbArc
 50
67.71515100001742
 51
122.664008000011
  0
ARC
  5
1375
330
2
100
AcDbEntity
  8
0
 62
     0
100
AcDbCircle
 10
1082.169707513701
 20
215.8783566920599
 30
0.0
 40
2.343515625
100
AcDbArc
 50
47.61290100002716
 51
130.8365899999872
  0
ARC
  5
1376
330
2
100
AcDbEntity
  8
0
 62
     0
100
AcDbCircle
 10
1082.819379544951
 20
217.0153080983102
 30
0.0
 40
1.103638593749999
100
AcDbArc
 50
22.23683299997044
 51
32.56157500002255
  0
LINE
  5
1377
330
2
100
AcDbEntity
  8
0
 62
     0
 48
0.009779
100
AcDbLine
 10
1084.513214544953
 20
217.4329574733097
 30
0.0
 11
1083.840935794952
 21
217.4329574733097
 31
0.0
  0
LINE
  5
1378
330
2
100
AcDbEntity
  8
0
 62
     0
 48
0.015863
100
AcDbLine
 10
1084.513214544953
 20
217.4329574733097
 30
0.0
 11
1084.513214544953
 21
218.5235146608099
 31
0.0
  0
LINE
  5
1379
330
2
100
AcDbEntity
  8
0
 62
     0
 48
0.007425
100
AcDbLine
 10
1084.513214544953
 20
218.5235146608099
 30
0.0
 11
1084.002750951201
 21
218.5235146608099
 31
0.0
  0
LINE
  5
137A
330
2
100
AcDbEntity
  8
0
 62
     0
 48
0.006848
100
AcDbLine
 10
1084.002750951201
 20
218.5235146608099
 30
0.0
 11
1084.002750951201
 21
218.0527318483098
 31
0.0
  0
ARC
  5
137B
330
2
100
AcDbEntity
  8
0
 62
     0
100
AcDbCircle
 10
1082.819379544951
 20
216.5976587233099
 30
0.0
 40
1.875522343749999
100
AcDbArc
 50
50.87978999997882
 51
69.67686400002114
  0
ARC
  5
137C
330
2
100
AcDbEntity
  8
0
 62
     0
100
AcDbCircle
 10
1081.891266576203
 20
214.09170747331
 30
0.0
 40
4.5478125
100
AcDbArc
 50
69.67686400002114
 51
114.9026060000152
  0
ARC
  5
137D
330
2
100
AcDbEntity
  8
0
 62
     0
100
AcDbCircle
 10
1080.684710951203
 20
217.0153080983102
 30
0.0
 40
1.394696874999999
100
AcDbArc
 50
120.526432999995
 51
239.4735630000054
  0
ARC
  5
137E
330
2
100
AcDbEntity
  8
0
 62
     0
100
AcDbCircle
 10
1081.891266576203
 20
219.9389087233096
 30
0.0
 40
4.5478125
100
AcDbArc
 50
245.0974039999862
 51
290.3231459999844
  0
ARC
  5
137F
330
2
100
AcDbEntity
  8
0
 62
     0
100
AcDbCircle
 10
1082.819379544951
 20
217.4329574733097
 30
0.0
 40
1.875522343749999
100
AcDbArc
 50
290.3231459999844
 51
333.5525889999797
  0
LINE
  5
1380
330
2
100
AcDbEntity
  8
0
 62
     0
 48
0.009566
100
AcDbLine
 10
1084.49863266995
 20
216.5976587233099
 30
0.0
 11
1083.840935794952
 21
216.5976587233099
 31
0.0
  0
ARC
  5
1381
330
2
100
AcDbEntity
  8
0
 62
     0
100
AcDbCircle
 10
1082.819379544951
 20
217.0153080983102
 30
0.0
 40
1.103638593749999
100
AcDbArc
 50
299.7448730000096
 51
337.7631540000345
  0
ARC
  5
1382
330
2
100
AcDbEntity
  8
0
 62
     0
100
AcDbCircle
 10
1082.169707513701
 20
218.1522595045599
 30
0.0
 40
2.413124999999999
100
AcDbArc
 50
242.0490359999816
 51
299.7448730000096
  0
ARC
  5
1383
330
2
100
AcDbEntity
  8
0
 62
     0
100
AcDbCircle
 10
1081.566429701202
 20
217.0153080983102
 30
0.0
 40
1.12603046875
100
AcDbArc
 50
145.6044559999873
 51
242.0490359999816
  0
LINE
  5
138F
330
2
100
AcDbEntity
  8
0
 62
     0
100
AcDbLine
 10
1033.400014857452
 20
239.2070998170605
 30
0.0
 11
1033.400014857452
 21
268.7570998170602
 31
0.0
  0
LINE
  5
1390
330
2
100
AcDbEntity
  8
0
 62
     0
 48
5.0
100
AcDbLine
 10
1033.400014857452
 20
268.7570998170602
 30
0.0
 11
1033.400014857452
 21
280.7570998170602
 31
0.0
  0
LINE
  5
1391
330
2
100
AcDbEntity
  8
0
  6
CENTER
 62
     4
 48
2.0
100
AcDbLine
 10
851.4000148574519
 20
259.7570998170602
 30
0.0
 11
1053.400014857452
 21
259.7570998170602
 31
0.0
1001
GENIUS_GENODEF_13
1002
{
1000
HIER
1070
     0
1002
}
1002
{
1000
MANEDIT
1070
     0
1002
}
1002
{
1000
NOSEL
1070
     0
1002
}
1002
{
1000
BEHIND
1070
     0
1002
}
1002
{
1000
OTHER
1070
     0
1002
}
1002
{
1000
REACTOR
1002
}
1001
GENIUS_GENOBJ-N-CEN_13
1002
{
1000
OWNER
1000
GEN
1002
}
1001
GENIUS_GENCEN_19
1002
{
1040
3.0
1002
}
  0
LINE
  5
1392
330
2
100
AcDbEntity
  8
0
  6
CENTER
 62
     4
 48
2.0
100
AcDbLine
 10
851.4000148574519
 20
92.25709981706016
 30
0.0
 11
1053.400014857452
 21
92.25709981706016
 31
0.0
1001
GENIUS_GENODEF_13
1002
{
1000
HIER
1070
     0
1002
}
1002
{
1000
MANEDIT
1070
     0
1002
}
1002
{
1000
NOSEL
1070
     0
1002
}
1002
{
1000
BEHIND
1070
     0
1002
}
1002
{
1000
OTHER
1070
     0
1002
}
1002
{
1000
REACTOR
1002
}
1001
GENIUS_GENOBJ-N-CEN_13
1002
{
1000
OWNER
1000
GEN
1002
}
1001
GENIUS_GENCEN_19
1002
{
1040
3.0
1002
}
  0
LINE
  5
1393
330
2
100
AcDbEntity
  8
0
  6
CENTER
 62
     4
 48
2.0
100
AcDbLine
 10
815.9000148574516
 20
144.7570998170601
 30
0.0
 11
815.9000148574516
 21
226.7570998170602
 31
0.0
1001
GENIUS_GENODEF_13
1002
{
1000
HIER
1070
     0
1002
}
1002
{
1000
MANEDIT
1070
     0
1002
}
1002
{
1000
NOSEL
1070
     0
1002
}
1002
{
1000
BEHIND
1070
     0
1002
}
1002
{
1000
OTHER
1070
     0
1002
}
1002
{
1000
REACTOR
1002
}
1001
GENIUS_GENOBJ-N-CEN_13
1002
{
1000
OWNER
1000
GEN
1002
}
1001
GENIUS_GENCEN_19
1002
{
1040
3.0
1002
}
  0
LINE
  5
1394
330
2
100
AcDbEntity
  8
0
  6
CENTER
 62
     4
 48
2.0
100
AcDbLine
 10
1093.400014857452
 20
144.7570998170601
 30
0.0
 11
1093.400014857452
 21
226.7570998170602
 31
0.0
1001
GENIUS_GENOBJ-N-CEN_13
1002
{
1000
OWNER
1000
GEN
1002
}
1001
GENIUS_GENODEF_13
1002
{
1000
HIER
1070
     0
1002
}
1002
{
1000
MANEDIT
1070
     0
1002
}
1002
{
1000
NOSEL
1070
     0
1002
}
1002
{
1000
BEHIND
1070
     0
1002
}
1002
{
1000
OTHER
1070
     0
1002
}
1002
{
1000
REACTOR
1002
}
1001
GENIUS_GENCEN_19
1002
{
1040
3.0
1002
}
  0
LINE
  5
1395
330
2
100
AcDbEntity
  8
0
 62
     0
 48
0.5
100
AcDbLine
 10
873.4670021555588
 20
260.5070998170602
 30
0.0
 11
874.3330275593431
 21
260.5070998170602
 31
0.0
  0
LINE
  5
1396
330
2
100
AcDbEntity
  8
0
 62
     0
 48
0.5
100
AcDbLine
 10
874.3330275593431
 20
260.5070998170602
 30
0.0
 11
874.7660402612359
 21
259.7570998170602
 31
0.0
  0
LINE
  5
1397
330
2
100
AcDbEntity
  8
0
 62
     0
 48
0.5
100
AcDbLine
 10
874.7660402612359
 20
259.7570998170602
 30
0.0
 11
874.3330275593431
 21
259.0070998170602
 31
0.0
  0
LINE
  5
1398
330
2
100
AcDbEntity
  8
0
 62
     0
 48
0.5
100
AcDbLine
 10
874.3330275593431
 20
259.0070998170602
 30
0.0
 11
873.4670021555588
 21
259.0070998170602
 31
0.0
  0
LINE
  5
1399
330
2
100
AcDbEntity
  8
0
 62
     0
 48
0.5
100
AcDbLine
 10
873.4670021555588
 20
259.0070998170602
 30
0.0
 11
873.0339894536657
 21
259.7570998170602
 31
0.0
  0
LINE
  5
139A
330
2
100
AcDbEntity
  8
0
 62
     0
 48
0.5
100
AcDbLine
 10
873.0339894536657
 20
259.7570998170602
 30
0.0
 11
873.4670021555588
 21
260.5070998170602
 31
0.0
  0
LINE
  5
139B
330
2
100
AcDbEntity
  8
0
 62
     0
 48
0.5
100
AcDbLine
 10
1048.141598046576
 20
264.2570998170572
 30
0.0
 11
1048.141598046576
 21
267.5070998170574
 31
0.0
  0
LINE
  5
139C
330
2
100
AcDbEntity
  8
0
 62
     0
 48
0.5
100
AcDbLine
 10
1048.141598046576
 20
255.2570998170568
 30
0.0
 11
1048.141598046576
 21
252.0070998170568
 31
0.0
  0
LINE
  5
139D
330
2
100
AcDbEntity
  8
0
 62
     0
 48
0.5
100
AcDbLine
 10
1036.40002391745
 20
268.2570998170572
 30
0.0
 11
1047.40002391745
 21
268.2570998170556
 31
0.0
  0
LINE
  5
139E
330
2
100
AcDbEntity
  8
0
 62
     0
 48
0.5
100
AcDbLine
 10
1036.40002391745
 20
265.1320998170543
 30
0.0
 11
1036.40002391745
 21
268.2570998170572
 31
0.0
  0
LINE
  5
139F
330
2
100
AcDbEntity
  8
0
 62
     0
 48
0.5
100
AcDbLine
 10
1047.40002391745
 20
251.2570998170584
 30
0.0
 11
1047.40002391745
 21
268.2570998170556
 31
0.0
  0
LINE
  5
13A0
330
2
100
AcDbEntity
  8
0
 62
     0
 48
0.5
100
AcDbLine
 10
1048.141598046576
 20
264.2570998170572
 30
0.0
 11
1048.141598046576
 21
267.5070998170574
 31
0.0
  0
LINE
  5
13A1
330
2
100
AcDbEntity
  8
0
 62
     0
 48
0.5
100
AcDbLine
 10
1048.141598046576
 20
267.5070998170574
 30
0.0
 11
1047.40002391745
 21
267.5070998170577
 31
0.0
  0
LINE
  5
13A2
330
2
100
AcDbEntity
  8
0
 62
     0
 48
0.5
100
AcDbLine
 10
1036.40002391745
 20
251.2570998170568
 30
0.0
 11
1047.40002391745
 21
251.2570998170584
 31
0.0
  0
LINE
  5
13A3
330
2
100
AcDbEntity
  8
0
 62
     0
 48
0.5
100
AcDbLine
 10
1047.40002391745
 20
252.0070998170565
 30
0.0
 11
1047.40002391745
 21
251.2570998170584
 31
0.0
  0
LINE
  5
13A4
330
2
100
AcDbEntity
  8
0
 62
     0
 48
0.5
100
AcDbLine
 10
1048.141598046576
 20
267.5070998170574
 30
0.0
 11
1048.141598046576
 21
252.0070998170568
 31
0.0
  0
LINE
  5
13A5
330
2
100
AcDbEntity
  8
0
 62
     0
 48
0.5
100
AcDbLine
 10
1048.141598046576
 20
252.0070998170568
 30
0.0
 11
1047.40002391745
 21
252.0070998170565
 31
0.0
  0
LINE
  5
13A6
330
2
100
AcDbEntity
  8
0
 62
     0
100
AcDbLine
 10
1036.40002391745
 20
268.2570998170572
 30
0.0
 11
1036.400023917452
 21
251.2570998170568
 31
0.0
  0
LINE
  5
13A7
330
2
100
AcDbEntity
  8
0
 62
     0
100
AcDbLine
 10
1036.40002391745
 20
251.2570998170631
 30
0.0
 11
1033.400014857452
 21
251.2570998170631
 31
0.0
  0
LINE
  5
13A8
330
2
100
AcDbEntity
  8
0
 62
     0
100
AcDbLine
 10
1033.400014857452
 20
268.2570998170572
 30
0.0
 11
1033.400014857452
 21
251.2570998170631
 31
0.0
  0
LINE
  5
13A9
330
2
100
AcDbEntity
  8
0
 62
     0
100
AcDbLine
 10
1036.40002391745
 20
268.2570998170509
 30
0.0
 11
1033.400014857452
 21
268.2570998170509
 31
0.0
  0
LINE
  5
13AA
330
2
100
AcDbEntity
  8
0
 62
     0
 48
0.5
100
AcDbLine
 10
1048.141598046576
 20
209.2570998170572
 30
0.0
 11
1048.141598046576
 21
212.5070998170575
 31
0.0
  0
LINE
  5
13AB
330
2
100
AcDbEntity
  8
0
 62
     0
 48
0.5
100
AcDbLine
 10
1048.141598046576
 20
200.2570998170568
 30
0.0
 11
1048.141598046576
 21
197.0070998170568
 31
0.0
  0
LINE
  5
13AC
330
2
100
AcDbEntity
  8
0
 62
     0
 48
0.5
100
AcDbLine
 10
1036.40002391745
 20
213.2570998170572
 30
0.0
 11
1047.40002391745
 21
213.2570998170556
 31
0.0
  0
LINE
  5
13AD
330
2
100
AcDbEntity
  8
0
 62
     0
 48
0.5
100
AcDbLine
 10
1036.40002391745
 20
210.1320998170542
 30
0.0
 11
1036.40002391745
 21
213.2570998170572
 31
0.0
  0
LINE
  5
13AE
330
2
100
AcDbEntity
  8
0
 62
     0
 48
0.5
100
AcDbLine
 10
1047.40002391745
 20
196.2570998170583
 30
0.0
 11
1047.40002391745
 21
213.2570998170556
 31
0.0
  0
LINE
  5
13AF
330
2
100
AcDbEntity
  8
0
 62
     0
 48
0.5
100
AcDbLine
 10
1048.141598046576
 20
209.2570998170572
 30
0.0
 11
1048.141598046576
 21
212.5070998170575
 31
0.0
  0
LINE
  5
13B0
330
2
100
AcDbEntity
  8
0
 62
     0
 48
0.5
100
AcDbLine
 10
1048.141598046576
 20
212.5070998170575
 30
0.0
 11
1047.40002391745
 21
212.5070998170577
 31
0.0
  0
LINE
  5
13B1
330
2
100
AcDbEntity
  8
0
 62
     0
 48
0.5
100
AcDbLine
 10
1036.40002391745
 20
196.2570998170567
 30
0.0
 11
1047.40002391745
 21
196.2570998170583
 31
0.0
  0
LINE
  5
13B2
330
2
100
AcDbEntity
  8
0
 62
     0
 48
0.5
100
AcDbLine
 10
1047.40002391745
 20
197.0070998170565
 30
0.0
 11
1047.40002391745
 21
196.2570998170583
 31
0.0
  0
LINE
  5
13B3
330
2
100
AcDbEntity
  8
0
 62
     0
 48
0.5
100
AcDbLine
 10
1048.141598046576
 20
212.5070998170575
 30
0.0
 11
1048.141598046576
 21
197.0070998170568
 31
0.0
  0
LINE
  5
13B4
330
2
100
AcDbEntity
  8
0
 62
     0
 48
0.5
100
AcDbLine
 10
1048.141598046576
 20
197.0070998170568
 30
0.0
 11
1047.40002391745
 21
197.0070998170565
 31
0.0
  0
LINE
  5
13B5
330
2
100
AcDbEntity
  8
0
 62
     0
100
AcDbLine
 10
1036.40002391745
 20
213.2570998170572
 30
0.0
 11
1033.400014857452
 21
213.2570998170572
 31
0.0
  0
LINE
  5
13B6
330
2
100
AcDbEntity
  8
0
 62
     0
100
AcDbLine
 10
1036.40002391745
 20
213.2570998170572
 30
0.0
 11
1036.400023917452
 21
196.2570998170567
 31
0.0
  0
LINE
  5
13B7
330
2
100
AcDbEntity
  8
0
 62
     0
100
AcDbLine
 10
1036.40002391745
 20
196.2570998170631
 30
0.0
 11
1033.400014857452
 21
196.2570998170631
 31
0.0
  0
LINE
  5
13B8
330
2
100
AcDbEntity
  8
0
 62
     0
100
AcDbLine
 10
1033.400014857452
 20
213.2570998170572
 30
0.0
 11
1033.400014857452
 21
196.2570998170631
 31
0.0
  0
CIRCLE
  5
13B9
330
2
100
AcDbEntity
  8
0
 62
     0
100
AcDbCircle
 10
1093.400014857452
 20
204.757099817057
 30
0.0
 40
8.5
  0
CIRCLE
  5
13BA
330
2
100
AcDbEntity
  8
0
 62
     0
100
AcDbCircle
 10
1093.400014857452
 20
204.757099817057
 30
0.0
 40
7.75
  0
CIRCLE
  5
13BB
330
2
100
AcDbEntity
  8
0
 62
     0
100
AcDbCircle
 10
1093.400014857452
 20
204.757099817057
 30
0.0
 40
4.0
  0
CIRCLE
  5
13BC
330
2
100
AcDbEntity
  8
0
 62
     0
100
AcDbCircle
 10
1093.400014857452
 20
204.757099817057
 30
0.0
 40
4.5
  0
CIRCLE
  5
13BD
330
2
100
AcDbEntity
  8
0
 62
     0
100
AcDbCircle
 10
1086.400014857452
 20
204.757099817057
 30
0.0
 40
0.5
  0
CIRCLE
  5
13BE
330
2
100
AcDbEntity
  8
0
 62
     0
100
AcDbCircle
 10
1100.400014857452
 20
204.757099817057
 30
0.0
 40
0.5
  0
LINE
  5
13BF
330
2
100
AcDbEntity
  8
0
  6
CENTER
 62
     4
 48
2.0
100
AcDbLine
 10
851.4000148574519
 20
204.7570998170602
 30
0.0
 11
1053.400014857452
 21
204.7570998170572
 31
0.0
1001
GENIUS_GENOBJ-N-CEN_13
1002
{
1000
OWNER
1000
GEN
1002
}
1001
GENIUS_GENODEF_13
1002
{
1000
HIER
1070
     0
1002
}
1002
{
1000
MANEDIT
1070
     0
1002
}
1002
{
1000
NOSEL
1070
     0
1002
}
1002
{
1000
BEHIND
1070
     0
1002
}
1002
{
1000
OTHER
1070
     0
1002
}
1002
{
1000
REACTOR
1002
}
1001
GENIUS_GENCEN_19
1002
{
1040
3.0
1002
}
  0
LINE
  5
13C0
330
2
100
AcDbEntity
  8
0
 62
     0
100
AcDbLine
 10
1073.914928306519
 20
150.0570998170606
 30
0.0
 11
1112.885101408386
 21
150.0570998170606
 31
0.0
  0
ARC
  5
13C1
330
2
100
AcDbEntity
  8
0
 62
     0
100
AcDbCircle
 10
1073.914928306519
 20
150.5570998170606
 30
0.0
 40
0.5
100
AcDbArc
 50
216.2833970363732
 51
270.0
  0
LINE
  5
13C2
330
2
100
AcDbEntity
  8
0
 62
     0
100
AcDbLine
 10
1069.730404496994
 20
156.7570998170602
 30
0.0
 11
1117.069625217909
 21
156.7570998170602
 31
0.0
  0
ARC
  5
13C3
330
2
100
AcDbEntity
  8
0
 62
     0
100
AcDbCircle
 10
1069.730404496994
 20
156.2570998170602
 30
0.0
 40
0.5
100
AcDbArc
 50
90.0
 51
216.2833970363732
  0
LINE
  5
13C4
330
2
100
AcDbEntity
  8
0
 62
     0
100
AcDbLine
 10
1069.327354597072
 20
155.9612100095771
 30
0.0
 11
1073.511878406598
 21
150.2612100095773
 31
0.0
  0
LINE
  5
13C5
330
2
100
AcDbEntity
  8
0
 62
     0
100
AcDbLine
 10
1113.288151308308
 20
150.2612100095775
 30
0.0
 11
1117.472675117832
 21
155.9612100095771
 31
0.0
  0
ARC
  5
13C6
330
2
100
AcDbEntity
  8
0
 62
     0
100
AcDbCircle
 10
1117.069625217909
 20
156.2570998170602
 30
0.0
 40
0.5
100
AcDbArc
 50
323.7166029636266
 51
90.0
  0
ARC
  5
13C7
330
2
100
AcDbEntity
  8
0
 62
     0
100
AcDbCircle
 10
1112.885101408386
 20
150.5570998170606
 30
0.0
 40
0.5
100
AcDbArc
 50
270.0
 51
323.7166029636266
  0
LINE
  5
13C9
330
2
100
AcDbEntity
  8
0
 62
     0
100
AcDbLine
 10
1110.900014857453
 20
153.4070998170602
 30
0.0
 11
1110.900014857453
 21
156.7570998170606
 31
0.0
  0
LINE
  5
13CA
330
2
100
AcDbEntity
  8
0
 62
     0
100
AcDbLine
 10
1075.900014857454
 20
153.4070998170602
 30
0.0
 11
1075.900014857454
 21
156.7570998170606
 31
0.0
  0
LINE
  5
13CB
330
2
100
AcDbEntity
  8
0
 62
     0
100
AcDbLine
 10
1097.100014857453
 20
153.4070998170602
 30
0.0
 11
1097.100014857453
 21
156.7570998170606
 31
0.0
  0
LINE
  5
13CC
330
2
100
AcDbEntity
  8
0
 62
     0
100
AcDbLine
 10
1097.600014857452
 20
153.4070998170602
 30
0.0
 11
1097.600014857452
 21
156.7570998170606
 31
0.0
  0
LINE
  5
13CD
330
2
100
AcDbEntity
  8
0
 62
     0
100
AcDbLine
 10
1085.100014857452
 20
153.4070998170602
 30
0.0
 11
1085.100014857452
 21
156.7570998170606
 31
0.0
  0
LINE
  5
13CE
330
2
100
AcDbEntity
  8
0
 62
     0
100
AcDbLine
 10
1084.600014857453
 20
153.4070998170602
 30
0.0
 11
1084.600014857453
 21
156.7570998170604
 31
0.0
  0
LINE
  5
13CF
330
2
100
AcDbEntity
  8
0
 62
     0
100
AcDbLine
 10
1110.900014857453
 20
153.4070998170602
 30
0.0
 11
1097.600014857452
 21
153.4070998170602
 31
0.0
  0
LINE
  5
13D0
330
2
100
AcDbEntity
  8
0
 62
     0
100
AcDbLine
 10
1097.100014857453
 20
153.4070998170602
 30
0.0
 11
1085.100014857452
 21
153.4070998170602
 31
0.0
  0
LINE
  5
13D1
330
2
100
AcDbEntity
  8
0
 62
     0
100
AcDbLine
 10
1084.600014857453
 20
153.4070998170602
 30
0.0
 11
1075.900014857454
 21
153.4070998170602
 31
0.0
  0
CIRCLE
  5
13D4
330
2
100
AcDbEntity
  8
0
 62
     0
 48
0.5
100
AcDbCircle
 10
1073.400014857454
 20
154.0570998170603
 30
0.0
 40
2.0
  0
CIRCLE
  5
13D5
330
2
100
AcDbEntity
  8
0
 62
     0
 48
0.5
100
AcDbCircle
 10
1073.400014857454
 20
154.0570998170603
 30
0.0
 40
1.75
  0
LWPOLYLINE
  5
13D6
330
2
100
AcDbEntity
  8
0
 62
     0
 48
0.5
100
AcDbPolyline
 90
        4
 70
     0
 43
0.0
 10
1073.100014857452
 20
154.3570998170603
 10
1071.900014857454
 20
154.3570998170603
 10
1071.900014857454
 20
153.7570998170602
 10
1073.100014857452
 20
153.7570998170602
  0
LWPOLYLINE
  5
13D7
330
2
100
AcDbEntity
  8
0
 62
     0
 48
0.5
100
AcDbPolyline
 90
        4
 70
     0
 43
0.0
 10
1073.700014857453
 20
154.3570998170603
 10
1073.700014857453
 20
155.5570998170603
 10
1073.100014857452
 20
155.5570998170603
 10
1073.100014857452
 20
154.3570998170603
  0
LWPOLYLINE
  5
13D8
330
2
100
AcDbEntity
  8
0
 62
     0
 48
0.5
100
AcDbPolyline
 90
        4
 70
     0
 43
0.0
 10
1073.100014857452
 20
153.7570998170602
 10
1073.100014857452
 20
152.5570998170603
 10
1073.700014857453
 20
152.5570998170603
 10
1073.700014857453
 20
153.7570998170602
  0
LWPOLYLINE
  5
13D9
330
2
100
AcDbEntity
  8
0
 62
     0
 48
0.5
100
AcDbPolyline
 90
        4
 70
     0
 43
0.0
 10
1073.700014857453
 20
153.7570998170602
 10
1074.900014857453
 20
153.7570998170602
 10
1074.900014857453
 20
154.3570998170603
 10
1073.700014857453
 20
154.3570998170603
  0
CIRCLE
  5
13DA
330
2
100
AcDbEntity
  8
0
 62
     0
 48
0.5
100
AcDbCircle
 10
1113.400014857454
 20
154.0570998170603
 30
0.0
 40
2.0
  0
CIRCLE
  5
13DB
330
2
100
AcDbEntity
  8
0
 62
     0
 48
0.5
100
AcDbCircle
 10
1113.400014857454
 20
154.0570998170603
 30
0.0
 40
1.75
  0
LWPOLYLINE
  5
13DC
330
2
100
AcDbEntity
  8
0
 62
     0
 48
0.5
100
AcDbPolyline
 90
        4
 70
     0
 43
0.0
 10
1113.700014857453
 20
154.3570998170603
 10
1114.900014857453
 20
154.3570998170603
 10
1114.900014857453
 20
153.7570998170602
 10
1113.700014857453
 20
153.7570998170602
  0
LWPOLYLINE
  5
13DD
330
2
100
AcDbEntity
  8
0
 62
     0
 48
0.5
100
AcDbPolyline
 90
        4
 70
     0
 43
0.0
 10
1113.100014857453
 20
154.3570998170603
 10
1113.100014857453
 20
155.5570998170603
 10
1113.700014857453
 20
155.5570998170603
 10
1113.700014857453
 20
154.3570998170603
  0
LWPOLYLINE
  5
13DE
330
2
100
AcDbEntity
  8
0
 62
     0
 48
0.5
100
AcDbPolyline
 90
        4
 70
     0
 43
0.0
 10
1113.700014857453
 20
153.7570998170602
 10
1113.700014857453
 20
152.5570998170603
 10
1113.100014857453
 20
152.5570998170603
 10
1113.100014857453
 20
153.7570998170602
  0
LWPOLYLINE
  5
13DF
330
2
100
AcDbEntity
  8
0
 62
     0
 48
0.5
100
AcDbPolyline
 90
        4
 70
     0
 43
0.0
 10
1113.100014857453
 20
153.7570998170602
 10
1111.900014857454
 20
153.7570998170602
 10
1111.900014857454
 20
154.3570998170603
 10
1113.100014857453
 20
154.3570998170603
  0
LINE
  5
13E0
330
2
100
AcDbEntity
  8
0
 62
     0
100
AcDbLine
 10
1066.300014857451
 20
219.75709981706
 30
0.0
 11
1120.500014857452
 21
219.75709981706
 31
0.0
  0
ARC
  5
13E1
330
2
100
AcDbEntity
  8
0
 62
     0
100
AcDbCircle
 10
1066.300014857451
 20
217.8570998170601
 30
0.0
 40
1.899999999999636
100
AcDbArc
 50
90.0
 51
180.0
  0
ARC
  5
13E2
330
2
100
AcDbEntity
  8
0
 62
     0
100
AcDbCircle
 10
1120.500014857452
 20
217.8570998170601
 30
0.0
 40
1.90000000000009
100
AcDbArc
 50
0.0
 51
90.0
  0
LINE
  5
13E3
330
2
100
AcDbEntity
  8
0
 62
     0
100
AcDbLine
 10
1064.400014857452
 20
160.65709981706
 30
0.0
 11
1064.400014857452
 21
217.8570998170601
 31
0.0
  0
ARC
  5
13E4
330
2
100
AcDbEntity
  8
0
 62
     0
100
AcDbCircle
 10
1066.300014857451
 20
160.65709981706
 30
0.0
 40
1.9
100
AcDbArc
 50
180.0
 51
270.0
  0
LINE
  5
13E5
330
2
100
AcDbEntity
  8
0
 62
     0
100
AcDbLine
 10
1122.400014857451
 20
217.8570998170601
 30
0.0
 11
1122.400014857451
 21
160.65709981706
 31
0.0
  0
ARC
  5
13E6
330
2
100
AcDbEntity
  8
0
 62
     0
100
AcDbCircle
 10
1120.500014857452
 20
160.65709981706
 30
0.0
 40
1.9
100
AcDbArc
 50
270.0
 51
0.0
  0
LINE
  5
13E7
330
2
100
AcDbEntity
  8
0
 62
     0
100
AcDbLine
 10
1066.300014857451
 20
158.7570998170599
 30
0.0
 11
1120.500014857452
 21
158.7570998170599
 31
0.0
  0
LINE
  5
13E8
330
2
100
AcDbEntity
  8
0
 62
     0
 48
0.5
100
AcDbLine
 10
1026.400014857452
 20
149.8570998170601
 30
0.0
 11
1030.400014857452
 21
149.8570998170601
 31
0.0
  0
LINE
  5
13E9
330
2
100
AcDbEntity
  8
0
 62
     0
 48
0.5
100
AcDbLine
 10
1030.400014857452
 20
156.8570998170601
 30
0.0
 11
1030.400014857452
 21
149.8570998170601
 31
0.0
  0
LINE
  5
13EA
330
2
100
AcDbEntity
  8
0
 62
     0
 48
0.5
100
AcDbLine
 10
1026.400014857452
 20
150.0070998170597
 30
0.0
 11
1025.900014857452
 21
150.0070998170597
 31
0.0
  0
LINE
  5
13EB
330
2
100
AcDbEntity
  8
0
 62
     0
 48
0.5
100
AcDbLine
 10
1030.400014857452
 20
116.1697657330721
 30
0.0
 11
1030.400014857452
 21
117.2570998170602
 31
0.0
  0
LINE
  5
13EC
330
2
100
AcDbEntity
  8
0
 62
     0
100
AcDbLine
 10
1026.400014857452
 20
67.25709981706017
 30
0.0
 11
1030.400014857452
 21
67.25709981706017
 31
0.0
  0
LINE
  5
13ED
330
2
100
AcDbEntity
  8
0
 62
     0
100
AcDbLine
 10
1030.400014857452
 20
72.25709981706017
 30
0.0
 11
1026.400014857452
 21
72.25709981706017
 31
0.0
  0
LINE
  5
13EE
330
2
100
AcDbEntity
  8
0
 62
     0
100
AcDbLine
 10
1031.400014857452
 20
231.5870998170597
 30
0.0
 11
1031.400014857452
 21
287.9270998170607
 31
0.0
  0
CIRCLE
  5
13EF
330
2
100
AcDbEntity
  8
0
 62
     0
 48
0.2
100
AcDbCircle
 10
1109.900014857452
 20
172.7570998170602
 30
0.0
 40
10.25
  0
CIRCLE
  5
13F0
330
2
100
AcDbEntity
  8
0
 62
     4
 48
0.2
100
AcDbCircle
 10
1109.900014857452
 20
172.7570998170602
 30
0.0
 40
8.5
  0
CIRCLE
  5
13F1
330
2
100
AcDbEntity
  8
0
 62
     0
 48
0.2
100
AcDbCircle
 10
1109.900014857452
 20
172.7570998170602
 30
0.0
 40
8.999999999999943
  0
CIRCLE
  5
13F2
330
2
100
AcDbEntity
  8
0
 62
     0
 48
0.2
100
AcDbCircle
 10
1109.900014857452
 20
172.7570998170602
 30
0.0
 40
10.0
  0
CIRCLE
  5
13F3
330
2
100
AcDbEntity
  8
0
 62
     0
 48
0.5
100
AcDbCircle
 10
1109.900014857452
 20
172.7570998170602
 30
0.0
 40
7.0
  0
LWPOLYLINE
  5
13F4
330
2
100
AcDbEntity
  8
0
 62
     0
 48
0.5
100
AcDbPolyline
 90
        4
 70
     0
 43
0.0
 10
1110.400014857452
 20
179.7392198389445
 10
1110.400014857452
 20
179.2570998170601
 10
1109.400014857452
 20
179.2570998170601
 10
1109.400014857452
 20
179.7392198389445
  0
CIRCLE
  5
13F5
330
2
100
AcDbEntity
  8
0
 62
     0
 48
0.5
100
AcDbCircle
 10
1108.650014857452
 20
176.5070998170602
 30
0.0
 40
0.4
  0
CIRCLE
  5
13F6
330
2
100
AcDbEntity
  8
0
 62
     0
 48
0.5
100
AcDbCircle
 10
1111.150014857452
 20
176.5070998170602
 30
0.0
 40
0.4
  0
CIRCLE
  5
13F7
330
2
100
AcDbEntity
  8
0
 62
     0
 48
0.5
100
AcDbCircle
 10
1108.650014857452
 20
174.0070998170601
 30
0.0
 40
0.4
  0
CIRCLE
  5
13F8
330
2
100
AcDbEntity
  8
0
 62
     0
 48
0.5
100
AcDbCircle
 10
1111.150014857452
 20
174.0070998170601
 30
0.0
 40
0.4
  0
CIRCLE
  5
13F9
330
2
100
AcDbEntity
  8
0
 62
     0
 48
0.5
100
AcDbCircle
 10
1108.650014857452
 20
171.5070998170602
 30
0.0
 40
0.4
  0
CIRCLE
  5
13FA
330
2
100
AcDbEntity
  8
0
 62
     0
 48
0.5
100
AcDbCircle
 10
1111.150014857452
 20
171.5070998170602
 30
0.0
 40
0.4
  0
CIRCLE
  5
13FB
330
2
100
AcDbEntity
  8
0
 62
     0
 48
0.5
100
AcDbCircle
 10
1108.650014857452
 20
169.0070998170602
 30
0.0
 40
0.4
  0
CIRCLE
  5
13FC
330
2
100
AcDbEntity
  8
0
 62
     0
 48
0.5
100
AcDbCircle
 10
1111.150014857452
 20
169.0070998170602
 30
0.0
 40
0.4
  0
CIRCLE
  5
13FD
330
2
100
AcDbEntity
  8
0
 62
     0
 48
0.5
100
AcDbCircle
 10
1106.150014857452
 20
174.0070998170601
 30
0.0
 40
0.4
  0
CIRCLE
  5
13FE
330
2
100
AcDbEntity
  8
0
 62
     0
 48
0.5
100
AcDbCircle
 10
1106.150014857452
 20
171.5070998170602
 30
0.0
 40
0.4
  0
CIRCLE
  5
13FF
330
2
100
AcDbEntity
  8
0
 62
     0
 48
0.5
100
AcDbCircle
 10
1113.650014857452
 20
174.0070998170601
 30
0.0
 40
0.4
  0
CIRCLE
  5
1400
330
2
100
AcDbEntity
  8
0
 62
     0
 48
0.5
100
AcDbCircle
 10
1113.650014857452
 20
171.5070998170602
 30
0.0
 40
0.4
  0
LINE
  5
1401
330
2
100
AcDbEntity
  8
0
 62
     0
 48
0.5
100
AcDbLine
 10
1048.141598046576
 20
96.75709981705722
 30
0.0
 11
1048.141598046576
 21
100.0070998170577
 31
0.0
  0
LINE
  5
1402
330
2
100
AcDbEntity
  8
0
 62
     0
 48
0.5
100
AcDbLine
 10
1048.141598046576
 20
87.75709981705677
 30
0.0
 11
1048.141598046576
 21
84.50709981705676
 31
0.0
  0
LINE
  5
1403
330
2
100
AcDbEntity
  8
0
 62
     0
 48
0.5
100
AcDbLine
 10
1036.40002391745
 20
100.7570998170572
 30
0.0
 11
1047.40002391745
 21
100.7570998170558
 31
0.0
  0
LINE
  5
1404
330
2
100
AcDbEntity
  8
0
 62
     0
 48
0.5
100
AcDbLine
 10
1036.40002391745
 20
97.6320998170545
 30
0.0
 11
1036.40002391745
 21
100.7570998170572
 31
0.0
  0
LINE
  5
1405
330
2
100
AcDbEntity
  8
0
 62
     0
 48
0.5
100
AcDbLine
 10
1047.40002391745
 20
83.75709981705858
 30
0.0
 11
1047.40002391745
 21
100.7570998170558
 31
0.0
  0
LINE
  5
1406
330
2
100
AcDbEntity
  8
0
 62
     0
 48
0.5
100
AcDbLine
 10
1048.141598046576
 20
96.75709981705722
 30
0.0
 11
1048.141598046576
 21
100.0070998170577
 31
0.0
  0
LINE
  5
1407
330
2
100
AcDbEntity
  8
0
 62
     0
 48
0.5
100
AcDbLine
 10
1048.141598046576
 20
100.0070998170577
 30
0.0
 11
1047.40002391745
 21
100.0070998170577
 31
0.0
  0
LINE
  5
1408
330
2
100
AcDbEntity
  8
0
 62
     0
 48
0.5
100
AcDbLine
 10
1040.900014857452
 20
83.75709981705723
 30
0.0
 11
1047.40002391745
 21
83.75709981705858
 31
0.0
  0
LINE
  5
1409
330
2
100
AcDbEntity
  8
0
 62
     0
 48
0.5
100
AcDbLine
 10
1047.40002391745
 20
84.50709981705676
 30
0.0
 11
1047.40002391745
 21
83.75709981705858
 31
0.0
  0
LINE
  5
140A
330
2
100
AcDbEntity
  8
0
 62
     0
 48
0.5
100
AcDbLine
 10
1048.141598046576
 20
100.0070998170577
 30
0.0
 11
1048.141598046576
 21
84.50709981705676
 31
0.0
  0
LINE
  5
140B
330
2
100
AcDbEntity
  8
0
 62
     0
 48
0.5
100
AcDbLine
 10
1048.141598046576
 20
84.50709981705676
 30
0.0
 11
1047.40002391745
 21
84.50709981705676
 31
0.0
  0
LINE
  5
140C
330
2
100
AcDbEntity
  8
0
 62
     0
100
AcDbLine
 10
1036.40002391745
 20
100.7570998170572
 30
0.0
 11
1033.400014857452
 21
100.7570998170572
 31
0.0
  0
LINE
  5
140D
330
2
100
AcDbEntity
  8
0
 62
     0
100
AcDbLine
 10
1036.40002391745
 20
100.7570998170572
 30
0.0
 11
1036.400023917452
 21
84.75709981706041
 31
0.0
  0
LINE
  5
140E
330
2
100
AcDbEntity
  8
0
 62
     0
100
AcDbLine
 10
1033.400014857452
 20
100.7570998170572
 30
0.0
 11
1033.400014857452
 21
83.75709981706313
 31
0.0
  0
CIRCLE
  5
140F
330
2
100
AcDbEntity
  8
0
 62
     4
100
AcDbCircle
 10
1034.900023917452
 20
92.25709981705723
 30
0.0
 40
1.0
  0
CIRCLE
  5
1410
330
2
100
AcDbEntity
  8
0
 62
     0
100
AcDbCircle
 10
1034.900023917452
 20
92.25709981705723
 30
0.0
 40
0.8
  0
LWPOLYLINE
  5
1411
330
2
100
AcDbEntity
  8
0
 62
     0
 48
0.5
100
AcDbPolyline
 90
        6
 70
     1
 43
0.0
 10
1035.188699052046
 20
91.75709981705722
 10
1035.477374186642
 20
92.25709981705723
 10
1035.188699052046
 20
92.75709981705722
 10
1034.611348782856
 20
92.75709981705722
 10
1034.322673648262
 20
92.25709981705723
 10
1034.611348782856
 20
91.75709981705722
  0
LINE
  5
1412
330
2
100
AcDbEntity
  8
0
 62
     0
100
AcDbLine
 10
881.9000148574517
 20
160.7570998170597
 30
0.0
 11
948.6348078527344
 21
215.4892322016788
 31
0.0
  0
ARC
  5
1413
330
2
100
AcDbEntity
  8
0
 62
     0
100
AcDbCircle
 10
954.9762689451567
 20
207.7570998170584
 30
0.0
 40
10.0
100
AcDbArc
 50
90.0
 51
129.3566817194762
  0
LINE
  5
1414
330
2
100
AcDbEntity
  8
0
 62
     0
100
AcDbLine
 10
891.9000148574518
 20
160.7570998170597
 30
0.0
 11
961.4000148574517
 21
217.7570998170584
 31
0.0
  0
LINE
  5
1415
330
2
100
AcDbEntity
  8
0
 62
     0
100
AcDbLine
 10
934.0011339900323
 20
163.0249674324395
 30
0.0
 11
1000.735926985315
 21
217.7570998170584
 31
0.0
  0
ARC
  5
1416
330
2
100
AcDbEntity
  8
0
 62
     0
100
AcDbCircle
 10
927.6596728976103
 20
170.7570998170597
 30
0.0
 40
10.0
100
AcDbArc
 50
270.0
 51
309.3566817194763
  0
LINE
  5
1417
330
2
100
AcDbEntity
  8
0
 62
     0
100
AcDbLine
 10
954.9762689451567
 20
217.7570998170584
 30
0.0
 11
1000.735926985315
 21
217.7570998170584
 31
0.0
  0
LINE
  5
1418
330
2
100
AcDbEntity
  8
0
 62
     0
100
AcDbLine
 10
881.9000148574517
 20
160.7570998170597
 30
0.0
 11
927.6596728976103
 21
160.7570998170597
 31
0.0
  0
LINE
  5
141A
330
2
100
AcDbEntity
  8
0
 62
     0
 48
0.0351
100
AcDbLine
 10
987.3413847324503
 20
164.0254123170593
 30
0.0
 11
992.9222529324519
 21
164.0254123170593
 31
0.0
  0
LINE
  5
141B
330
2
100
AcDbEntity
  8
0
 62
     0
 48
0.005062
100
AcDbLine
 10
992.9222529324519
 20
164.0254123170593
 30
0.0
 11
992.9222529324519
 21
164.8303498170596
 31
0.0
  0
LINE
  5
141C
330
2
100
AcDbEntity
  8
0
 62
     0
 48
0.00945
100
AcDbLine
 10
992.9222529324519
 20
164.8303498170596
 30
0.0
 11
991.4197387074503
 21
164.8303498170596
 31
0.0
  0
LINE
  5
141D
330
2
100
AcDbEntity
  8
0
 62
     0
 48
0.03375
100
AcDbLine
 10
991.4197387074503
 20
164.8303498170596
 30
0.0
 11
991.4197387074503
 21
170.1966236670603
 31
0.0
  0
LINE
  5
141E
330
2
100
AcDbEntity
  8
0
 62
     0
 48
0.00945
100
AcDbLine
 10
991.4197387074503
 20
170.1966236670603
 30
0.0
 11
992.9222529324519
 21
170.1966236670603
 31
0.0
  0
LINE
  5
141F
330
2
100
AcDbEntity
  8
0
 62
     0
 48
0.005062
100
AcDbLine
 10
992.9222529324519
 20
170.1966236670603
 30
0.0
 11
992.9222529324519
 21
171.0015571920603
 31
0.0
  0
LINE
  5
1420
330
2
100
AcDbEntity
  8
0
 62
     0
 48
0.0351
100
AcDbLine
 10
992.9222529324519
 20
171.0015571920603
 30
0.0
 11
987.3413847324503
 21
171.0015571920603
 31
0.0
  0
LINE
  5
1421
330
2
100
AcDbEntity
  8
0
 62
     0
 48
0.005062
100
AcDbLine
 10
987.3413847324503
 20
171.0015571920603
 30
0.0
 11
987.3413847324503
 21
170.1966236670603
 31
0.0
  0
LINE
  5
1422
330
2
100
AcDbEntity
  8
0
 62
     0
 48
0.00945
100
AcDbLine
 10
987.3413847324503
 20
170.1966236670603
 30
0.0
 11
988.843898957452
 21
170.1966236670603
 31
0.0
  0
LINE
  5
1423
330
2
100
AcDbEntity
  8
0
 62
     0
 48
0.03375
100
AcDbLine
 10
988.843898957452
 20
170.1966236670603
 30
0.0
 11
988.843898957452
 21
164.8303498170596
 31
0.0
  0
LINE
  5
1424
330
2
100
AcDbEntity
  8
0
 62
     0
 48
0.00945
100
AcDbLine
 10
988.843898957452
 20
164.8303498170596
 30
0.0
 11
987.3413847324503
 21
164.8303498170596
 31
0.0
  0
LINE
  5
1425
330
2
100
AcDbEntity
  8
0
 62
     0
 48
0.005062
100
AcDbLine
 10
987.3413847324503
 20
164.8303498170596
 30
0.0
 11
987.3413847324503
 21
164.0254123170593
 31
0.0
  0
LINE
  5
1426
330
2
100
AcDbEntity
  8
0
 62
     0
 48
0.005062
100
AcDbLine
 10
984.6582478074527
 20
164.0254123170593
 30
0.0
 11
984.6582478074527
 21
164.8303498170596
 31
0.0
  0
LINE
  5
1427
330
2
100
AcDbEntity
  8
0
 62
     0
 48
0.00945
100
AcDbLine
 10
984.6582478074527
 20
164.8303498170596
 30
0.0
 11
983.155673957453
 21
164.8303498170596
 31
0.0
  0
LINE
  5
1428
330
2
100
AcDbEntity
  8
0
 62
     0
 48
0.03375
100
AcDbLine
 10
983.155673957453
 20
164.8303498170596
 30
0.0
 11
983.155673957453
 21
170.1966236670603
 31
0.0
  0
LINE
  5
1429
330
2
100
AcDbEntity
  8
0
 62
     0
 48
0.00945
100
AcDbLine
 10
983.155673957453
 20
170.1966236670603
 30
0.0
 11
984.6582478074527
 21
170.1966236670603
 31
0.0
  0
LINE
  5
142A
330
2
100
AcDbEntity
  8
0
 62
     0
 48
0.005062
100
AcDbLine
 10
984.6582478074527
 20
170.1966236670603
 30
0.0
 11
984.6582478074527
 21
171.0015571920603
 31
0.0
  0
LINE
  5
142B
330
2
100
AcDbEntity
  8
0
 62
     0
 48
0.03375
100
AcDbLine
 10
984.6582478074527
 20
171.0015571920603
 30
0.0
 11
979.2919739574518
 21
171.0015571920603
 31
0.0
  0
LINE
  5
142C
330
2
100
AcDbEntity
  8
0
 62
     0
 48
0.005062
100
AcDbLine
 10
979.2919739574518
 20
171.0015571920603
 30
0.0
 11
979.2919739574518
 21
170.1966236670603
 31
0.0
  0
LINE
  5
142D
330
2
100
AcDbEntity
  8
0
 62
     0
 48
0.00945
100
AcDbLine
 10
979.2919739574518
 20
170.1966236670603
 30
0.0
 11
980.794547807452
 21
170.1966236670603
 31
0.0
  0
LINE
  5
142E
330
2
100
AcDbEntity
  8
0
 62
     0
 48
0.012825
100
AcDbLine
 10
980.794547807452
 20
170.1966236670603
 30
0.0
 11
980.794547807452
 21
168.1574446920601
 31
0.0
  0
LINE
  5
142F
330
2
100
AcDbEntity
  8
0
 62
     0
 48
0.0324
100
AcDbLine
 10
980.794547807452
 20
168.1574446920601
 30
0.0
 11
975.6429239574533
 21
168.1574446920601
 31
0.0
  0
LINE
  5
1430
330
2
100
AcDbEntity
  8
0
 62
     0
 48
0.012825
100
AcDbLine
 10
975.6429239574533
 20
168.1574446920601
 30
0.0
 11
975.6429239574533
 21
170.1966236670603
 31
0.0
  0
LINE
  5
1431
330
2
100
AcDbEntity
  8
0
 62
     0
 48
0.00945
100
AcDbLine
 10
975.6429239574533
 20
170.1966236670603
 30
0.0
 11
977.145497807453
 21
170.1966236670603
 31
0.0
  0
LINE
  5
1432
330
2
100
AcDbEntity
  8
0
 62
     0
 48
0.005062
100
AcDbLine
 10
977.145497807453
 20
170.1966236670603
 30
0.0
 11
977.145497807453
 21
171.0015571920603
 31
0.0
  0
LINE
  5
1433
330
2
100
AcDbEntity
  8
0
 62
     0
 48
0.03375
100
AcDbLine
 10
977.145497807453
 20
171.0015571920603
 30
0.0
 11
971.7792239574523
 21
171.0015571920603
 31
0.0
  0
LINE
  5
1434
330
2
100
AcDbEntity
  8
0
 62
     0
 48
0.005062
100
AcDbLine
 10
971.7792239574523
 20
171.0015571920603
 30
0.0
 11
971.7792239574523
 21
170.1966236670603
 31
0.0
  0
LINE
  5
1435
330
2
100
AcDbEntity
  8
0
 62
     0
 48
0.00945
100
AcDbLine
 10
971.7792239574523
 20
170.1966236670603
 30
0.0
 11
973.2817978074519
 21
170.1966236670603
 31
0.0
  0
LINE
  5
1436
330
2
100
AcDbEntity
  8
0
 62
     0
 48
0.03375
100
AcDbLine
 10
973.2817978074519
 20
170.1966236670603
 30
0.0
 11
973.2817978074519
 21
164.8303498170596
 31
0.0
  0
LINE
  5
1437
330
2
100
AcDbEntity
  8
0
 62
     0
 48
0.00945
100
AcDbLine
 10
973.2817978074519
 20
164.8303498170596
 30
0.0
 11
971.7792239574523
 21
164.8303498170596
 31
0.0
  0
LINE
  5
1438
330
2
100
AcDbEntity
  8
0
 62
     0
 48
0.005062
100
AcDbLine
 10
971.7792239574523
 20
164.8303498170596
 30
0.0
 11
971.7792239574523
 21
164.0254123170593
 31
0.0
  0
LINE
  5
1439
330
2
100
AcDbEntity
  8
0
 62
     0
 48
0.03375
100
AcDbLine
 10
971.7792239574523
 20
164.0254123170593
 30
0.0
 11
977.145497807453
 21
164.0254123170593
 31
0.0
  0
LINE
  5
143A
330
2
100
AcDbEntity
  8
0
 62
     0
 48
0.005062
100
AcDbLine
 10
977.145497807453
 20
164.0254123170593
 30
0.0
 11
977.145497807453
 21
164.8303498170596
 31
0.0
  0
LINE
  5
143B
330
2
100
AcDbEntity
  8
0
 62
     0
 48
0.00945
100
AcDbLine
 10
977.145497807453
 20
164.8303498170596
 30
0.0
 11
975.6429239574533
 21
164.8303498170596
 31
0.0
  0
LINE
  5
143C
330
2
100
AcDbEntity
  8
0
 62
     0
 48
0.012825
100
AcDbLine
 10
975.6429239574533
 20
164.8303498170596
 30
0.0
 11
975.6429239574533
 21
166.8695248170595
 31
0.0
  0
LINE
  5
143D
330
2
100
AcDbEntity
  8
0
 62
     0
 48
0.0324
100
AcDbLine
 10
975.6429239574533
 20
166.8695248170595
 30
0.0
 11
980.794547807452
 21
166.8695248170595
 31
0.0
  0
LINE
  5
143E
330
2
100
AcDbEntity
  8
0
 62
     0
 48
0.012825
100
AcDbLine
 10
980.794547807452
 20
166.8695248170595
 30
0.0
 11
980.794547807452
 21
164.8303498170596
 31
0.0
  0
LINE
  5
143F
330
2
100
AcDbEntity
  8
0
 62
     0
 48
0.00945
100
AcDbLine
 10
980.794547807452
 20
164.8303498170596
 30
0.0
 11
979.2919739574518
 21
164.8303498170596
 31
0.0
  0
LINE
  5
1440
330
2
100
AcDbEntity
  8
0
 62
     0
 48
0.005062
100
AcDbLine
 10
979.2919739574518
 20
164.8303498170596
 30
0.0
 11
979.2919739574518
 21
164.0254123170593
 31
0.0
  0
LINE
  5
1441
330
2
100
AcDbEntity
  8
0
 62
     0
 48
0.03375
100
AcDbLine
 10
979.2919739574518
 20
164.0254123170593
 30
0.0
 11
984.6582478074527
 21
164.0254123170593
 31
0.0
  0
LINE
  5
1442
330
2
100
AcDbEntity
  8
0
 62
     0
 48
0.029025
100
AcDbLine
 10
1000.220344982452
 20
164.0254123170593
 30
0.0
 11
995.605389857455
 21
164.0254123170593
 31
0.0
  0
LINE
  5
1443
330
2
100
AcDbEntity
  8
0
 62
     0
 48
0.005062
100
AcDbLine
 10
1000.220344982452
 20
164.8303498170596
 30
0.0
 11
1000.220344982452
 21
164.0254123170593
 31
0.0
  0
LINE
  5
1444
330
2
100
AcDbEntity
  8
0
 62
     0
 48
0.00945
100
AcDbLine
 10
998.7178307574536
 20
164.8303498170596
 30
0.0
 11
1000.220344982452
 21
164.8303498170596
 31
0.0
  0
LINE
  5
1445
330
2
100
AcDbEntity
  8
0
 62
     0
 48
0.023288
100
AcDbLine
 10
998.7178307574536
 20
168.5330742420599
 30
0.0
 11
998.7178307574536
 21
164.8303498170596
 31
0.0
  0
LINE
  5
1446
330
2
100
AcDbEntity
  8
0
 62
     0
 48
0.045119
100
AcDbLine
 10
1004.298698957452
 20
164.0254123170593
 30
0.0
 11
998.7178307574536
 21
168.5330742420599
 31
0.0
  0
LINE
  5
1447
330
2
100
AcDbEntity
  8
0
 62
     0
 48
0.0135
100
AcDbLine
 10
1006.445234732453
 20
164.0254123170593
 30
0.0
 11
1004.298698957452
 21
164.0254123170593
 31
0.0
  0
LINE
  5
1448
330
2
100
AcDbEntity
  8
0
 62
     0
 48
0.038813
100
AcDbLine
 10
1006.445234732453
 20
170.1966236670603
 30
0.0
 11
1006.445234732453
 21
164.0254123170593
 31
0.0
  0
LINE
  5
1449
330
2
100
AcDbEntity
  8
0
 62
     0
 48
0.00945
100
AcDbLine
 10
1007.947744982454
 20
170.1966236670603
 30
0.0
 11
1006.445234732453
 21
170.1966236670603
 31
0.0
  0
LINE
  5
144A
330
2
100
AcDbEntity
  8
0
 62
     0
 48
0.005062
100
AcDbLine
 10
1007.947744982454
 20
171.0015571920603
 30
0.0
 11
1007.947744982454
 21
170.1966236670603
 31
0.0
  0
LINE
  5
144B
330
2
100
AcDbEntity
  8
0
 62
     0
 48
0.029025
100
AcDbLine
 10
1003.332789857451
 20
171.0015571920603
 30
0.0
 11
1007.947744982454
 21
171.0015571920603
 31
0.0
  0
LINE
  5
144C
330
2
100
AcDbEntity
  8
0
 62
     0
 48
0.005062
100
AcDbLine
 10
1003.332789857451
 20
170.1966236670603
 30
0.0
 11
1003.332789857451
 21
171.0015571920603
 31
0.0
  0
LINE
  5
144D
330
2
100
AcDbEntity
  8
0
 62
     0
 48
0.00945
100
AcDbLine
 10
1004.835363707451
 20
170.1966236670603
 30
0.0
 11
1003.332789857451
 21
170.1966236670603
 31
0.0
  0
LINE
  5
144E
330
2
100
AcDbEntity
  8
0
 62
     0
 48
0.023288
100
AcDbLine
 10
1004.835363707451
 20
166.4938992420593
 30
0.0
 11
1004.835363707451
 21
170.1966236670603
 31
0.0
  0
LINE
  5
144F
330
2
100
AcDbEntity
  8
0
 62
     0
 48
0.045119
100
AcDbLine
 10
999.2544358824513
 20
171.0015571920603
 30
0.0
 11
1004.835363707451
 21
166.4938992420593
 31
0.0
  0
LINE
  5
1450
330
2
100
AcDbEntity
  8
0
 62
     0
 48
0.02295
100
AcDbLine
 10
995.605389857455
 20
171.0015571920603
 30
0.0
 11
999.2544358824513
 21
171.0015571920603
 31
0.0
  0
LINE
  5
1451
330
2
100
AcDbEntity
  8
0
 62
     0
 48
0.005062
100
AcDbLine
 10
995.605389857455
 20
170.1966236670603
 30
0.0
 11
995.605389857455
 21
171.0015571920603
 31
0.0
  0
LINE
  5
1452
330
2
100
AcDbEntity
  8
0
 62
     0
 48
0.00945
100
AcDbLine
 10
997.1079637074547
 20
170.1966236670603
 30
0.0
 11
995.605389857455
 21
170.1966236670603
 31
0.0
  0
LINE
  5
1453
330
2
100
AcDbEntity
  8
0
 62
     0
 48
0.03375
100
AcDbLine
 10
997.1079637074547
 20
164.8303498170596
 30
0.0
 11
997.1079637074547
 21
170.1966236670603
 31
0.0
  0
LINE
  5
1454
330
2
100
AcDbEntity
  8
0
 62
     0
 48
0.00945
100
AcDbLine
 10
995.605389857455
 20
164.8303498170596
 30
0.0
 11
997.1079637074547
 21
164.8303498170596
 31
0.0
  0
LINE
  5
1455
330
2
100
AcDbEntity
  8
0
 62
     0
 48
0.005062
100
AcDbLine
 10
995.605389857455
 20
164.0254123170593
 30
0.0
 11
995.605389857455
 21
164.8303498170596
 31
0.0
  0
ARC
  5
1456
330
2
100
AcDbEntity
  8
0
 62
     0
100
AcDbCircle
 10
1015.728827357454
 20
160.6446986670591
 30
0.0
 40
10.625175
100
AcDbArc
 50
64.72499000000571
 51
115.2750149999926
  0
ARC
  5
1457
330
2
100
AcDbEntity
  8
0
 62
     0
100
AcDbCircle
 10
1012.670060882451
 20
167.5134867420599
 30
0.0
 40
3.112424999999998
100
AcDbArc
 50
118.3467549999865
 51
241.6532420000021
  0
ARC
  5
1458
330
2
100
AcDbEntity
  8
0
 62
     0
100
AcDbCircle
 10
1015.728827357454
 20
174.38227481706
 30
0.0
 40
10.625175
100
AcDbArc
 50
244.7249960000019
 51
295.2750069999957
  0
ARC
  5
1459
330
2
100
AcDbEntity
  8
0
 62
     0
100
AcDbCircle
 10
1018.787589857451
 20
167.5134867420599
 30
0.0
 40
3.112424999999998
100
AcDbArc
 50
298.3467619999938
 51
61.65324300002336
  0
ARC
  5
145A
330
2
100
AcDbEntity
  8
0
 62
     0
100
AcDbCircle
 10
1016.426463707453
 20
167.5134867420599
 30
0.0
 40
2.790449999999998
100
AcDbArc
 50
305.4392029999728
 51
70.52459300000333
  0
ARC
  5
145B
330
2
100
AcDbEntity
  8
0
 62
     0
100
AcDbCircle
 10
1015.728827357454
 20
168.8550253920596
 30
0.0
 40
4.293083474999998
100
AcDbArc
 50
237.3582280000003
 51
302.6417750000083
  0
ARC
  5
145C
330
2
100
AcDbEntity
  8
0
 62
     0
100
AcDbCircle
 10
1015.031246657454
 20
167.5134867420599
 30
0.0
 40
2.790449999999998
100
AcDbArc
 50
125.473455999991
 51
234.5607989999776
  0
ARC
  5
145D
330
2
100
AcDbEntity
  8
0
 62
     0
100
AcDbCircle
 10
1015.728827357454
 20
166.1718884670599
 30
0.0
 40
4.293
100
AcDbArc
 50
67.71515100001757
 51
122.6640080000112
  0
ARC
  5
145E
330
2
100
AcDbEntity
  8
0
 62
     0
100
AcDbCircle
 10
964.159180757451
 20
164.8840282170597
 30
0.0
 40
5.419912499999997
100
AcDbArc
 50
47.61290100002042
 51
130.836589999987
  0
ARC
  5
145F
330
2
100
AcDbEntity
  8
0
 62
     0
100
AcDbCircle
 10
965.6616949824524
 20
167.5134867420599
 30
0.0
 40
2.552415074999998
100
AcDbArc
 50
22.23683299998798
 51
32.56157500000806
  0
LINE
  5
1460
330
2
100
AcDbEntity
  8
0
 62
     0
 48
0.009779
100
AcDbLine
 10
969.5790733824546
 20
168.4793958420598
 30
0.0
 11
968.0242759824535
 21
168.4793958420598
 31
0.0
  0
LINE
  5
1461
330
2
100
AcDbEntity
  8
0
 62
     0
 48
0.015863
100
AcDbLine
 10
969.5790733824546
 20
168.4793958420598
 30
0.0
 11
969.5790733824546
 21
171.0015571920603
 31
0.0
  0
LINE
  5
1462
330
2
100
AcDbEntity
  8
0
 62
     0
 48
0.007425
100
AcDbLine
 10
969.5790733824546
 20
171.0015571920603
 30
0.0
 11
968.3985103074515
 21
171.0015571920603
 31
0.0
  0
LINE
  5
1463
330
2
100
AcDbEntity
  8
0
 62
     0
 48
0.006848
100
AcDbLine
 10
968.3985103074515
 20
171.0015571920603
 30
0.0
 11
968.3985103074515
 21
169.9127649420595
 31
0.0
  0
ARC
  5
1464
330
2
100
AcDbEntity
  8
0
 62
     0
100
AcDbCircle
 10
965.6616949824524
 20
166.5475776420594
 30
0.0
 40
4.337571674999998
100
AcDbArc
 50
50.87978999997882
 51
69.67686400002114
  0
ARC
  5
1465
330
2
100
AcDbEntity
  8
0
 62
     0
100
AcDbCircle
 10
963.5152228074508
 20
160.7519958420603
 30
0.0
 40
10.51785
100
AcDbArc
 50
69.67686400002114
 51
114.9026059999943
  0
ARC
  5
1466
330
2
100
AcDbEntity
  8
0
 62
     0
100
AcDbCircle
 10
960.7247887074514
 20
167.5134867420599
 30
0.0
 40
3.2255535
100
AcDbArc
 50
120.5264329999962
 51
239.4735629999979
  0
ARC
  5
1467
330
2
100
AcDbEntity
  8
0
 62
     0
100
AcDbCircle
 10
963.5152228074508
 20
174.2749776420603
 30
0.0
 40
10.51785
100
AcDbArc
 50
245.0974039999865
 51
290.3231459999636
  0
ARC
  5
1468
330
2
100
AcDbEntity
  8
0
 62
     0
100
AcDbCircle
 10
965.6616949824524
 20
168.4793958420598
 30
0.0
 40
4.337571674999998
100
AcDbArc
 50
290.3231459999631
 51
333.5525890000089
  0
LINE
  5
1469
330
2
100
AcDbEntity
  8
0
 62
     0
 48
0.009566
100
AcDbLine
 10
969.54534948245
 20
166.5475776420594
 30
0.0
 11
968.0242759824535
 21
166.5475776420594
 31
0.0
  0
ARC
  5
146A
330
2
100
AcDbEntity
  8
0
 62
     0
100
AcDbCircle
 10
965.6616949824524
 20
167.5134867420599
 30
0.0
 40
2.552415074999998
100
AcDbArc
 50
299.7448729999931
 51
337.763153999997
  0
ARC
  5
146B
330
2
100
AcDbEntity
  8
0
 62
     0
100
AcDbCircle
 10
964.159180757451
 20
170.1429452670602
 30
0.0
 40
5.580899999999997
100
AcDbArc
 50
242.0490359999744
 51
299.7448729999931
  0
ARC
  5
146C
330
2
100
AcDbEntity
  8
0
 62
     0
100
AcDbCircle
 10
962.7639637074514
 20
167.5134867420599
 30
0.0
 40
2.604201374999999
100
AcDbArc
 50
145.6044559999991
 51
242.0490359999811
  0
CIRCLE
  5
146F
330
2
100
AcDbEntity
  8
0
 62
     0
100
AcDbCircle
 10
1069.400014857452
 20
204.757099817057
 30
0.0
 40
3.0
  0
CIRCLE
  5
1470
330
2
100
AcDbEntity
  8
0
 62
     0
100
AcDbCircle
 10
1117.400014857452
 20
204.757099817057
 30
0.0
 40
3.0
  0
LWPOLYLINE
  5
1471
330
2
100
AcDbEntity
  8
0
 62
     0
100
AcDbPolyline
 90
        4
 70
     0
 43
0.0
 10
1068.900014857452
 20
204.257099817057
 10
1066.900014857452
 20
204.257099817057
 10
1066.900014857452
 20
205.257099817057
 10
1068.900014857452
 20
205.257099817057
  0
LWPOLYLINE
  5
1472
330
2
100
AcDbEntity
  8
0
 62
     0
100
AcDbPolyline
 90
        4
 70
     0
 43
0.0
 10
1069.900014857452
 20
205.257099817057
 10
1071.900014857452
 20
205.257099817057
 10
1071.900014857452
 20
204.257099817057
 10
1069.900014857452
 20
204.257099817057
  0
LWPOLYLINE
  5
1473
330
2
100
AcDbEntity
  8
0
 62
     0
100
AcDbPolyline
 90
        4
 70
     0
 43
0.0
 10
1068.900014857452
 20
205.257099817057
 10
1068.900014857452
 20
207.257099817057
 10
1069.900014857452
 20
207.257099817057
 10
1069.900014857452
 20
205.257099817057
  0
LWPOLYLINE
  5
1474
330
2
100
AcDbEntity
  8
0
 62
     0
100
AcDbPolyline
 90
        4
 70
     0
 43
0.0
 10
1069.900014857452
 20
204.257099817057
 10
1069.900014857452
 20
202.257099817057
 10
1068.900014857452
 20
202.257099817057
 10
1068.900014857452
 20
204.257099817057
  0
LWPOLYLINE
  5
1475
330
2
100
AcDbEntity
  8
0
 62
     0
100
AcDbPolyline
 90
        4
 70
     0
 43
0.0
 10
1117.900014857452
 20
204.257099817057
 10
1119.900014857452
 20
204.257099817057
 10
1119.900014857452
 20
205.257099817057
 10
1117.900014857452
 20
205.257099817057
  0
LWPOLYLINE
  5
1476
330
2
100
AcDbEntity
  8
0
 62
     0
100
AcDbPolyline
 90
        4
 70
     0
 43
0.0
 10
1116.900014857452
 20
205.257099817057
 10
1114.900014857452
 20
205.257099817057
 10
1114.900014857452
 20
204.257099817057
 10
1116.900014857452
 20
204.257099817057
  0
LWPOLYLINE
  5
1477
330
2
100
AcDbEntity
  8
0
 62
     0
100
AcDbPolyline
 90
        4
 70
     0
 43
0.0
 10
1117.900014857452
 20
205.257099817057
 10
1117.900014857452
 20
207.257099817057
 10
1116.900014857452
 20
207.257099817057
 10
1116.900014857452
 20
205.257099817057
  0
LWPOLYLINE
  5
1478
330
2
100
AcDbEntity
  8
0
 62
     0
100
AcDbPolyline
 90
        4
 70
     0
 43
0.0
 10
1116.900014857452
 20
204.257099817057
 10
1116.900014857452
 20
202.257099817057
 10
1117.900014857452
 20
202.257099817057
 10
1117.900014857452
 20
204.257099817057
  0
LINE
  5
1479
330
2
100
AcDbEntity
  8
0
 62
     0
 48
0.2
100
AcDbLine
 10
1033.400014857452
 20
285.2570998170603
 30
0.0
 11
1040.400014857452
 21
285.2570998170603
 31
0.0
  0
LINE
  5
147A
330
2
100
AcDbEntity
  8
0
 62
     0
 48
0.2
100
AcDbLine
 10
1040.400014857452
 20
285.2570998170603
 30
0.0
 11
1040.900014857452
 21
284.7570998170603
 31
0.0
  0
LINE
  5
147B
330
2
100
AcDbEntity
  8
0
 62
     4
 48
0.2
100
AcDbLine
 10
1033.400014857452
 20
284.7570998170603
 30
0.0
 11
1040.900014857452
 21
284.7570998170603
 31
0.0
  0
LINE
  5
147C
330
2
100
AcDbEntity
  8
0
 62
     0
 48
0.2
100
AcDbLine
 10
1040.900014857452
 20
284.7570998170603
 30
0.0
 11
1040.900014857452
 21
268.2570998170565
 31
0.0
  0
LINE
  5
147D
330
2
100
AcDbEntity
  8
0
 62
     4
 48
0.2
100
AcDbLine
 10
1040.400014857452
 20
285.2570998170603
 30
0.0
 11
1040.400014857452
 21
268.2570998170567
 31
0.0
  0
LINE
  5
147E
330
2
100
AcDbEntity
  8
0
 62
     4
 48
0.2
100
AcDbLine
 10
1033.400014857452
 20
181.2570998170602
 30
0.0
 11
1040.900014857452
 21
181.2570998170602
 31
0.0
  0
LINE
  5
147F
330
2
100
AcDbEntity
  8
0
 62
     0
 48
0.2
100
AcDbLine
 10
1040.900014857452
 20
181.2570998170602
 30
0.0
 11
1040.900014857452
 21
164.2570998170602
 31
0.0
  0
LINE
  5
1480
330
2
100
AcDbEntity
  8
0
 62
     4
 48
0.2
100
AcDbLine
 10
1040.900014857452
 20
164.2570998170602
 30
0.0
 11
1033.400014857452
 21
164.2570998170602
 31
0.0
  0
LINE
  5
1481
330
2
100
AcDbEntity
  8
0
 62
     0
 48
0.2
100
AcDbLine
 10
1033.400014857452
 20
181.7570998170602
 30
0.0
 11
1040.400014857452
 21
181.7570998170602
 31
0.0
  0
LINE
  5
1482
330
2
100
AcDbEntity
  8
0
 62
     0
 48
0.2
100
AcDbLine
 10
1040.400014857452
 20
181.7570998170602
 30
0.0
 11
1040.900014857452
 21
181.2570998170602
 31
0.0
  0
LINE
  5
1483
330
2
100
AcDbEntity
  8
0
 62
     0
 48
0.2
100
AcDbLine
 10
1040.900014857452
 20
181.2570998170602
 30
0.0
 11
1040.900014857452
 21
164.2570998170602
 31
0.0
  0
LINE
  5
1484
330
2
100
AcDbEntity
  8
0
 62
     0
 48
0.2
100
AcDbLine
 10
1040.900014857452
 20
164.2570998170602
 30
0.0
 11
1040.400014857452
 21
163.7570998170602
 31
0.0
  0
LINE
  5
1485
330
2
100
AcDbEntity
  8
0
 62
     0
 48
0.2
100
AcDbLine
 10
1040.400014857452
 20
163.7570998170602
 30
0.0
 11
1033.400014857452
 21
163.7570998170602
 31
0.0
  0
LINE
  5
1486
330
2
100
AcDbEntity
  8
0
 62
     4
 48
0.2
100
AcDbLine
 10
1040.400014857452
 20
181.7570998170602
 30
0.0
 11
1040.400014857452
 21
163.7570998170602
 31
0.0
  0
LINE
  5
1487
330
2
100
AcDbEntity
  8
0
 62
     0
 48
0.2
100
AcDbLine
 10
1033.400014857452
 20
66.75709981706018
 30
0.0
 11
1040.400014857452
 21
66.75709981706018
 31
0.0
  0
LINE
  5
1488
330
2
100
AcDbEntity
  8
0
 62
     4
 48
0.2
100
AcDbLine
 10
1033.400014857452
 20
84.25709981705995
 30
0.0
 11
1040.900014857452
 21
84.25709981705995
 31
0.0
  0
LINE
  5
1489
330
2
100
AcDbEntity
  8
0
 62
     0
 48
0.2
100
AcDbLine
 10
1040.900014857452
 20
84.25709981705995
 30
0.0
 11
1040.900014857452
 21
67.25709981706017
 31
0.0
  0
LINE
  5
148A
330
2
100
AcDbEntity
  8
0
 62
     4
 48
0.2
100
AcDbLine
 10
1040.900014857452
 20
67.25709981706017
 30
0.0
 11
1033.400014857452
 21
67.25709981706017
 31
0.0
  0
LINE
  5
148B
330
2
100
AcDbEntity
  8
0
 62
     0
 48
0.2
100
AcDbLine
 10
1033.400014857452
 20
84.75709981705994
 30
0.0
 11
1040.400014857452
 21
84.75709981705994
 31
0.0
  0
LINE
  5
148C
330
2
100
AcDbEntity
  8
0
 62
     0
 48
0.2
100
AcDbLine
 10
1040.400014857452
 20
84.75709981705994
 30
0.0
 11
1040.900014857452
 21
84.25709981705995
 31
0.0
  0
LINE
  5
148D
330
2
100
AcDbEntity
  8
0
 62
     0
 48
0.2
100
AcDbLine
 10
1040.900014857452
 20
84.25709981705995
 30
0.0
 11
1040.900014857452
 21
67.25709981706017
 31
0.0
  0
LINE
  5
148E
330
2
100
AcDbEntity
  8
0
 62
     0
 48
0.2
100
AcDbLine
 10
1040.900014857452
 20
67.25709981706017
 30
0.0
 11
1040.400014857452
 21
66.75709981706018
 31
0.0
  0
LINE
  5
148F
330
2
100
AcDbEntity
  8
0
 62
     4
 48
0.2
100
AcDbLine
 10
1040.400014857452
 20
84.75709981705994
 30
0.0
 11
1040.400014857452
 21
66.75709981706018
 31
0.0
  0
LINE
  5
1490
330
2
100
AcDbEntity
  8
0
 62
     0
 48
0.2
100
AcDbLine
 10
1095.564176616766
 20
189.257099817057
 30
0.0
 11
1095.564176616766
 21
171.8570998170569
 31
0.0
  0
LINE
  5
1491
330
2
100
AcDbEntity
  8
0
 62
     0
 48
0.2
100
AcDbLine
 10
1095.564176616766
 20
171.8570998170569
 30
0.0
 11
1069.064176616765
 21
171.8570998170569
 31
0.0
  0
LINE
  5
1492
330
2
100
AcDbEntity
  8
0
 62
     0
 48
0.2
100
AcDbLine
 10
1069.064176616765
 20
171.8570998170569
 30
0.0
 11
1069.064176616765
 21
189.257099817057
 31
0.0
  0
LINE
  5
1493
330
2
100
AcDbEntity
  8
0
 62
     0
 48
0.5
100
AcDbLine
 10
1066.314176616765
 20
189.257099817057
 30
0.0
 11
1066.314176616765
 21
169.1070998170571
 31
0.0
  0
LINE
  5
1494
330
2
100
AcDbEntity
  8
0
 62
     0
 48
0.5
100
AcDbLine
 10
1098.314176616765
 20
189.257099817057
 30
0.0
 11
1098.314176616765
 21
169.1070998170569
 31
0.0
  0
LINE
  5
1495
330
2
100
AcDbEntity
  8
0
 62
     0
 48
0.2
100
AcDbLine
 10
1095.564176616766
 20
171.8570998170569
 30
0.0
 11
1069.064176616765
 21
171.8570998170569
 31
0.0
  0
LINE
  5
1496
330
2
100
AcDbEntity
  8
0
 62
     0
 48
0.5
100
AcDbLine
 10
1098.314176616765
 20
169.1070998170569
 30
0.0
 11
1066.314176616765
 21
169.1070998170571
 31
0.0
  0
LINE
  5
1497
330
2
100
AcDbEntity
  8
0
 62
     0
 48
0.5
100
AcDbLine
 10
1069.064176616765
 20
171.8570998170569
 30
0.0
 11
1066.314176616765
 21
169.1070998170571
 31
0.0
  0
LINE
  5
1498
330
2
100
AcDbEntity
  8
0
 62
     0
 48
0.5
100
AcDbLine
 10
1095.564176616766
 20
171.8570998170569
 30
0.0
 11
1098.314176616765
 21
169.1070998170569
 31
0.0
  0
ENDSEC
  0
SECTION
  2
OBJECTS
  0
DICTIONARY
  5
9
330
0
100
AcDbDictionary
281
     1
  3
ACAD_CIP_PREVIOUS_PRODUCT_INFO
350
3B8
  3
ACAD_COLOR
350
4B
  3
ACAD_DETAILVIEWSTYLE
350
3B3
  3
ACAD_GROUP
350
3F
  3
ACAD_LAYOUT
350
20
  3
ACAD_MATERIAL
350
B
  3
ACAD_MLEADERSTYLE
350
4E
  3
ACAD_MLINESTYLE
350
40
  3
ACAD_PLOTSETTINGS
350
41
  3
ACAD_PLOTSTYLENAME
350
8
  3
ACAD_SCALELIST
350
4C
  3
ACAD_SECTIONVIEWSTYLE
350
3B1
  3
ACAD_TABLESTYLE
350
4D
  3
ACAD_VISUALSTYLE
350
31
  3
ACDB_RECOMPOSE_DATA
350
1517
  3
AcDbVariableDictionary
350
383
  3
DWGPROPS
350
1518
  0
DICTIONARY
  5
3BD
330
25
100
AcDbDictionary
280
     1
281
     1
  3
ACAD_LAYERSTATES
360
3BE
  0
DICTIONARY
  5
5
330
4
100
AcDbDictionary
280
     1
281
     1
  3
ADSK_XREC_LAYER_RECONCILED
360
6
  0
XRECORD
  5
3B8
102
{ACAD_REACTORS
330
9
102
}
330
9
100
AcDbXrecord
280
     1
300
ACDLT
300
2020
300

  0
DICTIONARY
  5
4B
102
{ACAD_REACTORS
330
9
102
}
330
9
100
AcDbDictionary
281
     1
  0
DICTIONARY
  5
3B3
102
{ACAD_REACTORS
330
9
102
}
330
9
100
AcDbDictionary
281
     1
  3
Imperial24
350
3B4
  0
DICTIONARY
  5
3F
102
{ACAD_REACTORS
330
9
102
}
330
9
100
AcDbDictionary
281
     1
  0
DICTIONARY
  5
20
102
{ACAD_REACTORS
330
9
102
}
330
9
100
AcDbDictionary
281
     1
  3
Model
350
1F
  3
レイアウト1
350
24
  0
DICTIONARY
  5
B
102
{ACAD_REACTORS
330
9
102
}
330
9
100
AcDbDictionary
281
     1
  3
ByBlock
350
42
  3
ByLayer
350
15
  3
Global
350
A
  0
DICTIONARY
  5
4E
102
{ACAD_REACTORS
330
9
102
}
330
9
100
AcDbDictionary
281
     1
  3
Standard
350
3B0
  0
DICTIONARY
  5
40
102
{ACAD_REACTORS
330
9
102
}
330
9
100
AcDbDictionary
281
     1
  3
STANDARD
350
56
  0
DICTIONARY
  5
41
102
{ACAD_REACTORS
330
9
102
}
330
9
100
AcDbDictionary
281
     1
  0
ACDBDICTIONARYWDFLT
  5
8
102
{ACAD_REACTORS
330
9
102
}
330
9
100
AcDbDictionary
281
     1
  3
Normal
350
7
100
AcDbDictionaryWithDefault
340
7
  0
DICTIONARY
  5
4C
102
{ACAD_REACTORS
330
9
102
}
330
9
100
AcDbDictionary
281
     1
  3
A0
350
5B
  3
A1
350
5C
  3
A2
350
5D
  3
A3
350
5E
  3
A4
350
5F
  3
A5
350
60
  3
A6
350
61
  3
A7
350
62
  3
A8
350
63
  3
A9
350
64
  3
B0
350
65
  3
B1
350
66
  3
B2
350
67
  3
B3
350
68
  3
B4
350
69
  3
B5
350
6A
  3
B6
350
6B
  0
DICTIONARY
  5
3B1
102
{ACAD_REACTORS
330
9
102
}
330
9
100
AcDbDictionary
281
     1
  3
Imperial24
350
3B2
  0
DICTIONARY
  5
4D
102
{ACAD_REACTORS
330
9
102
}
330
9
100
AcDbDictionary
281
     1
  3
Standard
350
57
  0
DICTIONARY
  5
31
102
{ACAD_REACTORS
330
9
102
}
330
9
100
AcDbDictionary
281
     1
  3
2dWireframe
350
30
  3
Basic
350
39F
  3
Brighten
350
3A3
  3
ColorChange
350
3A7
  3
Conceptual
350
3A1
  3
Dim
350
3A2
  3
EdgeColorOff
350
3AF
  3
Facepattern
350
3A6
  3
Flat
350
39B
  3
FlatWithEdges
350
39C
  3
Gouraud
350
39D
  3
GouraudWithEdges
350
39E
  3
Hidden
350
3A0
  3
JitterOff
350
3AD
  3
Linepattern
350
3A5
  3
OverhangOff
350
3AE
  3
Realistic
350
59
  3
Shaded
350
3AC
  3
Shaded with edges
350
3AB
  3
Shades of Gray
350
3A8
  3
Sketchy
350
3A9
  3
Thicken
350
3A4
  3
Wireframe
350
5A
  3
X-Ray
350
3AA
  0
XRECORD
  5
1517
102
{ACAD_REACTORS
330
9
102
}
330
9
100
AcDbXrecord
280
     1
 90
        1
330
57
  0
DICTIONARY
  5
383
102
{ACAD_REACTORS
330
9
102
}
330
9
100
AcDbDictionary
281
     1
  3
CANNOSCALE
350
386
  3
CMLEADERSTYLE
350
385
  3
CTABLESTYLE
350
384
  3
CVIEWDETAILSTYLE
350
F9B
  3
CVIEWSECTIONSTYLE
350
F9C
  3
DIMASSOC
350
38A
  3
HIDETEXT
350
389
  3
INDEXCTL
350
388
  3
LAYEREVAL
350
F9F
  3
LAYERNOTIFY
350
FA0
  3
LIGHTINGUNITS
350
F9E
  3
LOFTANG1
350
1513
  3
LOFTANG2
350
1514
  3
MSLTSCALE
350
F9D
  3
SORTENTS
350
387
  3
XCLIPFRAME
350
1515
  0
XRECORD
  5
1518
102
{ACAD_REACTORS
330
9
102
}
330
9
100
AcDbXrecord
280
     1
  1
DWGPROPS COOKIE
  2

  3

  4

  6

  7

  8
yanase-ka
  9

300
=
301
=
302
=
303
=
304
=
305
=
306
=
307
=
308
=
309
=
 40
0.3773508796296296
 41
2450690.700081019
 42
2459548.436828704
  1

 90
        0
  0
DICTIONARY
  5
3BE
102
{ACAD_REACTORS
330
3BD
102
}
330
3BD
100
AcDbDictionary
281
     1
  0
XRECORD
  5
6
102
{ACAD_REACTORS
330
5
102
}
330
5
100
AcDbXrecord
280
     1
290
     1
  0
ACDBDETAILVIEWSTYLE
  5
3B4
102
{ACAD_XDICTIONARY
360
1550
102
}
102
{ACAD_REACTORS
330
3B3
102
}
330
3B3
100
AcDbModelDocViewStyle
 70
     0
  3
Imperial24
290
     0
100
AcDbDetailViewStyle
 70
     0
 71
     0
 90
        3
 71
     1
340
27
 40
0.24
340
0
 40
0.24
300

 40
0.36
280
     3
 71
     2
340
14
 90
       25
 71
     3
340
27
 40
0.24
 90
        1
 40
0.75
 90
        1
300
%<\AcVar ViewType \f "%tc1">% %<\AcVar ViewDetailId>%\PSCALE %<\AcVar ViewScale \f "%sn">%
 71
     4
340
14
 90
       25
340
14
 90
       25
280
     0
  0
LAYOUT
  5
1F
102
{ACAD_XDICTIONARY
360
1519
102
}
102
{ACAD_REACTORS
330
20
102
}
330
20
100
AcDbPlotSettings
  1

  2
C:\Users\onodera\appdata\roaming\autodesk\autocad lt 2012 - japanese\r17\jpn\plotters\postscript level 1 plus.pc3
  4

  6

 40
0.0
 41
0.0
 42
0.0
 43
0.0
 44
0.0
 45
0.0
 46
0.0
 47
0.0
 48
0.0
 49
0.0
140
0.0
141
0.0
142
1.0
143
1.0
 70
  1712
 72
     0
 73
     0
 74
     0
  7

 75
     0
147
1.0
148
0.0
149
0.0
100
AcDbLayout
  1
Model
 70
     1
 71
     0
 10
0.0
 20
0.0
 11
12.0
 21
9.0
 12
0.0
 22
0.0
 32
0.0
 14
0.0
 24
0.0
 34
0.0
 15
0.0
 25
0.0
 35
0.0
146
0.0
 13
0.0
 23
0.0
 33
0.0
 16
1.0
 26
0.0
 36
0.0
 17
0.0
 27
1.0
 37
0.0
 76
     0
330
2
331
2F
  0
LAYOUT
  5
24
102
{ACAD_XDICTIONARY
360
151B
102
}
102
{ACAD_REACTORS
330
20
102
}
330
20
100
AcDbPlotSettings
  1

  2
C:\Users\onodera\appdata\roaming\autodesk\autocad lt 2012 - japanese\r17\jpn\plotters\postscript level 1 plus.pc3
  4

  6

 40
0.0
 41
0.0
 42
0.0
 43
0.0
 44
0.0
 45
0.0
 46
0.0
 47
0.0
 48
0.0
 49
0.0
140
0.0
141
0.0
142
1.0
143
1.0
 70
   688
 72
     0
 73
     0
 74
     5
  7

 75
    16
147
1.0
148
0.0
149
0.0
100
AcDbLayout
  1
レイアウト1
 70
     0
 71
     1
 10
0.0
 20
0.0
 11
12.0
 21
9.0
 12
0.0
 22
0.0
 32
0.0
 14
1.000000000000000E+20
 24
1.000000000000000E+20
 34
1.000000000000000E+20
 15
-1.000000000000000E+20
 25
-1.000000000000000E+20
 35
-1.000000000000000E+20
146
0.0
 13
0.0
 23
0.0
 33
0.0
 16
1.0
 26
0.0
 36
0.0
 17
0.0
 27
1.0
 37
0.0
 76
     0
330
21
  0
MATERIAL
  5
42
102
{ACAD_XDICTIONARY
360
43
102
}
102
{ACAD_REACTORS
330
B
102
}
330
B
100
AcDbMaterial
  1
ByBlock
 72
     0
 43
0.0208333333333333
 43
0.0
 43
0.0
 43
0.0
 43
0.0
 43
0.0208333333333333
 43
0.0
 43
0.0
 43
0.0
 43
0.0
 43
1.0
 43
0.0
 43
0.0
 43
0.0
 43
0.0
 43
1.0
 77
     0
 47
0.0208333333333333
 47
0.0
 47
0.0
 47
0.0
 47
0.0
 47
0.0208333333333333
 47
0.0
 47
0.0
 47
0.0
 47
0.0
 47
1.0
 47
0.0
 47
0.0
 47
0.0
 47
0.0
 47
1.0
171
     0
 49
0.0208333333333333
 49
0.0
 49
0.0
 49
0.0
 49
0.0
 49
0.0208333333333333
 49
0.0
 49
0.0
 49
0.0
 49
0.0
 49
1.0
 49
0.0
 49
0.0
 49
0.0
 49
0.0
 49
1.0
175
     0
142
0.0208333333333333
142
0.0
142
0.0
142
0.0
142
0.0
142
0.0208333333333333
142
0.0
142
0.0
142
0.0
142
0.0
142
1.0
142
0.0
142
0.0
142
0.0
142
0.0
142
1.0
179
     0
144
0.0208333333333333
144
0.0
144
0.0
144
0.0
144
0.0
144
0.0208333333333333
144
0.0
144
0.0
144
0.0
144
0.0
144
1.0
144
0.0
144
0.0
144
0.0
144
0.0
144
1.0
147
0.0208333333333333
147
0.0
147
0.0
147
0.0
147
0.0
147
0.0208333333333333
147
0.0
147
0.0
147
0.0
147
0.0
147
1.0
147
0.0
147
0.0
147
0.0
147
0.0
147
1.0
  0
MATERIAL
  5
15
102
{ACAD_XDICTIONARY
360
16
102
}
102
{ACAD_REACTORS
330
B
102
}
330
B
100
AcDbMaterial
  1
ByLayer
 72
     0
 43
0.0208333333333333
 43
0.0
 43
0.0
 43
0.0
 43
0.0
 43
0.0208333333333333
 43
0.0
 43
0.0
 43
0.0
 43
0.0
 43
1.0
 43
0.0
 43
0.0
 43
0.0
 43
0.0
 43
1.0
 77
     0
 47
0.0208333333333333
 47
0.0
 47
0.0
 47
0.0
 47
0.0
 47
0.0208333333333333
 47
0.0
 47
0.0
 47
0.0
 47
0.0
 47
1.0
 47
0.0
 47
0.0
 47
0.0
 47
0.0
 47
1.0
171
     0
 49
0.0208333333333333
 49
0.0
 49
0.0
 49
0.0
 49
0.0
 49
0.0208333333333333
 49
0.0
 49
0.0
 49
0.0
 49
0.0
 49
1.0
 49
0.0
 49
0.0
 49
0.0
 49
0.0
 49
1.0
175
     0
142
0.0208333333333333
142
0.0
142
0.0
142
0.0
142
0.0
142
0.0208333333333333
142
0.0
142
0.0
142
0.0
142
0.0
142
1.0
142
0.0
142
0.0
142
0.0
142
0.0
142
1.0
179
     0
144
0.0208333333333333
144
0.0
144
0.0
144
0.0
144
0.0
144
0.0208333333333333
144
0.0
144
0.0
144
0.0
144
0.0
144
1.0
144
0.0
144
0.0
144
0.0
144
0.0
144
1.0
147
0.0208333333333333
147
0.0
147
0.0
147
0.0
147
0.0
147
0.0208333333333333
147
0.0
147
0.0
147
0.0
147
0.0
147
1.0
147
0.0
147
0.0
147
0.0
147
0.0
147
1.0
  0
MATERIAL
  5
A
102
{ACAD_XDICTIONARY
360
C
102
}
102
{ACAD_REACTORS
330
B
102
}
330
B
100
AcDbMaterial
  1
Global
 72
     0
 43
0.0208333333333333
 43
0.0
 43
0.0
 43
0.0
 43
0.0
 43
0.0208333333333333
 43
0.0
 43
0.0
 43
0.0
 43
0.0
 43
1.0
 43
0.0
 43
0.0
 43
0.0
 43
0.0
 43
1.0
 77
     0
 47
0.0208333333333333
 47
0.0
 47
0.0
 47
0.0
 47
0.0
 47
0.0208333333333333
 47
0.0
 47
0.0
 47
0.0
 47
0.0
 47
1.0
 47
0.0
 47
0.0
 47
0.0
 47
0.0
 47
1.0
171
     0
 49
0.0208333333333333
 49
0.0
 49
0.0
 49
0.0
 49
0.0
 49
0.0208333333333333
 49
0.0
 49
0.0
 49
0.0
 49
0.0
 49
1.0
 49
0.0
 49
0.0
 49
0.0
 49
0.0
 49
1.0
175
     0
142
0.0208333333333333
142
0.0
142
0.0
142
0.0
142
0.0
142
0.0208333333333333
142
0.0
142
0.0
142
0.0
142
0.0
142
1.0
142
0.0
142
0.0
142
0.0
142
0.0
142
1.0
179
     0
144
0.0208333333333333
144
0.0
144
0.0
144
0.0
144
0.0
144
0.0208333333333333
144
0.0
144
0.0
144
0.0
144
0.0
144
1.0
144
0.0
144
0.0
144
0.0
144
0.0
144
1.0
147
0.0208333333333333
147
0.0
147
0.0
147
0.0
147
0.0
147
0.0208333333333333
147
0.0
147
0.0
147
0.0
147
0.0
147
1.0
147
0.0
147
0.0
147
0.0
147
0.0
147
1.0
  0
MLEADERSTYLE
  5
3B0
102
{ACAD_REACTORS
330
4E
102
}
330
4E
100
AcDbMLeaderStyle
170
     2
171
     1
172
     0
 90
        2
 40
0.0
 41
0.0
173
     1
 91
-1056964608
340
2A
 92
       -2
290
     1
 42
0.09
291
     1
 43
0.36
  3
Standard
 44
0.18
300

342
27
174
     1
178
     6
175
     1
176
     0
 93
-1056964608
 45
0.18
292
     0
297
     0
 46
0.18
 94
-1056964608
 47
1.0
 49
1.0
140
1.0
293
     1
141
0.0
294
     1
177
     0
142
1.0
295
     0
296
     0
143
0.125
1001
ACAD_MLEADERVER
1070
     2
  0
MLINESTYLE
  5
56
102
{ACAD_REACTORS
330
40
102
}
330
40
100
AcDbMlineStyle
  2
STANDARD
 70
     0
  3

 62
     0
 51
90.0
 52
90.0
 71
     2
 49
0.5
 62
   256
  6
BYLAYER
 49
-0.5
 62
   256
  6
BYLAYER
  0
ACDBPLACEHOLDER
  5
7
102
{ACAD_REACTORS
330
8
102
}
330
8
  0
SCALE
  5
5B
102
{ACAD_REACTORS
330
4C
102
}
330
4C
100
AcDbScale
 70
     0
300
1:1
140
1.0
141
1.0
290
     1
  0
SCALE
  5
5C
102
{ACAD_REACTORS
330
4C
102
}
330
4C
100
AcDbScale
 70
     0
300
1/128" = 1'-0"
140
0.0078125
141
12.0
290
     0
  0
SCALE
  5
5D
102
{ACAD_REACTORS
330
4C
102
}
330
4C
100
AcDbScale
 70
     0
300
1/64" = 1'-0"
140
0.015625
141
12.0
290
     0
  0
SCALE
  5
5E
102
{ACAD_REACTORS
330
4C
102
}
330
4C
100
AcDbScale
 70
     0
300
1/32" = 1'-0"
140
0.03125
141
12.0
290
     0
  0
SCALE
  5
5F
102
{ACAD_REACTORS
330
4C
102
}
330
4C
100
AcDbScale
 70
     0
300
1/16" = 1'-0"
140
0.0625
141
12.0
290
     0
  0
SCALE
  5
60
102
{ACAD_REACTORS
330
4C
102
}
330
4C
100
AcDbScale
 70
     0
300
3/32" = 1'-0"
140
0.09375
141
12.0
290
     0
  0
SCALE
  5
61
102
{ACAD_REACTORS
330
4C
102
}
330
4C
100
AcDbScale
 70
     0
300
1/8" = 1'-0"
140
0.125
141
12.0
290
     0
  0
SCALE
  5
62
102
{ACAD_REACTORS
330
4C
102
}
330
4C
100
AcDbScale
 70
     0
300
3/16" = 1'-0"
140
0.1875
141
12.0
290
     0
  0
SCALE
  5
63
102
{ACAD_REACTORS
330
4C
102
}
330
4C
100
AcDbScale
 70
     0
300
1/4" = 1'-0"
140
0.25
141
12.0
290
     0
  0
SCALE
  5
64
102
{ACAD_REACTORS
330
4C
102
}
330
4C
100
AcDbScale
 70
     0
300
3/8" = 1'-0"
140
0.375
141
12.0
290
     0
  0
SCALE
  5
65
102
{ACAD_REACTORS
330
4C
102
}
330
4C
100
AcDbScale
 70
     0
300
1/2" = 1'-0"
140
0.5
141
12.0
290
     0
  0
SCALE
  5
66
102
{ACAD_REACTORS
330
4C
102
}
330
4C
100
AcDbScale
 70
     0
300
3/4" = 1'-0"
140
0.75
141
12.0
290
     0
  0
SCALE
  5
67
102
{ACAD_REACTORS
330
4C
102
}
330
4C
100
AcDbScale
 70
     0
300
1" = 1'-0"
140
1.0
141
12.0
290
     0
  0
SCALE
  5
68
102
{ACAD_REACTORS
330
4C
102
}
330
4C
100
AcDbScale
 70
     0
300
1-1/2" = 1'-0"
140
1.5
141
12.0
290
     0
  0
SCALE
  5
69
102
{ACAD_REACTORS
330
4C
102
}
330
4C
100
AcDbScale
 70
     0
300
3" = 1'-0"
140
3.0
141
12.0
290
     0
  0
SCALE
  5
6A
102
{ACAD_REACTORS
330
4C
102
}
330
4C
100
AcDbScale
 70
     0
300
6" = 1'-0"
140
6.0
141
12.0
290
     0
  0
SCALE
  5
6B
102
{ACAD_REACTORS
330
4C
102
}
330
4C
100
AcDbScale
 70
     0
300
1'-0" = 1'-0"
140
12.0
141
12.0
290
     0
  0
ACDBSECTIONVIEWSTYLE
  5
3B2
102
{ACAD_XDICTIONARY
360
154E
102
}
102
{ACAD_REACTORS
330
3B1
102
}
330
3B1
100
AcDbModelDocViewStyle
 70
     0
  3
Imperial24
290
     0
100
AcDbSectionViewStyle
 70
     0
 71
     0
 90
       78
 71
     1
340
27
 40
0.24
340
0
340
0
 40
0.24
300
I, O, Q, S, X, Z
 40
0.48
 90
        3
 40
0.18
 90
        1
 71
     2
340
14
 90
       25
340
14
 90
       50
 40
0.24
 40
0.0
 40
0.24
 71
     3
340
27
 40
0.24
 90
        1
 40
0.75
 90
        1
300
%<\AcVar ViewType \f "%tc1">% %<\AcVar ViewSectionStartId>%-%<\AcVar ViewSectionEndId>%\PSCALE %<\AcVar ViewScale \f "%sn">%
 71
     4
300
ANSI31
 40
1.0
 90
        0
290
     0
290
     0
 90
        6
 40
0.0
 40
1.570796326794896
 40
0.2617993877991494
 40
1.308996938995747
 40
-0.2617993877991494
 40
1.832595714594044
  0
TABLESTYLE
  5
57
102
{ACAD_XDICTIONARY
360
58
102
}
102
{ACAD_REACTORS
330
4D
102
}
330
4D
100
AcDbTableStyle
  3
Standard
 70
     0
 71
     0
 40
0.06
 41
0.06
280
     0
281
     0
  7
STANDARD
140
0.18
170
     2
 62
     0
 63
     7
283
     0
274
    -2
284
     1
 64
     0
275
    -2
285
     1
 65
     0
276
    -2
286
     1
 66
     0
277
    -2
287
     1
 67
     0
278
    -2
288
     1
 68
     0
279
    -2
289
     1
 69
     0
  7
STANDARD
140
0.25
170
     5
 62
     0
 63
     7
283
     0
274
    -2
284
     1
 64
     0
275
    -2
285
     1
 65
     0
276
    -2
286
     1
 66
     0
277
    -2
287
     1
 67
     0
278
    -2
288
     1
 68
     0
279
    -2
289
     1
 69
     0
  7
STANDARD
140
0.18
170
     5
 62
     0
 63
     7
283
     0
274
    -2
284
     1
 64
     0
275
    -2
285
     1
 65
     0
276
    -2
286
     1
 66
     0
277
    -2
287
     1
 67
     0
278
    -2
288
     1
 68
     0
279
    -2
289
     1
 69
     0
  0
VISUALSTYLE
  5
30
102
{ACAD_XDICTIONARY
360
151D
102
}
102
{ACAD_REACTORS
330
31
102
}
330
31
100
AcDbVisualStyle
  2

 70
     4
 71
     0
 72
     2
 73
     0
 90
        0
 40
-0.6
 41
-30.0
 62
     5
 63
     7
 74
     1
 91
        4
 64
     7
 65
   257
 75
     1
175
     1
 42
1.0
 92
        0
 66
   257
 43
1.0
 76
     1
 77
     6
 78
     2
 67
     7
 79
     5
170
     0
171
     0
290
     0
174
     0
 93
        1
 44
0.0
173
     0
291
     0
 45
0.0
1001
ACAD
1000
AcDbSavedByObjectVersion
1070
     0
  0
VISUALSTYLE
  5
39F
102
{ACAD_XDICTIONARY
360
152C
102
}
102
{ACAD_REACTORS
330
31
102
}
330
31
100
AcDbVisualStyle
  2

 70
     7
 71
     1
 72
     0
 73
     1
 90
        0
 40
-0.6
 41
-30.0
 62
     5
 63
     7
 74
     0
 91
        4
 64
     7
 65
   257
 75
     1
175
     1
 42
1.0
 92
        8
 66
     7
 43
1.0
 76
     1
 77
     6
 78
     2
 67
     7
 79
     5
170
     0
171
     0
290
     0
174
     0
 93
        1
 44
0.0
173
     0
291
     1
 45
0.0
1001
ACAD
1000
AcDbSavedByObjectVersion
1070
     0
  0
VISUALSTYLE
  5
3A3
102
{ACAD_XDICTIONARY
360
1534
102
}
102
{ACAD_REACTORS
330
31
102
}
330
31
100
AcDbVisualStyle
  2

 70
    12
 71
     2
 72
     2
 73
     0
 90
        0
 40
-0.6
 41
-30.0
 62
     5
 63
     7
 74
     1
 91
        4
 64
     7
 65
   257
 75
     1
175
     1
 42
1.0
 92
        8
 66
     7
 43
1.0
 76
     1
 77
     6
 78
     2
 67
     7
 79
     5
170
     0
171
     0
290
     0
174
     0
 93
        1
 44
50.0
173
     0
291
     1
 45
0.0
1001
ACAD
1000
AcDbSavedByObjectVersion
1070
     0
  0
VISUALSTYLE
  5
3A7
102
{ACAD_XDICTIONARY
360
153C
102
}
102
{ACAD_REACTORS
330
31
102
}
330
31
100
AcDbVisualStyle
  2

 70
    16
 71
     2
 72
     2
 73
     3
 90
        0
 40
-0.6
 41
-30.0
 62
     5
 63
     8
 74
     1
 91
        4
 64
     7
 65
   257
 75
     1
175
     1
 42
1.0
 92
        8
 66
     8
 43
1.0
 76
     1
 77
     6
 78
     2
 67
     7
 79
     5
170
     0
171
     0
290
     0
174
     0
 93
        1
 44
0.0
173
     0
291
     1
 45
0.0
1001
ACAD
1000
AcDbSavedByObjectVersion
1070
     0
  0
VISUALSTYLE
  5
3A1
102
{ACAD_XDICTIONARY
360
1530
102
}
102
{ACAD_REACTORS
330
31
102
}
330
31
100
AcDbVisualStyle
  2

 70
     9
 71
     3
 72
     2
 73
     0
 90
        0
 40
-0.6
 41
-30.0
 62
     5
 63
     7
 74
     2
 91
        2
 64
     7
 65
   257
 75
     1
175
     1
 42
179.0
 92
        8
 66
     7
 43
1.0
 76
     1
 77
     6
 78
     2
 67
     7
 79
     3
170
     0
171
     0
290
     0
174
     0
 93
        1
 44
0.0
173
     0
291
     0
 45
0.0
1001
ACAD
1000
AcDbSavedByObjectVersion
1070
     0
  0
VISUALSTYLE
  5
3A2
102
{ACAD_XDICTIONARY
360
1532
102
}
102
{ACAD_REACTORS
330
31
102
}
330
31
100
AcDbVisualStyle
  2

 70
    11
 71
     2
 72
     2
 73
     0
 90
        0
 40
-0.6
 41
-30.0
 62
     5
 63
     7
 74
     1
 91
        4
 64
     7
 65
   257
 75
     1
175
     1
 42
1.0
 92
        8
 66
     7
 43
1.0
 76
     1
 77
     6
 78
     2
 67
     7
 79
     5
170
     0
171
     0
290
     0
174
     0
 93
        1
 44
-50.0
173
     0
291
     1
 45
0.0
1001
ACAD
1000
AcDbSavedByObjectVersion
1070
     0
  0
VISUALSTYLE
  5
3AF
102
{ACAD_XDICTIONARY
360
154C
102
}
102
{ACAD_REACTORS
330
31
102
}
330
31
100
AcDbVisualStyle
  2

 70
    22
 71
     2
 72
     2
 73
     0
 90
        0
 40
-0.6
 41
-30.0
 62
     5
 63
     7
 74
     1
 91
        4
 64
     7
 65
   257
 75
     1
175
     1
 42
1.0
 92
        8
 66
     7
 43
1.0
 76
     1
 77
     6
 78
     2
 67
     7
 79
     5
170
     0
171
     0
290
     0
174
     0
 93
        1
 44
0.0
173
     0
291
     1
 45
0.0
1001
ACAD
1000
AcDbSavedByObjectVersion
1070
     0
  0
VISUALSTYLE
  5
3A6
102
{ACAD_XDICTIONARY
360
153A
102
}
102
{ACAD_REACTORS
330
31
102
}
330
31
100
AcDbVisualStyle
  2

 70
    15
 71
     2
 72
     2
 73
     0
 90
        0
 40
-0.6
 41
-30.0
 62
     5
 63
     7
 74
     1
 91
        4
 64
     7
 65
   257
 75
     1
175
     1
 42
1.0
 92
        8
 66
     7
 43
1.0
 76
     1
 77
     6
 78
     2
 67
     7
 79
     5
170
     0
171
     0
290
     0
174
     0
 93
        1
 44
0.0
173
     0
291
     1
 45
0.0
1001
ACAD
1000
AcDbSavedByObjectVersion
1070
     0
  0
VISUALSTYLE
  5
39B
102
{ACAD_XDICTIONARY
360
1524
102
}
102
{ACAD_REACTORS
330
31
102
}
330
31
100
AcDbVisualStyle
  2

 70
     0
 71
     2
 72
     1
 73
     1
 90
        2
 40
-0.6
 41
30.0
 62
     5
 63
     7
 74
     0
 91
        0
 64
     7
 65
   257
 75
     1
175
     1
 42
1.0
 92
        8
 66
     7
 43
1.0
 76
     1
 77
     6
 78
     2
 67
     7
 79
     5
170
     0
171
     0
290
     0
174
     0
 93
       13
 44
0.0
173
     0
291
     1
 45
0.0
1001
ACAD
1000
AcDbSavedByObjectVersion
1070
     0
  0
VISUALSTYLE
  5
39C
102
{ACAD_XDICTIONARY
360
1526
102
}
102
{ACAD_REACTORS
330
31
102
}
330
31
100
AcDbVisualStyle
  2

 70
     1
 71
     2
 72
     1
 73
     1
 90
        2
 40
-0.6
 41
30.0
 62
     5
 63
     7
 74
     1
 91
        0
 64
     7
 65
   257
 75
     1
175
     1
 42
1.0
 92
        0
 66
   257
 43
1.0
 76
     1
 77
     6
 78
     2
 67
     7
 79
     5
170
     0
171
     0
290
     0
174
     0
 93
       13
 44
0.0
173
     0
291
     1
 45
0.0
1001
ACAD
1000
AcDbSavedByObjectVersion
1070
     0
  0
VISUALSTYLE
  5
39D
102
{ACAD_XDICTIONARY
360
1528
102
}
102
{ACAD_REACTORS
330
31
102
}
330
31
100
AcDbVisualStyle
  2

 70
     2
 71
     2
 72
     2
 73
     1
 90
        2
 40
-0.6
 41
30.0
 62
     5
 63
     7
 74
     0
 91
        0
 64
     7
 65
   257
 75
     1
175
     1
 42
1.0
 92
        0
 66
     7
 43
1.0
 76
     1
 77
     6
 78
     2
 67
     7
 79
     5
170
     0
171
     0
290
     0
174
     0
 93
       13
 44
0.0
173
     0
291
     1
 45
0.0
1001
ACAD
1000
AcDbSavedByObjectVersion
1070
     0
  0
VISUALSTYLE
  5
39E
102
{ACAD_XDICTIONARY
360
152A
102
}
102
{ACAD_REACTORS
330
31
102
}
330
31
100
AcDbVisualStyle
  2

 70
     3
 71
     2
 72
     2
 73
     1
 90
        2
 40
-0.6
 41
30.0
 62
     5
 63
     7
 74
     1
 91
        0
 64
     7
 65
   257
 75
     1
175
     1
 42
1.0
 92
        0
 66
   257
 43
1.0
 76
     1
 77
     6
 78
     2
 67
     7
 79
     5
170
     0
171
     0
290
     0
174
     0
 93
       13
 44
0.0
173
     0
291
     1
 45
0.0
1001
ACAD
1000
AcDbSavedByObjectVersion
1070
     0
  0
VISUALSTYLE
  5
3A0
102
{ACAD_XDICTIONARY
360
152E
102
}
102
{ACAD_REACTORS
330
31
102
}
330
31
100
AcDbVisualStyle
  2

 70
     6
 71
     1
 72
     2
 73
     2
 90
        0
 40
-0.6
 41
-30.0
 62
     5
 63
     7
 74
     2
 91
        2
 64
     7
 65
   257
 75
     2
175
     1
 42
40.0
 92
        0
 66
   257
 43
1.0
 76
     1
 77
     6
 78
     2
 67
     7
 79
     3
170
     0
171
     0
290
     0
174
     0
 93
        1
 44
0.0
173
     0
291
     0
 45
0.0
1001
ACAD
1000
AcDbSavedByObjectVersion
1070
     0
  0
VISUALSTYLE
  5
3AD
102
{ACAD_XDICTIONARY
360
1548
102
}
102
{ACAD_REACTORS
330
31
102
}
330
31
100
AcDbVisualStyle
  2

 70
    20
 71
     2
 72
     2
 73
     0
 90
        0
 40
-0.6
 41
-30.0
 62
     5
 63
     7
 74
     1
 91
        4
 64
     7
 65
   257
 75
     1
175
     1
 42
1.0
 92
       10
 66
     7
 43
1.0
 76
     1
 77
     6
 78
     2
 67
     7
 79
     5
170
     0
171
     0
290
     0
174
     0
 93
        1
 44
0.0
173
     0
291
     1
 45
0.0
1001
ACAD
1000
AcDbSavedByObjectVersion
1070
     0
  0
VISUALSTYLE
  5
3A5
102
{ACAD_XDICTIONARY
360
1538
102
}
102
{ACAD_REACTORS
330
31
102
}
330
31
100
AcDbVisualStyle
  2

 70
    14
 71
     2
 72
     2
 73
     0
 90
        0
 40
-0.6
 41
-30.0
 62
     5
 63
     7
 74
     1
 91
        4
 64
     7
 65
   257
 75
     7
175
     7
 42
1.0
 92
        8
 66
     7
 43
1.0
 76
     1
 77
     6
 78
     2
 67
     7
 79
     5
170
     0
171
     0
290
     0
174
     0
 93
        1
 44
0.0
173
     0
291
     1
 45
0.0
1001
ACAD
1000
AcDbSavedByObjectVersion
1070
     0
  0
VISUALSTYLE
  5
3AE
102
{ACAD_XDICTIONARY
360
154A
102
}
102
{ACAD_REACTORS
330
31
102
}
330
31
100
AcDbVisualStyle
  2

 70
    21
 71
     2
 72
     2
 73
     0
 90
        0
 40
-0.6
 41
-30.0
 62
     5
 63
     7
 74
     1
 91
        4
 64
     7
 65
   257
 75
     1
175
     1
 42
1.0
 92
        9
 66
     7
 43
1.0
 76
     1
 77
     6
 78
     2
 67
     7
 79
     5
170
     0
171
     0
290
     0
174
     0
 93
        1
 44
0.0
173
     0
291
     1
 45
0.0
1001
ACAD
1000
AcDbSavedByObjectVersion
1070
     0
  0
VISUALSTYLE
  5
59
102
{ACAD_XDICTIONARY
360
1520
102
}
102
{ACAD_REACTORS
330
31
102
}
330
31
100
AcDbVisualStyle
  2

 70
     8
 71
     2
 72
     3
 73
     0
 90
        2
 40
-0.6
 41
30.0
 62
     5
 63
     7
 74
     0
 91
        0
 64
     7
 65
   257
 75
     1
175
     1
 42
1.0
 92
        8
 66
   257
 43
1.0
 76
     1
 77
     6
 78
     2
 67
     7
 79
     3
170
     0
171
     0
290
     0
174
     0
 93
       13
 44
0.0
173
     0
291
     0
 45
0.0
1001
ACAD
1000
AcDbSavedByObjectVersion
1070
     0
  0
VISUALSTYLE
  5
3AC
102
{ACAD_XDICTIONARY
360
1546
102
}
102
{ACAD_REACTORS
330
31
102
}
330
31
100
AcDbVisualStyle
  2

 70
    27
 71
     2
 72
     2
 73
     1
 90
        2
 40
-0.6
 41
30.0
 62
     5
 63
     7
 74
     0
 91
        4
 64
     7
 65
   257
 75
     1
175
     1
 42
1.0
 92
        8
 66
   257
 43
1.0
 76
     1
 77
     6
 78
     2
 67
     8
 79
     3
170
     0
171
     0
290
     0
174
     0
 93
        5
 44
0.0
173
     0
291
     0
 45
0.0
1001
ACAD
1000
AcDbSavedByObjectVersion
1070
     0
  0
VISUALSTYLE
  5
3AB
102
{ACAD_XDICTIONARY
360
1544
102
}
102
{ACAD_REACTORS
330
31
102
}
330
31
100
AcDbVisualStyle
  2

 70
    26
 71
     2
 72
     2
 73
     1
 90
        2
 40
-0.6
 41
30.0
 62
     5
 63
     7
 74
     1
 91
        2
 64
     7
 65
   257
 75
     2
175
     1
 42
1.0
 92
        8
 66
   257
 43
1.0
 76
     1
 77
     6
 78
     2
 67
     7
 79
     3
170
     0
171
     0
290
     0
174
     0
 93
        5
 44
0.0
173
     0
291
     0
 45
0.0
1001
ACAD
1000
AcDbSavedByObjectVersion
1070
     0
  0
VISUALSTYLE
  5
3A8
102
{ACAD_XDICTIONARY
360
153E
102
}
102
{ACAD_REACTORS
330
31
102
}
330
31
100
AcDbVisualStyle
  2

 70
    23
 71
     2
 72
     2
 73
     3
 90
        0
 40
-0.6
 41
-30.0
 62
     5
 63
     7
 74
     2
 91
        2
 64
     7
 65
     7
 75
     1
175
     1
 42
40.0
 92
        8
 66
     7
 43
1.0
 76
     1
 77
     6
 78
     2
 67
     7
 79
     3
170
     0
171
     0
290
     0
174
     0
 93
        1
 44
0.0
173
     0
291
     0
 45
0.0
1001
ACAD
1000
AcDbSavedByObjectVersion
1070
     0
  0
VISUALSTYLE
  5
3A9
102
{ACAD_XDICTIONARY
360
1540
102
}
102
{ACAD_REACTORS
330
31
102
}
330
31
100
AcDbVisualStyle
  2

 70
    24
 71
     1
 72
     2
 73
     2
 90
        0
 40
-0.6
 41
-30.0
 62
     5
 63
     7
 74
     2
 91
        2
 64
     7
 65
     7
 75
     1
175
     1
 42
40.0
 92
       11
 66
     7
 43
1.0
 76
     1
 77
     6
 78
     2
 67
     7
 79
     6
170
     0
171
     0
290
     0
174
     0
 93
        1
 44
0.0
173
     0
291
     0
 45
0.0
1001
ACAD
1000
AcDbSavedByObjectVersion
1070
     0
  0
VISUALSTYLE
  5
3A4
102
{ACAD_XDICTIONARY
360
1536
102
}
102
{ACAD_REACTORS
330
31
102
}
330
31
100
AcDbVisualStyle
  2

 70
    13
 71
     2
 72
     2
 73
     0
 90
        0
 40
-0.6
 41
-30.0
 62
     5
 63
     7
 74
     1
 91
        4
 64
     7
 65
   257
 75
     1
175
     1
 42
1.0
 92
       12
 66
     7
 43
1.0
 76
     1
 77
     6
 78
     2
 67
     7
 79
     5
170
     0
171
     0
290
     0
174
     0
 93
        1
 44
0.0
173
     0
291
     1
 45
0.0
1001
ACAD
1000
AcDbSavedByObjectVersion
1070
     0
  0
VISUALSTYLE
  5
5A
102
{ACAD_XDICTIONARY
360
1522
102
}
102
{ACAD_REACTORS
330
31
102
}
330
31
100
AcDbVisualStyle
  2

 70
     5
 71
     0
 72
     2
 73
     0
 90
        0
 40
-0.6
 41
-30.0
 62
     5
 63
     7
 74
     1
 91
        4
 64
     7
 65
   257
 75
     1
175
     1
 42
1.0
 92
        0
 66
   257
 43
1.0
 76
     1
 77
     6
 78
     2
 67
     7
 79
     3
170
     0
171
     0
290
     0
174
     0
 93
        1
 44
0.0
173
     0
291
     0
 45
0.0
1001
ACAD
1000
AcDbSavedByObjectVersion
1070
     0
  0
VISUALSTYLE
  5
3AA
102
{ACAD_XDICTIONARY
360
1542
102
}
102
{ACAD_REACTORS
330
31
102
}
330
31
100
AcDbVisualStyle
  2

 70
    25
 71
     2
 72
     2
 73
     1
 90
        1
 40
0.5
 41
-30.0
 62
     5
 63
     7
 74
     1
 91
        0
 64
     7
 65
   257
 75
     1
175
     1
 42
1.0
 92
        8
 66
     7
 43
1.0
 76
     1
 77
     6
 78
     2
 67
     7
 79
     3
170
     0
171
     0
290
     0
174
     0
 93
       13
 44
0.0
173
     0
291
     0
 45
0.0
1001
ACAD
1000
AcDbSavedByObjectVersion
1070
     0
  0
DICTIONARYVAR
  5
386
102
{ACAD_REACTORS
330
383
102
}
330
383
100
DictionaryVariables
280
     0
  1
1:1
  0
DICTIONARYVAR
  5
385
102
{ACAD_REACTORS
330
383
102
}
330
383
100
DictionaryVariables
280
     0
  1
STANDARD
  0
DICTIONARYVAR
  5
384
102
{ACAD_REACTORS
330
383
102
}
330
383
100
DictionaryVariables
280
     0
  1
STANDARD
  0
DICTIONARYVAR
  5
F9B
102
{ACAD_REACTORS
330
383
102
}
330
383
100
DictionaryVariables
280
     0
  1
Imperial24
  0
DICTIONARYVAR
  5
F9C
102
{ACAD_REACTORS
330
383
102
}
330
383
100
DictionaryVariables
280
     0
  1
Imperial24
  0
DICTIONARYVAR
  5
38A
102
{ACAD_REACTORS
330
383
102
}
330
383
100
DictionaryVariables
280
     0
  1
1
  0
DICTIONARYVAR
  5
389
102
{ACAD_REACTORS
330
383
102
}
330
383
100
DictionaryVariables
280
     0
  1
1
  0
DICTIONARYVAR
  5
388
102
{ACAD_REACTORS
330
383
102
}
330
383
100
DictionaryVariables
280
     0
  1
0
  0
DICTIONARYVAR
  5
F9F
102
{ACAD_REACTORS
330
383
102
}
330
383
100
DictionaryVariables
280
     0
  1
1
  0
DICTIONARYVAR
  5
FA0
102
{ACAD_REACTORS
330
383
102
}
330
383
100
DictionaryVariables
280
     0
  1
15
  0
DICTIONARYVAR
  5
F9E
102
{ACAD_REACTORS
330
383
102
}
330
383
100
DictionaryVariables
280
     0
  1
0
  0
DICTIONARYVAR
  5
1513
102
{ACAD_REACTORS
330
383
102
}
330
383
100
DictionaryVariables
280
     0
  1
1.570796
  0
DICTIONARYVAR
  5
1514
102
{ACAD_REACTORS
330
383
102
}
330
383
100
DictionaryVariables
280
     0
  1
1.570796
  0
DICTIONARYVAR
  5
F9D
102
{ACAD_REACTORS
330
383
102
}
330
383
100
DictionaryVariables
280
     0
  1
0
  0
DICTIONARYVAR
  5
387
102
{ACAD_REACTORS
330
383
102
}
330
383
100
DictionaryVariables
280
     0
  1
127
  0
DICTIONARYVAR
  5
1515
102
{ACAD_REACTORS
330
383
102
}
330
383
100
DictionaryVariables
280
     0
  1
2
  0
DICTIONARY
  5
1550
330
3B4
100
AcDbDictionary
280
     1
281
     1
  3
ACAD_XREC_ROUNDTRIP
360
1551
  0
DICTIONARY
  5
1519
330
1F
100
AcDbDictionary
280
     1
281
     1
  3
ACAD_XREC_ROUNDTRIP
360
151A
  0
DICTIONARY
  5
151B
330
24
100
AcDbDictionary
280
     1
281
     1
  3
ACAD_XREC_ROUNDTRIP
360
151C
  0
DICTIONARY
  5
43
330
42
100
AcDbDictionary
280
     1
281
     1
  3
ACAD_XREC_ROUNDTRIP
360
44
  3
BUMPTILE
360
45
  3
DIFFUSETILE
360
46
  3
OPACITYTILE
360
47
  3
REFLECTIONTILE
360
48
  3
REFRACTIONTILE
360
49
  3
SPECULARTILE
360
4A
  0
DICTIONARY
  5
16
330
15
100
AcDbDictionary
280
     1
281
     1
  3
ACAD_XREC_ROUNDTRIP
360
17
  3
BUMPTILE
360
18
  3
DIFFUSETILE
360
19
  3
OPACITYTILE
360
1A
  3
REFLECTIONTILE
360
1B
  3
REFRACTIONTILE
360
1C
  3
SPECULARTILE
360
1D
  0
DICTIONARY
  5
C
330
A
100
AcDbDictionary
280
     1
281
     1
  3
ACAD_XREC_ROUNDTRIP
360
D
  3
BUMPTILE
360
E
  3
DIFFUSETILE
360
F
  3
OPACITYTILE
360
10
  3
REFLECTIONTILE
360
11
  3
REFRACTIONTILE
360
12
  3
SPECULARTILE
360
13
  0
DICTIONARY
  5
154E
330
3B2
100
AcDbDictionary
280
     1
281
     1
  3
ACAD_XREC_ROUNDTRIP
360
154F
  0
DICTIONARY
  5
58
330
57
100
AcDbDictionary
280
     1
281
     1
  3
ACAD_ROUNDTRIP_2008_TABLESTYLE_CELLSTYLEMAP
360
1516
  3
ACAD_XREC_ROUNDTRIP
360
151F
  0
DICTIONARY
  5
151D
330
30
100
AcDbDictionary
280
     1
281
     1
  3
ACAD_XREC_ROUNDTRIP
360
151E
  0
DICTIONARY
  5
152C
330
39F
100
AcDbDictionary
280
     1
281
     1
  3
ACAD_XREC_ROUNDTRIP
360
152D
  0
DICTIONARY
  5
1534
330
3A3
100
AcDbDictionary
280
     1
281
     1
  3
ACAD_XREC_ROUNDTRIP
360
1535
  0
DICTIONARY
  5
153C
330
3A7
100
AcDbDictionary
280
     1
281
     1
  3
ACAD_XREC_ROUNDTRIP
360
153D
  0
DICTIONARY
  5
1530
330
3A1
100
AcDbDictionary
280
     1
281
     1
  3
ACAD_XREC_ROUNDTRIP
360
1531
  0
DICTIONARY
  5
1532
330
3A2
100
AcDbDictionary
280
     1
281
     1
  3
ACAD_XREC_ROUNDTRIP
360
1533
  0
DICTIONARY
  5
154C
330
3AF
100
AcDbDictionary
280
     1
281
     1
  3
ACAD_XREC_ROUNDTRIP
360
154D
  0
DICTIONARY
  5
153A
330
3A6
100
AcDbDictionary
280
     1
281
     1
  3
ACAD_XREC_ROUNDTRIP
360
153B
  0
DICTIONARY
  5
1524
330
39B
100
AcDbDictionary
280
     1
281
     1
  3
ACAD_XREC_ROUNDTRIP
360
1525
  0
DICTIONARY
  5
1526
330
39C
100
AcDbDictionary
280
     1
281
     1
  3
ACAD_XREC_ROUNDTRIP
360
1527
  0
DICTIONARY
  5
1528
330
39D
100
AcDbDictionary
280
     1
281
     1
  3
ACAD_XREC_ROUNDTRIP
360
1529
  0
DICTIONARY
  5
152A
330
39E
100
AcDbDictionary
280
     1
281
     1
  3
ACAD_XREC_ROUNDTRIP
360
152B
  0
DICTIONARY
  5
152E
330
3A0
100
AcDbDictionary
280
     1
281
     1
  3
ACAD_XREC_ROUNDTRIP
360
152F
  0
DICTIONARY
  5
1548
330
3AD
100
AcDbDictionary
280
     1
281
     1
  3
ACAD_XREC_ROUNDTRIP
360
1549
  0
DICTIONARY
  5
1538
330
3A5
100
AcDbDictionary
280
     1
281
     1
  3
ACAD_XREC_ROUNDTRIP
360
1539
  0
DICTIONARY
  5
154A
330
3AE
100
AcDbDictionary
280
     1
281
     1
  3
ACAD_XREC_ROUNDTRIP
360
154B
  0
DICTIONARY
  5
1520
330
59
100
AcDbDictionary
280
     1
281
     1
  3
ACAD_XREC_ROUNDTRIP
360
1521
  0
DICTIONARY
  5
1546
330
3AC
100
AcDbDictionary
280
     1
281
     1
  3
ACAD_XREC_ROUNDTRIP
360
1547
  0
DICTIONARY
  5
1544
330
3AB
100
AcDbDictionary
280
     1
281
     1
  3
ACAD_XREC_ROUNDTRIP
360
1545
  0
DICTIONARY
  5
153E
330
3A8
100
AcDbDictionary
280
     1
281
     1
  3
ACAD_XREC_ROUNDTRIP
360
153F
  0
DICTIONARY
  5
1540
330
3A9
100
AcDbDictionary
280
     1
281
     1
  3
ACAD_XREC_ROUNDTRIP
360
1541
  0
DICTIONARY
  5
1536
330
3A4
100
AcDbDictionary
280
     1
281
     1
  3
ACAD_XREC_ROUNDTRIP
360
1537
  0
DICTIONARY
  5
1522
330
5A
100
AcDbDictionary
280
     1
281
     1
  3
ACAD_XREC_ROUNDTRIP
360
1523
  0
DICTIONARY
  5
1542
330
3AA
100
AcDbDictionary
280
     1
281
     1
  3
ACAD_XREC_ROUNDTRIP
360
1543
  0
XRECORD
  5
1551
102
{ACAD_REACTORS
330
1550
102
}
330
1550
100
AcDbXrecord
280
     1
102
DISPLAYNAME
  1
Imperial24
102
FLAGS
 90
        0
  0
XRECORD
  5
151A
102
{ACAD_REACTORS
330
1519
102
}
330
1519
100
AcDbXrecord
280
     1
102
SHADEPLOT
 70
     0
102
SHADEPLOTRESLEVEL
 70
     2
102
SHADEPLOTCUSTOMDPI
 70
   300
  0
XRECORD
  5
151C
102
{ACAD_REACTORS
330
151B
102
}
330
151B
100
AcDbXrecord
280
     1
102
SHADEPLOT
 70
     0
102
SHADEPLOTRESLEVEL
 70
     2
102
SHADEPLOTCUSTOMDPI
 70
   300
  0
XRECORD
  5
44
102
{ACAD_REACTORS
330
43
102
}
330
43
100
AcDbXrecord
280
     1
102
MATERIAL
148
0.0
149
0.0
149
0.0
 93
        0
 94
      127
282
     0
 72
     0
 77
     0
171
     0
175
     0
179
     0
273
     0
  0
XRECORD
  5
45
102
{ACAD_REACTORS
330
43
102
}
330
43
100
AcDbXrecord
280
     1
270
     1
271
     1
  0
XRECORD
  5
46
102
{ACAD_REACTORS
330
43
102
}
330
43
100
AcDbXrecord
280
     1
270
     1
271
     1
  0
XRECORD
  5
47
102
{ACAD_REACTORS
330
43
102
}
330
43
100
AcDbXrecord
280
     1
270
     1
271
     1
  0
XRECORD
  5
48
102
{ACAD_REACTORS
330
43
102
}
330
43
100
AcDbXrecord
280
     1
270
     1
271
     1
  0
XRECORD
  5
49
102
{ACAD_REACTORS
330
43
102
}
330
43
100
AcDbXrecord
280
     1
270
     1
271
     1
  0
XRECORD
  5
4A
102
{ACAD_REACTORS
330
43
102
}
330
43
100
AcDbXrecord
280
     1
270
     1
271
     1
  0
XRECORD
  5
17
102
{ACAD_REACTORS
330
16
102
}
330
16
100
AcDbXrecord
280
     1
102
MATERIAL
148
0.0
149
0.0
149
0.0
 93
        0
 94
      127
282
     0
 72
     0
 77
     0
171
     0
175
     0
179
     0
273
     0
  0
XRECORD
  5
18
102
{ACAD_REACTORS
330
16
102
}
330
16
100
AcDbXrecord
280
     1
270
     1
271
     1
  0
XRECORD
  5
19
102
{ACAD_REACTORS
330
16
102
}
330
16
100
AcDbXrecord
280
     1
270
     1
271
     1
  0
XRECORD
  5
1A
102
{ACAD_REACTORS
330
16
102
}
330
16
100
AcDbXrecord
280
     1
270
     1
271
     1
  0
XRECORD
  5
1B
102
{ACAD_REACTORS
330
16
102
}
330
16
100
AcDbXrecord
280
     1
270
     1
271
     1
  0
XRECORD
  5
1C
102
{ACAD_REACTORS
330
16
102
}
330
16
100
AcDbXrecord
280
     1
270
     1
271
     1
  0
XRECORD
  5
1D
102
{ACAD_REACTORS
330
16
102
}
330
16
100
AcDbXrecord
280
     1
270
     1
271
     1
  0
XRECORD
  5
D
102
{ACAD_REACTORS
330
C
102
}
330
C
100
AcDbXrecord
280
     1
102
MATERIAL
148
0.0
149
0.0
149
0.0
 93
        0
 94
      127
282
     0
 72
     0
 77
     0
171
     0
175
     0
179
     0
273
     0
  0
XRECORD
  5
E
102
{ACAD_REACTORS
330
C
102
}
330
C
100
AcDbXrecord
280
     1
270
     1
271
     1
  0
XRECORD
  5
F
102
{ACAD_REACTORS
330
C
102
}
330
C
100
AcDbXrecord
280
     1
270
     1
271
     1
  0
XRECORD
  5
10
102
{ACAD_REACTORS
330
C
102
}
330
C
100
AcDbXrecord
280
     1
270
     1
271
     1
  0
XRECORD
  5
11
102
{ACAD_REACTORS
330
C
102
}
330
C
100
AcDbXrecord
280
     1
270
     1
271
     1
  0
XRECORD
  5
12
102
{ACAD_REACTORS
330
C
102
}
330
C
100
AcDbXrecord
280
     1
270
     1
271
     1
  0
XRECORD
  5
13
102
{ACAD_REACTORS
330
C
102
}
330
C
100
AcDbXrecord
280
     1
270
     1
271
     1
  0
XRECORD
  5
154F
102
{ACAD_REACTORS
330
154E
102
}
330
154E
100
AcDbXrecord
280
     1
102
DISPLAYNAME
  1
Imperial24
102
FLAGS
 90
        0
  0
CELLSTYLEMAP
  5
1516
102
{ACAD_REACTORS
330
58
102
}
330
58
100
AcDbCellStyleMap
 90
        3
300
CELLSTYLE
  1
TABLEFORMAT_BEGIN
 90
        5
170
     1
 91
        0
 92
    32768
 62
   257
 93
        1
300
CONTENTFORMAT
  1
CONTENTFORMAT_BEGIN
 90
        0
 91
        0
 92
      512
 93
        0
300

 40
0.0
140
1.0
 94
        5
 62
     0
340
27
144
0.25
309
CONTENTFORMAT_END
171
     1
301
MARGIN
  1
CELLMARGIN_BEGIN
 40
0.06
 40
0.06
 40
0.06
 40
0.06
 40
0.18
 40
0.18
309
CELLMARGIN_END
 94
        6
 95
        1
302
GRIDFORMAT
  1
GRIDFORMAT_BEGIN
 90
        0
 91
        1
 62
     0
 92
       -2
340
0
 93
        0
 40
0.045
309
GRIDFORMAT_END
 95
        2
302
GRIDFORMAT
  1
GRIDFORMAT_BEGIN
 90
        0
 91
        1
 62
     0
 92
       -2
340
0
 93
        0
 40
0.045
309
GRIDFORMAT_END
 95
        4
302
GRIDFORMAT
  1
GRIDFORMAT_BEGIN
 90
        0
 91
        1
 62
     0
 92
       -2
340
0
 93
        0
 40
0.045
309
GRIDFORMAT_END
 95
        8
302
GRIDFORMAT
  1
GRIDFORMAT_BEGIN
 90
        0
 91
        1
 62
     0
 92
       -2
340
0
 93
        0
 40
0.045
309
GRIDFORMAT_END
 95
       16
302
GRIDFORMAT
  1
GRIDFORMAT_BEGIN
 90
        0
 91
        1
 62
     0
 92
       -2
340
0
 93
        0
 40
0.045
309
GRIDFORMAT_END
 95
       32
302
GRIDFORMAT
  1
GRIDFORMAT_BEGIN
 90
        0
 91
        1
 62
     0
 92
       -2
340
0
 93
        0
 40
0.045
309
GRIDFORMAT_END
309
TABLEFORMAT_END
  1
CELLSTYLE_BEGIN
 90
        1
 91
        1
300
_TITLE
309
CELLSTYLE_END
300
CELLSTYLE
  1
TABLEFORMAT_BEGIN
 90
        5
170
     1
 91
        0
 92
        0
 62
   257
 93
        1
300
CONTENTFORMAT
  1
CONTENTFORMAT_BEGIN
 90
        0
 91
        0
 92
      512
 93
        0
300

 40
0.0
140
1.0
 94
        5
 62
     0
340
27
144
0.18
309
CONTENTFORMAT_END
171
     1
301
MARGIN
  1
CELLMARGIN_BEGIN
 40
0.06
 40
0.06
 40
0.06
 40
0.06
 40
0.18
 40
0.18
309
CELLMARGIN_END
 94
        6
 95
        1
302
GRIDFORMAT
  1
GRIDFORMAT_BEGIN
 90
        0
 91
        1
 62
     0
 92
       -2
340
0
 93
        0
 40
0.045
309
GRIDFORMAT_END
 95
        2
302
GRIDFORMAT
  1
GRIDFORMAT_BEGIN
 90
        0
 91
        1
 62
     0
 92
       -2
340
0
 93
        0
 40
0.045
309
GRIDFORMAT_END
 95
        4
302
GRIDFORMAT
  1
GRIDFORMAT_BEGIN
 90
        0
 91
        1
 62
     0
 92
       -2
340
0
 93
        0
 40
0.045
309
GRIDFORMAT_END
 95
        8
302
GRIDFORMAT
  1
GRIDFORMAT_BEGIN
 90
        0
 91
        1
 62
     0
 92
       -2
340
0
 93
        0
 40
0.045
309
GRIDFORMAT_END
 95
       16
302
GRIDFORMAT
  1
GRIDFORMAT_BEGIN
 90
        0
 91
        1
 62
     0
 92
       -2
340
0
 93
        0
 40
0.045
309
GRIDFORMAT_END
 95
       32
302
GRIDFORMAT
  1
GRIDFORMAT_BEGIN
 90
        0
 91
        1
 62
     0
 92
       -2
340
0
 93
        0
 40
0.045
309
GRIDFORMAT_END
309
TABLEFORMAT_END
  1
CELLSTYLE_BEGIN
 90
        2
 91
        1
300
_HEADER
309
CELLSTYLE_END
300
CELLSTYLE
  1
TABLEFORMAT_BEGIN
 90
        5
170
     1
 91
        0
 92
        0
 62
   257
 93
        1
300
CONTENTFORMAT
  1
CONTENTFORMAT_BEGIN
 90
        0
 91
        0
 92
      512
 93
        0
300

 40
0.0
140
1.0
 94
        2
 62
     0
340
27
144
0.18
309
CONTENTFORMAT_END
171
     1
301
MARGIN
  1
CELLMARGIN_BEGIN
 40
0.06
 40
0.06
 40
0.06
 40
0.06
 40
0.18
 40
0.18
309
CELLMARGIN_END
 94
        6
 95
        1
302
GRIDFORMAT
  1
GRIDFORMAT_BEGIN
 90
        0
 91
        1
 62
     0
 92
       -2
340
0
 93
        0
 40
0.045
309
GRIDFORMAT_END
 95
        2
302
GRIDFORMAT
  1
GRIDFORMAT_BEGIN
 90
        0
 91
        1
 62
     0
 92
       -2
340
0
 93
        0
 40
0.045
309
GRIDFORMAT_END
 95
        4
302
GRIDFORMAT
  1
GRIDFORMAT_BEGIN
 90
        0
 91
        1
 62
     0
 92
       -2
340
0
 93
        0
 40
0.045
309
GRIDFORMAT_END
 95
        8
302
GRIDFORMAT
  1
GRIDFORMAT_BEGIN
 90
        0
 91
        1
 62
     0
 92
       -2
340
0
 93
        0
 40
0.045
309
GRIDFORMAT_END
 95
       16
302
GRIDFORMAT
  1
GRIDFORMAT_BEGIN
 90
        0
 91
        1
 62
     0
 92
       -2
340
0
 93
        0
 40
0.045
309
GRIDFORMAT_END
 95
       32
302
GRIDFORMAT
  1
GRIDFORMAT_BEGIN
 90
        0
 91
        1
 62
     0
 92
       -2
340
0
 93
        0
 40
0.045
309
GRIDFORMAT_END
309
TABLEFORMAT_END
  1
CELLSTYLE_BEGIN
 90
        3
 91
        2
300
_DATA
309
CELLSTYLE_END
  0
XRECORD
  5
151F
102
{ACAD_REACTORS
330
58
102
}
330
58
100
AcDbXrecord
280
     1
102
ACAD_ROUNDTRIP_PRE2007_TABLESTYLE
 90
      512
 91
        0
  1

 92
      512
 93
        0
  2

 94
      512
 95
        0
  3

  0
XRECORD
  5
151E
102
{ACAD_REACTORS
330
151D
102
}
330
151D
100
AcDbXrecord
280
     1
102
RTVSPost2010Prop28
280
     1
102
RTVSPost2010PropOp28
 70
     1
102
RTVSPost2010Prop29
280
     1
102
RTVSPost2010PropOp29
 70
     1
102
RTVSPost2010Prop30
280
     0
102
RTVSPost2010PropOp30
 70
     1
102
RTVSPost2010Prop31
280
     0
102
RTVSPost2010PropOp31
 70
     1
102
RTVSPost2010Prop32
280
     0
102
RTVSPost2010PropOp32
 70
     1
102
RTVSPost2010Prop33
280
     0
102
RTVSPost2010PropOp33
 70
     1
102
RTVSPost2010Prop34
280
     0
102
RTVSPost2010PropOp34
 70
     1
102
RTVSPost2010Prop35
280
     0
102
RTVSPost2010PropOp35
 70
     1
102
RTVSPost2010Prop36
280
     0
102
RTVSPost2010PropOp36
 70
     1
102
RTVSPost2010Prop37
 90
       50
102
RTVSPost2010PropOp37
 70
     1
102
RTVSPost2010Prop38
140
0.0
102
RTVSPost2010PropOp38
 70
     1
102
RTVSPost2010Prop39
140
1.0
102
RTVSPost2010PropOp39
 70
     1
102
RTVSPost2010Prop40
 90
        0
102
RTVSPost2010PropOp40
 70
     1
102
RTVSPost2010Prop41ColorIndex
 90
       18
102
RTVSPost2010Prop41ColorRGB
 90
-16777216
102
RTVSPost2010PropOp41
 70
     1
102
RTVSPost2010Prop42
 90
       50
102
RTVSPost2010PropOp42
 70
     1
102
RTVSPost2010Prop43
 90
        3
102
RTVSPost2010PropOp43
 70
     1
102
RTVSPost2010Prop44ColorIndex
 90
        5
102
RTVSPost2010Prop44ColorRGB
 90
      255
102
RTVSPost2010PropOp44
 70
     1
102
RTVSPost2010Prop45
280
     0
102
RTVSPost2010PropOp45
 70
     1
102
RTVSPost2010Prop46
 90
       50
102
RTVSPost2010PropOp46
 70
     1
102
RTVSPost2010Prop47
 90
       50
102
RTVSPost2010PropOp47
 70
     1
102
RTVSPost2010Prop48
 90
       50
102
RTVSPost2010PropOp48
 70
     1
102
RTVSPost2010Prop49
280
     0
102
RTVSPost2010PropOp49
 70
     1
102
RTVSPost2010Prop50
 90
       50
102
RTVSPost2010PropOp50
 70
     1
102
RTVSPost2010Prop51ColorIndex
 90
      256
102
RTVSPost2010Prop51ColorRGB
 90
-16777216
102
RTVSPost2010PropOp51
 70
     0
102
RTVSPost2010Prop52
140
1.0
102
RTVSPost2010PropOp52
 70
     0
102
RTVSPost2010Prop53
 90
        2
102
RTVSPost2010PropOp53
 70
     1
102
RTVSPost2010Prop54
  1
strokes_ogs.tif
102
RTVSPost2010PropOp54
 70
     1
102
RTVSPost2010Prop55
280
     0
102
RTVSPost2010PropOp55
 70
     1
102
RTVSPost2010Prop56
140
1.0
102
RTVSPost2010PropOp56
 70
     1
102
RTVSPost2010Prop57
140
1.0
102
RTVSPost2010PropOp57
 70
     1
102
RTVSPropertyOp0
 70
     1
102
RTVSPropertyOp1
 70
     1
102
RTVSPropertyOp2
 70
     1
102
RTVSPropertyOp3
 70
     1
102
RTVSPropertyOp4
 70
     1
102
RTVSPropertyOp5
 70
     1
102
RTVSPropertyOp6
 70
     1
102
RTVSPropertyOp7
 70
     1
102
RTVSPropertyOp8
 70
     1
102
RTVSPropertyOp9
 70
     1
102
RTVSPropertyOp10
 70
     1
102
RTVSPropertyOp11
 70
     1
102
RTVSPropertyOp12
 70
     1
102
RTVSPropertyOp13
 70
     1
102
RTVSPropertyOp14
 70
     1
102
RTVSPropertyOp15
 70
     1
102
RTVSPropertyOp16
 70
     1
102
RTVSPropertyOp17
 70
     1
102
RTVSPropertyOp18
 70
     1
102
RTVSPropertyOp19
 70
     1
102
RTVSPropertyOp20
 70
     1
102
RTVSPropertyOp21
 70
     1
102
RTVSPropertyOp22
 70
     1
102
RTVSPropertyOp23
 70
     1
102
RTVSPropertyOp24
 70
     1
102
RTVSPropertyOp25
 70
     1
102
RTVSPropertyOp26
 70
     1
102
RTVSPropertyOp27
 70
     1
102
RTVSPropertyOp28
 70
     1
102
RTVSPropertyOp29
 70
     1
102
RTVSPropertyOp30
 70
     1
102
RTVSPropertyOp31
 70
     1
102
RTVSPropertyOp32
 70
     1
102
RTVSPropertyOp33
 70
     1
102
RTVSPropertyOp34
 70
     1
102
RTVSPropertyOp35
 70
     1
102
RTVSPropertyOp36
 70
     1
102
RTVSPropertyOp37
 70
     1
102
RTVSPropertyOp38
 70
     1
102
RTVSPropertyOp39
 70
     1
102
RTVSPropertyOp40
 70
     1
102
RTVSPropertyOp41
 70
     1
102
RTVSPropertyOp42
 70
     1
102
RTVSPropertyOp43
 70
     1
102
RTVSPropertyOp44
 70
     1
102
RTVSPropertyOp45
 70
     1
102
RTVSPropertyOp46
 70
     1
102
RTVSPropertyOp47
 70
     1
102
RTVSPropertyOp48
 70
     1
102
RTVSPropertyOp49
 70
     1
102
RTVSPropertyOp50
 70
     1
102
RTVSPropertyOp51
 70
     0
102
RTVSPropertyOp52
 70
     0
102
RTVSPropertyOp53
 70
     1
102
RTVSPropertyOp54
 70
     1
102
RTVSPropertyOp55
 70
     1
102
RTVSPropertyOp56
 70
     1
102
RTVSPropertyOp57
 70
     1
102
RTVSPropertyOp58
 70
     1
102
RTVSPropertyOp59
 70
     1
102
RTVSPropertyOp60
 70
     1
102
RTVSPropertyOp61
 70
     1
102
RTVSPropertyOp62
 70
     1
  0
XRECORD
  5
152D
102
{ACAD_REACTORS
330
152C
102
}
330
152C
100
AcDbXrecord
280
     1
102
RTVSPost2010Prop28
280
     0
102
RTVSPost2010PropOp28
 70
     1
102
RTVSPost2010Prop29
280
     1
102
RTVSPost2010PropOp29
 70
     1
102
RTVSPost2010Prop30
280
     1
102
RTVSPost2010PropOp30
 70
     1
102
RTVSPost2010Prop31
280
     0
102
RTVSPost2010PropOp31
 70
     1
102
RTVSPost2010Prop32
280
     0
102
RTVSPost2010PropOp32
 70
     1
102
RTVSPost2010Prop33
280
     0
102
RTVSPost2010PropOp33
 70
     1
102
RTVSPost2010Prop34
280
     0
102
RTVSPost2010PropOp34
 70
     1
102
RTVSPost2010Prop35
280
     0
102
RTVSPost2010PropOp35
 70
     1
102
RTVSPost2010Prop36
280
     0
102
RTVSPost2010PropOp36
 70
     1
102
RTVSPost2010Prop37
 90
       50
102
RTVSPost2010PropOp37
 70
     1
102
RTVSPost2010Prop38
140
0.0
102
RTVSPost2010PropOp38
 70
     1
102
RTVSPost2010Prop39
140
1.0
102
RTVSPost2010PropOp39
 70
     1
102
RTVSPost2010Prop40
 90
        0
102
RTVSPost2010PropOp40
 70
     1
102
RTVSPost2010Prop41ColorIndex
 90
       18
102
RTVSPost2010Prop41ColorRGB
 90
-16777216
102
RTVSPost2010PropOp41
 70
     1
102
RTVSPost2010Prop42
 90
       50
102
RTVSPost2010PropOp42
 70
     1
102
RTVSPost2010Prop43
 90
        3
102
RTVSPost2010PropOp43
 70
     1
102
RTVSPost2010Prop44ColorIndex
 90
        5
102
RTVSPost2010Prop44ColorRGB
 90
      255
102
RTVSPost2010PropOp44
 70
     1
102
RTVSPost2010Prop45
280
     0
102
RTVSPost2010PropOp45
 70
     1
102
RTVSPost2010Prop46
 90
       50
102
RTVSPost2010PropOp46
 70
     1
102
RTVSPost2010Prop47
 90
       50
102
RTVSPost2010PropOp47
 70
     1
102
RTVSPost2010Prop48
 90
       50
102
RTVSPost2010PropOp48
 70
     1
102
RTVSPost2010Prop49
280
     0
102
RTVSPost2010PropOp49
 70
     1
102
RTVSPost2010Prop50
 90
       50
102
RTVSPost2010PropOp50
 70
     1
102
RTVSPost2010Prop51ColorIndex
 90
      256
102
RTVSPost2010Prop51ColorRGB
 90
-16777216
102
RTVSPost2010PropOp51
 70
     0
102
RTVSPost2010Prop52
140
1.0
102
RTVSPost2010PropOp52
 70
     0
102
RTVSPost2010Prop53
 90
        2
102
RTVSPost2010PropOp53
 70
     1
102
RTVSPost2010Prop54
  1
strokes_ogs.tif
102
RTVSPost2010PropOp54
 70
     1
102
RTVSPost2010Prop55
280
     0
102
RTVSPost2010PropOp55
 70
     1
102
RTVSPost2010Prop56
140
1.0
102
RTVSPost2010PropOp56
 70
     1
102
RTVSPost2010Prop57
140
1.0
102
RTVSPost2010PropOp57
 70
     1
102
RTVSPropertyOp0
 70
     1
102
RTVSPropertyOp1
 70
     1
102
RTVSPropertyOp2
 70
     1
102
RTVSPropertyOp3
 70
     1
102
RTVSPropertyOp4
 70
     1
102
RTVSPropertyOp5
 70
     1
102
RTVSPropertyOp6
 70
     1
102
RTVSPropertyOp7
 70
     1
102
RTVSPropertyOp8
 70
     1
102
RTVSPropertyOp9
 70
     1
102
RTVSPropertyOp10
 70
     1
102
RTVSPropertyOp11
 70
     1
102
RTVSPropertyOp12
 70
     1
102
RTVSPropertyOp13
 70
     1
102
RTVSPropertyOp14
 70
     1
102
RTVSPropertyOp15
 70
     1
102
RTVSPropertyOp16
 70
     1
102
RTVSPropertyOp17
 70
     1
102
RTVSPropertyOp18
 70
     1
102
RTVSPropertyOp19
 70
     1
102
RTVSPropertyOp20
 70
     1
102
RTVSPropertyOp21
 70
     1
102
RTVSPropertyOp22
 70
     1
102
RTVSPropertyOp23
 70
     1
102
RTVSPropertyOp24
 70
     1
102
RTVSPropertyOp25
 70
     1
102
RTVSPropertyOp26
 70
     1
102
RTVSPropertyOp27
 70
     1
102
RTVSPropertyOp28
 70
     1
102
RTVSPropertyOp29
 70
     1
102
RTVSPropertyOp30
 70
     1
102
RTVSPropertyOp31
 70
     1
102
RTVSPropertyOp32
 70
     1
102
RTVSPropertyOp33
 70
     1
102
RTVSPropertyOp34
 70
     1
102
RTVSPropertyOp35
 70
     1
102
RTVSPropertyOp36
 70
     1
102
RTVSPropertyOp37
 70
     1
102
RTVSPropertyOp38
 70
     1
102
RTVSPropertyOp39
 70
     1
102
RTVSPropertyOp40
 70
     1
102
RTVSPropertyOp41
 70
     1
102
RTVSPropertyOp42
 70
     1
102
RTVSPropertyOp43
 70
     1
102
RTVSPropertyOp44
 70
     1
102
RTVSPropertyOp45
 70
     1
102
RTVSPropertyOp46
 70
     1
102
RTVSPropertyOp47
 70
     1
102
RTVSPropertyOp48
 70
     1
102
RTVSPropertyOp49
 70
     1
102
RTVSPropertyOp50
 70
     1
102
RTVSPropertyOp51
 70
     0
102
RTVSPropertyOp52
 70
     0
102
RTVSPropertyOp53
 70
     1
102
RTVSPropertyOp54
 70
     1
102
RTVSPropertyOp55
 70
     1
102
RTVSPropertyOp56
 70
     1
102
RTVSPropertyOp57
 70
     1
102
RTVSPropertyOp58
 70
     1
102
RTVSPropertyOp59
 70
     1
102
RTVSPropertyOp60
 70
     1
102
RTVSPropertyOp61
 70
     1
102
RTVSPropertyOp62
 70
     1
  0
XRECORD
  5
1535
102
{ACAD_REACTORS
330
1534
102
}
330
1534
100
AcDbXrecord
280
     1
102
RTVSPost2010Prop28
280
     0
102
RTVSPost2010PropOp28
 70
     1
102
RTVSPost2010Prop29
280
     1
102
RTVSPost2010PropOp29
 70
     1
102
RTVSPost2010Prop30
280
     1
102
RTVSPost2010PropOp30
 70
     1
102
RTVSPost2010Prop31
280
     0
102
RTVSPost2010PropOp31
 70
     1
102
RTVSPost2010Prop32
280
     0
102
RTVSPost2010PropOp32
 70
     1
102
RTVSPost2010Prop33
280
     0
102
RTVSPost2010PropOp33
 70
     1
102
RTVSPost2010Prop34
280
     0
102
RTVSPost2010PropOp34
 70
     1
102
RTVSPost2010Prop35
280
     0
102
RTVSPost2010PropOp35
 70
     1
102
RTVSPost2010Prop36
280
     0
102
RTVSPost2010PropOp36
 70
     1
102
RTVSPost2010Prop37
 90
       50
102
RTVSPost2010PropOp37
 70
     1
102
RTVSPost2010Prop38
140
0.0
102
RTVSPost2010PropOp38
 70
     1
102
RTVSPost2010Prop39
140
1.0
102
RTVSPost2010PropOp39
 70
     1
102
RTVSPost2010Prop40
 90
        0
102
RTVSPost2010PropOp40
 70
     1
102
RTVSPost2010Prop41ColorIndex
 90
       18
102
RTVSPost2010Prop41ColorRGB
 90
-16777216
102
RTVSPost2010PropOp41
 70
     1
102
RTVSPost2010Prop42
 90
       50
102
RTVSPost2010PropOp42
 70
     1
102
RTVSPost2010Prop43
 90
        3
102
RTVSPost2010PropOp43
 70
     1
102
RTVSPost2010Prop44ColorIndex
 90
        5
102
RTVSPost2010Prop44ColorRGB
 90
      255
102
RTVSPost2010PropOp44
 70
     1
102
RTVSPost2010Prop45
280
     0
102
RTVSPost2010PropOp45
 70
     1
102
RTVSPost2010Prop46
 90
       50
102
RTVSPost2010PropOp46
 70
     1
102
RTVSPost2010Prop47
 90
       50
102
RTVSPost2010PropOp47
 70
     1
102
RTVSPost2010Prop48
 90
       50
102
RTVSPost2010PropOp48
 70
     1
102
RTVSPost2010Prop49
280
     0
102
RTVSPost2010PropOp49
 70
     1
102
RTVSPost2010Prop50
 90
       50
102
RTVSPost2010PropOp50
 70
     1
102
RTVSPost2010Prop51ColorIndex
 90
      256
102
RTVSPost2010Prop51ColorRGB
 90
-16777216
102
RTVSPost2010PropOp51
 70
     0
102
RTVSPost2010Prop52
140
1.0
102
RTVSPost2010PropOp52
 70
     0
102
RTVSPost2010Prop53
 90
        2
102
RTVSPost2010PropOp53
 70
     1
102
RTVSPost2010Prop54
  1
strokes_ogs.tif
102
RTVSPost2010PropOp54
 70
     1
102
RTVSPost2010Prop55
280
     0
102
RTVSPost2010PropOp55
 70
     1
102
RTVSPost2010Prop56
140
1.0
102
RTVSPost2010PropOp56
 70
     1
102
RTVSPost2010Prop57
140
1.0
102
RTVSPost2010PropOp57
 70
     1
102
RTVSPropertyOp0
 70
     1
102
RTVSPropertyOp1
 70
     1
102
RTVSPropertyOp2
 70
     1
102
RTVSPropertyOp3
 70
     1
102
RTVSPropertyOp4
 70
     1
102
RTVSPropertyOp5
 70
     1
102
RTVSPropertyOp6
 70
     1
102
RTVSPropertyOp7
 70
     1
102
RTVSPropertyOp8
 70
     1
102
RTVSPropertyOp9
 70
     1
102
RTVSPropertyOp10
 70
     1
102
RTVSPropertyOp11
 70
     1
102
RTVSPropertyOp12
 70
     1
102
RTVSPropertyOp13
 70
     1
102
RTVSPropertyOp14
 70
     1
102
RTVSPropertyOp15
 70
     1
102
RTVSPropertyOp16
 70
     1
102
RTVSPropertyOp17
 70
     1
102
RTVSPropertyOp18
 70
     1
102
RTVSPropertyOp19
 70
     1
102
RTVSPropertyOp20
 70
     1
102
RTVSPropertyOp21
 70
     1
102
RTVSPropertyOp22
 70
     1
102
RTVSPropertyOp23
 70
     1
102
RTVSPropertyOp24
 70
     1
102
RTVSPropertyOp25
 70
     1
102
RTVSPropertyOp26
 70
     1
102
RTVSPropertyOp27
 70
     1
102
RTVSPropertyOp28
 70
     1
102
RTVSPropertyOp29
 70
     1
102
RTVSPropertyOp30
 70
     1
102
RTVSPropertyOp31
 70
     1
102
RTVSPropertyOp32
 70
     1
102
RTVSPropertyOp33
 70
     1
102
RTVSPropertyOp34
 70
     1
102
RTVSPropertyOp35
 70
     1
102
RTVSPropertyOp36
 70
     1
102
RTVSPropertyOp37
 70
     1
102
RTVSPropertyOp38
 70
     1
102
RTVSPropertyOp39
 70
     1
102
RTVSPropertyOp40
 70
     1
102
RTVSPropertyOp41
 70
     1
102
RTVSPropertyOp42
 70
     1
102
RTVSPropertyOp43
 70
     1
102
RTVSPropertyOp44
 70
     1
102
RTVSPropertyOp45
 70
     1
102
RTVSPropertyOp46
 70
     1
102
RTVSPropertyOp47
 70
     1
102
RTVSPropertyOp48
 70
     1
102
RTVSPropertyOp49
 70
     1
102
RTVSPropertyOp50
 70
     1
102
RTVSPropertyOp51
 70
     0
102
RTVSPropertyOp52
 70
     0
102
RTVSPropertyOp53
 70
     1
102
RTVSPropertyOp54
 70
     1
102
RTVSPropertyOp55
 70
     1
102
RTVSPropertyOp56
 70
     1
102
RTVSPropertyOp57
 70
     1
102
RTVSPropertyOp58
 70
     1
102
RTVSPropertyOp59
 70
     1
102
RTVSPropertyOp60
 70
     1
102
RTVSPropertyOp61
 70
     1
102
RTVSPropertyOp62
 70
     1
  0
XRECORD
  5
153D
102
{ACAD_REACTORS
330
153C
102
}
330
153C
100
AcDbXrecord
280
     1
102
RTVSPost2010Prop28
280
     0
102
RTVSPost2010PropOp28
 70
     1
102
RTVSPost2010Prop29
280
     1
102
RTVSPost2010PropOp29
 70
     1
102
RTVSPost2010Prop30
280
     1
102
RTVSPost2010PropOp30
 70
     1
102
RTVSPost2010Prop31
280
     0
102
RTVSPost2010PropOp31
 70
     1
102
RTVSPost2010Prop32
280
     0
102
RTVSPost2010PropOp32
 70
     1
102
RTVSPost2010Prop33
280
     0
102
RTVSPost2010PropOp33
 70
     1
102
RTVSPost2010Prop34
280
     0
102
RTVSPost2010PropOp34
 70
     1
102
RTVSPost2010Prop35
280
     0
102
RTVSPost2010PropOp35
 70
     1
102
RTVSPost2010Prop36
280
     0
102
RTVSPost2010PropOp36
 70
     1
102
RTVSPost2010Prop37
 90
       50
102
RTVSPost2010PropOp37
 70
     1
102
RTVSPost2010Prop38
140
0.0
102
RTVSPost2010PropOp38
 70
     1
102
RTVSPost2010Prop39
140
1.0
102
RTVSPost2010PropOp39
 70
     1
102
RTVSPost2010Prop40
 90
        0
102
RTVSPost2010PropOp40
 70
     1
102
RTVSPost2010Prop41ColorIndex
 90
       18
102
RTVSPost2010Prop41ColorRGB
 90
-16777216
102
RTVSPost2010PropOp41
 70
     1
102
RTVSPost2010Prop42
 90
       50
102
RTVSPost2010PropOp42
 70
     1
102
RTVSPost2010Prop43
 90
        3
102
RTVSPost2010PropOp43
 70
     1
102
RTVSPost2010Prop44ColorIndex
 90
        5
102
RTVSPost2010Prop44ColorRGB
 90
      255
102
RTVSPost2010PropOp44
 70
     1
102
RTVSPost2010Prop45
280
     0
102
RTVSPost2010PropOp45
 70
     1
102
RTVSPost2010Prop46
 90
       50
102
RTVSPost2010PropOp46
 70
     1
102
RTVSPost2010Prop47
 90
       50
102
RTVSPost2010PropOp47
 70
     1
102
RTVSPost2010Prop48
 90
       50
102
RTVSPost2010PropOp48
 70
     1
102
RTVSPost2010Prop49
280
     0
102
RTVSPost2010PropOp49
 70
     1
102
RTVSPost2010Prop50
 90
       50
102
RTVSPost2010PropOp50
 70
     1
102
RTVSPost2010Prop51ColorIndex
 90
      256
102
RTVSPost2010Prop51ColorRGB
 90
-16777216
102
RTVSPost2010PropOp51
 70
     0
102
RTVSPost2010Prop52
140
1.0
102
RTVSPost2010PropOp52
 70
     0
102
RTVSPost2010Prop53
 90
        2
102
RTVSPost2010PropOp53
 70
     1
102
RTVSPost2010Prop54
  1
strokes_ogs.tif
102
RTVSPost2010PropOp54
 70
     1
102
RTVSPost2010Prop55
280
     0
102
RTVSPost2010PropOp55
 70
     1
102
RTVSPost2010Prop56
140
1.0
102
RTVSPost2010PropOp56
 70
     1
102
RTVSPost2010Prop57
140
1.0
102
RTVSPost2010PropOp57
 70
     1
102
RTVSPropertyOp0
 70
     1
102
RTVSPropertyOp1
 70
     1
102
RTVSPropertyOp2
 70
     1
102
RTVSPropertyOp3
 70
     1
102
RTVSPropertyOp4
 70
     1
102
RTVSPropertyOp5
 70
     1
102
RTVSPropertyOp6
 70
     1
102
RTVSPropertyOp7
 70
     1
102
RTVSPropertyOp8
 70
     1
102
RTVSPropertyOp9
 70
     1
102
RTVSPropertyOp10
 70
     1
102
RTVSPropertyOp11
 70
     1
102
RTVSPropertyOp12
 70
     1
102
RTVSPropertyOp13
 70
     1
102
RTVSPropertyOp14
 70
     1
102
RTVSPropertyOp15
 70
     1
102
RTVSPropertyOp16
 70
     1
102
RTVSPropertyOp17
 70
     1
102
RTVSPropertyOp18
 70
     1
102
RTVSPropertyOp19
 70
     1
102
RTVSPropertyOp20
 70
     1
102
RTVSPropertyOp21
 70
     1
102
RTVSPropertyOp22
 70
     1
102
RTVSPropertyOp23
 70
     1
102
RTVSPropertyOp24
 70
     1
102
RTVSPropertyOp25
 70
     1
102
RTVSPropertyOp26
 70
     1
102
RTVSPropertyOp27
 70
     1
102
RTVSPropertyOp28
 70
     1
102
RTVSPropertyOp29
 70
     1
102
RTVSPropertyOp30
 70
     1
102
RTVSPropertyOp31
 70
     1
102
RTVSPropertyOp32
 70
     1
102
RTVSPropertyOp33
 70
     1
102
RTVSPropertyOp34
 70
     1
102
RTVSPropertyOp35
 70
     1
102
RTVSPropertyOp36
 70
     1
102
RTVSPropertyOp37
 70
     1
102
RTVSPropertyOp38
 70
     1
102
RTVSPropertyOp39
 70
     1
102
RTVSPropertyOp40
 70
     1
102
RTVSPropertyOp41
 70
     1
102
RTVSPropertyOp42
 70
     1
102
RTVSPropertyOp43
 70
     1
102
RTVSPropertyOp44
 70
     1
102
RTVSPropertyOp45
 70
     1
102
RTVSPropertyOp46
 70
     1
102
RTVSPropertyOp47
 70
     1
102
RTVSPropertyOp48
 70
     1
102
RTVSPropertyOp49
 70
     1
102
RTVSPropertyOp50
 70
     1
102
RTVSPropertyOp51
 70
     0
102
RTVSPropertyOp52
 70
     0
102
RTVSPropertyOp53
 70
     1
102
RTVSPropertyOp54
 70
     1
102
RTVSPropertyOp55
 70
     1
102
RTVSPropertyOp56
 70
     1
102
RTVSPropertyOp57
 70
     1
102
RTVSPropertyOp58
 70
     1
102
RTVSPropertyOp59
 70
     1
102
RTVSPropertyOp60
 70
     1
102
RTVSPropertyOp61
 70
     1
102
RTVSPropertyOp62
 70
     1
  0
XRECORD
  5
1531
102
{ACAD_REACTORS
330
1530
102
}
330
1530
100
AcDbXrecord
280
     1
102
RTVSPost2010Prop28
280
     0
102
RTVSPost2010PropOp28
 70
     1
102
RTVSPost2010Prop29
280
     1
102
RTVSPost2010PropOp29
 70
     1
102
RTVSPost2010Prop30
280
     1
102
RTVSPost2010PropOp30
 70
     1
102
RTVSPost2010Prop31
280
     0
102
RTVSPost2010PropOp31
 70
     1
102
RTVSPost2010Prop32
280
     0
102
RTVSPost2010PropOp32
 70
     1
102
RTVSPost2010Prop33
280
     0
102
RTVSPost2010PropOp33
 70
     1
102
RTVSPost2010Prop34
280
     0
102
RTVSPost2010PropOp34
 70
     1
102
RTVSPost2010Prop35
280
     0
102
RTVSPost2010PropOp35
 70
     1
102
RTVSPost2010Prop36
280
     0
102
RTVSPost2010PropOp36
 70
     1
102
RTVSPost2010Prop37
 90
       50
102
RTVSPost2010PropOp37
 70
     1
102
RTVSPost2010Prop38
140
0.0
102
RTVSPost2010PropOp38
 70
     1
102
RTVSPost2010Prop39
140
1.0
102
RTVSPost2010PropOp39
 70
     1
102
RTVSPost2010Prop40
 90
        0
102
RTVSPost2010PropOp40
 70
     1
102
RTVSPost2010Prop41ColorIndex
 90
       18
102
RTVSPost2010Prop41ColorRGB
 90
-16777216
102
RTVSPost2010PropOp41
 70
     1
102
RTVSPost2010Prop42
 90
       50
102
RTVSPost2010PropOp42
 70
     1
102
RTVSPost2010Prop43
 90
        3
102
RTVSPost2010PropOp43
 70
     1
102
RTVSPost2010Prop44ColorIndex
 90
        5
102
RTVSPost2010Prop44ColorRGB
 90
      255
102
RTVSPost2010PropOp44
 70
     1
102
RTVSPost2010Prop45
280
     0
102
RTVSPost2010PropOp45
 70
     1
102
RTVSPost2010Prop46
 90
       50
102
RTVSPost2010PropOp46
 70
     1
102
RTVSPost2010Prop47
 90
       50
102
RTVSPost2010PropOp47
 70
     1
102
RTVSPost2010Prop48
 90
       50
102
RTVSPost2010PropOp48
 70
     1
102
RTVSPost2010Prop49
280
     0
102
RTVSPost2010PropOp49
 70
     1
102
RTVSPost2010Prop50
 90
       50
102
RTVSPost2010PropOp50
 70
     1
102
RTVSPost2010Prop51ColorIndex
 90
      256
102
RTVSPost2010Prop51ColorRGB
 90
-16777216
102
RTVSPost2010PropOp51
 70
     0
102
RTVSPost2010Prop52
140
1.0
102
RTVSPost2010PropOp52
 70
     0
102
RTVSPost2010Prop53
 90
        2
102
RTVSPost2010PropOp53
 70
     1
102
RTVSPost2010Prop54
  1
strokes_ogs.tif
102
RTVSPost2010PropOp54
 70
     1
102
RTVSPost2010Prop55
280
     0
102
RTVSPost2010PropOp55
 70
     1
102
RTVSPost2010Prop56
140
1.0
102
RTVSPost2010PropOp56
 70
     1
102
RTVSPost2010Prop57
140
1.0
102
RTVSPost2010PropOp57
 70
     1
102
RTVSPropertyOp0
 70
     1
102
RTVSPropertyOp1
 70
     1
102
RTVSPropertyOp2
 70
     1
102
RTVSPropertyOp3
 70
     1
102
RTVSPropertyOp4
 70
     1
102
RTVSPropertyOp5
 70
     1
102
RTVSPropertyOp6
 70
     1
102
RTVSPropertyOp7
 70
     1
102
RTVSPropertyOp8
 70
     1
102
RTVSPropertyOp9
 70
     1
102
RTVSPropertyOp10
 70
     1
102
RTVSPropertyOp11
 70
     1
102
RTVSPropertyOp12
 70
     1
102
RTVSPropertyOp13
 70
     1
102
RTVSPropertyOp14
 70
     1
102
RTVSPropertyOp15
 70
     1
102
RTVSPropertyOp16
 70
     1
102
RTVSPropertyOp17
 70
     1
102
RTVSPropertyOp18
 70
     1
102
RTVSPropertyOp19
 70
     1
102
RTVSPropertyOp20
 70
     1
102
RTVSPropertyOp21
 70
     1
102
RTVSPropertyOp22
 70
     1
102
RTVSPropertyOp23
 70
     1
102
RTVSPropertyOp24
 70
     1
102
RTVSPropertyOp25
 70
     1
102
RTVSPropertyOp26
 70
     1
102
RTVSPropertyOp27
 70
     1
102
RTVSPropertyOp28
 70
     1
102
RTVSPropertyOp29
 70
     1
102
RTVSPropertyOp30
 70
     1
102
RTVSPropertyOp31
 70
     1
102
RTVSPropertyOp32
 70
     1
102
RTVSPropertyOp33
 70
     1
102
RTVSPropertyOp34
 70
     1
102
RTVSPropertyOp35
 70
     1
102
RTVSPropertyOp36
 70
     1
102
RTVSPropertyOp37
 70
     1
102
RTVSPropertyOp38
 70
     1
102
RTVSPropertyOp39
 70
     1
102
RTVSPropertyOp40
 70
     1
102
RTVSPropertyOp41
 70
     1
102
RTVSPropertyOp42
 70
     1
102
RTVSPropertyOp43
 70
     1
102
RTVSPropertyOp44
 70
     1
102
RTVSPropertyOp45
 70
     1
102
RTVSPropertyOp46
 70
     1
102
RTVSPropertyOp47
 70
     1
102
RTVSPropertyOp48
 70
     1
102
RTVSPropertyOp49
 70
     1
102
RTVSPropertyOp50
 70
     1
102
RTVSPropertyOp51
 70
     0
102
RTVSPropertyOp52
 70
     0
102
RTVSPropertyOp53
 70
     1
102
RTVSPropertyOp54
 70
     1
102
RTVSPropertyOp55
 70
     1
102
RTVSPropertyOp56
 70
     1
102
RTVSPropertyOp57
 70
     1
102
RTVSPropertyOp58
 70
     1
102
RTVSPropertyOp59
 70
     1
102
RTVSPropertyOp60
 70
     1
102
RTVSPropertyOp61
 70
     1
102
RTVSPropertyOp62
 70
     1
  0
XRECORD
  5
1533
102
{ACAD_REACTORS
330
1532
102
}
330
1532
100
AcDbXrecord
280
     1
102
RTVSPost2010Prop28
280
     0
102
RTVSPost2010PropOp28
 70
     1
102
RTVSPost2010Prop29
280
     1
102
RTVSPost2010PropOp29
 70
     1
102
RTVSPost2010Prop30
280
     1
102
RTVSPost2010PropOp30
 70
     1
102
RTVSPost2010Prop31
280
     0
102
RTVSPost2010PropOp31
 70
     1
102
RTVSPost2010Prop32
280
     0
102
RTVSPost2010PropOp32
 70
     1
102
RTVSPost2010Prop33
280
     0
102
RTVSPost2010PropOp33
 70
     1
102
RTVSPost2010Prop34
280
     0
102
RTVSPost2010PropOp34
 70
     1
102
RTVSPost2010Prop35
280
     0
102
RTVSPost2010PropOp35
 70
     1
102
RTVSPost2010Prop36
280
     0
102
RTVSPost2010PropOp36
 70
     1
102
RTVSPost2010Prop37
 90
       50
102
RTVSPost2010PropOp37
 70
     1
102
RTVSPost2010Prop38
140
0.0
102
RTVSPost2010PropOp38
 70
     1
102
RTVSPost2010Prop39
140
1.0
102
RTVSPost2010PropOp39
 70
     1
102
RTVSPost2010Prop40
 90
        0
102
RTVSPost2010PropOp40
 70
     1
102
RTVSPost2010Prop41ColorIndex
 90
       18
102
RTVSPost2010Prop41ColorRGB
 90
-16777216
102
RTVSPost2010PropOp41
 70
     1
102
RTVSPost2010Prop42
 90
       50
102
RTVSPost2010PropOp42
 70
     1
102
RTVSPost2010Prop43
 90
        3
102
RTVSPost2010PropOp43
 70
     1
102
RTVSPost2010Prop44ColorIndex
 90
        5
102
RTVSPost2010Prop44ColorRGB
 90
      255
102
RTVSPost2010PropOp44
 70
     1
102
RTVSPost2010Prop45
280
     0
102
RTVSPost2010PropOp45
 70
     1
102
RTVSPost2010Prop46
 90
       50
102
RTVSPost2010PropOp46
 70
     1
102
RTVSPost2010Prop47
 90
       50
102
RTVSPost2010PropOp47
 70
     1
102
RTVSPost2010Prop48
 90
       50
102
RTVSPost2010PropOp48
 70
     1
102
RTVSPost2010Prop49
280
     0
102
RTVSPost2010PropOp49
 70
     1
102
RTVSPost2010Prop50
 90
       50
102
RTVSPost2010PropOp50
 70
     1
102
RTVSPost2010Prop51ColorIndex
 90
      256
102
RTVSPost2010Prop51ColorRGB
 90
-16777216
102
RTVSPost2010PropOp51
 70
     0
102
RTVSPost2010Prop52
140
1.0
102
RTVSPost2010PropOp52
 70
     0
102
RTVSPost2010Prop53
 90
        2
102
RTVSPost2010PropOp53
 70
     1
102
RTVSPost2010Prop54
  1
strokes_ogs.tif
102
RTVSPost2010PropOp54
 70
     1
102
RTVSPost2010Prop55
280
     0
102
RTVSPost2010PropOp55
 70
     1
102
RTVSPost2010Prop56
140
1.0
102
RTVSPost2010PropOp56
 70
     1
102
RTVSPost2010Prop57
140
1.0
102
RTVSPost2010PropOp57
 70
     1
102
RTVSPropertyOp0
 70
     1
102
RTVSPropertyOp1
 70
     1
102
RTVSPropertyOp2
 70
     1
102
RTVSPropertyOp3
 70
     1
102
RTVSPropertyOp4
 70
     1
102
RTVSPropertyOp5
 70
     1
102
RTVSPropertyOp6
 70
     1
102
RTVSPropertyOp7
 70
     1
102
RTVSPropertyOp8
 70
     1
102
RTVSPropertyOp9
 70
     1
102
RTVSPropertyOp10
 70
     1
102
RTVSPropertyOp11
 70
     1
102
RTVSPropertyOp12
 70
     1
102
RTVSPropertyOp13
 70
     1
102
RTVSPropertyOp14
 70
     1
102
RTVSPropertyOp15
 70
     1
102
RTVSPropertyOp16
 70
     1
102
RTVSPropertyOp17
 70
     1
102
RTVSPropertyOp18
 70
     1
102
RTVSPropertyOp19
 70
     1
102
RTVSPropertyOp20
 70
     1
102
RTVSPropertyOp21
 70
     1
102
RTVSPropertyOp22
 70
     1
102
RTVSPropertyOp23
 70
     1
102
RTVSPropertyOp24
 70
     1
102
RTVSPropertyOp25
 70
     1
102
RTVSPropertyOp26
 70
     1
102
RTVSPropertyOp27
 70
     1
102
RTVSPropertyOp28
 70
     1
102
RTVSPropertyOp29
 70
     1
102
RTVSPropertyOp30
 70
     1
102
RTVSPropertyOp31
 70
     1
102
RTVSPropertyOp32
 70
     1
102
RTVSPropertyOp33
 70
     1
102
RTVSPropertyOp34
 70
     1
102
RTVSPropertyOp35
 70
     1
102
RTVSPropertyOp36
 70
     1
102
RTVSPropertyOp37
 70
     1
102
RTVSPropertyOp38
 70
     1
102
RTVSPropertyOp39
 70
     1
102
RTVSPropertyOp40
 70
     1
102
RTVSPropertyOp41
 70
     1
102
RTVSPropertyOp42
 70
     1
102
RTVSPropertyOp43
 70
     1
102
RTVSPropertyOp44
 70
     1
102
RTVSPropertyOp45
 70
     1
102
RTVSPropertyOp46
 70
     1
102
RTVSPropertyOp47
 70
     1
102
RTVSPropertyOp48
 70
     1
102
RTVSPropertyOp49
 70
     1
102
RTVSPropertyOp50
 70
     1
102
RTVSPropertyOp51
 70
     0
102
RTVSPropertyOp52
 70
     0
102
RTVSPropertyOp53
 70
     1
102
RTVSPropertyOp54
 70
     1
102
RTVSPropertyOp55
 70
     1
102
RTVSPropertyOp56
 70
     1
102
RTVSPropertyOp57
 70
     1
102
RTVSPropertyOp58
 70
     1
102
RTVSPropertyOp59
 70
     1
102
RTVSPropertyOp60
 70
     1
102
RTVSPropertyOp61
 70
     1
102
RTVSPropertyOp62
 70
     1
  0
XRECORD
  5
154D
102
{ACAD_REACTORS
330
154C
102
}
330
154C
100
AcDbXrecord
280
     1
102
RTVSPost2010Prop28
280
     0
102
RTVSPost2010PropOp28
 70
     1
102
RTVSPost2010Prop29
280
     1
102
RTVSPost2010PropOp29
 70
     1
102
RTVSPost2010Prop30
280
     1
102
RTVSPost2010PropOp30
 70
     1
102
RTVSPost2010Prop31
280
     0
102
RTVSPost2010PropOp31
 70
     1
102
RTVSPost2010Prop32
280
     0
102
RTVSPost2010PropOp32
 70
     1
102
RTVSPost2010Prop33
280
     0
102
RTVSPost2010PropOp33
 70
     1
102
RTVSPost2010Prop34
280
     0
102
RTVSPost2010PropOp34
 70
     1
102
RTVSPost2010Prop35
280
     0
102
RTVSPost2010PropOp35
 70
     1
102
RTVSPost2010Prop36
280
     0
102
RTVSPost2010PropOp36
 70
     1
102
RTVSPost2010Prop37
 90
       50
102
RTVSPost2010PropOp37
 70
     0
102
RTVSPost2010Prop38
140
0.0
102
RTVSPost2010PropOp38
 70
     0
102
RTVSPost2010Prop39
140
1.0
102
RTVSPost2010PropOp39
 70
     0
102
RTVSPost2010Prop40
 90
        0
102
RTVSPost2010PropOp40
 70
     0
102
RTVSPost2010Prop41ColorIndex
 90
       18
102
RTVSPost2010Prop41ColorRGB
 90
-16777216
102
RTVSPost2010PropOp41
 70
     0
102
RTVSPost2010Prop42
 90
       50
102
RTVSPost2010PropOp42
 70
     0
102
RTVSPost2010Prop43
 90
        3
102
RTVSPost2010PropOp43
 70
     0
102
RTVSPost2010Prop44ColorIndex
 90
        5
102
RTVSPost2010Prop44ColorRGB
 90
      255
102
RTVSPost2010PropOp44
 70
     0
102
RTVSPost2010Prop45
280
     0
102
RTVSPost2010PropOp45
 70
     1
102
RTVSPost2010Prop46
 90
       50
102
RTVSPost2010PropOp46
 70
     0
102
RTVSPost2010Prop47
 90
       50
102
RTVSPost2010PropOp47
 70
     0
102
RTVSPost2010Prop48
 90
       50
102
RTVSPost2010PropOp48
 70
     0
102
RTVSPost2010Prop49
280
     0
102
RTVSPost2010PropOp49
 70
     1
102
RTVSPost2010Prop50
 90
       50
102
RTVSPost2010PropOp50
 70
     0
102
RTVSPost2010Prop51ColorIndex
 90
      256
102
RTVSPost2010Prop51ColorRGB
 90
-16777216
102
RTVSPost2010PropOp51
 70
     0
102
RTVSPost2010Prop52
140
1.0
102
RTVSPost2010PropOp52
 70
     0
102
RTVSPost2010Prop53
 90
        2
102
RTVSPost2010PropOp53
 70
     0
102
RTVSPost2010Prop54
  1
strokes_ogs.tif
102
RTVSPost2010PropOp54
 70
     0
102
RTVSPost2010Prop55
280
     0
102
RTVSPost2010PropOp55
 70
     1
102
RTVSPost2010Prop56
140
1.0
102
RTVSPost2010PropOp56
 70
     0
102
RTVSPost2010Prop57
140
1.0
102
RTVSPost2010PropOp57
 70
     0
102
RTVSPropertyOp0
 70
     0
102
RTVSPropertyOp1
 70
     0
102
RTVSPropertyOp2
 70
     0
102
RTVSPropertyOp3
 70
     0
102
RTVSPropertyOp4
 70
     0
102
RTVSPropertyOp5
 70
     0
102
RTVSPropertyOp6
 70
     0
102
RTVSPropertyOp7
 70
     0
102
RTVSPropertyOp8
 70
     0
102
RTVSPropertyOp9
 70
     0
102
RTVSPropertyOp10
 70
     0
102
RTVSPropertyOp11
 70
     0
102
RTVSPropertyOp12
 70
     0
102
RTVSPropertyOp13
 70
     0
102
RTVSPropertyOp14
 70
     2
102
RTVSPropertyOp15
 70
     0
102
RTVSPropertyOp16
 70
     0
102
RTVSPropertyOp17
 70
     0
102
RTVSPropertyOp18
 70
     0
102
RTVSPropertyOp19
 70
     0
102
RTVSPropertyOp20
 70
     0
102
RTVSPropertyOp21
 70
     0
102
RTVSPropertyOp22
 70
     0
102
RTVSPropertyOp23
 70
     0
102
RTVSPropertyOp24
 70
     0
102
RTVSPropertyOp25
 70
     0
102
RTVSPropertyOp26
 70
     0
102
RTVSPropertyOp27
 70
     0
102
RTVSPropertyOp28
 70
     1
102
RTVSPropertyOp29
 70
     1
102
RTVSPropertyOp30
 70
     1
102
RTVSPropertyOp31
 70
     1
102
RTVSPropertyOp32
 70
     1
102
RTVSPropertyOp33
 70
     1
102
RTVSPropertyOp34
 70
     1
102
RTVSPropertyOp35
 70
     1
102
RTVSPropertyOp36
 70
     1
102
RTVSPropertyOp37
 70
     0
102
RTVSPropertyOp38
 70
     0
102
RTVSPropertyOp39
 70
     0
102
RTVSPropertyOp40
 70
     0
102
RTVSPropertyOp41
 70
     0
102
RTVSPropertyOp42
 70
     0
102
RTVSPropertyOp43
 70
     0
102
RTVSPropertyOp44
 70
     0
102
RTVSPropertyOp45
 70
     1
102
RTVSPropertyOp46
 70
     0
102
RTVSPropertyOp47
 70
     0
102
RTVSPropertyOp48
 70
     0
102
RTVSPropertyOp49
 70
     1
102
RTVSPropertyOp50
 70
     0
102
RTVSPropertyOp51
 70
     0
102
RTVSPropertyOp52
 70
     0
102
RTVSPropertyOp53
 70
     0
102
RTVSPropertyOp54
 70
     0
102
RTVSPropertyOp55
 70
     1
102
RTVSPropertyOp56
 70
     0
102
RTVSPropertyOp57
 70
     0
102
RTVSPropertyOp58
 70
     1
102
RTVSPropertyOp59
 70
     1
102
RTVSPropertyOp60
 70
     1
102
RTVSPropertyOp61
 70
     1
102
RTVSPropertyOp62
 70
     1
  0
XRECORD
  5
153B
102
{ACAD_REACTORS
330
153A
102
}
330
153A
100
AcDbXrecord
280
     1
102
RTVSPost2010Prop28
280
     0
102
RTVSPost2010PropOp28
 70
     1
102
RTVSPost2010Prop29
280
     1
102
RTVSPost2010PropOp29
 70
     1
102
RTVSPost2010Prop30
280
     1
102
RTVSPost2010PropOp30
 70
     1
102
RTVSPost2010Prop31
280
     0
102
RTVSPost2010PropOp31
 70
     1
102
RTVSPost2010Prop32
280
     0
102
RTVSPost2010PropOp32
 70
     1
102
RTVSPost2010Prop33
280
     0
102
RTVSPost2010PropOp33
 70
     1
102
RTVSPost2010Prop34
280
     0
102
RTVSPost2010PropOp34
 70
     1
102
RTVSPost2010Prop35
280
     0
102
RTVSPost2010PropOp35
 70
     1
102
RTVSPost2010Prop36
280
     0
102
RTVSPost2010PropOp36
 70
     1
102
RTVSPost2010Prop37
 90
       50
102
RTVSPost2010PropOp37
 70
     1
102
RTVSPost2010Prop38
140
0.0
102
RTVSPost2010PropOp38
 70
     1
102
RTVSPost2010Prop39
140
1.0
102
RTVSPost2010PropOp39
 70
     1
102
RTVSPost2010Prop40
 90
        0
102
RTVSPost2010PropOp40
 70
     1
102
RTVSPost2010Prop41ColorIndex
 90
       18
102
RTVSPost2010Prop41ColorRGB
 90
-16777216
102
RTVSPost2010PropOp41
 70
     1
102
RTVSPost2010Prop42
 90
       50
102
RTVSPost2010PropOp42
 70
     1
102
RTVSPost2010Prop43
 90
        3
102
RTVSPost2010PropOp43
 70
     1
102
RTVSPost2010Prop44ColorIndex
 90
        5
102
RTVSPost2010Prop44ColorRGB
 90
      255
102
RTVSPost2010PropOp44
 70
     1
102
RTVSPost2010Prop45
280
     0
102
RTVSPost2010PropOp45
 70
     1
102
RTVSPost2010Prop46
 90
       50
102
RTVSPost2010PropOp46
 70
     1
102
RTVSPost2010Prop47
 90
       50
102
RTVSPost2010PropOp47
 70
     1
102
RTVSPost2010Prop48
 90
       50
102
RTVSPost2010PropOp48
 70
     1
102
RTVSPost2010Prop49
280
     0
102
RTVSPost2010PropOp49
 70
     1
102
RTVSPost2010Prop50
 90
       50
102
RTVSPost2010PropOp50
 70
     1
102
RTVSPost2010Prop51ColorIndex
 90
      256
102
RTVSPost2010Prop51ColorRGB
 90
-16777216
102
RTVSPost2010PropOp51
 70
     0
102
RTVSPost2010Prop52
140
1.0
102
RTVSPost2010PropOp52
 70
     0
102
RTVSPost2010Prop53
 90
        2
102
RTVSPost2010PropOp53
 70
     1
102
RTVSPost2010Prop54
  1
strokes_ogs.tif
102
RTVSPost2010PropOp54
 70
     1
102
RTVSPost2010Prop55
280
     0
102
RTVSPost2010PropOp55
 70
     1
102
RTVSPost2010Prop56
140
1.0
102
RTVSPost2010PropOp56
 70
     1
102
RTVSPost2010Prop57
140
1.0
102
RTVSPost2010PropOp57
 70
     1
102
RTVSPropertyOp0
 70
     1
102
RTVSPropertyOp1
 70
     1
102
RTVSPropertyOp2
 70
     1
102
RTVSPropertyOp3
 70
     1
102
RTVSPropertyOp4
 70
     1
102
RTVSPropertyOp5
 70
     1
102
RTVSPropertyOp6
 70
     1
102
RTVSPropertyOp7
 70
     1
102
RTVSPropertyOp8
 70
     1
102
RTVSPropertyOp9
 70
     1
102
RTVSPropertyOp10
 70
     1
102
RTVSPropertyOp11
 70
     1
102
RTVSPropertyOp12
 70
     1
102
RTVSPropertyOp13
 70
     1
102
RTVSPropertyOp14
 70
     1
102
RTVSPropertyOp15
 70
     1
102
RTVSPropertyOp16
 70
     1
102
RTVSPropertyOp17
 70
     1
102
RTVSPropertyOp18
 70
     1
102
RTVSPropertyOp19
 70
     1
102
RTVSPropertyOp20
 70
     1
102
RTVSPropertyOp21
 70
     1
102
RTVSPropertyOp22
 70
     1
102
RTVSPropertyOp23
 70
     1
102
RTVSPropertyOp24
 70
     1
102
RTVSPropertyOp25
 70
     1
102
RTVSPropertyOp26
 70
     1
102
RTVSPropertyOp27
 70
     1
102
RTVSPropertyOp28
 70
     1
102
RTVSPropertyOp29
 70
     1
102
RTVSPropertyOp30
 70
     1
102
RTVSPropertyOp31
 70
     1
102
RTVSPropertyOp32
 70
     1
102
RTVSPropertyOp33
 70
     1
102
RTVSPropertyOp34
 70
     1
102
RTVSPropertyOp35
 70
     1
102
RTVSPropertyOp36
 70
     1
102
RTVSPropertyOp37
 70
     1
102
RTVSPropertyOp38
 70
     1
102
RTVSPropertyOp39
 70
     1
102
RTVSPropertyOp40
 70
     1
102
RTVSPropertyOp41
 70
     1
102
RTVSPropertyOp42
 70
     1
102
RTVSPropertyOp43
 70
     1
102
RTVSPropertyOp44
 70
     1
102
RTVSPropertyOp45
 70
     1
102
RTVSPropertyOp46
 70
     1
102
RTVSPropertyOp47
 70
     1
102
RTVSPropertyOp48
 70
     1
102
RTVSPropertyOp49
 70
     1
102
RTVSPropertyOp50
 70
     1
102
RTVSPropertyOp51
 70
     0
102
RTVSPropertyOp52
 70
     0
102
RTVSPropertyOp53
 70
     1
102
RTVSPropertyOp54
 70
     1
102
RTVSPropertyOp55
 70
     1
102
RTVSPropertyOp56
 70
     1
102
RTVSPropertyOp57
 70
     1
102
RTVSPropertyOp58
 70
     1
102
RTVSPropertyOp59
 70
     1
102
RTVSPropertyOp60
 70
     1
102
RTVSPropertyOp61
 70
     1
102
RTVSPropertyOp62
 70
     1
  0
XRECORD
  5
1525
102
{ACAD_REACTORS
330
1524
102
}
330
1524
100
AcDbXrecord
280
     1
102
RTVSPost2010Prop28
280
     0
102
RTVSPost2010PropOp28
 70
     1
102
RTVSPost2010Prop29
280
     1
102
RTVSPost2010PropOp29
 70
     1
102
RTVSPost2010Prop30
280
     1
102
RTVSPost2010PropOp30
 70
     1
102
RTVSPost2010Prop31
280
     0
102
RTVSPost2010PropOp31
 70
     1
102
RTVSPost2010Prop32
280
     0
102
RTVSPost2010PropOp32
 70
     1
102
RTVSPost2010Prop33
280
     0
102
RTVSPost2010PropOp33
 70
     1
102
RTVSPost2010Prop34
280
     0
102
RTVSPost2010PropOp34
 70
     1
102
RTVSPost2010Prop35
280
     0
102
RTVSPost2010PropOp35
 70
     1
102
RTVSPost2010Prop36
280
     0
102
RTVSPost2010PropOp36
 70
     1
102
RTVSPost2010Prop37
 90
       50
102
RTVSPost2010PropOp37
 70
     1
102
RTVSPost2010Prop38
140
0.0
102
RTVSPost2010PropOp38
 70
     1
102
RTVSPost2010Prop39
140
1.0
102
RTVSPost2010PropOp39
 70
     1
102
RTVSPost2010Prop40
 90
        0
102
RTVSPost2010PropOp40
 70
     1
102
RTVSPost2010Prop41ColorIndex
 90
       18
102
RTVSPost2010Prop41ColorRGB
 90
-16777216
102
RTVSPost2010PropOp41
 70
     1
102
RTVSPost2010Prop42
 90
       50
102
RTVSPost2010PropOp42
 70
     1
102
RTVSPost2010Prop43
 90
        3
102
RTVSPost2010PropOp43
 70
     1
102
RTVSPost2010Prop44ColorIndex
 90
        5
102
RTVSPost2010Prop44ColorRGB
 90
      255
102
RTVSPost2010PropOp44
 70
     1
102
RTVSPost2010Prop45
280
     0
102
RTVSPost2010PropOp45
 70
     1
102
RTVSPost2010Prop46
 90
       50
102
RTVSPost2010PropOp46
 70
     1
102
RTVSPost2010Prop47
 90
       50
102
RTVSPost2010PropOp47
 70
     1
102
RTVSPost2010Prop48
 90
       50
102
RTVSPost2010PropOp48
 70
     1
102
RTVSPost2010Prop49
280
     0
102
RTVSPost2010PropOp49
 70
     1
102
RTVSPost2010Prop50
 90
       50
102
RTVSPost2010PropOp50
 70
     1
102
RTVSPost2010Prop51ColorIndex
 90
      256
102
RTVSPost2010Prop51ColorRGB
 90
-16777216
102
RTVSPost2010PropOp51
 70
     0
102
RTVSPost2010Prop52
140
1.0
102
RTVSPost2010PropOp52
 70
     0
102
RTVSPost2010Prop53
 90
        2
102
RTVSPost2010PropOp53
 70
     1
102
RTVSPost2010Prop54
  1
strokes_ogs.tif
102
RTVSPost2010PropOp54
 70
     1
102
RTVSPost2010Prop55
280
     0
102
RTVSPost2010PropOp55
 70
     1
102
RTVSPost2010Prop56
140
1.0
102
RTVSPost2010PropOp56
 70
     1
102
RTVSPost2010Prop57
140
1.0
102
RTVSPost2010PropOp57
 70
     1
102
RTVSPropertyOp0
 70
     1
102
RTVSPropertyOp1
 70
     1
102
RTVSPropertyOp2
 70
     1
102
RTVSPropertyOp3
 70
     1
102
RTVSPropertyOp4
 70
     1
102
RTVSPropertyOp5
 70
     1
102
RTVSPropertyOp6
 70
     1
102
RTVSPropertyOp7
 70
     1
102
RTVSPropertyOp8
 70
     1
102
RTVSPropertyOp9
 70
     1
102
RTVSPropertyOp10
 70
     1
102
RTVSPropertyOp11
 70
     1
102
RTVSPropertyOp12
 70
     1
102
RTVSPropertyOp13
 70
     1
102
RTVSPropertyOp14
 70
     1
102
RTVSPropertyOp15
 70
     1
102
RTVSPropertyOp16
 70
     1
102
RTVSPropertyOp17
 70
     1
102
RTVSPropertyOp18
 70
     1
102
RTVSPropertyOp19
 70
     1
102
RTVSPropertyOp20
 70
     1
102
RTVSPropertyOp21
 70
     1
102
RTVSPropertyOp22
 70
     1
102
RTVSPropertyOp23
 70
     1
102
RTVSPropertyOp24
 70
     1
102
RTVSPropertyOp25
 70
     1
102
RTVSPropertyOp26
 70
     1
102
RTVSPropertyOp27
 70
     1
102
RTVSPropertyOp28
 70
     1
102
RTVSPropertyOp29
 70
     1
102
RTVSPropertyOp30
 70
     1
102
RTVSPropertyOp31
 70
     1
102
RTVSPropertyOp32
 70
     1
102
RTVSPropertyOp33
 70
     1
102
RTVSPropertyOp34
 70
     1
102
RTVSPropertyOp35
 70
     1
102
RTVSPropertyOp36
 70
     1
102
RTVSPropertyOp37
 70
     1
102
RTVSPropertyOp38
 70
     1
102
RTVSPropertyOp39
 70
     1
102
RTVSPropertyOp40
 70
     1
102
RTVSPropertyOp41
 70
     1
102
RTVSPropertyOp42
 70
     1
102
RTVSPropertyOp43
 70
     1
102
RTVSPropertyOp44
 70
     1
102
RTVSPropertyOp45
 70
     1
102
RTVSPropertyOp46
 70
     1
102
RTVSPropertyOp47
 70
     1
102
RTVSPropertyOp48
 70
     1
102
RTVSPropertyOp49
 70
     1
102
RTVSPropertyOp50
 70
     1
102
RTVSPropertyOp51
 70
     0
102
RTVSPropertyOp52
 70
     0
102
RTVSPropertyOp53
 70
     1
102
RTVSPropertyOp54
 70
     1
102
RTVSPropertyOp55
 70
     1
102
RTVSPropertyOp56
 70
     1
102
RTVSPropertyOp57
 70
     1
102
RTVSPropertyOp58
 70
     1
102
RTVSPropertyOp59
 70
     1
102
RTVSPropertyOp60
 70
     1
102
RTVSPropertyOp61
 70
     1
102
RTVSPropertyOp62
 70
     1
  0
XRECORD
  5
1527
102
{ACAD_REACTORS
330
1526
102
}
330
1526
100
AcDbXrecord
280
     1
102
RTVSPost2010Prop28
280
     0
102
RTVSPost2010PropOp28
 70
     1
102
RTVSPost2010Prop29
280
     1
102
RTVSPost2010PropOp29
 70
     1
102
RTVSPost2010Prop30
280
     1
102
RTVSPost2010PropOp30
 70
     1
102
RTVSPost2010Prop31
280
     0
102
RTVSPost2010PropOp31
 70
     1
102
RTVSPost2010Prop32
280
     0
102
RTVSPost2010PropOp32
 70
     1
102
RTVSPost2010Prop33
280
     0
102
RTVSPost2010PropOp33
 70
     1
102
RTVSPost2010Prop34
280
     0
102
RTVSPost2010PropOp34
 70
     1
102
RTVSPost2010Prop35
280
     0
102
RTVSPost2010PropOp35
 70
     1
102
RTVSPost2010Prop36
280
     0
102
RTVSPost2010PropOp36
 70
     1
102
RTVSPost2010Prop37
 90
       50
102
RTVSPost2010PropOp37
 70
     1
102
RTVSPost2010Prop38
140
0.0
102
RTVSPost2010PropOp38
 70
     1
102
RTVSPost2010Prop39
140
1.0
102
RTVSPost2010PropOp39
 70
     1
102
RTVSPost2010Prop40
 90
        0
102
RTVSPost2010PropOp40
 70
     1
102
RTVSPost2010Prop41ColorIndex
 90
       18
102
RTVSPost2010Prop41ColorRGB
 90
-16777216
102
RTVSPost2010PropOp41
 70
     1
102
RTVSPost2010Prop42
 90
       50
102
RTVSPost2010PropOp42
 70
     1
102
RTVSPost2010Prop43
 90
        3
102
RTVSPost2010PropOp43
 70
     1
102
RTVSPost2010Prop44ColorIndex
 90
        5
102
RTVSPost2010Prop44ColorRGB
 90
      255
102
RTVSPost2010PropOp44
 70
     1
102
RTVSPost2010Prop45
280
     0
102
RTVSPost2010PropOp45
 70
     1
102
RTVSPost2010Prop46
 90
       50
102
RTVSPost2010PropOp46
 70
     1
102
RTVSPost2010Prop47
 90
       50
102
RTVSPost2010PropOp47
 70
     1
102
RTVSPost2010Prop48
 90
       50
102
RTVSPost2010PropOp48
 70
     1
102
RTVSPost2010Prop49
280
     0
102
RTVSPost2010PropOp49
 70
     1
102
RTVSPost2010Prop50
 90
       50
102
RTVSPost2010PropOp50
 70
     1
102
RTVSPost2010Prop51ColorIndex
 90
      256
102
RTVSPost2010Prop51ColorRGB
 90
-16777216
102
RTVSPost2010PropOp51
 70
     0
102
RTVSPost2010Prop52
140
1.0
102
RTVSPost2010PropOp52
 70
     0
102
RTVSPost2010Prop53
 90
        2
102
RTVSPost2010PropOp53
 70
     1
102
RTVSPost2010Prop54
  1
strokes_ogs.tif
102
RTVSPost2010PropOp54
 70
     1
102
RTVSPost2010Prop55
280
     0
102
RTVSPost2010PropOp55
 70
     1
102
RTVSPost2010Prop56
140
1.0
102
RTVSPost2010PropOp56
 70
     1
102
RTVSPost2010Prop57
140
1.0
102
RTVSPost2010PropOp57
 70
     1
102
RTVSPropertyOp0
 70
     1
102
RTVSPropertyOp1
 70
     1
102
RTVSPropertyOp2
 70
     1
102
RTVSPropertyOp3
 70
     1
102
RTVSPropertyOp4
 70
     1
102
RTVSPropertyOp5
 70
     1
102
RTVSPropertyOp6
 70
     1
102
RTVSPropertyOp7
 70
     1
102
RTVSPropertyOp8
 70
     1
102
RTVSPropertyOp9
 70
     1
102
RTVSPropertyOp10
 70
     1
102
RTVSPropertyOp11
 70
     1
102
RTVSPropertyOp12
 70
     1
102
RTVSPropertyOp13
 70
     1
102
RTVSPropertyOp14
 70
     1
102
RTVSPropertyOp15
 70
     1
102
RTVSPropertyOp16
 70
     1
102
RTVSPropertyOp17
 70
     1
102
RTVSPropertyOp18
 70
     1
102
RTVSPropertyOp19
 70
     1
102
RTVSPropertyOp20
 70
     1
102
RTVSPropertyOp21
 70
     1
102
RTVSPropertyOp22
 70
     1
102
RTVSPropertyOp23
 70
     1
102
RTVSPropertyOp24
 70
     1
102
RTVSPropertyOp25
 70
     1
102
RTVSPropertyOp26
 70
     1
102
RTVSPropertyOp27
 70
     1
102
RTVSPropertyOp28
 70
     1
102
RTVSPropertyOp29
 70
     1
102
RTVSPropertyOp30
 70
     1
102
RTVSPropertyOp31
 70
     1
102
RTVSPropertyOp32
 70
     1
102
RTVSPropertyOp33
 70
     1
102
RTVSPropertyOp34
 70
     1
102
RTVSPropertyOp35
 70
     1
102
RTVSPropertyOp36
 70
     1
102
RTVSPropertyOp37
 70
     1
102
RTVSPropertyOp38
 70
     1
102
RTVSPropertyOp39
 70
     1
102
RTVSPropertyOp40
 70
     1
102
RTVSPropertyOp41
 70
     1
102
RTVSPropertyOp42
 70
     1
102
RTVSPropertyOp43
 70
     1
102
RTVSPropertyOp44
 70
     1
102
RTVSPropertyOp45
 70
     1
102
RTVSPropertyOp46
 70
     1
102
RTVSPropertyOp47
 70
     1
102
RTVSPropertyOp48
 70
     1
102
RTVSPropertyOp49
 70
     1
102
RTVSPropertyOp50
 70
     1
102
RTVSPropertyOp51
 70
     0
102
RTVSPropertyOp52
 70
     0
102
RTVSPropertyOp53
 70
     1
102
RTVSPropertyOp54
 70
     1
102
RTVSPropertyOp55
 70
     1
102
RTVSPropertyOp56
 70
     1
102
RTVSPropertyOp57
 70
     1
102
RTVSPropertyOp58
 70
     1
102
RTVSPropertyOp59
 70
     1
102
RTVSPropertyOp60
 70
     1
102
RTVSPropertyOp61
 70
     1
102
RTVSPropertyOp62
 70
     1
  0
XRECORD
  5
1529
102
{ACAD_REACTORS
330
1528
102
}
330
1528
100
AcDbXrecord
280
     1
102
RTVSPost2010Prop28
280
     0
102
RTVSPost2010PropOp28
 70
     1
102
RTVSPost2010Prop29
280
     1
102
RTVSPost2010PropOp29
 70
     1
102
RTVSPost2010Prop30
280
     1
102
RTVSPost2010PropOp30
 70
     1
102
RTVSPost2010Prop31
280
     0
102
RTVSPost2010PropOp31
 70
     1
102
RTVSPost2010Prop32
280
     0
102
RTVSPost2010PropOp32
 70
     1
102
RTVSPost2010Prop33
280
     0
102
RTVSPost2010PropOp33
 70
     1
102
RTVSPost2010Prop34
280
     0
102
RTVSPost2010PropOp34
 70
     1
102
RTVSPost2010Prop35
280
     0
102
RTVSPost2010PropOp35
 70
     1
102
RTVSPost2010Prop36
280
     0
102
RTVSPost2010PropOp36
 70
     1
102
RTVSPost2010Prop37
 90
       50
102
RTVSPost2010PropOp37
 70
     1
102
RTVSPost2010Prop38
140
0.0
102
RTVSPost2010PropOp38
 70
     1
102
RTVSPost2010Prop39
140
1.0
102
RTVSPost2010PropOp39
 70
     1
102
RTVSPost2010Prop40
 90
        0
102
RTVSPost2010PropOp40
 70
     1
102
RTVSPost2010Prop41ColorIndex
 90
       18
102
RTVSPost2010Prop41ColorRGB
 90
-16777216
102
RTVSPost2010PropOp41
 70
     1
102
RTVSPost2010Prop42
 90
       50
102
RTVSPost2010PropOp42
 70
     1
102
RTVSPost2010Prop43
 90
        3
102
RTVSPost2010PropOp43
 70
     1
102
RTVSPost2010Prop44ColorIndex
 90
        5
102
RTVSPost2010Prop44ColorRGB
 90
      255
102
RTVSPost2010PropOp44
 70
     1
102
RTVSPost2010Prop45
280
     0
102
RTVSPost2010PropOp45
 70
     1
102
RTVSPost2010Prop46
 90
       50
102
RTVSPost2010PropOp46
 70
     1
102
RTVSPost2010Prop47
 90
       50
102
RTVSPost2010PropOp47
 70
     1
102
RTVSPost2010Prop48
 90
       50
102
RTVSPost2010PropOp48
 70
     1
102
RTVSPost2010Prop49
280
     0
102
RTVSPost2010PropOp49
 70
     1
102
RTVSPost2010Prop50
 90
       50
102
RTVSPost2010PropOp50
 70
     1
102
RTVSPost2010Prop51ColorIndex
 90
      256
102
RTVSPost2010Prop51ColorRGB
 90
-16777216
102
RTVSPost2010PropOp51
 70
     0
102
RTVSPost2010Prop52
140
1.0
102
RTVSPost2010PropOp52
 70
     0
102
RTVSPost2010Prop53
 90
        2
102
RTVSPost2010PropOp53
 70
     1
102
RTVSPost2010Prop54
  1
strokes_ogs.tif
102
RTVSPost2010PropOp54
 70
     1
102
RTVSPost2010Prop55
280
     0
102
RTVSPost2010PropOp55
 70
     1
102
RTVSPost2010Prop56
140
1.0
102
RTVSPost2010PropOp56
 70
     1
102
RTVSPost2010Prop57
140
1.0
102
RTVSPost2010PropOp57
 70
     1
102
RTVSPropertyOp0
 70
     1
102
RTVSPropertyOp1
 70
     1
102
RTVSPropertyOp2
 70
     1
102
RTVSPropertyOp3
 70
     1
102
RTVSPropertyOp4
 70
     1
102
RTVSPropertyOp5
 70
     1
102
RTVSPropertyOp6
 70
     1
102
RTVSPropertyOp7
 70
     1
102
RTVSPropertyOp8
 70
     1
102
RTVSPropertyOp9
 70
     1
102
RTVSPropertyOp10
 70
     1
102
RTVSPropertyOp11
 70
     1
102
RTVSPropertyOp12
 70
     1
102
RTVSPropertyOp13
 70
     1
102
RTVSPropertyOp14
 70
     1
102
RTVSPropertyOp15
 70
     1
102
RTVSPropertyOp16
 70
     1
102
RTVSPropertyOp17
 70
     1
102
RTVSPropertyOp18
 70
     1
102
RTVSPropertyOp19
 70
     1
102
RTVSPropertyOp20
 70
     1
102
RTVSPropertyOp21
 70
     1
102
RTVSPropertyOp22
 70
     1
102
RTVSPropertyOp23
 70
     1
102
RTVSPropertyOp24
 70
     1
102
RTVSPropertyOp25
 70
     1
102
RTVSPropertyOp26
 70
     1
102
RTVSPropertyOp27
 70
     1
102
RTVSPropertyOp28
 70
     1
102
RTVSPropertyOp29
 70
     1
102
RTVSPropertyOp30
 70
     1
102
RTVSPropertyOp31
 70
     1
102
RTVSPropertyOp32
 70
     1
102
RTVSPropertyOp33
 70
     1
102
RTVSPropertyOp34
 70
     1
102
RTVSPropertyOp35
 70
     1
102
RTVSPropertyOp36
 70
     1
102
RTVSPropertyOp37
 70
     1
102
RTVSPropertyOp38
 70
     1
102
RTVSPropertyOp39
 70
     1
102
RTVSPropertyOp40
 70
     1
102
RTVSPropertyOp41
 70
     1
102
RTVSPropertyOp42
 70
     1
102
RTVSPropertyOp43
 70
     1
102
RTVSPropertyOp44
 70
     1
102
RTVSPropertyOp45
 70
     1
102
RTVSPropertyOp46
 70
     1
102
RTVSPropertyOp47
 70
     1
102
RTVSPropertyOp48
 70
     1
102
RTVSPropertyOp49
 70
     1
102
RTVSPropertyOp50
 70
     1
102
RTVSPropertyOp51
 70
     0
102
RTVSPropertyOp52
 70
     0
102
RTVSPropertyOp53
 70
     1
102
RTVSPropertyOp54
 70
     1
102
RTVSPropertyOp55
 70
     1
102
RTVSPropertyOp56
 70
     1
102
RTVSPropertyOp57
 70
     1
102
RTVSPropertyOp58
 70
     1
102
RTVSPropertyOp59
 70
     1
102
RTVSPropertyOp60
 70
     1
102
RTVSPropertyOp61
 70
     1
102
RTVSPropertyOp62
 70
     1
  0
XRECORD
  5
152B
102
{ACAD_REACTORS
330
152A
102
}
330
152A
100
AcDbXrecord
280
     1
102
RTVSPost2010Prop28
280
     0
102
RTVSPost2010PropOp28
 70
     1
102
RTVSPost2010Prop29
280
     1
102
RTVSPost2010PropOp29
 70
     1
102
RTVSPost2010Prop30
280
     1
102
RTVSPost2010PropOp30
 70
     1
102
RTVSPost2010Prop31
280
     0
102
RTVSPost2010PropOp31
 70
     1
102
RTVSPost2010Prop32
280
     0
102
RTVSPost2010PropOp32
 70
     1
102
RTVSPost2010Prop33
280
     0
102
RTVSPost2010PropOp33
 70
     1
102
RTVSPost2010Prop34
280
     0
102
RTVSPost2010PropOp34
 70
     1
102
RTVSPost2010Prop35
280
     0
102
RTVSPost2010PropOp35
 70
     1
102
RTVSPost2010Prop36
280
     0
102
RTVSPost2010PropOp36
 70
     1
102
RTVSPost2010Prop37
 90
       50
102
RTVSPost2010PropOp37
 70
     1
102
RTVSPost2010Prop38
140
0.0
102
RTVSPost2010PropOp38
 70
     1
102
RTVSPost2010Prop39
140
1.0
102
RTVSPost2010PropOp39
 70
     1
102
RTVSPost2010Prop40
 90
        0
102
RTVSPost2010PropOp40
 70
     1
102
RTVSPost2010Prop41ColorIndex
 90
       18
102
RTVSPost2010Prop41ColorRGB
 90
-16777216
102
RTVSPost2010PropOp41
 70
     1
102
RTVSPost2010Prop42
 90
       50
102
RTVSPost2010PropOp42
 70
     1
102
RTVSPost2010Prop43
 90
        3
102
RTVSPost2010PropOp43
 70
     1
102
RTVSPost2010Prop44ColorIndex
 90
        5
102
RTVSPost2010Prop44ColorRGB
 90
      255
102
RTVSPost2010PropOp44
 70
     1
102
RTVSPost2010Prop45
280
     0
102
RTVSPost2010PropOp45
 70
     1
102
RTVSPost2010Prop46
 90
       50
102
RTVSPost2010PropOp46
 70
     1
102
RTVSPost2010Prop47
 90
       50
102
RTVSPost2010PropOp47
 70
     1
102
RTVSPost2010Prop48
 90
       50
102
RTVSPost2010PropOp48
 70
     1
102
RTVSPost2010Prop49
280
     0
102
RTVSPost2010PropOp49
 70
     1
102
RTVSPost2010Prop50
 90
       50
102
RTVSPost2010PropOp50
 70
     1
102
RTVSPost2010Prop51ColorIndex
 90
      256
102
RTVSPost2010Prop51ColorRGB
 90
-16777216
102
RTVSPost2010PropOp51
 70
     0
102
RTVSPost2010Prop52
140
1.0
102
RTVSPost2010PropOp52
 70
     0
102
RTVSPost2010Prop53
 90
        2
102
RTVSPost2010PropOp53
 70
     1
102
RTVSPost2010Prop54
  1
strokes_ogs.tif
102
RTVSPost2010PropOp54
 70
     1
102
RTVSPost2010Prop55
280
     0
102
RTVSPost2010PropOp55
 70
     1
102
RTVSPost2010Prop56
140
1.0
102
RTVSPost2010PropOp56
 70
     1
102
RTVSPost2010Prop57
140
1.0
102
RTVSPost2010PropOp57
 70
     1
102
RTVSPropertyOp0
 70
     1
102
RTVSPropertyOp1
 70
     1
102
RTVSPropertyOp2
 70
     1
102
RTVSPropertyOp3
 70
     1
102
RTVSPropertyOp4
 70
     1
102
RTVSPropertyOp5
 70
     1
102
RTVSPropertyOp6
 70
     1
102
RTVSPropertyOp7
 70
     1
102
RTVSPropertyOp8
 70
     1
102
RTVSPropertyOp9
 70
     1
102
RTVSPropertyOp10
 70
     1
102
RTVSPropertyOp11
 70
     1
102
RTVSPropertyOp12
 70
     1
102
RTVSPropertyOp13
 70
     1
102
RTVSPropertyOp14
 70
     1
102
RTVSPropertyOp15
 70
     1
102
RTVSPropertyOp16
 70
     1
102
RTVSPropertyOp17
 70
     1
102
RTVSPropertyOp18
 70
     1
102
RTVSPropertyOp19
 70
     1
102
RTVSPropertyOp20
 70
     1
102
RTVSPropertyOp21
 70
     1
102
RTVSPropertyOp22
 70
     1
102
RTVSPropertyOp23
 70
     1
102
RTVSPropertyOp24
 70
     1
102
RTVSPropertyOp25
 70
     1
102
RTVSPropertyOp26
 70
     1
102
RTVSPropertyOp27
 70
     1
102
RTVSPropertyOp28
 70
     1
102
RTVSPropertyOp29
 70
     1
102
RTVSPropertyOp30
 70
     1
102
RTVSPropertyOp31
 70
     1
102
RTVSPropertyOp32
 70
     1
102
RTVSPropertyOp33
 70
     1
102
RTVSPropertyOp34
 70
     1
102
RTVSPropertyOp35
 70
     1
102
RTVSPropertyOp36
 70
     1
102
RTVSPropertyOp37
 70
     1
102
RTVSPropertyOp38
 70
     1
102
RTVSPropertyOp39
 70
     1
102
RTVSPropertyOp40
 70
     1
102
RTVSPropertyOp41
 70
     1
102
RTVSPropertyOp42
 70
     1
102
RTVSPropertyOp43
 70
     1
102
RTVSPropertyOp44
 70
     1
102
RTVSPropertyOp45
 70
     1
102
RTVSPropertyOp46
 70
     1
102
RTVSPropertyOp47
 70
     1
102
RTVSPropertyOp48
 70
     1
102
RTVSPropertyOp49
 70
     1
102
RTVSPropertyOp50
 70
     1
102
RTVSPropertyOp51
 70
     0
102
RTVSPropertyOp52
 70
     0
102
RTVSPropertyOp53
 70
     1
102
RTVSPropertyOp54
 70
     1
102
RTVSPropertyOp55
 70
     1
102
RTVSPropertyOp56
 70
     1
102
RTVSPropertyOp57
 70
     1
102
RTVSPropertyOp58
 70
     1
102
RTVSPropertyOp59
 70
     1
102
RTVSPropertyOp60
 70
     1
102
RTVSPropertyOp61
 70
     1
102
RTVSPropertyOp62
 70
     1
  0
XRECORD
  5
152F
102
{ACAD_REACTORS
330
152E
102
}
330
152E
100
AcDbXrecord
280
     1
102
RTVSPost2010Prop28
280
     0
102
RTVSPost2010PropOp28
 70
     1
102
RTVSPost2010Prop29
280
     1
102
RTVSPost2010PropOp29
 70
     1
102
RTVSPost2010Prop30
280
     1
102
RTVSPost2010PropOp30
 70
     1
102
RTVSPost2010Prop31
280
     0
102
RTVSPost2010PropOp31
 70
     1
102
RTVSPost2010Prop32
280
     0
102
RTVSPost2010PropOp32
 70
     1
102
RTVSPost2010Prop33
280
     0
102
RTVSPost2010PropOp33
 70
     1
102
RTVSPost2010Prop34
280
     0
102
RTVSPost2010PropOp34
 70
     1
102
RTVSPost2010Prop35
280
     0
102
RTVSPost2010PropOp35
 70
     1
102
RTVSPost2010Prop36
280
     0
102
RTVSPost2010PropOp36
 70
     1
102
RTVSPost2010Prop37
 90
       50
102
RTVSPost2010PropOp37
 70
     1
102
RTVSPost2010Prop38
140
0.0
102
RTVSPost2010PropOp38
 70
     1
102
RTVSPost2010Prop39
140
1.0
102
RTVSPost2010PropOp39
 70
     1
102
RTVSPost2010Prop40
 90
        0
102
RTVSPost2010PropOp40
 70
     1
102
RTVSPost2010Prop41ColorIndex
 90
       18
102
RTVSPost2010Prop41ColorRGB
 90
-16777216
102
RTVSPost2010PropOp41
 70
     1
102
RTVSPost2010Prop42
 90
       50
102
RTVSPost2010PropOp42
 70
     1
102
RTVSPost2010Prop43
 90
        3
102
RTVSPost2010PropOp43
 70
     1
102
RTVSPost2010Prop44ColorIndex
 90
        5
102
RTVSPost2010Prop44ColorRGB
 90
      255
102
RTVSPost2010PropOp44
 70
     1
102
RTVSPost2010Prop45
280
     0
102
RTVSPost2010PropOp45
 70
     1
102
RTVSPost2010Prop46
 90
       50
102
RTVSPost2010PropOp46
 70
     1
102
RTVSPost2010Prop47
 90
       50
102
RTVSPost2010PropOp47
 70
     1
102
RTVSPost2010Prop48
 90
       50
102
RTVSPost2010PropOp48
 70
     1
102
RTVSPost2010Prop49
280
     0
102
RTVSPost2010PropOp49
 70
     1
102
RTVSPost2010Prop50
 90
       50
102
RTVSPost2010PropOp50
 70
     1
102
RTVSPost2010Prop51ColorIndex
 90
      256
102
RTVSPost2010Prop51ColorRGB
 90
-16777216
102
RTVSPost2010PropOp51
 70
     0
102
RTVSPost2010Prop52
140
1.0
102
RTVSPost2010PropOp52
 70
     0
102
RTVSPost2010Prop53
 90
        2
102
RTVSPost2010PropOp53
 70
     1
102
RTVSPost2010Prop54
  1
strokes_ogs.tif
102
RTVSPost2010PropOp54
 70
     1
102
RTVSPost2010Prop55
280
     0
102
RTVSPost2010PropOp55
 70
     1
102
RTVSPost2010Prop56
140
1.0
102
RTVSPost2010PropOp56
 70
     1
102
RTVSPost2010Prop57
140
1.0
102
RTVSPost2010PropOp57
 70
     1
102
RTVSPropertyOp0
 70
     1
102
RTVSPropertyOp1
 70
     1
102
RTVSPropertyOp2
 70
     1
102
RTVSPropertyOp3
 70
     1
102
RTVSPropertyOp4
 70
     1
102
RTVSPropertyOp5
 70
     1
102
RTVSPropertyOp6
 70
     1
102
RTVSPropertyOp7
 70
     1
102
RTVSPropertyOp8
 70
     1
102
RTVSPropertyOp9
 70
     1
102
RTVSPropertyOp10
 70
     1
102
RTVSPropertyOp11
 70
     1
102
RTVSPropertyOp12
 70
     1
102
RTVSPropertyOp13
 70
     1
102
RTVSPropertyOp14
 70
     1
102
RTVSPropertyOp15
 70
     1
102
RTVSPropertyOp16
 70
     1
102
RTVSPropertyOp17
 70
     1
102
RTVSPropertyOp18
 70
     1
102
RTVSPropertyOp19
 70
     1
102
RTVSPropertyOp20
 70
     1
102
RTVSPropertyOp21
 70
     1
102
RTVSPropertyOp22
 70
     1
102
RTVSPropertyOp23
 70
     1
102
RTVSPropertyOp24
 70
     1
102
RTVSPropertyOp25
 70
     1
102
RTVSPropertyOp26
 70
     1
102
RTVSPropertyOp27
 70
     1
102
RTVSPropertyOp28
 70
     1
102
RTVSPropertyOp29
 70
     1
102
RTVSPropertyOp30
 70
     1
102
RTVSPropertyOp31
 70
     1
102
RTVSPropertyOp32
 70
     1
102
RTVSPropertyOp33
 70
     1
102
RTVSPropertyOp34
 70
     1
102
RTVSPropertyOp35
 70
     1
102
RTVSPropertyOp36
 70
     1
102
RTVSPropertyOp37
 70
     1
102
RTVSPropertyOp38
 70
     1
102
RTVSPropertyOp39
 70
     1
102
RTVSPropertyOp40
 70
     1
102
RTVSPropertyOp41
 70
     1
102
RTVSPropertyOp42
 70
     1
102
RTVSPropertyOp43
 70
     1
102
RTVSPropertyOp44
 70
     1
102
RTVSPropertyOp45
 70
     1
102
RTVSPropertyOp46
 70
     1
102
RTVSPropertyOp47
 70
     1
102
RTVSPropertyOp48
 70
     1
102
RTVSPropertyOp49
 70
     1
102
RTVSPropertyOp50
 70
     1
102
RTVSPropertyOp51
 70
     0
102
RTVSPropertyOp52
 70
     0
102
RTVSPropertyOp53
 70
     1
102
RTVSPropertyOp54
 70
     1
102
RTVSPropertyOp55
 70
     1
102
RTVSPropertyOp56
 70
     1
102
RTVSPropertyOp57
 70
     1
102
RTVSPropertyOp58
 70
     1
102
RTVSPropertyOp59
 70
     1
102
RTVSPropertyOp60
 70
     1
102
RTVSPropertyOp61
 70
     1
102
RTVSPropertyOp62
 70
     1
  0
XRECORD
  5
1549
102
{ACAD_REACTORS
330
1548
102
}
330
1548
100
AcDbXrecord
280
     1
102
RTVSPost2010Prop28
280
     0
102
RTVSPost2010PropOp28
 70
     1
102
RTVSPost2010Prop29
280
     1
102
RTVSPost2010PropOp29
 70
     1
102
RTVSPost2010Prop30
280
     1
102
RTVSPost2010PropOp30
 70
     1
102
RTVSPost2010Prop31
280
     0
102
RTVSPost2010PropOp31
 70
     1
102
RTVSPost2010Prop32
280
     0
102
RTVSPost2010PropOp32
 70
     1
102
RTVSPost2010Prop33
280
     0
102
RTVSPost2010PropOp33
 70
     1
102
RTVSPost2010Prop34
280
     0
102
RTVSPost2010PropOp34
 70
     1
102
RTVSPost2010Prop35
280
     0
102
RTVSPost2010PropOp35
 70
     1
102
RTVSPost2010Prop36
280
     0
102
RTVSPost2010PropOp36
 70
     1
102
RTVSPost2010Prop37
 90
       50
102
RTVSPost2010PropOp37
 70
     0
102
RTVSPost2010Prop38
140
0.0
102
RTVSPost2010PropOp38
 70
     0
102
RTVSPost2010Prop39
140
1.0
102
RTVSPost2010PropOp39
 70
     0
102
RTVSPost2010Prop40
 90
        0
102
RTVSPost2010PropOp40
 70
     0
102
RTVSPost2010Prop41ColorIndex
 90
       18
102
RTVSPost2010Prop41ColorRGB
 90
-16777216
102
RTVSPost2010PropOp41
 70
     0
102
RTVSPost2010Prop42
 90
       50
102
RTVSPost2010PropOp42
 70
     0
102
RTVSPost2010Prop43
 90
        3
102
RTVSPost2010PropOp43
 70
     0
102
RTVSPost2010Prop44ColorIndex
 90
        5
102
RTVSPost2010Prop44ColorRGB
 90
      255
102
RTVSPost2010PropOp44
 70
     0
102
RTVSPost2010Prop45
280
     0
102
RTVSPost2010PropOp45
 70
     1
102
RTVSPost2010Prop46
 90
       50
102
RTVSPost2010PropOp46
 70
     0
102
RTVSPost2010Prop47
 90
       50
102
RTVSPost2010PropOp47
 70
     0
102
RTVSPost2010Prop48
 90
       50
102
RTVSPost2010PropOp48
 70
     0
102
RTVSPost2010Prop49
280
     0
102
RTVSPost2010PropOp49
 70
     1
102
RTVSPost2010Prop50
 90
       50
102
RTVSPost2010PropOp50
 70
     0
102
RTVSPost2010Prop51ColorIndex
 90
      256
102
RTVSPost2010Prop51ColorRGB
 90
-16777216
102
RTVSPost2010PropOp51
 70
     0
102
RTVSPost2010Prop52
140
1.0
102
RTVSPost2010PropOp52
 70
     0
102
RTVSPost2010Prop53
 90
        2
102
RTVSPost2010PropOp53
 70
     0
102
RTVSPost2010Prop54
  1
strokes_ogs.tif
102
RTVSPost2010PropOp54
 70
     0
102
RTVSPost2010Prop55
280
     0
102
RTVSPost2010PropOp55
 70
     1
102
RTVSPost2010Prop56
140
1.0
102
RTVSPost2010PropOp56
 70
     0
102
RTVSPost2010Prop57
140
1.0
102
RTVSPost2010PropOp57
 70
     0
102
RTVSPropertyOp0
 70
     0
102
RTVSPropertyOp1
 70
     0
102
RTVSPropertyOp2
 70
     0
102
RTVSPropertyOp3
 70
     0
102
RTVSPropertyOp4
 70
     0
102
RTVSPropertyOp5
 70
     0
102
RTVSPropertyOp6
 70
     0
102
RTVSPropertyOp7
 70
     0
102
RTVSPropertyOp8
 70
     0
102
RTVSPropertyOp9
 70
     0
102
RTVSPropertyOp10
 70
     0
102
RTVSPropertyOp11
 70
     0
102
RTVSPropertyOp12
 70
     0
102
RTVSPropertyOp13
 70
     0
102
RTVSPropertyOp14
 70
     2
102
RTVSPropertyOp15
 70
     0
102
RTVSPropertyOp16
 70
     0
102
RTVSPropertyOp17
 70
     0
102
RTVSPropertyOp18
 70
     0
102
RTVSPropertyOp19
 70
     0
102
RTVSPropertyOp20
 70
     0
102
RTVSPropertyOp21
 70
     0
102
RTVSPropertyOp22
 70
     0
102
RTVSPropertyOp23
 70
     0
102
RTVSPropertyOp24
 70
     0
102
RTVSPropertyOp25
 70
     0
102
RTVSPropertyOp26
 70
     0
102
RTVSPropertyOp27
 70
     0
102
RTVSPropertyOp28
 70
     1
102
RTVSPropertyOp29
 70
     1
102
RTVSPropertyOp30
 70
     1
102
RTVSPropertyOp31
 70
     1
102
RTVSPropertyOp32
 70
     1
102
RTVSPropertyOp33
 70
     1
102
RTVSPropertyOp34
 70
     1
102
RTVSPropertyOp35
 70
     1
102
RTVSPropertyOp36
 70
     1
102
RTVSPropertyOp37
 70
     0
102
RTVSPropertyOp38
 70
     0
102
RTVSPropertyOp39
 70
     0
102
RTVSPropertyOp40
 70
     0
102
RTVSPropertyOp41
 70
     0
102
RTVSPropertyOp42
 70
     0
102
RTVSPropertyOp43
 70
     0
102
RTVSPropertyOp44
 70
     0
102
RTVSPropertyOp45
 70
     1
102
RTVSPropertyOp46
 70
     0
102
RTVSPropertyOp47
 70
     0
102
RTVSPropertyOp48
 70
     0
102
RTVSPropertyOp49
 70
     1
102
RTVSPropertyOp50
 70
     0
102
RTVSPropertyOp51
 70
     0
102
RTVSPropertyOp52
 70
     0
102
RTVSPropertyOp53
 70
     0
102
RTVSPropertyOp54
 70
     0
102
RTVSPropertyOp55
 70
     1
102
RTVSPropertyOp56
 70
     0
102
RTVSPropertyOp57
 70
     0
102
RTVSPropertyOp58
 70
     1
102
RTVSPropertyOp59
 70
     1
102
RTVSPropertyOp60
 70
     1
102
RTVSPropertyOp61
 70
     1
102
RTVSPropertyOp62
 70
     1
  0
XRECORD
  5
1539
102
{ACAD_REACTORS
330
1538
102
}
330
1538
100
AcDbXrecord
280
     1
102
RTVSPost2010Prop28
280
     0
102
RTVSPost2010PropOp28
 70
     1
102
RTVSPost2010Prop29
280
     1
102
RTVSPost2010PropOp29
 70
     1
102
RTVSPost2010Prop30
280
     1
102
RTVSPost2010PropOp30
 70
     1
102
RTVSPost2010Prop31
280
     0
102
RTVSPost2010PropOp31
 70
     1
102
RTVSPost2010Prop32
280
     0
102
RTVSPost2010PropOp32
 70
     1
102
RTVSPost2010Prop33
280
     0
102
RTVSPost2010PropOp33
 70
     1
102
RTVSPost2010Prop34
280
     0
102
RTVSPost2010PropOp34
 70
     1
102
RTVSPost2010Prop35
280
     0
102
RTVSPost2010PropOp35
 70
     1
102
RTVSPost2010Prop36
280
     0
102
RTVSPost2010PropOp36
 70
     1
102
RTVSPost2010Prop37
 90
       50
102
RTVSPost2010PropOp37
 70
     1
102
RTVSPost2010Prop38
140
0.0
102
RTVSPost2010PropOp38
 70
     1
102
RTVSPost2010Prop39
140
1.0
102
RTVSPost2010PropOp39
 70
     1
102
RTVSPost2010Prop40
 90
        0
102
RTVSPost2010PropOp40
 70
     1
102
RTVSPost2010Prop41ColorIndex
 90
       18
102
RTVSPost2010Prop41ColorRGB
 90
-16777216
102
RTVSPost2010PropOp41
 70
     1
102
RTVSPost2010Prop42
 90
       50
102
RTVSPost2010PropOp42
 70
     1
102
RTVSPost2010Prop43
 90
        3
102
RTVSPost2010PropOp43
 70
     1
102
RTVSPost2010Prop44ColorIndex
 90
        5
102
RTVSPost2010Prop44ColorRGB
 90
      255
102
RTVSPost2010PropOp44
 70
     1
102
RTVSPost2010Prop45
280
     0
102
RTVSPost2010PropOp45
 70
     1
102
RTVSPost2010Prop46
 90
       50
102
RTVSPost2010PropOp46
 70
     1
102
RTVSPost2010Prop47
 90
       50
102
RTVSPost2010PropOp47
 70
     1
102
RTVSPost2010Prop48
 90
       50
102
RTVSPost2010PropOp48
 70
     1
102
RTVSPost2010Prop49
280
     0
102
RTVSPost2010PropOp49
 70
     1
102
RTVSPost2010Prop50
 90
       50
102
RTVSPost2010PropOp50
 70
     1
102
RTVSPost2010Prop51ColorIndex
 90
      256
102
RTVSPost2010Prop51ColorRGB
 90
-16777216
102
RTVSPost2010PropOp51
 70
     0
102
RTVSPost2010Prop52
140
1.0
102
RTVSPost2010PropOp52
 70
     0
102
RTVSPost2010Prop53
 90
        2
102
RTVSPost2010PropOp53
 70
     1
102
RTVSPost2010Prop54
  1
strokes_ogs.tif
102
RTVSPost2010PropOp54
 70
     1
102
RTVSPost2010Prop55
280
     0
102
RTVSPost2010PropOp55
 70
     1
102
RTVSPost2010Prop56
140
1.0
102
RTVSPost2010PropOp56
 70
     1
102
RTVSPost2010Prop57
140
1.0
102
RTVSPost2010PropOp57
 70
     1
102
RTVSPropertyOp0
 70
     1
102
RTVSPropertyOp1
 70
     1
102
RTVSPropertyOp2
 70
     1
102
RTVSPropertyOp3
 70
     1
102
RTVSPropertyOp4
 70
     1
102
RTVSPropertyOp5
 70
     1
102
RTVSPropertyOp6
 70
     1
102
RTVSPropertyOp7
 70
     1
102
RTVSPropertyOp8
 70
     1
102
RTVSPropertyOp9
 70
     1
102
RTVSPropertyOp10
 70
     1
102
RTVSPropertyOp11
 70
     1
102
RTVSPropertyOp12
 70
     1
102
RTVSPropertyOp13
 70
     1
102
RTVSPropertyOp14
 70
     1
102
RTVSPropertyOp15
 70
     1
102
RTVSPropertyOp16
 70
     1
102
RTVSPropertyOp17
 70
     1
102
RTVSPropertyOp18
 70
     1
102
RTVSPropertyOp19
 70
     1
102
RTVSPropertyOp20
 70
     1
102
RTVSPropertyOp21
 70
     1
102
RTVSPropertyOp22
 70
     1
102
RTVSPropertyOp23
 70
     1
102
RTVSPropertyOp24
 70
     1
102
RTVSPropertyOp25
 70
     1
102
RTVSPropertyOp26
 70
     1
102
RTVSPropertyOp27
 70
     1
102
RTVSPropertyOp28
 70
     1
102
RTVSPropertyOp29
 70
     1
102
RTVSPropertyOp30
 70
     1
102
RTVSPropertyOp31
 70
     1
102
RTVSPropertyOp32
 70
     1
102
RTVSPropertyOp33
 70
     1
102
RTVSPropertyOp34
 70
     1
102
RTVSPropertyOp35
 70
     1
102
RTVSPropertyOp36
 70
     1
102
RTVSPropertyOp37
 70
     1
102
RTVSPropertyOp38
 70
     1
102
RTVSPropertyOp39
 70
     1
102
RTVSPropertyOp40
 70
     1
102
RTVSPropertyOp41
 70
     1
102
RTVSPropertyOp42
 70
     1
102
RTVSPropertyOp43
 70
     1
102
RTVSPropertyOp44
 70
     1
102
RTVSPropertyOp45
 70
     1
102
RTVSPropertyOp46
 70
     1
102
RTVSPropertyOp47
 70
     1
102
RTVSPropertyOp48
 70
     1
102
RTVSPropertyOp49
 70
     1
102
RTVSPropertyOp50
 70
     1
102
RTVSPropertyOp51
 70
     0
102
RTVSPropertyOp52
 70
     0
102
RTVSPropertyOp53
 70
     1
102
RTVSPropertyOp54
 70
     1
102
RTVSPropertyOp55
 70
     1
102
RTVSPropertyOp56
 70
     1
102
RTVSPropertyOp57
 70
     1
102
RTVSPropertyOp58
 70
     1
102
RTVSPropertyOp59
 70
     1
102
RTVSPropertyOp60
 70
     1
102
RTVSPropertyOp61
 70
     1
102
RTVSPropertyOp62
 70
     1
  0
XRECORD
  5
154B
102
{ACAD_REACTORS
330
154A
102
}
330
154A
100
AcDbXrecord
280
     1
102
RTVSPost2010Prop28
280
     0
102
RTVSPost2010PropOp28
 70
     1
102
RTVSPost2010Prop29
280
     1
102
RTVSPost2010PropOp29
 70
     1
102
RTVSPost2010Prop30
280
     1
102
RTVSPost2010PropOp30
 70
     1
102
RTVSPost2010Prop31
280
     0
102
RTVSPost2010PropOp31
 70
     1
102
RTVSPost2010Prop32
280
     0
102
RTVSPost2010PropOp32
 70
     1
102
RTVSPost2010Prop33
280
     0
102
RTVSPost2010PropOp33
 70
     1
102
RTVSPost2010Prop34
280
     0
102
RTVSPost2010PropOp34
 70
     1
102
RTVSPost2010Prop35
280
     0
102
RTVSPost2010PropOp35
 70
     1
102
RTVSPost2010Prop36
280
     0
102
RTVSPost2010PropOp36
 70
     1
102
RTVSPost2010Prop37
 90
       50
102
RTVSPost2010PropOp37
 70
     0
102
RTVSPost2010Prop38
140
0.0
102
RTVSPost2010PropOp38
 70
     0
102
RTVSPost2010Prop39
140
1.0
102
RTVSPost2010PropOp39
 70
     0
102
RTVSPost2010Prop40
 90
        0
102
RTVSPost2010PropOp40
 70
     0
102
RTVSPost2010Prop41ColorIndex
 90
       18
102
RTVSPost2010Prop41ColorRGB
 90
-16777216
102
RTVSPost2010PropOp41
 70
     0
102
RTVSPost2010Prop42
 90
       50
102
RTVSPost2010PropOp42
 70
     0
102
RTVSPost2010Prop43
 90
        3
102
RTVSPost2010PropOp43
 70
     0
102
RTVSPost2010Prop44ColorIndex
 90
        5
102
RTVSPost2010Prop44ColorRGB
 90
      255
102
RTVSPost2010PropOp44
 70
     0
102
RTVSPost2010Prop45
280
     0
102
RTVSPost2010PropOp45
 70
     1
102
RTVSPost2010Prop46
 90
       50
102
RTVSPost2010PropOp46
 70
     0
102
RTVSPost2010Prop47
 90
       50
102
RTVSPost2010PropOp47
 70
     0
102
RTVSPost2010Prop48
 90
       50
102
RTVSPost2010PropOp48
 70
     0
102
RTVSPost2010Prop49
280
     0
102
RTVSPost2010PropOp49
 70
     1
102
RTVSPost2010Prop50
 90
       50
102
RTVSPost2010PropOp50
 70
     0
102
RTVSPost2010Prop51ColorIndex
 90
      256
102
RTVSPost2010Prop51ColorRGB
 90
-16777216
102
RTVSPost2010PropOp51
 70
     0
102
RTVSPost2010Prop52
140
1.0
102
RTVSPost2010PropOp52
 70
     0
102
RTVSPost2010Prop53
 90
        2
102
RTVSPost2010PropOp53
 70
     0
102
RTVSPost2010Prop54
  1
strokes_ogs.tif
102
RTVSPost2010PropOp54
 70
     0
102
RTVSPost2010Prop55
280
     0
102
RTVSPost2010PropOp55
 70
     1
102
RTVSPost2010Prop56
140
1.0
102
RTVSPost2010PropOp56
 70
     0
102
RTVSPost2010Prop57
140
1.0
102
RTVSPost2010PropOp57
 70
     0
102
RTVSPropertyOp0
 70
     0
102
RTVSPropertyOp1
 70
     0
102
RTVSPropertyOp2
 70
     0
102
RTVSPropertyOp3
 70
     0
102
RTVSPropertyOp4
 70
     0
102
RTVSPropertyOp5
 70
     0
102
RTVSPropertyOp6
 70
     0
102
RTVSPropertyOp7
 70
     0
102
RTVSPropertyOp8
 70
     0
102
RTVSPropertyOp9
 70
     0
102
RTVSPropertyOp10
 70
     0
102
RTVSPropertyOp11
 70
     0
102
RTVSPropertyOp12
 70
     0
102
RTVSPropertyOp13
 70
     0
102
RTVSPropertyOp14
 70
     2
102
RTVSPropertyOp15
 70
     0
102
RTVSPropertyOp16
 70
     0
102
RTVSPropertyOp17
 70
     0
102
RTVSPropertyOp18
 70
     0
102
RTVSPropertyOp19
 70
     0
102
RTVSPropertyOp20
 70
     0
102
RTVSPropertyOp21
 70
     0
102
RTVSPropertyOp22
 70
     0
102
RTVSPropertyOp23
 70
     0
102
RTVSPropertyOp24
 70
     0
102
RTVSPropertyOp25
 70
     0
102
RTVSPropertyOp26
 70
     0
102
RTVSPropertyOp27
 70
     0
102
RTVSPropertyOp28
 70
     1
102
RTVSPropertyOp29
 70
     1
102
RTVSPropertyOp30
 70
     1
102
RTVSPropertyOp31
 70
     1
102
RTVSPropertyOp32
 70
     1
102
RTVSPropertyOp33
 70
     1
102
RTVSPropertyOp34
 70
     1
102
RTVSPropertyOp35
 70
     1
102
RTVSPropertyOp36
 70
     1
102
RTVSPropertyOp37
 70
     0
102
RTVSPropertyOp38
 70
     0
102
RTVSPropertyOp39
 70
     0
102
RTVSPropertyOp40
 70
     0
102
RTVSPropertyOp41
 70
     0
102
RTVSPropertyOp42
 70
     0
102
RTVSPropertyOp43
 70
     0
102
RTVSPropertyOp44
 70
     0
102
RTVSPropertyOp45
 70
     1
102
RTVSPropertyOp46
 70
     0
102
RTVSPropertyOp47
 70
     0
102
RTVSPropertyOp48
 70
     0
102
RTVSPropertyOp49
 70
     1
102
RTVSPropertyOp50
 70
     0
102
RTVSPropertyOp51
 70
     0
102
RTVSPropertyOp52
 70
     0
102
RTVSPropertyOp53
 70
     0
102
RTVSPropertyOp54
 70
     0
102
RTVSPropertyOp55
 70
     1
102
RTVSPropertyOp56
 70
     0
102
RTVSPropertyOp57
 70
     0
102
RTVSPropertyOp58
 70
     1
102
RTVSPropertyOp59
 70
     1
102
RTVSPropertyOp60
 70
     1
102
RTVSPropertyOp61
 70
     1
102
RTVSPropertyOp62
 70
     1
  0
XRECORD
  5
1521
102
{ACAD_REACTORS
330
1520
102
}
330
1520
100
AcDbXrecord
280
     1
102
RTVSPost2010Prop28
280
     0
102
RTVSPost2010PropOp28
 70
     1
102
RTVSPost2010Prop29
280
     1
102
RTVSPost2010PropOp29
 70
     1
102
RTVSPost2010Prop30
280
     1
102
RTVSPost2010PropOp30
 70
     1
102
RTVSPost2010Prop31
280
     0
102
RTVSPost2010PropOp31
 70
     1
102
RTVSPost2010Prop32
280
     0
102
RTVSPost2010PropOp32
 70
     1
102
RTVSPost2010Prop33
280
     0
102
RTVSPost2010PropOp33
 70
     1
102
RTVSPost2010Prop34
280
     0
102
RTVSPost2010PropOp34
 70
     1
102
RTVSPost2010Prop35
280
     0
102
RTVSPost2010PropOp35
 70
     1
102
RTVSPost2010Prop36
280
     0
102
RTVSPost2010PropOp36
 70
     1
102
RTVSPost2010Prop37
 90
       50
102
RTVSPost2010PropOp37
 70
     1
102
RTVSPost2010Prop38
140
0.0
102
RTVSPost2010PropOp38
 70
     1
102
RTVSPost2010Prop39
140
1.0
102
RTVSPost2010PropOp39
 70
     1
102
RTVSPost2010Prop40
 90
        0
102
RTVSPost2010PropOp40
 70
     1
102
RTVSPost2010Prop41ColorIndex
 90
       18
102
RTVSPost2010Prop41ColorRGB
 90
-16777216
102
RTVSPost2010PropOp41
 70
     1
102
RTVSPost2010Prop42
 90
       50
102
RTVSPost2010PropOp42
 70
     1
102
RTVSPost2010Prop43
 90
        3
102
RTVSPost2010PropOp43
 70
     1
102
RTVSPost2010Prop44ColorIndex
 90
        5
102
RTVSPost2010Prop44ColorRGB
 90
      255
102
RTVSPost2010PropOp44
 70
     1
102
RTVSPost2010Prop45
280
     0
102
RTVSPost2010PropOp45
 70
     1
102
RTVSPost2010Prop46
 90
       50
102
RTVSPost2010PropOp46
 70
     1
102
RTVSPost2010Prop47
 90
       50
102
RTVSPost2010PropOp47
 70
     1
102
RTVSPost2010Prop48
 90
       50
102
RTVSPost2010PropOp48
 70
     1
102
RTVSPost2010Prop49
280
     0
102
RTVSPost2010PropOp49
 70
     1
102
RTVSPost2010Prop50
 90
       50
102
RTVSPost2010PropOp50
 70
     1
102
RTVSPost2010Prop51ColorIndex
 90
      256
102
RTVSPost2010Prop51ColorRGB
 90
-16777216
102
RTVSPost2010PropOp51
 70
     0
102
RTVSPost2010Prop52
140
1.0
102
RTVSPost2010PropOp52
 70
     0
102
RTVSPost2010Prop53
 90
        2
102
RTVSPost2010PropOp53
 70
     1
102
RTVSPost2010Prop54
  1
strokes_ogs.tif
102
RTVSPost2010PropOp54
 70
     1
102
RTVSPost2010Prop55
280
     0
102
RTVSPost2010PropOp55
 70
     1
102
RTVSPost2010Prop56
140
1.0
102
RTVSPost2010PropOp56
 70
     1
102
RTVSPost2010Prop57
140
1.0
102
RTVSPost2010PropOp57
 70
     1
102
RTVSPropertyOp0
 70
     1
102
RTVSPropertyOp1
 70
     1
102
RTVSPropertyOp2
 70
     1
102
RTVSPropertyOp3
 70
     1
102
RTVSPropertyOp4
 70
     1
102
RTVSPropertyOp5
 70
     1
102
RTVSPropertyOp6
 70
     1
102
RTVSPropertyOp7
 70
     1
102
RTVSPropertyOp8
 70
     1
102
RTVSPropertyOp9
 70
     1
102
RTVSPropertyOp10
 70
     1
102
RTVSPropertyOp11
 70
     1
102
RTVSPropertyOp12
 70
     1
102
RTVSPropertyOp13
 70
     1
102
RTVSPropertyOp14
 70
     1
102
RTVSPropertyOp15
 70
     1
102
RTVSPropertyOp16
 70
     1
102
RTVSPropertyOp17
 70
     1
102
RTVSPropertyOp18
 70
     1
102
RTVSPropertyOp19
 70
     1
102
RTVSPropertyOp20
 70
     1
102
RTVSPropertyOp21
 70
     1
102
RTVSPropertyOp22
 70
     1
102
RTVSPropertyOp23
 70
     1
102
RTVSPropertyOp24
 70
     1
102
RTVSPropertyOp25
 70
     1
102
RTVSPropertyOp26
 70
     1
102
RTVSPropertyOp27
 70
     1
102
RTVSPropertyOp28
 70
     1
102
RTVSPropertyOp29
 70
     1
102
RTVSPropertyOp30
 70
     1
102
RTVSPropertyOp31
 70
     1
102
RTVSPropertyOp32
 70
     1
102
RTVSPropertyOp33
 70
     1
102
RTVSPropertyOp34
 70
     1
102
RTVSPropertyOp35
 70
     1
102
RTVSPropertyOp36
 70
     1
102
RTVSPropertyOp37
 70
     1
102
RTVSPropertyOp38
 70
     1
102
RTVSPropertyOp39
 70
     1
102
RTVSPropertyOp40
 70
     1
102
RTVSPropertyOp41
 70
     1
102
RTVSPropertyOp42
 70
     1
102
RTVSPropertyOp43
 70
     1
102
RTVSPropertyOp44
 70
     1
102
RTVSPropertyOp45
 70
     1
102
RTVSPropertyOp46
 70
     1
102
RTVSPropertyOp47
 70
     1
102
RTVSPropertyOp48
 70
     1
102
RTVSPropertyOp49
 70
     1
102
RTVSPropertyOp50
 70
     1
102
RTVSPropertyOp51
 70
     0
102
RTVSPropertyOp52
 70
     0
102
RTVSPropertyOp53
 70
     1
102
RTVSPropertyOp54
 70
     1
102
RTVSPropertyOp55
 70
     1
102
RTVSPropertyOp56
 70
     1
102
RTVSPropertyOp57
 70
     1
102
RTVSPropertyOp58
 70
     1
102
RTVSPropertyOp59
 70
     1
102
RTVSPropertyOp60
 70
     1
102
RTVSPropertyOp61
 70
     1
102
RTVSPropertyOp62
 70
     1
  0
XRECORD
  5
1547
102
{ACAD_REACTORS
330
1546
102
}
330
1546
100
AcDbXrecord
280
     1
102
RTVSPost2010Prop28
280
     0
102
RTVSPost2010PropOp28
 70
     1
102
RTVSPost2010Prop29
280
     1
102
RTVSPost2010PropOp29
 70
     1
102
RTVSPost2010Prop30
280
     1
102
RTVSPost2010PropOp30
 70
     1
102
RTVSPost2010Prop31
280
     0
102
RTVSPost2010PropOp31
 70
     1
102
RTVSPost2010Prop32
280
     0
102
RTVSPost2010PropOp32
 70
     1
102
RTVSPost2010Prop33
280
     0
102
RTVSPost2010PropOp33
 70
     1
102
RTVSPost2010Prop34
280
     0
102
RTVSPost2010PropOp34
 70
     1
102
RTVSPost2010Prop35
280
     0
102
RTVSPost2010PropOp35
 70
     1
102
RTVSPost2010Prop36
280
     0
102
RTVSPost2010PropOp36
 70
     1
102
RTVSPost2010Prop37
 90
       50
102
RTVSPost2010PropOp37
 70
     1
102
RTVSPost2010Prop38
140
0.0
102
RTVSPost2010PropOp38
 70
     1
102
RTVSPost2010Prop39
140
1.0
102
RTVSPost2010PropOp39
 70
     1
102
RTVSPost2010Prop40
 90
        0
102
RTVSPost2010PropOp40
 70
     1
102
RTVSPost2010Prop41ColorIndex
 90
       18
102
RTVSPost2010Prop41ColorRGB
 90
-16777216
102
RTVSPost2010PropOp41
 70
     1
102
RTVSPost2010Prop42
 90
       50
102
RTVSPost2010PropOp42
 70
     1
102
RTVSPost2010Prop43
 90
        3
102
RTVSPost2010PropOp43
 70
     1
102
RTVSPost2010Prop44ColorIndex
 90
        5
102
RTVSPost2010Prop44ColorRGB
 90
      255
102
RTVSPost2010PropOp44
 70
     1
102
RTVSPost2010Prop45
280
     0
102
RTVSPost2010PropOp45
 70
     1
102
RTVSPost2010Prop46
 90
       50
102
RTVSPost2010PropOp46
 70
     1
102
RTVSPost2010Prop47
 90
       50
102
RTVSPost2010PropOp47
 70
     1
102
RTVSPost2010Prop48
 90
       50
102
RTVSPost2010PropOp48
 70
     1
102
RTVSPost2010Prop49
280
     0
102
RTVSPost2010PropOp49
 70
     1
102
RTVSPost2010Prop50
 90
       50
102
RTVSPost2010PropOp50
 70
     1
102
RTVSPost2010Prop51ColorIndex
 90
      256
102
RTVSPost2010Prop51ColorRGB
 90
-16777216
102
RTVSPost2010PropOp51
 70
     0
102
RTVSPost2010Prop52
140
1.0
102
RTVSPost2010PropOp52
 70
     0
102
RTVSPost2010Prop53
 90
        2
102
RTVSPost2010PropOp53
 70
     1
102
RTVSPost2010Prop54
  1
strokes_ogs.tif
102
RTVSPost2010PropOp54
 70
     1
102
RTVSPost2010Prop55
280
     0
102
RTVSPost2010PropOp55
 70
     1
102
RTVSPost2010Prop56
140
1.0
102
RTVSPost2010PropOp56
 70
     1
102
RTVSPost2010Prop57
140
1.0
102
RTVSPost2010PropOp57
 70
     1
102
RTVSPropertyOp0
 70
     1
102
RTVSPropertyOp1
 70
     1
102
RTVSPropertyOp2
 70
     1
102
RTVSPropertyOp3
 70
     1
102
RTVSPropertyOp4
 70
     1
102
RTVSPropertyOp5
 70
     1
102
RTVSPropertyOp6
 70
     1
102
RTVSPropertyOp7
 70
     1
102
RTVSPropertyOp8
 70
     1
102
RTVSPropertyOp9
 70
     1
102
RTVSPropertyOp10
 70
     1
102
RTVSPropertyOp11
 70
     1
102
RTVSPropertyOp12
 70
     1
102
RTVSPropertyOp13
 70
     1
102
RTVSPropertyOp14
 70
     1
102
RTVSPropertyOp15
 70
     1
102
RTVSPropertyOp16
 70
     1
102
RTVSPropertyOp17
 70
     1
102
RTVSPropertyOp18
 70
     1
102
RTVSPropertyOp19
 70
     1
102
RTVSPropertyOp20
 70
     1
102
RTVSPropertyOp21
 70
     1
102
RTVSPropertyOp22
 70
     1
102
RTVSPropertyOp23
 70
     1
102
RTVSPropertyOp24
 70
     1
102
RTVSPropertyOp25
 70
     1
102
RTVSPropertyOp26
 70
     1
102
RTVSPropertyOp27
 70
     1
102
RTVSPropertyOp28
 70
     1
102
RTVSPropertyOp29
 70
     1
102
RTVSPropertyOp30
 70
     1
102
RTVSPropertyOp31
 70
     1
102
RTVSPropertyOp32
 70
     1
102
RTVSPropertyOp33
 70
     1
102
RTVSPropertyOp34
 70
     1
102
RTVSPropertyOp35
 70
     1
102
RTVSPropertyOp36
 70
     1
102
RTVSPropertyOp37
 70
     1
102
RTVSPropertyOp38
 70
     1
102
RTVSPropertyOp39
 70
     1
102
RTVSPropertyOp40
 70
     1
102
RTVSPropertyOp41
 70
     1
102
RTVSPropertyOp42
 70
     1
102
RTVSPropertyOp43
 70
     1
102
RTVSPropertyOp44
 70
     1
102
RTVSPropertyOp45
 70
     1
102
RTVSPropertyOp46
 70
     1
102
RTVSPropertyOp47
 70
     1
102
RTVSPropertyOp48
 70
     1
102
RTVSPropertyOp49
 70
     1
102
RTVSPropertyOp50
 70
     1
102
RTVSPropertyOp51
 70
     0
102
RTVSPropertyOp52
 70
     0
102
RTVSPropertyOp53
 70
     1
102
RTVSPropertyOp54
 70
     1
102
RTVSPropertyOp55
 70
     1
102
RTVSPropertyOp56
 70
     1
102
RTVSPropertyOp57
 70
     1
102
RTVSPropertyOp58
 70
     1
102
RTVSPropertyOp59
 70
     1
102
RTVSPropertyOp60
 70
     1
102
RTVSPropertyOp61
 70
     1
102
RTVSPropertyOp62
 70
     1
  0
XRECORD
  5
1545
102
{ACAD_REACTORS
330
1544
102
}
330
1544
100
AcDbXrecord
280
     1
102
RTVSPost2010Prop28
280
     0
102
RTVSPost2010PropOp28
 70
     1
102
RTVSPost2010Prop29
280
     1
102
RTVSPost2010PropOp29
 70
     1
102
RTVSPost2010Prop30
280
     1
102
RTVSPost2010PropOp30
 70
     1
102
RTVSPost2010Prop31
280
     0
102
RTVSPost2010PropOp31
 70
     1
102
RTVSPost2010Prop32
280
     0
102
RTVSPost2010PropOp32
 70
     1
102
RTVSPost2010Prop33
280
     0
102
RTVSPost2010PropOp33
 70
     1
102
RTVSPost2010Prop34
280
     0
102
RTVSPost2010PropOp34
 70
     1
102
RTVSPost2010Prop35
280
     0
102
RTVSPost2010PropOp35
 70
     1
102
RTVSPost2010Prop36
280
     0
102
RTVSPost2010PropOp36
 70
     1
102
RTVSPost2010Prop37
 90
       50
102
RTVSPost2010PropOp37
 70
     1
102
RTVSPost2010Prop38
140
0.0
102
RTVSPost2010PropOp38
 70
     1
102
RTVSPost2010Prop39
140
1.0
102
RTVSPost2010PropOp39
 70
     1
102
RTVSPost2010Prop40
 90
        0
102
RTVSPost2010PropOp40
 70
     1
102
RTVSPost2010Prop41ColorIndex
 90
       18
102
RTVSPost2010Prop41ColorRGB
 90
-16777216
102
RTVSPost2010PropOp41
 70
     1
102
RTVSPost2010Prop42
 90
       50
102
RTVSPost2010PropOp42
 70
     1
102
RTVSPost2010Prop43
 90
        3
102
RTVSPost2010PropOp43
 70
     1
102
RTVSPost2010Prop44ColorIndex
 90
        5
102
RTVSPost2010Prop44ColorRGB
 90
      255
102
RTVSPost2010PropOp44
 70
     1
102
RTVSPost2010Prop45
280
     0
102
RTVSPost2010PropOp45
 70
     1
102
RTVSPost2010Prop46
 90
       50
102
RTVSPost2010PropOp46
 70
     1
102
RTVSPost2010Prop47
 90
       50
102
RTVSPost2010PropOp47
 70
     1
102
RTVSPost2010Prop48
 90
       50
102
RTVSPost2010PropOp48
 70
     1
102
RTVSPost2010Prop49
280
     0
102
RTVSPost2010PropOp49
 70
     1
102
RTVSPost2010Prop50
 90
       50
102
RTVSPost2010PropOp50
 70
     1
102
RTVSPost2010Prop51ColorIndex
 90
      256
102
RTVSPost2010Prop51ColorRGB
 90
-16777216
102
RTVSPost2010PropOp51
 70
     0
102
RTVSPost2010Prop52
140
1.0
102
RTVSPost2010PropOp52
 70
     0
102
RTVSPost2010Prop53
 90
        2
102
RTVSPost2010PropOp53
 70
     1
102
RTVSPost2010Prop54
  1
strokes_ogs.tif
102
RTVSPost2010PropOp54
 70
     1
102
RTVSPost2010Prop55
280
     0
102
RTVSPost2010PropOp55
 70
     1
102
RTVSPost2010Prop56
140
1.0
102
RTVSPost2010PropOp56
 70
     1
102
RTVSPost2010Prop57
140
1.0
102
RTVSPost2010PropOp57
 70
     1
102
RTVSPropertyOp0
 70
     1
102
RTVSPropertyOp1
 70
     1
102
RTVSPropertyOp2
 70
     1
102
RTVSPropertyOp3
 70
     1
102
RTVSPropertyOp4
 70
     1
102
RTVSPropertyOp5
 70
     1
102
RTVSPropertyOp6
 70
     1
102
RTVSPropertyOp7
 70
     1
102
RTVSPropertyOp8
 70
     1
102
RTVSPropertyOp9
 70
     1
102
RTVSPropertyOp10
 70
     1
102
RTVSPropertyOp11
 70
     1
102
RTVSPropertyOp12
 70
     1
102
RTVSPropertyOp13
 70
     1
102
RTVSPropertyOp14
 70
     1
102
RTVSPropertyOp15
 70
     1
102
RTVSPropertyOp16
 70
     1
102
RTVSPropertyOp17
 70
     1
102
RTVSPropertyOp18
 70
     1
102
RTVSPropertyOp19
 70
     1
102
RTVSPropertyOp20
 70
     1
102
RTVSPropertyOp21
 70
     1
102
RTVSPropertyOp22
 70
     1
102
RTVSPropertyOp23
 70
     1
102
RTVSPropertyOp24
 70
     1
102
RTVSPropertyOp25
 70
     1
102
RTVSPropertyOp26
 70
     1
102
RTVSPropertyOp27
 70
     1
102
RTVSPropertyOp28
 70
     1
102
RTVSPropertyOp29
 70
     1
102
RTVSPropertyOp30
 70
     1
102
RTVSPropertyOp31
 70
     1
102
RTVSPropertyOp32
 70
     1
102
RTVSPropertyOp33
 70
     1
102
RTVSPropertyOp34
 70
     1
102
RTVSPropertyOp35
 70
     1
102
RTVSPropertyOp36
 70
     1
102
RTVSPropertyOp37
 70
     1
102
RTVSPropertyOp38
 70
     1
102
RTVSPropertyOp39
 70
     1
102
RTVSPropertyOp40
 70
     1
102
RTVSPropertyOp41
 70
     1
102
RTVSPropertyOp42
 70
     1
102
RTVSPropertyOp43
 70
     1
102
RTVSPropertyOp44
 70
     1
102
RTVSPropertyOp45
 70
     1
102
RTVSPropertyOp46
 70
     1
102
RTVSPropertyOp47
 70
     1
102
RTVSPropertyOp48
 70
     1
102
RTVSPropertyOp49
 70
     1
102
RTVSPropertyOp50
 70
     1
102
RTVSPropertyOp51
 70
     0
102
RTVSPropertyOp52
 70
     0
102
RTVSPropertyOp53
 70
     1
102
RTVSPropertyOp54
 70
     1
102
RTVSPropertyOp55
 70
     1
102
RTVSPropertyOp56
 70
     1
102
RTVSPropertyOp57
 70
     1
102
RTVSPropertyOp58
 70
     1
102
RTVSPropertyOp59
 70
     1
102
RTVSPropertyOp60
 70
     1
102
RTVSPropertyOp61
 70
     1
102
RTVSPropertyOp62
 70
     1
  0
XRECORD
  5
153F
102
{ACAD_REACTORS
330
153E
102
}
330
153E
100
AcDbXrecord
280
     1
102
RTVSPost2010Prop28
280
     0
102
RTVSPost2010PropOp28
 70
     1
102
RTVSPost2010Prop29
280
     1
102
RTVSPost2010PropOp29
 70
     1
102
RTVSPost2010Prop30
280
     1
102
RTVSPost2010PropOp30
 70
     1
102
RTVSPost2010Prop31
280
     0
102
RTVSPost2010PropOp31
 70
     1
102
RTVSPost2010Prop32
280
     0
102
RTVSPost2010PropOp32
 70
     1
102
RTVSPost2010Prop33
280
     0
102
RTVSPost2010PropOp33
 70
     1
102
RTVSPost2010Prop34
280
     0
102
RTVSPost2010PropOp34
 70
     1
102
RTVSPost2010Prop35
280
     0
102
RTVSPost2010PropOp35
 70
     1
102
RTVSPost2010Prop36
280
     0
102
RTVSPost2010PropOp36
 70
     1
102
RTVSPost2010Prop37
 90
       50
102
RTVSPost2010PropOp37
 70
     1
102
RTVSPost2010Prop38
140
0.0
102
RTVSPost2010PropOp38
 70
     1
102
RTVSPost2010Prop39
140
1.0
102
RTVSPost2010PropOp39
 70
     1
102
RTVSPost2010Prop40
 90
        0
102
RTVSPost2010PropOp40
 70
     1
102
RTVSPost2010Prop41ColorIndex
 90
       18
102
RTVSPost2010Prop41ColorRGB
 90
-16777216
102
RTVSPost2010PropOp41
 70
     1
102
RTVSPost2010Prop42
 90
       50
102
RTVSPost2010PropOp42
 70
     1
102
RTVSPost2010Prop43
 90
        3
102
RTVSPost2010PropOp43
 70
     1
102
RTVSPost2010Prop44ColorIndex
 90
        5
102
RTVSPost2010Prop44ColorRGB
 90
      255
102
RTVSPost2010PropOp44
 70
     1
102
RTVSPost2010Prop45
280
     0
102
RTVSPost2010PropOp45
 70
     1
102
RTVSPost2010Prop46
 90
       50
102
RTVSPost2010PropOp46
 70
     1
102
RTVSPost2010Prop47
 90
       50
102
RTVSPost2010PropOp47
 70
     1
102
RTVSPost2010Prop48
 90
       50
102
RTVSPost2010PropOp48
 70
     1
102
RTVSPost2010Prop49
280
     0
102
RTVSPost2010PropOp49
 70
     1
102
RTVSPost2010Prop50
 90
       50
102
RTVSPost2010PropOp50
 70
     1
102
RTVSPost2010Prop51ColorIndex
 90
      256
102
RTVSPost2010Prop51ColorRGB
 90
-16777216
102
RTVSPost2010PropOp51
 70
     0
102
RTVSPost2010Prop52
140
1.0
102
RTVSPost2010PropOp52
 70
     0
102
RTVSPost2010Prop53
 90
        2
102
RTVSPost2010PropOp53
 70
     1
102
RTVSPost2010Prop54
  1
strokes_ogs.tif
102
RTVSPost2010PropOp54
 70
     1
102
RTVSPost2010Prop55
280
     0
102
RTVSPost2010PropOp55
 70
     1
102
RTVSPost2010Prop56
140
1.0
102
RTVSPost2010PropOp56
 70
     1
102
RTVSPost2010Prop57
140
1.0
102
RTVSPost2010PropOp57
 70
     1
102
RTVSPropertyOp0
 70
     1
102
RTVSPropertyOp1
 70
     1
102
RTVSPropertyOp2
 70
     1
102
RTVSPropertyOp3
 70
     1
102
RTVSPropertyOp4
 70
     1
102
RTVSPropertyOp5
 70
     1
102
RTVSPropertyOp6
 70
     1
102
RTVSPropertyOp7
 70
     1
102
RTVSPropertyOp8
 70
     1
102
RTVSPropertyOp9
 70
     1
102
RTVSPropertyOp10
 70
     1
102
RTVSPropertyOp11
 70
     1
102
RTVSPropertyOp12
 70
     1
102
RTVSPropertyOp13
 70
     1
102
RTVSPropertyOp14
 70
     1
102
RTVSPropertyOp15
 70
     1
102
RTVSPropertyOp16
 70
     1
102
RTVSPropertyOp17
 70
     1
102
RTVSPropertyOp18
 70
     1
102
RTVSPropertyOp19
 70
     1
102
RTVSPropertyOp20
 70
     1
102
RTVSPropertyOp21
 70
     1
102
RTVSPropertyOp22
 70
     1
102
RTVSPropertyOp23
 70
     1
102
RTVSPropertyOp24
 70
     1
102
RTVSPropertyOp25
 70
     1
102
RTVSPropertyOp26
 70
     1
102
RTVSPropertyOp27
 70
     1
102
RTVSPropertyOp28
 70
     1
102
RTVSPropertyOp29
 70
     1
102
RTVSPropertyOp30
 70
     1
102
RTVSPropertyOp31
 70
     1
102
RTVSPropertyOp32
 70
     1
102
RTVSPropertyOp33
 70
     1
102
RTVSPropertyOp34
 70
     1
102
RTVSPropertyOp35
 70
     1
102
RTVSPropertyOp36
 70
     1
102
RTVSPropertyOp37
 70
     1
102
RTVSPropertyOp38
 70
     1
102
RTVSPropertyOp39
 70
     1
102
RTVSPropertyOp40
 70
     1
102
RTVSPropertyOp41
 70
     1
102
RTVSPropertyOp42
 70
     1
102
RTVSPropertyOp43
 70
     1
102
RTVSPropertyOp44
 70
     1
102
RTVSPropertyOp45
 70
     1
102
RTVSPropertyOp46
 70
     1
102
RTVSPropertyOp47
 70
     1
102
RTVSPropertyOp48
 70
     1
102
RTVSPropertyOp49
 70
     1
102
RTVSPropertyOp50
 70
     1
102
RTVSPropertyOp51
 70
     0
102
RTVSPropertyOp52
 70
     0
102
RTVSPropertyOp53
 70
     1
102
RTVSPropertyOp54
 70
     1
102
RTVSPropertyOp55
 70
     1
102
RTVSPropertyOp56
 70
     1
102
RTVSPropertyOp57
 70
     1
102
RTVSPropertyOp58
 70
     1
102
RTVSPropertyOp59
 70
     1
102
RTVSPropertyOp60
 70
     1
102
RTVSPropertyOp61
 70
     1
102
RTVSPropertyOp62
 70
     1
  0
XRECORD
  5
1541
102
{ACAD_REACTORS
330
1540
102
}
330
1540
100
AcDbXrecord
280
     1
102
RTVSPost2010Prop28
280
     0
102
RTVSPost2010PropOp28
 70
     1
102
RTVSPost2010Prop29
280
     1
102
RTVSPost2010PropOp29
 70
     1
102
RTVSPost2010Prop30
280
     1
102
RTVSPost2010PropOp30
 70
     1
102
RTVSPost2010Prop31
280
     0
102
RTVSPost2010PropOp31
 70
     1
102
RTVSPost2010Prop32
280
     0
102
RTVSPost2010PropOp32
 70
     1
102
RTVSPost2010Prop33
280
     0
102
RTVSPost2010PropOp33
 70
     1
102
RTVSPost2010Prop34
280
     0
102
RTVSPost2010PropOp34
 70
     1
102
RTVSPost2010Prop35
280
     0
102
RTVSPost2010PropOp35
 70
     1
102
RTVSPost2010Prop36
280
     0
102
RTVSPost2010PropOp36
 70
     1
102
RTVSPost2010Prop37
 90
       50
102
RTVSPost2010PropOp37
 70
     1
102
RTVSPost2010Prop38
140
0.0
102
RTVSPost2010PropOp38
 70
     1
102
RTVSPost2010Prop39
140
1.0
102
RTVSPost2010PropOp39
 70
     1
102
RTVSPost2010Prop40
 90
        0
102
RTVSPost2010PropOp40
 70
     1
102
RTVSPost2010Prop41ColorIndex
 90
       18
102
RTVSPost2010Prop41ColorRGB
 90
-16777216
102
RTVSPost2010PropOp41
 70
     1
102
RTVSPost2010Prop42
 90
       50
102
RTVSPost2010PropOp42
 70
     1
102
RTVSPost2010Prop43
 90
        3
102
RTVSPost2010PropOp43
 70
     1
102
RTVSPost2010Prop44ColorIndex
 90
        5
102
RTVSPost2010Prop44ColorRGB
 90
      255
102
RTVSPost2010PropOp44
 70
     1
102
RTVSPost2010Prop45
280
     0
102
RTVSPost2010PropOp45
 70
     1
102
RTVSPost2010Prop46
 90
       50
102
RTVSPost2010PropOp46
 70
     1
102
RTVSPost2010Prop47
 90
       50
102
RTVSPost2010PropOp47
 70
     1
102
RTVSPost2010Prop48
 90
       50
102
RTVSPost2010PropOp48
 70
     1
102
RTVSPost2010Prop49
280
     0
102
RTVSPost2010PropOp49
 70
     1
102
RTVSPost2010Prop50
 90
       50
102
RTVSPost2010PropOp50
 70
     1
102
RTVSPost2010Prop51ColorIndex
 90
      256
102
RTVSPost2010Prop51ColorRGB
 90
-16777216
102
RTVSPost2010PropOp51
 70
     0
102
RTVSPost2010Prop52
140
1.0
102
RTVSPost2010PropOp52
 70
     0
102
RTVSPost2010Prop53
 90
        2
102
RTVSPost2010PropOp53
 70
     1
102
RTVSPost2010Prop54
  1
strokes_ogs.tif
102
RTVSPost2010PropOp54
 70
     1
102
RTVSPost2010Prop55
280
     0
102
RTVSPost2010PropOp55
 70
     1
102
RTVSPost2010Prop56
140
1.0
102
RTVSPost2010PropOp56
 70
     1
102
RTVSPost2010Prop57
140
1.0
102
RTVSPost2010PropOp57
 70
     1
102
RTVSPropertyOp0
 70
     1
102
RTVSPropertyOp1
 70
     1
102
RTVSPropertyOp2
 70
     1
102
RTVSPropertyOp3
 70
     1
102
RTVSPropertyOp4
 70
     1
102
RTVSPropertyOp5
 70
     1
102
RTVSPropertyOp6
 70
     1
102
RTVSPropertyOp7
 70
     1
102
RTVSPropertyOp8
 70
     1
102
RTVSPropertyOp9
 70
     1
102
RTVSPropertyOp10
 70
     1
102
RTVSPropertyOp11
 70
     1
102
RTVSPropertyOp12
 70
     1
102
RTVSPropertyOp13
 70
     1
102
RTVSPropertyOp14
 70
     1
102
RTVSPropertyOp15
 70
     1
102
RTVSPropertyOp16
 70
     1
102
RTVSPropertyOp17
 70
     1
102
RTVSPropertyOp18
 70
     1
102
RTVSPropertyOp19
 70
     1
102
RTVSPropertyOp20
 70
     1
102
RTVSPropertyOp21
 70
     1
102
RTVSPropertyOp22
 70
     1
102
RTVSPropertyOp23
 70
     1
102
RTVSPropertyOp24
 70
     1
102
RTVSPropertyOp25
 70
     1
102
RTVSPropertyOp26
 70
     1
102
RTVSPropertyOp27
 70
     1
102
RTVSPropertyOp28
 70
     1
102
RTVSPropertyOp29
 70
     1
102
RTVSPropertyOp30
 70
     1
102
RTVSPropertyOp31
 70
     1
102
RTVSPropertyOp32
 70
     1
102
RTVSPropertyOp33
 70
     1
102
RTVSPropertyOp34
 70
     1
102
RTVSPropertyOp35
 70
     1
102
RTVSPropertyOp36
 70
     1
102
RTVSPropertyOp37
 70
     1
102
RTVSPropertyOp38
 70
     1
102
RTVSPropertyOp39
 70
     1
102
RTVSPropertyOp40
 70
     1
102
RTVSPropertyOp41
 70
     1
102
RTVSPropertyOp42
 70
     1
102
RTVSPropertyOp43
 70
     1
102
RTVSPropertyOp44
 70
     1
102
RTVSPropertyOp45
 70
     1
102
RTVSPropertyOp46
 70
     1
102
RTVSPropertyOp47
 70
     1
102
RTVSPropertyOp48
 70
     1
102
RTVSPropertyOp49
 70
     1
102
RTVSPropertyOp50
 70
     1
102
RTVSPropertyOp51
 70
     0
102
RTVSPropertyOp52
 70
     0
102
RTVSPropertyOp53
 70
     1
102
RTVSPropertyOp54
 70
     1
102
RTVSPropertyOp55
 70
     1
102
RTVSPropertyOp56
 70
     1
102
RTVSPropertyOp57
 70
     1
102
RTVSPropertyOp58
 70
     1
102
RTVSPropertyOp59
 70
     1
102
RTVSPropertyOp60
 70
     1
102
RTVSPropertyOp61
 70
     1
102
RTVSPropertyOp62
 70
     1
  0
XRECORD
  5
1537
102
{ACAD_REACTORS
330
1536
102
}
330
1536
100
AcDbXrecord
280
     1
102
RTVSPost2010Prop28
280
     0
102
RTVSPost2010PropOp28
 70
     1
102
RTVSPost2010Prop29
280
     1
102
RTVSPost2010PropOp29
 70
     1
102
RTVSPost2010Prop30
280
     1
102
RTVSPost2010PropOp30
 70
     1
102
RTVSPost2010Prop31
280
     0
102
RTVSPost2010PropOp31
 70
     1
102
RTVSPost2010Prop32
280
     0
102
RTVSPost2010PropOp32
 70
     1
102
RTVSPost2010Prop33
280
     0
102
RTVSPost2010PropOp33
 70
     1
102
RTVSPost2010Prop34
280
     0
102
RTVSPost2010PropOp34
 70
     1
102
RTVSPost2010Prop35
280
     0
102
RTVSPost2010PropOp35
 70
     1
102
RTVSPost2010Prop36
280
     0
102
RTVSPost2010PropOp36
 70
     1
102
RTVSPost2010Prop37
 90
       50
102
RTVSPost2010PropOp37
 70
     1
102
RTVSPost2010Prop38
140
0.0
102
RTVSPost2010PropOp38
 70
     1
102
RTVSPost2010Prop39
140
1.0
102
RTVSPost2010PropOp39
 70
     1
102
RTVSPost2010Prop40
 90
        0
102
RTVSPost2010PropOp40
 70
     1
102
RTVSPost2010Prop41ColorIndex
 90
       18
102
RTVSPost2010Prop41ColorRGB
 90
-16777216
102
RTVSPost2010PropOp41
 70
     1
102
RTVSPost2010Prop42
 90
       50
102
RTVSPost2010PropOp42
 70
     1
102
RTVSPost2010Prop43
 90
        3
102
RTVSPost2010PropOp43
 70
     1
102
RTVSPost2010Prop44ColorIndex
 90
        5
102
RTVSPost2010Prop44ColorRGB
 90
      255
102
RTVSPost2010PropOp44
 70
     1
102
RTVSPost2010Prop45
280
     0
102
RTVSPost2010PropOp45
 70
     1
102
RTVSPost2010Prop46
 90
       50
102
RTVSPost2010PropOp46
 70
     1
102
RTVSPost2010Prop47
 90
       50
102
RTVSPost2010PropOp47
 70
     1
102
RTVSPost2010Prop48
 90
       50
102
RTVSPost2010PropOp48
 70
     1
102
RTVSPost2010Prop49
280
     0
102
RTVSPost2010PropOp49
 70
     1
102
RTVSPost2010Prop50
 90
       50
102
RTVSPost2010PropOp50
 70
     1
102
RTVSPost2010Prop51ColorIndex
 90
      256
102
RTVSPost2010Prop51ColorRGB
 90
-16777216
102
RTVSPost2010PropOp51
 70
     0
102
RTVSPost2010Prop52
140
1.0
102
RTVSPost2010PropOp52
 70
     0
102
RTVSPost2010Prop53
 90
        2
102
RTVSPost2010PropOp53
 70
     1
102
RTVSPost2010Prop54
  1
strokes_ogs.tif
102
RTVSPost2010PropOp54
 70
     1
102
RTVSPost2010Prop55
280
     0
102
RTVSPost2010PropOp55
 70
     1
102
RTVSPost2010Prop56
140
1.0
102
RTVSPost2010PropOp56
 70
     1
102
RTVSPost2010Prop57
140
1.0
102
RTVSPost2010PropOp57
 70
     1
102
RTVSPropertyOp0
 70
     1
102
RTVSPropertyOp1
 70
     1
102
RTVSPropertyOp2
 70
     1
102
RTVSPropertyOp3
 70
     1
102
RTVSPropertyOp4
 70
     1
102
RTVSPropertyOp5
 70
     1
102
RTVSPropertyOp6
 70
     1
102
RTVSPropertyOp7
 70
     1
102
RTVSPropertyOp8
 70
     1
102
RTVSPropertyOp9
 70
     1
102
RTVSPropertyOp10
 70
     1
102
RTVSPropertyOp11
 70
     1
102
RTVSPropertyOp12
 70
     1
102
RTVSPropertyOp13
 70
     1
102
RTVSPropertyOp14
 70
     1
102
RTVSPropertyOp15
 70
     1
102
RTVSPropertyOp16
 70
     1
102
RTVSPropertyOp17
 70
     1
102
RTVSPropertyOp18
 70
     1
102
RTVSPropertyOp19
 70
     1
102
RTVSPropertyOp20
 70
     1
102
RTVSPropertyOp21
 70
     1
102
RTVSPropertyOp22
 70
     1
102
RTVSPropertyOp23
 70
     1
102
RTVSPropertyOp24
 70
     1
102
RTVSPropertyOp25
 70
     1
102
RTVSPropertyOp26
 70
     1
102
RTVSPropertyOp27
 70
     1
102
RTVSPropertyOp28
 70
     1
102
RTVSPropertyOp29
 70
     1
102
RTVSPropertyOp30
 70
     1
102
RTVSPropertyOp31
 70
     1
102
RTVSPropertyOp32
 70
     1
102
RTVSPropertyOp33
 70
     1
102
RTVSPropertyOp34
 70
     1
102
RTVSPropertyOp35
 70
     1
102
RTVSPropertyOp36
 70
     1
102
RTVSPropertyOp37
 70
     1
102
RTVSPropertyOp38
 70
     1
102
RTVSPropertyOp39
 70
     1
102
RTVSPropertyOp40
 70
     1
102
RTVSPropertyOp41
 70
     1
102
RTVSPropertyOp42
 70
     1
102
RTVSPropertyOp43
 70
     1
102
RTVSPropertyOp44
 70
     1
102
RTVSPropertyOp45
 70
     1
102
RTVSPropertyOp46
 70
     1
102
RTVSPropertyOp47
 70
     1
102
RTVSPropertyOp48
 70
     1
102
RTVSPropertyOp49
 70
     1
102
RTVSPropertyOp50
 70
     1
102
RTVSPropertyOp51
 70
     0
102
RTVSPropertyOp52
 70
     0
102
RTVSPropertyOp53
 70
     1
102
RTVSPropertyOp54
 70
     1
102
RTVSPropertyOp55
 70
     1
102
RTVSPropertyOp56
 70
     1
102
RTVSPropertyOp57
 70
     1
102
RTVSPropertyOp58
 70
     1
102
RTVSPropertyOp59
 70
     1
102
RTVSPropertyOp60
 70
     1
102
RTVSPropertyOp61
 70
     1
102
RTVSPropertyOp62
 70
     1
  0
XRECORD
  5
1523
102
{ACAD_REACTORS
330
1522
102
}
330
1522
100
AcDbXrecord
280
     1
102
RTVSPost2010Prop28
280
     0
102
RTVSPost2010PropOp28
 70
     1
102
RTVSPost2010Prop29
280
     1
102
RTVSPost2010PropOp29
 70
     1
102
RTVSPost2010Prop30
280
     1
102
RTVSPost2010PropOp30
 70
     1
102
RTVSPost2010Prop31
280
     0
102
RTVSPost2010PropOp31
 70
     1
102
RTVSPost2010Prop32
280
     0
102
RTVSPost2010PropOp32
 70
     1
102
RTVSPost2010Prop33
280
     0
102
RTVSPost2010PropOp33
 70
     1
102
RTVSPost2010Prop34
280
     0
102
RTVSPost2010PropOp34
 70
     1
102
RTVSPost2010Prop35
280
     0
102
RTVSPost2010PropOp35
 70
     1
102
RTVSPost2010Prop36
280
     0
102
RTVSPost2010PropOp36
 70
     1
102
RTVSPost2010Prop37
 90
       50
102
RTVSPost2010PropOp37
 70
     1
102
RTVSPost2010Prop38
140
0.0
102
RTVSPost2010PropOp38
 70
     1
102
RTVSPost2010Prop39
140
1.0
102
RTVSPost2010PropOp39
 70
     1
102
RTVSPost2010Prop40
 90
        0
102
RTVSPost2010PropOp40
 70
     1
102
RTVSPost2010Prop41ColorIndex
 90
       18
102
RTVSPost2010Prop41ColorRGB
 90
-16777216
102
RTVSPost2010PropOp41
 70
     1
102
RTVSPost2010Prop42
 90
       50
102
RTVSPost2010PropOp42
 70
     1
102
RTVSPost2010Prop43
 90
        3
102
RTVSPost2010PropOp43
 70
     1
102
RTVSPost2010Prop44ColorIndex
 90
        5
102
RTVSPost2010Prop44ColorRGB
 90
      255
102
RTVSPost2010PropOp44
 70
     1
102
RTVSPost2010Prop45
280
     0
102
RTVSPost2010PropOp45
 70
     1
102
RTVSPost2010Prop46
 90
       50
102
RTVSPost2010PropOp46
 70
     1
102
RTVSPost2010Prop47
 90
       50
102
RTVSPost2010PropOp47
 70
     1
102
RTVSPost2010Prop48
 90
       50
102
RTVSPost2010PropOp48
 70
     1
102
RTVSPost2010Prop49
280
     0
102
RTVSPost2010PropOp49
 70
     1
102
RTVSPost2010Prop50
 90
       50
102
RTVSPost2010PropOp50
 70
     1
102
RTVSPost2010Prop51ColorIndex
 90
      256
102
RTVSPost2010Prop51ColorRGB
 90
-16777216
102
RTVSPost2010PropOp51
 70
     0
102
RTVSPost2010Prop52
140
1.0
102
RTVSPost2010PropOp52
 70
     0
102
RTVSPost2010Prop53
 90
        2
102
RTVSPost2010PropOp53
 70
     1
102
RTVSPost2010Prop54
  1
strokes_ogs.tif
102
RTVSPost2010PropOp54
 70
     1
102
RTVSPost2010Prop55
280
     0
102
RTVSPost2010PropOp55
 70
     1
102
RTVSPost2010Prop56
140
1.0
102
RTVSPost2010PropOp56
 70
     1
102
RTVSPost2010Prop57
140
1.0
102
RTVSPost2010PropOp57
 70
     1
102
RTVSPropertyOp0
 70
     1
102
RTVSPropertyOp1
 70
     1
102
RTVSPropertyOp2
 70
     1
102
RTVSPropertyOp3
 70
     1
102
RTVSPropertyOp4
 70
     1
102
RTVSPropertyOp5
 70
     1
102
RTVSPropertyOp6
 70
     1
102
RTVSPropertyOp7
 70
     1
102
RTVSPropertyOp8
 70
     1
102
RTVSPropertyOp9
 70
     1
102
RTVSPropertyOp10
 70
     1
102
RTVSPropertyOp11
 70
     1
102
RTVSPropertyOp12
 70
     1
102
RTVSPropertyOp13
 70
     1
102
RTVSPropertyOp14
 70
     1
102
RTVSPropertyOp15
 70
     1
102
RTVSPropertyOp16
 70
     1
102
RTVSPropertyOp17
 70
     1
102
RTVSPropertyOp18
 70
     1
102
RTVSPropertyOp19
 70
     1
102
RTVSPropertyOp20
 70
     1
102
RTVSPropertyOp21
 70
     1
102
RTVSPropertyOp22
 70
     1
102
RTVSPropertyOp23
 70
     1
102
RTVSPropertyOp24
 70
     1
102
RTVSPropertyOp25
 70
     1
102
RTVSPropertyOp26
 70
     1
102
RTVSPropertyOp27
 70
     1
102
RTVSPropertyOp28
 70
     1
102
RTVSPropertyOp29
 70
     1
102
RTVSPropertyOp30
 70
     1
102
RTVSPropertyOp31
 70
     1
102
RTVSPropertyOp32
 70
     1
102
RTVSPropertyOp33
 70
     1
102
RTVSPropertyOp34
 70
     1
102
RTVSPropertyOp35
 70
     1
102
RTVSPropertyOp36
 70
     1
102
RTVSPropertyOp37
 70
     1
102
RTVSPropertyOp38
 70
     1
102
RTVSPropertyOp39
 70
     1
102
RTVSPropertyOp40
 70
     1
102
RTVSPropertyOp41
 70
     1
102
RTVSPropertyOp42
 70
     1
102
RTVSPropertyOp43
 70
     1
102
RTVSPropertyOp44
 70
     1
102
RTVSPropertyOp45
 70
     1
102
RTVSPropertyOp46
 70
     1
102
RTVSPropertyOp47
 70
     1
102
RTVSPropertyOp48
 70
     1
102
RTVSPropertyOp49
 70
     1
102
RTVSPropertyOp50
 70
     1
102
RTVSPropertyOp51
 70
     0
102
RTVSPropertyOp52
 70
     0
102
RTVSPropertyOp53
 70
     1
102
RTVSPropertyOp54
 70
     1
102
RTVSPropertyOp55
 70
     1
102
RTVSPropertyOp56
 70
     1
102
RTVSPropertyOp57
 70
     1
102
RTVSPropertyOp58
 70
     1
102
RTVSPropertyOp59
 70
     1
102
RTVSPropertyOp60
 70
     1
102
RTVSPropertyOp61
 70
     1
102
RTVSPropertyOp62
 70
     1
  0
XRECORD
  5
1543
102
{ACAD_REACTORS
330
1542
102
}
330
1542
100
AcDbXrecord
280
     1
102
RTVSPost2010Prop28
280
     0
102
RTVSPost2010PropOp28
 70
     1
102
RTVSPost2010Prop29
280
     1
102
RTVSPost2010PropOp29
 70
     1
102
RTVSPost2010Prop30
280
     1
102
RTVSPost2010PropOp30
 70
     1
102
RTVSPost2010Prop31
280
     0
102
RTVSPost2010PropOp31
 70
     1
102
RTVSPost2010Prop32
280
     0
102
RTVSPost2010PropOp32
 70
     1
102
RTVSPost2010Prop33
280
     0
102
RTVSPost2010PropOp33
 70
     1
102
RTVSPost2010Prop34
280
     0
102
RTVSPost2010PropOp34
 70
     1
102
RTVSPost2010Prop35
280
     0
102
RTVSPost2010PropOp35
 70
     1
102
RTVSPost2010Prop36
280
     0
102
RTVSPost2010PropOp36
 70
     1
102
RTVSPost2010Prop37
 90
       50
102
RTVSPost2010PropOp37
 70
     1
102
RTVSPost2010Prop38
140
0.0
102
RTVSPost2010PropOp38
 70
     1
102
RTVSPost2010Prop39
140
1.0
102
RTVSPost2010PropOp39
 70
     1
102
RTVSPost2010Prop40
 90
        0
102
RTVSPost2010PropOp40
 70
     1
102
RTVSPost2010Prop41ColorIndex
 90
       18
102
RTVSPost2010Prop41ColorRGB
 90
-16777216
102
RTVSPost2010PropOp41
 70
     1
102
RTVSPost2010Prop42
 90
       50
102
RTVSPost2010PropOp42
 70
     1
102
RTVSPost2010Prop43
 90
        3
102
RTVSPost2010PropOp43
 70
     1
102
RTVSPost2010Prop44ColorIndex
 90
        5
102
RTVSPost2010Prop44ColorRGB
 90
      255
102
RTVSPost2010PropOp44
 70
     1
102
RTVSPost2010Prop45
280
     0
102
RTVSPost2010PropOp45
 70
     1
102
RTVSPost2010Prop46
 90
       50
102
RTVSPost2010PropOp46
 70
     1
102
RTVSPost2010Prop47
 90
       50
102
RTVSPost2010PropOp47
 70
     1
102
RTVSPost2010Prop48
 90
       50
102
RTVSPost2010PropOp48
 70
     1
102
RTVSPost2010Prop49
280
     0
102
RTVSPost2010PropOp49
 70
     1
102
RTVSPost2010Prop50
 90
       50
102
RTVSPost2010PropOp50
 70
     1
102
RTVSPost2010Prop51ColorIndex
 90
      256
102
RTVSPost2010Prop51ColorRGB
 90
-16777216
102
RTVSPost2010PropOp51
 70
     0
102
RTVSPost2010Prop52
140
1.0
102
RTVSPost2010PropOp52
 70
     0
102
RTVSPost2010Prop53
 90
        2
102
RTVSPost2010PropOp53
 70
     1
102
RTVSPost2010Prop54
  1
strokes_ogs.tif
102
RTVSPost2010PropOp54
 70
     1
102
RTVSPost2010Prop55
280
     0
102
RTVSPost2010PropOp55
 70
     1
102
RTVSPost2010Prop56
140
1.0
102
RTVSPost2010PropOp56
 70
     1
102
RTVSPost2010Prop57
140
1.0
102
RTVSPost2010PropOp57
 70
     1
102
RTVSPropertyOp0
 70
     1
102
RTVSPropertyOp1
 70
     1
102
RTVSPropertyOp2
 70
     1
102
RTVSPropertyOp3
 70
     1
102
RTVSPropertyOp4
 70
     1
102
RTVSPropertyOp5
 70
     1
102
RTVSPropertyOp6
 70
     1
102
RTVSPropertyOp7
 70
     1
102
RTVSPropertyOp8
 70
     1
102
RTVSPropertyOp9
 70
     1
102
RTVSPropertyOp10
 70
     1
102
RTVSPropertyOp11
 70
     1
102
RTVSPropertyOp12
 70
     1
102
RTVSPropertyOp13
 70
     1
102
RTVSPropertyOp14
 70
     1
102
RTVSPropertyOp15
 70
     1
102
RTVSPropertyOp16
 70
     1
102
RTVSPropertyOp17
 70
     1
102
RTVSPropertyOp18
 70
     1
102
RTVSPropertyOp19
 70
     1
102
RTVSPropertyOp20
 70
     1
102
RTVSPropertyOp21
 70
     1
102
RTVSPropertyOp22
 70
     1
102
RTVSPropertyOp23
 70
     1
102
RTVSPropertyOp24
 70
     1
102
RTVSPropertyOp25
 70
     1
102
RTVSPropertyOp26
 70
     1
102
RTVSPropertyOp27
 70
     1
102
RTVSPropertyOp28
 70
     1
102
RTVSPropertyOp29
 70
     1
102
RTVSPropertyOp30
 70
     1
102
RTVSPropertyOp31
 70
     1
102
RTVSPropertyOp32
 70
     1
102
RTVSPropertyOp33
 70
     1
102
RTVSPropertyOp34
 70
     1
102
RTVSPropertyOp35
 70
     1
102
RTVSPropertyOp36
 70
     1
102
RTVSPropertyOp37
 70
     1
102
RTVSPropertyOp38
 70
     1
102
RTVSPropertyOp39
 70
     1
102
RTVSPropertyOp40
 70
     1
102
RTVSPropertyOp41
 70
     1
102
RTVSPropertyOp42
 70
     1
102
RTVSPropertyOp43
 70
     1
102
RTVSPropertyOp44
 70
     1
102
RTVSPropertyOp45
 70
     1
102
RTVSPropertyOp46
 70
     1
102
RTVSPropertyOp47
 70
     1
102
RTVSPropertyOp48
 70
     1
102
RTVSPropertyOp49
 70
     1
102
RTVSPropertyOp50
 70
     1
102
RTVSPropertyOp51
 70
     0
102
RTVSPropertyOp52
 70
     0
102
RTVSPropertyOp53
 70
     1
102
RTVSPropertyOp54
 70
     1
102
RTVSPropertyOp55
 70
     1
102
RTVSPropertyOp56
 70
     1
102
RTVSPropertyOp57
 70
     1
102
RTVSPropertyOp58
 70
     1
102
RTVSPropertyOp59
 70
     1
102
RTVSPropertyOp60
 70
     1
102
RTVSPropertyOp61
 70
     1
102
RTVSPropertyOp62
 70
     1
  0
ENDSEC
  0
EOF
