  0
SECTION
  2
HEADER
  9
$ACADVER
  1
AC1015
  9
$ACADMAINTVER
 70
    18
  9
$DWGCODEPAGE
  3
ANSI_932
  9
$INSBASE
 10
0.0
 20
0.0
 30
0.0
  9
$EXTMIN
 10
5.120747995562396
 20
17.65325969957166
 30
-0.0015258207003583
  9
$EXTMAX
 10
1045.08564723027
 20
695.249672603094
 30
0.0000000349246037
  9
$LIMMIN
 10
0.0
 20
0.0
  9
$LIMMAX
 10
420.0
 20
297.0
  9
$ORTHOMODE
 70
     1
  9
$REGENMODE
 70
     1
  9
$FILLMODE
 70
     1
  9
$QTEXTMODE
 70
     0
  9
$MIRRTEXT
 70
     1
  9
$LTSCALE
 40
1.0
  9
$ATTMODE
 70
     1
  9
$TEXTSIZE
 40
2.5
  9
$TRACEWID
 40
1.0
  9
$TEXTSTYLE
  7
STANDARD
  9
$CLAYER
  8
0
  9
$CELTYPE
  6
ByLayer
  9
$CECOLOR
 62
   256
  9
$CELTSCALE
 40
0.1
  9
$DISPSILH
 70
     0
  9
$DIMSCALE
 40
1.0
  9
$DIMASZ
 40
2.0
  9
$DIMEXO
 40
0.5
  9
$DIMDLI
 40
8.0
  9
$DIMRND
 40
0.0
  9
$DIMDLE
 40
0.0
  9
$DIMEXE
 40
0.5
  9
$DIMTP
 40
0.1
  9
$DIMTM
 40
0.1
  9
$DIMTXT
 40
3.0
  9
$DIMCEN
 40
0.0
  9
$DIMTSZ
 40
0.0
  9
$DIMTOL
 70
     0
  9
$DIMLIM
 70
     0
  9
$DIMTIH
 70
     0
  9
$DIMTOH
 70
     0
  9
$DIMSE1
 70
     0
  9
$DIMSE2
 70
     0
  9
$DIMTAD
 70
     3
  9
$DIMZIN
 70
     8
  9
$DIMBLK
  1
Open30
  9
$DIMASO
 70
     1
  9
$DIMSHO
 70
     1
  9
$DIMPOST
  1

  9
$DIMAPOST
  1
"
  9
$DIMALT
 70
     0
  9
$DIMALTD
 70
     2
  9
$DIMALTF
 40
0.0393701
  9
$DIMLFAC
 40
1.0
  9
$DIMTOFL
 70
     1
  9
$DIMTVP
 40
0.0
  9
$DIMTIX
 70
     0
  9
$DIMSOXD
 70
     0
  9
$DIMSAH
 70
     0
  9
$DIMBLK1
  1

  9
$DIMBLK2
  1

  9
$DIMSTYLE
  2
AM_JIS
  9
$DIMCLRD
 70
   256
  9
$DIMCLRE
 70
   256
  9
$DIMCLRT
 70
     2
  9
$DIMTFAC
 40
0.71
  9
$DIMGAP
 40
0.5
  9
$DIMJUST
 70
     0
  9
$DIMSD1
 70
     0
  9
$DIMSD2
 70
     0
  9
$DIMTOLJ
 70
     0
  9
$DIMTZIN
 70
     8
  9
$DIMALTZ
 70
     0
  9
$DIMALTTZ
 70
     0
  9
$DIMUPT
 70
     0
  9
$DIMDEC
 70
     2
  9
$DIMTDEC
 70
     2
  9
$DIMALTU
 70
     2
  9
$DIMALTTD
 70
     2
  9
$DIMTXSTY
  7
CHINO
  9
$DIMAUNIT
 70
     0
  9
$DIMADEC
 70
     0
  9
$DIMALTRND
 40
0.0
  9
$DIMAZIN
 70
     2
  9
$DIMDSEP
 70
    46
  9
$DIMATFIT
 70
     3
  9
$DIMFRAC
 70
     0
  9
$DIMLDRBLK
  1
Open30
  9
$DIMLUNIT
 70
     2
  9
$DIMLWD
 70
    -1
  9
$DIMLWE
 70
    -1
  9
$DIMTMOVE
 70
     0
  9
$LUNITS
 70
     2
  9
$LUPREC
 70
     2
  9
$SKETCHINC
 40
1.0
  9
$FILLETRAD
 40
3.0
  9
$AUNITS
 70
     0
  9
$AUPREC
 70
     0
  9
$MENU
  1
.
  9
$ELEVATION
 40
0.0
  9
$PELEVATION
 40
0.0
  9
$THICKNESS
 40
0.0
  9
$LIMCHECK
 70
     0
  9
$CHAMFERA
 40
0.5
  9
$CHAMFERB
 40
2.0
  9
$CHAMFERC
 40
20.0
  9
$CHAMFERD
 40
0.0
  9
$SKPOLY
 70
     0
  9
$TDCREATE
 40
2454060.606612952
  9
$TDUCREATE
 40
2454060.231612952
  9
$TDUPDATE
 40
2456471.685465498
  9
$TDUUPDATE
 40
2456471.310465498
  9
$TDINDWG
 40
4.7131089236
  9
$TDUSRTIMER
 40
4.7131078356
  9
$USRTIMER
 70
     1
  9
$ANGBASE
 50
0.0
  9
$ANGDIR
 70
     0
  9
$PDMODE
 70
     0
  9
$PDSIZE
 40
0.0
  9
$PLINEWID
 40
0.0
  9
$SPLFRAME
 70
     0
  9
$SPLINETYPE
 70
     6
  9
$SPLINESEGS
 70
     8
  9
$HANDSEED
  5
2A0
  9
$SURFTAB1
 70
     6
  9
$SURFTAB2
 70
     6
  9
$SURFTYPE
 70
     6
  9
$SURFU
 70
     6
  9
$SURFV
 70
     6
  9
$UCSBASE
  2

  9
$UCSNAME
  2

  9
$UCSORG
 10
0.0
 20
0.0
 30
0.0
  9
$UCSXDIR
 10
1.0
 20
0.0
 30
0.0
  9
$UCSYDIR
 10
0.0
 20
1.0
 30
0.0
  9
$UCSORTHOREF
  2

  9
$UCSORTHOVIEW
 70
     0
  9
$UCSORGTOP
 10
0.0
 20
0.0
 30
0.0
  9
$UCSORGBOTTOM
 10
0.0
 20
0.0
 30
0.0
  9
$UCSORGLEFT
 10
0.0
 20
0.0
 30
0.0
  9
$UCSORGRIGHT
 10
0.0
 20
0.0
 30
0.0
  9
$UCSORGFRONT
 10
0.0
 20
0.0
 30
0.0
  9
$UCSORGBACK
 10
0.0
 20
0.0
 30
0.0
  9
$PUCSBASE
  2

  9
$PUCSNAME
  2

  9
$PUCSORG
 10
0.0
 20
0.0
 30
0.0
  9
$PUCSXDIR
 10
1.0
 20
0.0
 30
0.0
  9
$PUCSYDIR
 10
0.0
 20
1.0
 30
0.0
  9
$PUCSORTHOREF
  2

  9
$PUCSORTHOVIEW
 70
     0
  9
$PUCSORGTOP
 10
0.0
 20
0.0
 30
0.0
  9
$PUCSORGBOTTOM
 10
0.0
 20
0.0
 30
0.0
  9
$PUCSORGLEFT
 10
0.0
 20
0.0
 30
0.0
  9
$PUCSORGRIGHT
 10
0.0
 20
0.0
 30
0.0
  9
$PUCSORGFRONT
 10
0.0
 20
0.0
 30
0.0
  9
$PUCSORGBACK
 10
0.0
 20
0.0
 30
0.0
  9
$USERI1
 70
     0
  9
$USERI2
 70
     0
  9
$USERI3
 70
     0
  9
$USERI4
 70
     0
  9
$USERI5
 70
     0
  9
$USERR1
 40
0.0
  9
$USERR2
 40
0.0
  9
$USERR3
 40
0.0
  9
$USERR4
 40
0.0
  9
$USERR5
 40
0.0
  9
$WORLDVIEW
 70
     1
  9
$SHADEDGE
 70
     3
  9
$SHADEDIF
 70
    70
  9
$TILEMODE
 70
     1
  9
$MAXACTVP
 70
    64
  9
$PINSBASE
 10
0.0
 20
0.0
 30
0.0
  9
$PLIMCHECK
 70
     0
  9
$PEXTMIN
 10
2.068687027208284
 20
-194.2661870753876
 30
0.0
  9
$PEXTMAX
 10
397.1517026569764
 20
278.0854529133656
 30
0.0
  9
$PLIMMIN
 10
-5.873748779296875
 20
-5.873749732971191
  9
$PLIMMAX
 10
414.0729064941406
 20
291.1369009017944
  9
$UNITMODE
 70
     0
  9
$VISRETAIN
 70
     1
  9
$PLINEGEN
 70
     0
  9
$PSLTSCALE
 70
     1
  9
$TREEDEPTH
 70
  3020
  9
$CMLSTYLE
  2
Standard
  9
$CMLJUST
 70
     0
  9
$CMLSCALE
 40
20.0
  9
$PROXYGRAPHICS
 70
     1
  9
$MEASUREMENT
 70
     1
  9
$CELWEIGHT
370
    -1
  9
$ENDCAPS
280
     0
  9
$JOINSTYLE
280
     0
  9
$LWDISPLAY
290
     0
  9
$INSUNITS
 70
     4
  9
$HYPERLINKBASE
  1

  9
$STYLESHEET
  1

  9
$XEDIT
290
     1
  9
$CEPSNTYPE
380
     0
  9
$PSTYLEMODE
290
     1
  9
$FINGERPRINTGUID
  2
{E84F4D5F-D56E-4A22-8609-7DCB63B6D95A}
  9
$VERSIONGUID
  2
{C5DC7A79-128C-42AD-9339-E3BF374159EF}
  9
$EXTNAMES
290
     1
  9
$PSVPSCALE
 40
0.0
  9
$OLESTARTUP
290
     0
  0
ENDSEC
  0
SECTION
  2
CLASSES
  0
CLASS
  1
ACDBDICTIONARYWDFLT
  2
AcDbDictionaryWithDefault
  3
ObjectDBX Classes
 90
        0
280
     0
281
     0
  0
CLASS
  1
ACME_DOCUMENT
  2
AcMeDbDoc
  3
AcMeServices
 90
    32768
280
     1
281
     0
  0
CLASS
  1
ACMESCOPE
  2
AcMeScope
  3
AcMeServices
 90
    32768
280
     1
281
     0
  0
CLASS
  1
ACMECOMMANDHISTORY
  2
AcMeCommandHistory
  3
AcMeServices
 90
    32768
280
     1
281
     0
  0
CLASS
  1
ACIMSYSVARMAN
  2
AcImSysVarManager
  3
AcMeServices
 90
    32768
280
     1
281
     0
  0
CLASS
  1
ACIMREALSYSVAR
  2
AcImRealSysVar
  3
AcMeServices
 90
    32768
280
     1
281
     0
  0
CLASS
  1
ACIMINTSYSVAR
  2
AcImIntSysVar
  3
AcMeServices
 90
    32768
280
     1
281
     0
  0
CLASS
  1
ACMEDRAWINGMAN
  2
AcMeDrawingMan
  3
AcMeServices
 90
    32768
280
     1
281
     0
  0
CLASS
  1
ACMEVIEW
  2
AcMeView
  3
AcMeServices
 90
    32768
280
     1
281
     0
  0
CLASS
  1
ACDBENTITYCACHE
  2
AcMeEntityCache
  3
AcMeServices
 90
    32768
280
     1
281
     0
  0
CLASS
  1
GSMANAGER
  2
AcMeGSManager
  3
AcMeServices
 90
    32768
280
     1
281
     0
  0
CLASS
  1
AMDTINTERNALREACTOR
  2
AmdtInternalReactor
  3
AcMeServices
 90
    32768
280
     1
281
     0
  0
CLASS
  1
ACMESTATEMGR
  2
AcMeStateMgr
  3
AcMeServices
 90
    32768
280
     1
281
     0
  0
CLASS
  1
ACGREFMASTER
  2
AcGrefMaster
  3
AcAttribServices
 90
    32768
280
     1
281
     0
  0
CLASS
  1
AM_DRAWING_MGR
  2
AcDmDwgMgr
  3
AcMechDwgViewMgmt
 90
    32768
280
     1
281
     0
  0
CLASS
  1
AM_DWG_DOCUMENT
  2
AcDmDwgDocument
  3
AcMechDwgViewMgmt
 90
    32768
280
     1
281
     0
  0
CLASS
  1
AM_DWG_SHEET
  2
AcDmSheet
  3
AcMechDwgViewMgmt
 90
    32768
280
     1
281
     0
  0
CLASS
  1
AM_VIEWDIMPARMAP
  2
AcDmViewDimParMap
  3
AcMechDwgViewMgmt
 90
    32768
280
     1
281
     0
  0
CLASS
  1
AM_DWGMGR_NAME
  2
AcDmDwgMgrName
  3
AcMechDwgViewMgmt
 90
    32768
280
     1
281
     0
  0
CLASS
  1
ACME_DATABASE
  2
AcMeDbDatabase
  3
AcMeServices
 90
    32768
280
     1
281
     0
  0
CLASS
  1
ACRFINSADJUSTERMGR
  2
AcRfInsAdjusterMgr
  3
AcMeServices
 90
    32768
280
     1
281
     0
  0
CLASS
  1
ACGREFACADMASTER
  2
AcGrefacadMaster
  3
AcGrefServices
 90
    32768
280
     1
281
     0
  0
CLASS
  1
AMDTMENUSTATEMGR
  2
AmdtMenuStateMgr
  3
McadcomServices
 90
    32768
280
     1
281
     0
  0
CLASS
  1
AMDTMCOMMENUSTATE
  2
AmdtMcomMenuState
  3
McadcomServices
 90
    32768
280
     1
281
     0
  0
CLASS
  1
AMIMASTER
  2
AmiMaster
  3
AmiServices
 90
    32768
280
     1
281
     0
  0
CLASS
  1
AMGSETTINGSOBJ
  2
AmgSettingsObj
  3
"AcadM|Product Description: AutoCAD Mechanical|Company: Autodesk"
 90
    32768
280
     1
281
     0
  0
CLASS
  1
AMGOBJPROPCFG
  2
AmgObjPropCfg
  3
"AmgLay|Product Description: AutoCAD Mechanical|Company: Autodesk"
 90
    32769
280
     1
281
     0
  0
CLASS
  1
ACMSTANDARDANSI
  2
AcmStandardANSI
  3
"Amdt_StdImp|Product Description: AutoCAD Mechanical|Company: Autodesk"
 90
    32768
280
     1
281
     0
  0
CLASS
  1
ACMSURFSTANDARDANSI
  2
AcmSurfTextStdANSI
  3
"Amdt_StdImp|Product Description: AutoCAD Mechanical|Company: Autodesk"
 90
    32768
280
     1
281
     0
  0
CLASS
  1
ACMFCFSTANDARDANSI
  2
AcmFCFStdANSI
  3
"Amdt_StdImp|Product Description: AutoCAD Mechanical|Company: Autodesk"
 90
    32768
280
     1
281
     0
  0
CLASS
  1
ACMWELDSTANDARDANSI
  2
AcmWeldingStdANSI
  3
"Amdt_StdImp|Product Description: AutoCAD Mechanical|Company: Autodesk"
 90
    32768
280
     1
281
     0
  0
CLASS
  1
ACMIDSTANDARDANSI
  2
AcmIdStdANSI
  3
"Amdt_StdImp|Product Description: AutoCAD Mechanical|Company: Autodesk"
 90
    32768
280
     1
281
     0
  0
CLASS
  1
ACMDATUMSTANDARDANSI
  2
AcmDatumStdANSI
  3
"Amdt_StdImp|Product Description: AutoCAD Mechanical|Company: Autodesk"
 90
    32768
280
     1
281
     0
  0
CLASS
  1
ACMBOMSTANDARDANSI
  2
AcmBOMStdANSI
  3
"Amdt_StdImp|Product Description: AutoCAD Mechanical|Company: Autodesk"
 90
    32768
280
     1
281
     0
  0
CLASS
  1
ACMDETAILSTANDARDANSI
  2
AmdtDetailSymStdANSI
  3
"Amdt_StdImp|Product Description: AutoCAD Mechanical|Company: Autodesk"
 90
    32768
280
     1
281
     0
  0
CLASS
  1
ACMSECTIONSTANDARDANSI
  2
AmdtSectionSymStdANSI
  3
"Amdt_StdImp|Product Description: AutoCAD Mechanical|Company: Autodesk"
 90
    32768
280
     1
281
     0
  0
CLASS
  1
ACMCENTERLINESTANDARDANSI
  2
AmdtCenterLineStdANSI
  3
"Amdt_StdImp|Product Description: AutoCAD Mechanical|Company: Autodesk"
 90
    32768
280
     1
281
     0
  0
CLASS
  1
ACMTHREADLINESTANDARDANSI
  2
AmdtThreadLineStdANSI
  3
"Amdt_StdImp|Product Description: AutoCAD Mechanical|Company: Autodesk"
 90
    32768
280
     1
281
     0
  0
CLASS
  1
ACMNOTESTANDARDANSI
  2
AmdtNoteStdANSI
  3
"Amdt_StdImp|Product Description: AutoCAD Mechanical|Company: Autodesk"
 90
    32768
280
     1
281
     0
  0
CLASS
  1
ACAMGLAYSTD
  2
AcAmgLayStd
  3
"AmgLay|Product Description: AutoCAD Mechanical|Company: Autodesk"
 90
    32768
280
     1
281
     0
  0
CLASS
  1
ACAMGDIMSTD
  2
AcAmgDimStd
  3
"AmgDim|Product Description: AutoCAD Mechanical|Company: Autodesk"
 90
    32768
280
     1
281
     0
  0
CLASS
  1
ACAMGHOLECHARTSTDANSI
  2
AcAmgHoleChartStdANSI
  3
ACMSYMBB_MODULE_NAME
 90
    32768
280
     1
281
     0
  0
CLASS
  1
ACAMGTITLESTD
  2
AcAmgTitleStd
  3
"AmgTitle|Product Description: AutoCAD Mechanical|Company: Autodesk"
 90
    32768
280
     1
281
     0
  0
CLASS
  1
ACMSTANDARDISO
  2
AcmStandardISO
  3
"Amdt_StdImp|Product Description: AutoCAD Mechanical|Company: Autodesk"
 90
    32768
280
     1
281
     0
  0
CLASS
  1
AMDTEDGESTANDARDISO
  2
AmdtEdgeStdISO
  3
"Amdt_StdImp|Product Description: AutoCAD Mechanical|Company: Autodesk"
 90
    32768
280
     1
281
     0
  0
CLASS
  1
ACMSURFSTANDARDISO
  2
AcmSurfTextStdISO
  3
"Amdt_StdImp|Product Description: AutoCAD Mechanical|Company: Autodesk"
 90
    32768
280
     1
281
     0
  0
CLASS
  1
ACMFCFSTANDARDISO
  2
AcmFCFStdISO
  3
"Amdt_StdImp|Product Description: AutoCAD Mechanical|Company: Autodesk"
 90
    32768
280
     1
281
     0
  0
CLASS
  1
ACMWELDSTANDARDISO
  2
AcmWeldingStdISO
  3
"Amdt_StdImp|Product Description: AutoCAD Mechanical|Company: Autodesk"
 90
    32768
280
     1
281
     0
  0
CLASS
  1
ACMIDSTANDARDISO
  2
AcmIdStdISO
  3
"Amdt_StdImp|Product Description: AutoCAD Mechanical|Company: Autodesk"
 90
    32768
280
     1
281
     0
  0
CLASS
  1
ACMDATUMSTANDARDISO
  2
AcmDatumStdISO
  3
"Amdt_StdImp|Product Description: AutoCAD Mechanical|Company: Autodesk"
 90
    32768
280
     1
281
     0
  0
CLASS
  1
ACMBOMSTANDARDISO
  2
AcmBOMStdISO
  3
"Amdt_StdImp|Product Description: AutoCAD Mechanical|Company: Autodesk"
 90
    32768
280
     1
281
     0
  0
CLASS
  1
ACMDETAILSTANDARDISO
  2
AmdtDetailSymStdISO
  3
"Amdt_StdImp|Product Description: AutoCAD Mechanical|Company: Autodesk"
 90
    32768
280
     1
281
     0
  0
CLASS
  1
ACMSECTIONSTANDARDISO
  2
AmdtSectionSymStdISO
  3
"Amdt_StdImp|Product Description: AutoCAD Mechanical|Company: Autodesk"
 90
    32768
280
     1
281
     0
  0
CLASS
  1
ACMCENTERLINESTANDARDISO
  2
AmdtCenterLineStdISO
  3
"Amdt_StdImp|Product Description: AutoCAD Mechanical|Company: Autodesk"
 90
    32768
280
     1
281
     0
  0
CLASS
  1
ACMTHREADLINESTANDARDISO
  2
AmdtThreadLineStdISO
  3
"Amdt_StdImp|Product Description: AutoCAD Mechanical|Company: Autodesk"
 90
    32768
280
     1
281
     0
  0
CLASS
  1
ACMNOTESTANDARDISO
  2
AmdtNoteStdISO
  3
"Amdt_StdImp|Product Description: AutoCAD Mechanical|Company: Autodesk"
 90
    32768
280
     1
281
     0
  0
CLASS
  1
ACAMGHOLECHARTSTDISO
  2
AcAmgHoleChartStdISO
  3
ACMSYMBB_MODULE_NAME
 90
    32768
280
     1
281
     0
  0
CLASS
  1
ACMSTANDARDJIS
  2
AcmStandardJIS
  3
"Amdt_StdImp|Product Description: AutoCAD Mechanical|Company: Autodesk"
 90
    32768
280
     1
281
     0
  0
CLASS
  1
ACMSURFSTANDARDJIS
  2
AcmSurfTextStdJIS
  3
"Amdt_StdImp|Product Description: AutoCAD Mechanical|Company: Autodesk"
 90
    32768
280
     1
281
     0
  0
CLASS
  1
ACMFCFSTANDARDJIS98
  2
AcmFCFStdJIS98
  3
"Amdt_StdImp|Product Description: AutoCAD Mechanical|Company: Autodesk"
 90
    32768
280
     1
281
     0
  0
CLASS
  1
ACMWELDSTANDARDJIS
  2
AcmWeldingStdJIS
  3
"Amdt_StdImp|Product Description: AutoCAD Mechanical|Company: Autodesk"
 90
    32768
280
     1
281
     0
  0
CLASS
  1
ACMIDSTANDARDJIS
  2
AcmIdStdJIS
  3
"Amdt_StdImp|Product Description: AutoCAD Mechanical|Company: Autodesk"
 90
    32768
280
     1
281
     0
  0
CLASS
  1
ACMDATUMSTANDARDJIS
  2
AcmDatumStdJIS
  3
"Amdt_StdImp|Product Description: AutoCAD Mechanical|Company: Autodesk"
 90
    32768
280
     1
281
     0
  0
CLASS
  1
ACMBOMSTANDARDJIS
  2
AcmBOMStdJIS
  3
"Amdt_StdImp|Product Description: AutoCAD Mechanical|Company: Autodesk"
 90
    32768
280
     1
281
     0
  0
CLASS
  1
ACMDETAILSTANDARDJIS
  2
AmdtDetailSymStdJIS
  3
"Amdt_StdImp|Product Description: AutoCAD Mechanical|Company: Autodesk"
 90
    32768
280
     1
281
     0
  0
CLASS
  1
ACMSECTIONSTANDARDJIS
  2
AmdtSectionSymStdJIS
  3
"Amdt_StdImp|Product Description: AutoCAD Mechanical|Company: Autodesk"
 90
    32768
280
     1
281
     0
  0
CLASS
  1
ACMCENTERLINESTANDARDJIS
  2
AmdtCenterLineStdJIS
  3
"Amdt_StdImp|Product Description: AutoCAD Mechanical|Company: Autodesk"
 90
    32768
280
     1
281
     0
  0
CLASS
  1
ACMTHREADLINESTANDARDJIS
  2
AmdtThreadLineStdJIS
  3
"Amdt_StdImp|Product Description: AutoCAD Mechanical|Company: Autodesk"
 90
    32768
280
     1
281
     0
  0
CLASS
  1
ACMNOTESTANDARDJIS
  2
AmdtNoteStdJIS
  3
"Amdt_StdImp|Product Description: AutoCAD Mechanical|Company: Autodesk"
 90
    32768
280
     1
281
     0
  0
CLASS
  1
ACAMGHOLECHARTSTDJIS
  2
AcAmgHoleChartStdJIS
  3
ACMSYMBB_MODULE_NAME
 90
    32768
280
     1
281
     0
  0
CLASS
  1
ACIMSTRSYSVAR
  2
AcImStrSysVar
  3
AcMeServices
 90
    32768
280
     1
281
     0
  0
CLASS
  1
ASAPP
  2
AcAsAppObject
  3
AutoSurfServices
 90
    32768
280
     1
281
     0
  0
CLASS
  1
IM_STATIC_MAN
  2
AcImStaticVarManager
  3
AcMeServices
 90
    32768
280
     1
281
     0
  0
CLASS
  1
ACIMDBLSTATICVAR
  2
AcImDblStaticVar
  3
AcMeServices
 90
    32768
280
     1
281
     0
  0
CLASS
  1
ACIMSTRSTATICVAR
  2
AcImStrStaticVar
  3
AcMeServices
 90
    32768
280
     1
281
     0
  0
CLASS
  1
ACIMINTSTATICVAR
  2
AcImIntStaticVar
  3
AcMeServices
 90
    32768
280
     1
281
     0
  0
CLASS
  1
ACASGREFMASTER
  2
AcAsGrefMaster
  3
AutoSurfResolverServices
 90
    32768
280
     1
281
     0
  0
CLASS
  1
ACADGREFMODULE
  2
AcAdGrefModule
  3
AdGrefServices
 90
    32768
280
     1
281
     0
  0
CLASS
  1
AMDTMAPISURFMOUDULE
  2
AmdtMApiSurfModule
  3
MApiSurfServices
 90
    32768
280
     1
281
     0
  0
CLASS
  1
MAPIAMMOUDLE
  2
MApiAmModule
  3
MApiAmServices
 90
    32768
280
     1
281
     0
  0
CLASS
  1
AMDTADMENUSTATE
  2
AmdtAdMenuState
  3
DesignerServices
 90
    32768
280
     1
281
     0
  0
CLASS
  1
ADAPPL
  2
AcAdAppl
  3
DesignerServices
 90
    32768
280
     1
281
     0
  0
CLASS
  1
DEPMGR
  2
AcAdDepMgr
  3
DesignerServices
 90
    32768
280
     1
281
     0
  0
CLASS
  1
PARAMMGR
  2
AcAdParamMgr
  3
DesignerServices
 90
    32768
280
     1
281
     0
  0
CLASS
  1
PARAMSCOPE
  2
AcAdParamScope
  3
DesignerServices
 90
    32768
280
     1
281
     0
  0
CLASS
  1
NAMEDAPPL
  2
AcAdNamedAppl
  3
DesignerServices
 90
    32768
280
     1
281
     0
  0
CLASS
  1
AMDTDMMENUSTATE
  2
AmdtDmMenuState
  3
AcMechDwgViewMgmt
 90
    32768
280
     1
281
     0
  0
CLASS
  1
MAPIADMODULE
  2
MApiAdModule
  3
MApiAdServices
 90
    32768
280
     1
281
     0
  0
CLASS
  1
AMDTAMMENUSTATE
  2
AmdtAmMenuState
  3
DesignerAssemblies
 90
    32768
280
     1
281
     0
  0
CLASS
  1
ACAMPROJECT
  2
AcAmProject
  3
DesignerAssemblies
 90
    32768
280
     1
281
     0
  0
CLASS
  1
ACAMGRCOMPDEF
  2
AcAmGrCompDef
  3
DesignerAssemblies
 90
    32768
280
     1
281
     0
  0
CLASS
  1
ACCMCONTEXT
  2
AcCmContext
  3
DesignerAssemblies
 90
    32768
280
     1
281
     0
  0
CLASS
  1
ACAMCOMPDEF
  2
AcAmCompDef
  3
DesignerAssemblies
 90
    32768
280
     1
281
     0
  0
CLASS
  1
ACAMCOMPDEFMGR
  2
AcAmCompDefMgr
  3
DesignerAssemblies
 90
    32768
280
     1
281
     0
  0
CLASS
  1
AMCONTEXTMGR
  2
AcAmContextMgr
  3
DesignerAssemblies
 90
    32768
280
     1
281
     0
  0
CLASS
  1
ACAMCONTEXTMODELER
  2
AcAmContextModeler
  3
DesignerAssemblies
 90
    32768
280
     1
281
     0
  0
CLASS
  1
ACMDATADICTIONARY
  2
AcmDataDictionary
  3
"AcmSymBB|Product Description: AutoCAD Mechanical|Company: Autodesk"
 90
    32768
280
     1
281
     0
  0
CLASS
  1
ACMDATAENTRYBLOCK
  2
AcmDataEntryBlock
  3
"AcmSymBB|Product Description: AutoCAD Mechanical|Company: Autodesk"
 90
    32768
280
     1
281
     0
  0
CLASS
  1
CATALOGSTATE
  2
AcAmCatalogState
  3
DesignerAssemblies
 90
    32768
280
     1
281
     0
  0
CLASS
  1
ACAMGRCOMPDEFSET
  2
AcAmGrCompDefSet
  3
DesignerAssemblies
 90
    32768
280
     1
281
     0
  0
CLASS
  1
AMDTBROWSERDBTAB
  2
AmdtBrowserDbTab
  3
McadcomServices
 90
    32768
280
     1
281
     0
  0
CLASS
  1
CBROWSERAPPOBJECT
  2
CBrowserAppObject
  3
McadcomServices
 90
    32768
280
     1
281
     0
  0
CLASS
  1
DM_PLACEHOLDER
  2
AcDmSelsetPlaceholder
  3
AcMechDwgViewMgmt
 90
    32768
280
     1
281
     0
  0
CLASS
  1
ACAMGFILTERDAT
  2
AcAmgFilterDat
  3
"AcadM|Product Description: AutoCAD Mechanical|Company: Autodesk"
 90
    32768
280
     1
281
     0
  0
CLASS
  1
ADPART
  2
AcAdPart
  3
DesignerServices
 90
    32768
280
     1
281
     1
  0
CLASS
  1
ADBASE
  2
AcAdBase
  3
DesignerServices
 90
    32768
280
     1
281
     0
  0
CLASS
  1
BODYID
  2
AcAdBodyId
  3
DesignerServices
 90
    32768
280
     1
281
     0
  0
CLASS
  1
WORKPLANEDISPLAYMGR
  2
AcAdDisplayMgr
  3
DesignerServices
 90
    32768
280
     1
281
     0
  0
CLASS
  1
ACCMBODY
  2
AcCmBody
  3
DesignerAssemblies
 90
    32768
280
     1
281
     0
  0
CLASS
  1
ACAMCOMPENT
  2
AcAmCompEnt
  3
DesignerAssemblies
 90
    32768
280
     1
281
     1
  0
CLASS
  1
ACAMCOMPFEEDBACK
  2
AcAmCompFeedback
  3
DesignerAssemblies
 90
    32768
280
     1
281
     0
  0
CLASS
  1
ACAMCOMP
  2
AcAmComp
  3
DesignerAssemblies
 90
    32768
280
     1
281
     0
  0
CLASS
  1
ACAMCOMPENTCLONE
  2
AcAmCompEntClone
  3
DesignerAssemblies
 90
    32768
280
     1
281
     1
  0
CLASS
  1
ACAMCLONEREACTOR
  2
AcAmGrCompCloneReactor
  3
DesignerAssemblies
 90
    32768
280
     1
281
     0
  0
CLASS
  1
ADDATUMPLANEABS
  2
AcAdDatumPlaneAbs
  3
DesignerServices
 90
    32768
280
     1
281
     0
  0
CLASS
  1
ADDATUMAXISABS
  2
AcAdDatumAxisAbs
  3
DesignerServices
 90
    32768
280
     1
281
     0
  0
CLASS
  1
ADDATUMORIENTEDPLANE
  2
AcAdDatumOrientedPlane
  3
DesignerServices
 90
    32768
280
     1
281
     0
  0
CLASS
  1
ACAD_LINE
  2
AcAdLine
  3
DesignerServices
 90
    32768
280
     1
281
     1
  0
CLASS
  1
ACADLINEACAD
  2
AcAdVirtualBoundedLineAcad
  3
DesignerServices
 90
    32768
280
     1
281
     0
  0
CLASS
  1
ACADREFLINEACAD
  2
AcAdVirtualReferenceLine
  3
DesignerServices
 90
    32768
280
     1
281
     0
  0
CLASS
  1
ACADCONSLINE
  2
AcAdConstrainedLine
  3
DesignerServices
 90
    32768
280
     1
281
     0
  0
CLASS
  1
ACADCONSGROUP
  2
AcAdConstraintGroup
  3
DesignerServices
 90
    32768
280
     1
281
     0
  0
CLASS
  1
ACADIMPPTACAD
  2
AcAdVirtualImplicitPoint
  3
DesignerServices
 90
    32768
280
     1
281
     0
  0
CLASS
  1
ACADCONSPOINT
  2
AcAdConstrainedPoint
  3
DesignerServices
 90
    32768
280
     1
281
     0
  0
CLASS
  1
ADPCURCNS
  2
AcAdPointCurveConstr
  3
DesignerServices
 90
    32768
280
     1
281
     0
  0
CLASS
  1
ADHORCNS
  2
AcAdHorizontalConstr
  3
DesignerServices
 90
    32768
280
     1
281
     0
  0
CLASS
  1
ADVERCNS
  2
AcAdVerticalConstr
  3
DesignerServices
 90
    32768
280
     1
281
     0
  0
CLASS
  1
ADPARCNS
  2
AcAdParallelConstr
  3
DesignerServices
 90
    32768
280
     1
281
     0
  0
CLASS
  1
ADCLPROF2D
  2
AcAdClosedProfile2d
  3
DesignerServices
 90
    32768
280
     1
281
     0
  0
CLASS
  1
ACAD_FIXCONSTRAINT
  2
AcAdFixedConstraint
  3
DesignerServices
 90
    32768
280
     1
281
     0
  0
CLASS
  1
AMDTFORMULAUPDATEDISPATCHER
  2
AmdtFormulaUpdateDispatcher
  3
AcMeServices
 90
    32768
280
     1
281
     0
  0
CLASS
  1
ACMELINEARARROW
  2
AcImLinearArrowDisplay
  3
AcMeServices
 90
    32768
280
     1
281
     1
  0
CLASS
  1
PARAM
  2
AcAdParam
  3
DesignerServices
 90
    32768
280
     1
281
     0
  0
CLASS
  1
ACADVOLFEATWITHTRIM
  2
AcAdVolFeatWithTrim
  3
DesignerServices
 90
    32768
280
     1
281
     0
  0
CLASS
  1
DEPEDGEFEATUREORDERING
  2
AcAdDepEdgeFeatureOrdering
  3
DesignerServices
 90
    32768
280
     1
281
     0
  0
CLASS
  1
ADCONSDISP
  2
AcAdConstraintDisplay
  3
DesignerServices
 90
    32768
280
     1
281
     1
  0
CLASS
  1
ADCONSTDSP
  2
AcAdConstraintDisplayTag
  3
DesignerServices
 90
    32768
280
     1
281
     1
  0
CLASS
  1
ADHDISTCNS
  2
AcAdHorizontalDistanceConstr
  3
DesignerServices
 90
    32768
280
     1
281
     0
  0
CLASS
  1
ADVDISTCNS
  2
AcAdVerticalDistanceConstr
  3
DesignerServices
 90
    32768
280
     1
281
     0
  0
CLASS
  1
HVREFID
  2
AcAdHVRefId
  3
DesignerServices
 90
    32768
280
     1
281
     0
  0
CLASS
  1
ACADPOINTDEPID
  2
AcAdVirtualPointDepId
  3
DesignerServices
 90
    32768
280
     1
281
     0
  0
CLASS
  1
ACADSKETCHPOINTRES
  2
AcAdSketchPointRes
  3
DesignerServices
 90
    32768
280
     1
281
     0
  0
CLASS
  1
ADCOLNCNS
  2
AcAdColinearConstr
  3
DesignerServices
 90
    32768
280
     1
281
     0
  0
CLASS
  1
ACAD_CIRCLE
  2
AcAdCircle
  3
DesignerServices
 90
    32768
280
     1
281
     1
  0
CLASS
  1
ACADCIRCLEACAD
  2
AcAdVirtualCircleAcad
  3
DesignerServices
 90
    32768
280
     1
281
     0
  0
CLASS
  1
ACADCONSCIRCLE
  2
AcAdConstrainedCircle
  3
DesignerServices
 90
    32768
280
     1
281
     0
  0
CLASS
  1
ADCTRPTCNS
  2
AcAdCenterPointConstr
  3
DesignerServices
 90
    32768
280
     1
281
     0
  0
CLASS
  1
ADEQRADCNS
  2
AcAdEqualRadiusConstr
  3
DesignerServices
 90
    32768
280
     1
281
     0
  0
CLASS
  1
AMDT_ALIGNED_DIM
  2
AmdtAlignedDimension
  3
AcMeServices
 90
    32768
280
     1
281
     1
  0
CLASS
  1
ACMEPOINT
  2
AcImPointDisplay
  3
AcMeServices
 90
    32768
280
     1
281
     1
  0
CLASS
  1
ADPLANEID
  2
AcAdPlaneId
  3
DesignerServices
 90
    32768
280
     1
281
     0
  0
CLASS
  1
ADDATUMPLANEFACE
  2
AcAdDatumPlaneFace
  3
DesignerServices
 90
    32768
280
     1
281
     0
  0
CLASS
  1
OSTREFID
  2
AcAdOrientedStraightRefId
  3
DesignerServices
 90
    32768
280
     1
281
     0
  0
CLASS
  1
ADDATUMPOINT2EDGES
  2
AcAdDatumPoint2Edges
  3
DesignerServices
 90
    32768
280
     1
281
     0
  0
CLASS
  1
ADHOLEFEAT
  2
AcAdHoleFeat
  3
DesignerServices
 90
    32768
280
     1
281
     0
  0
CLASS
  1
DEPEDGESECONDARYDEPID
  2
AcAdDepEdgeSecondaryDepId
  3
DesignerServices
 90
    32768
280
     1
281
     0
  0
CLASS
  1
DIMASSOC
  2
AcDbDimAssoc
  3
"AcDbDimAssoc|Product Desc:     AcDim ARX App For Dimension|Company:          Autodesk, Inc.|WEB Address:      www.autodesk.com"
 90
    32768
280
     0
281
     0
  0
CLASS
  1
AMDTNOTE
  2
AmdtNote
  3
"AcmSymBB|Product Description: AutoCAD Mechanical|Company: Autodesk"
 90
    35839
280
     1
281
     1
  0
CLASS
  1
ACDBCIRCARCRES
  2
AcDbCircArcRes
  3
AcGrefServices
 90
    32768
280
     1
281
     0
  0
CLASS
  1
ACDBOPPOLYLINERES
  2
AcDbOpPolylineRes
  3
AcGrefServices
 90
    32768
280
     1
281
     0
  0
CLASS
  1
ACMEPLINE
  2
AcImPlineDisplay
  3
AcMeServices
 90
    32768
280
     1
281
     1
  0
CLASS
  1
ACMETEXT
  2
AcImTextDisplay
  3
AcMeServices
 90
    32768
280
     1
281
     1
  0
CLASS
  1
EDGEID
  2
AcAdEdgeId
  3
DesignerServices
 90
    32768
280
     1
281
     0
  0
CLASS
  1
ADFILLET
  2
AcAdFillet
  3
DesignerServices
 90
    32768
280
     1
281
     0
  0
CLASS
  1
LAYER_INDEX
  2
AcDbLayerIndex
  3
ObjectDBX Classes
 90
    32768
280
     0
281
     0
  0
CLASS
  1
IDBUFFER
  2
AcDbIdBuffer
  3
ObjectDBX Classes
 90
    32768
280
     0
281
     0
  0
CLASS
  1
DICTIONARYVAR
  2
AcDbDictionaryVar
  3
ObjectDBX Classes
 90
        0
280
     0
281
     0
  0
CLASS
  1
ACAD_ARC
  2
AcAdArc
  3
DesignerServices
 90
    32768
280
     1
281
     1
  0
CLASS
  1
ACADARCACAD
  2
AcAdVirtualArcAcad
  3
DesignerServices
 90
    32768
280
     1
281
     0
  0
CLASS
  1
ADTANCNS
  2
AcAdTangentConstr
  3
DesignerServices
 90
    32768
280
     1
281
     0
  0
CLASS
  1
ACADPARTCIRCEDGRES
  2
AcAdPartCircEdgRes
  3
AdGrefServices
 90
    32768
280
     1
281
     0
  0
CLASS
  1
ACRFINSADJ
  2
AcRfInsAdjuster
  3
AcMeServices
 90
    32768
280
     1
281
     0
  0
CLASS
  1
CIRREFID
  2
AcAdCircleRefId
  3
DesignerServices
 90
    32768
280
     1
281
     0
  0
CLASS
  1
ACMEAXIS
  2
AcImAxisDisplay
  3
AcMeServices
 90
    32768
280
     1
281
     1
  0
CLASS
  1
FACEID
  2
AcAdFaceId
  3
DesignerServices
 90
    32768
280
     1
281
     0
  0
CLASS
  1
ACADPARTTORUSFACERES
  2
AcAdPartTorusFaceRes
  3
AdGrefServices
 90
    32768
280
     1
281
     0
  0
CLASS
  1
ACADPARTCYLINDERFACERES
  2
AcAdPartCylinderFaceRes
  3
AdGrefServices
 90
    32768
280
     1
281
     0
  0
CLASS
  1
ACADPARTLINEDGRES
  2
AcAdPartLinEdgRes
  3
AdGrefServices
 90
    32768
280
     1
281
     0
  0
CLASS
  1
STREFID
  2
AcAdStraightRefId
  3
DesignerServices
 90
    32768
280
     1
281
     0
  0
CLASS
  1
ACADPARTPLANARFACERES
  2
AcAdPartPlanarFaceRes
  3
AdGrefServices
 90
    32768
280
     1
281
     0
  0
CLASS
  1
ACAMEXPR
  2
AcAmExpr
  3
DesignerAssemblies
 90
    32768
280
     1
281
     0
  0
CLASS
  1
ACCMTANCLPL
  2
AcCmTanClPl
  3
AcCmServices
 90
    32768
280
     1
281
     0
  0
CLASS
  1
ACCMCONSTREACTOR
  2
AcCmConstraintReactor
  3
DesignerAssemblies
 90
    32768
280
     1
281
     0
  0
CLASS
  1
AMDT_OPEN_PROFILE
  2
AmdtOpenProfile
  3
DesignerServices
 90
    32768
280
     1
281
     0
  0
CLASS
  1
ACCMDISTPLPL
  2
AcCmDistPlPl
  3
DesignerAssemblies
 90
    32768
280
     1
281
     0
  0
CLASS
  1
ACCMDISTPTLN
  2
AcCmDistPtLn
  3
DesignerAssemblies
 90
    32768
280
     1
281
     0
  0
CLASS
  1
ACCMDISTLNLN
  2
AcCmDistLnLn
  3
DesignerAssemblies
 90
    32768
280
     1
281
     0
  0
CLASS
  1
ADACADDIACNS
  2
AcAdAcadDiameterConstr
  3
DesignerServices
 90
    32768
280
     1
281
     0
  0
CLASS
  1
ACADCIRCDEPID
  2
AcAdVirtualCircleDepId
  3
DesignerServices
 90
    32768
280
     1
281
     0
  0
CLASS
  1
ACADPARTAXISRES
  2
AcAdPartAxisRes
  3
AdGrefServices
 90
    32768
280
     1
281
     0
  0
CLASS
  1
ACADPARTDATUMPLANERES
  2
AcAdPartDatumPlaneRes
  3
AdGrefServices
 90
    32768
280
     1
281
     0
  0
CLASS
  1
ADCONCCNS
  2
AcAdConcentricConstr
  3
DesignerServices
 90
    32768
280
     1
281
     0
  0
CLASS
  1
ACADPARTSPLINEEDGERES
  2
AcAdPartSplineEdgeRes
  3
AdGrefServices
 90
    32768
280
     1
281
     0
  0
CLASS
  1
ACADPARTCONICALFACERES
  2
AcAdPartConicalFaceRes
  3
AdGrefServices
 90
    32768
280
     1
281
     0
  0
CLASS
  1
ACMEROTATIONARROW
  2
AcImRotationArrowDisplay
  3
AcMeServices
 90
    32768
280
     1
281
     1
  0
CLASS
  1
ACCMINSERTPLPL
  2
AcCmInsertPlPl
  3
AcCmServices
 90
    32768
280
     1
281
     0
  0
CLASS
  1
ADACADANGCNS
  2
AcAdAcadAngleConstr
  3
DesignerServices
 90
    32768
280
     1
281
     0
  0
CLASS
  1
AMDTEXTERNALTHREAD
  2
AmdtExternalThreadFeat
  3
DesignerServices
 90
    32768
280
     1
281
     0
  0
CLASS
  1
THREADDISPLAY
  2
AcAdThreadDisplay
  3
DesignerServices
 90
    32768
280
     1
281
     1
  0
CLASS
  1
DATUMPLANEDISPLAY
  2
AcAdDatumPlaneDisplay
  3
DesignerServices
 90
    32768
280
     1
281
     1
  0
CLASS
  1
ADWORKPOINTDISPLAY
  2
AcAdWorkPointDisplay
  3
DesignerServices
 90
    32768
280
     1
281
     1
  0
CLASS
  1
NEWSTDPARTPARLIST
  2
AmgNewParListFiler
  3
"AmgParList|Product Description: AutoCAD Mechanical 2000|Company: Autodesk"
 90
    35839
280
     1
281
     0
  0
CLASS
  1
ADEXTRUSIONBLIND
  2
AcAdExtrusionBlind
  3
DesignerServices
 90
    32768
280
     1
281
     0
  0
CLASS
  1
ADEXTRUSIONTHRU
  2
AcAdExtrusionThru
  3
DesignerServices
 90
    32768
280
     1
281
     0
  0
CLASS
  1
ADDATUMPLANEOFFSET
  2
AcAdDatumPlaneOffset
  3
DesignerServices
 90
    32768
280
     1
281
     0
  0
CLASS
  1
ADVIRTUALPOINTWORKPOINTFREE
  2
AcAdVirtualPointWorkPointFree
  3
DesignerServices
 90
    32768
280
     1
281
     0
  0
CLASS
  1
ADWORKPOINTSKETCH
  2
AcAdWorkPointSketch
  3
DesignerServices
 90
    32768
280
     1
281
     0
  0
CLASS
  1
ACADBOUNDEDLINEDATUMID
  2
AcAdVirtualBoundedLineDatumId
  3
DesignerServices
 90
    32768
280
     1
281
     0
  0
CLASS
  1
ACRFATTGENMGR
  2
AcRfAttGeneralMgr
  3
AcAttribServices
 90
    32768
280
     1
281
     0
  0
CLASS
  1
ACRFOBJATTMGR
  2
AcRfObjAttGroupMgr
  3
AcAttribServices
 90
    32768
280
     1
281
     0
  0
CLASS
  1
ACAMEXTERNALCOMPDEF
  2
AcAmExternalCompDef
  3
DesignerAssemblies
 90
    32768
280
     1
281
     0
  0
CLASS
  1
ACRFMCADAPIATTHOLDER
  2
AcRfMCADAPIAttHolder
  3
AcAttribServices
 90
    32768
280
     1
281
     0
  0
CLASS
  1
AMDTSYSATTR
  2
AmdtSystemAttribute
  3
AcAttribServices
 90
    32768
280
     1
281
     0
  0
CLASS
  1
ADSURFGEOMID
  2
AcAdSurfGeomId
  3
DesignerServices
 90
    32768
280
     1
281
     0
  0
CLASS
  1
ADDATUMAXISCENTER
  2
AcAdDatumAxisCenter
  3
DesignerServices
 90
    32768
280
     1
281
     0
  0
CLASS
  1
ADDATUMPOINTAXISPLANE
  2
AcAdDatumPointAxisPlane
  3
DesignerServices
 90
    32768
280
     1
281
     0
  0
CLASS
  1
FEEDBACK
  2
AcAmFeedback
  3
DesignerAssemblies
 90
    32768
280
     1
281
     1
  0
CLASS
  1
ACAMTRIAXISSYMBOL
  2
AcAmTriAxisSymbol
  3
DesignerAssemblies
 90
    32768
280
     1
281
     0
  0
CLASS
  1
ACAMROTVECTORSYMBOL
  2
AcAmRotVectorSymbol
  3
DesignerAssemblies
 90
    32768
280
     1
281
     0
  0
CLASS
  1
ACAMVECTORSYMBOL
  2
AcAmVectorSymbol
  3
DesignerAssemblies
 90
    32768
280
     1
281
     0
  0
CLASS
  1
ACAMTEXTCIRCLESYMBOL
  2
AcAmTextCircleSymbol
  3
DesignerAssemblies
 90
    32768
280
     1
281
     0
  0
CLASS
  1
ACADSKETCHCIRCARCRES
  2
AcAdSketchCircArcRes
  3
DesignerServices
 90
    32768
280
     1
281
     0
  0
CLASS
  1
AMDT_ORDINATE_DIM
  2
AmdtOrdinateDimension
  3
AcMeServices
 90
    32768
280
     1
281
     1
  0
CLASS
  1
DATUMAXISDISPLAY
  2
AcAdDatumAxisDisplay
  3
DesignerServices
 90
    32768
280
     1
281
     1
  0
CLASS
  1
ADFEATPOLRARRAY
  2
AcAdPolarFeatArray
  3
DesignerServices
 90
    32768
280
     1
281
     0
  0
CLASS
  1
ACAMXREFCONTEXTMODELER
  2
AcAmXrefContextModeler
  3
DesignerAssemblies
 90
    32768
280
     1
281
     0
  0
CLASS
  1
ACADORDORIGPT
  2
AcAdOrdinateOriginPoint
  3
DesignerServices
 90
    32768
280
     1
281
     0
  0
CLASS
  1
ADORDBASECNS
  2
AcAdOrdinateBaseConstr
  3
DesignerServices
 90
    32768
280
     1
281
     0
  0
CLASS
  1
ADYORDDISTCNS
  2
AcAdYOrdinateDistanceConstr
  3
DesignerServices
 90
    32768
280
     1
281
     0
  0
CLASS
  1
CNRREFID
  2
AcAdCornerId
  3
DesignerServices
 90
    32768
280
     1
281
     0
  0
CLASS
  1
ACADPARTPOINTRES
  2
AcAdPartPointRes
  3
AdGrefServices
 90
    32768
280
     1
281
     0
  0
CLASS
  1
ADACADRADCNS
  2
AcAdAcadRadiusConstr
  3
DesignerServices
 90
    32768
280
     1
281
     0
  0
CLASS
  1
ELLREFID
  2
AcAdEllipseRefId
  3
DesignerServices
 90
    32768
280
     1
281
     0
  0
CLASS
  1
ACADELLDEPID
  2
AcAdVirtualEllipseDepId
  3
DesignerServices
 90
    32768
280
     1
281
     0
  0
CLASS
  1
ACADCONSELL
  2
AcAdConstrainedEllipse
  3
DesignerServices
 90
    32768
280
     1
281
     0
  0
CLASS
  1
DEPEDGEPATTERNFEATURE
  2
AcAdDepEdgePatternFeature
  3
DesignerServices
 90
    32768
280
     1
281
     0
  0
CLASS
  1
ACADPATTNFEAT
  2
AcAdPatternFeat
  3
DesignerServices
 90
    32768
280
     1
281
     0
  0
CLASS
  1
DEPEDGEPATTERNINSTANCE
  2
AcAdDepEdgePatternInstance
  3
DesignerServices
 90
    32768
280
     1
281
     0
  0
CLASS
  1
ACCMDISTPTPL
  2
AcCmDistPtPl
  3
DesignerAssemblies
 90
    32768
280
     1
281
     0
  0
CLASS
  1
ACAMROTAXISSYMBOL
  2
AcAmRotAxisSymbol
  3
DesignerAssemblies
 90
    32768
280
     1
281
     0
  0
CLASS
  1
ADPROJCNS
  2
AcAdProjectionConstr
  3
DesignerServices
 90
    32768
280
     1
281
     0
  0
CLASS
  1
ADPERPCNS
  2
AcAdPerpendicularConstr
  3
DesignerServices
 90
    32768
280
     1
281
     0
  0
CLASS
  1
ADFEATUREDISPLAY
  2
AcImFeatureDisplay
  3
ACME_MODULE_NAME
 90
    32768
280
     1
281
     1
  0
CLASS
  1
ADDATUMAXISELLIPTICALFACE
  2
AcAdDatumAxisEllipticalFace
  3
DesignerServices
 90
    32768
280
     1
281
     0
  0
CLASS
  1
ACMETAPERCONE
  2
AcImTaperConeDisplay
  3
AcMeServices
 90
    32768
280
     1
281
     1
  0
CLASS
  1
ACADFACETAPERFEAT
  2
AcAdFaceTaperFeat
  3
DesignerServices
 90
    32768
280
     1
281
     0
  0
CLASS
  1
AM_VIEW_SELECT_FILTER
  2
AcDmSelectViewEntFilter
  3
AcMechDwgViewMgmt
 90
    32768
280
     1
281
     0
  0
CLASS
  1
AMACTIVEPARTSELECTFILTER
  2
AcDmActivePartViewEntFilter
  3
DesignerServices
 90
    32768
280
     1
281
     0
  0
CLASS
  1
AM_GREF_PLANE
  2
AcDmGrefPlnDef
  3
AcMechDwgViewMgmt
 90
    32768
280
     1
281
     0
  0
CLASS
  1
AM_GREF_AXIS
  2
AcDmGrefAxisDef
  3
AcMechDwgViewMgmt
 90
    32768
280
     1
281
     0
  0
CLASS
  1
AM_BASE_VIEW_ORIENT
  2
AcDmBaseViewOr
  3
AcMechDwgViewMgmt
 90
    32768
280
     1
281
     0
  0
CLASS
  1
AM_DWG_VIEWPORT
  2
AcDmViewport
  3
AcMechDwgViewMgmt
 90
    32768
280
     1
281
     0
  0
CLASS
  1
AM_VIEW_DISPLAY
  2
AcDmDwgViewDisplay
  3
AcMechDwgViewMgmt
 90
    32768
280
     1
281
     0
  0
CLASS
  1
AM_CLDFLTS
  2
AcDmClDflts
  3
AcMechDwgViewMgmt
 90
    32768
280
     1
281
     0
  0
CLASS
  1
AM_BASE_VIEW
  2
AcDmBaseView
  3
AcMechDwgViewMgmt
 90
    32768
280
     1
281
     0
  0
CLASS
  1
ACDMPARTVIEWDATA
  2
AcDmPartViewData
  3
AcMechDwgViewMgmt
 90
    32768
280
     1
281
     0
  0
CLASS
  1
ACDMDISPLAYATTRIBS
  2
AcDmDisplayAttribs
  3
AcMechDwgViewMgmt
 90
    32768
280
     1
281
     0
  0
CLASS
  1
ACDMBODYINSTANCEDATA
  2
AcDmBodyInstanceData
  3
AcMechDwgViewMgmt
 90
    32768
280
     1
281
     0
  0
CLASS
  1
ACDMVWEDELLIPSE
  2
AcDmViewEdgeEllipse
  3
AcMechDwgViewMgmt
 90
    32768
280
     1
281
     1
  0
CLASS
  1
ACDMVWEDLINE
  2
AcDmViewEdgeLine
  3
AcMechDwgViewMgmt
 90
    32768
280
     1
281
     1
  0
CLASS
  1
ACDMVWEDSPLINE
  2
AcDmViewEdgeSpline
  3
AcMechDwgViewMgmt
 90
    32768
280
     1
281
     1
  0
CLASS
  1
ACDMVWEDCIRC
  2
AcDmViewEdgeCircle
  3
AcMechDwgViewMgmt
 90
    32768
280
     1
281
     1
  0
CLASS
  1
ACDMVWEDARC
  2
AcDmViewEdgeArc
  3
AcMechDwgViewMgmt
 90
    32768
280
     1
281
     1
  0
CLASS
  1
AM_ADCIRCTRLINE
  2
AcAdBullsEyeCl
  3
DesignerServices
 90
    32768
280
     1
281
     0
  0
CLASS
  1
AM_ADLINCTRLINE
  2
AcAdLineCl
  3
DesignerServices
 90
    32768
280
     1
281
     0
  0
CLASS
  1
AD_LINETAPH
  2
AcAdTapHoleLineDisp
  3
DesignerServices
 90
    32768
280
     1
281
     0
  0
CLASS
  1
AD_CIRCTAPH
  2
AcAdTapHoleCircDisp
  3
DesignerServices
 90
    32768
280
     1
281
     0
  0
CLASS
  1
ACDMVIEWGEOM
  2
AcDmViewGeometry
  3
AcMechDwgViewMgmt
 90
    32768
280
     1
281
     1
  0
CLASS
  1
AM_ORTHO_VIEW_ORIENT
  2
AcDmOrthoViewOr
  3
AcMechDwgViewMgmt
 90
    32768
280
     1
281
     0
  0
CLASS
  1
AM_ORTHO_VIEW
  2
AcDmOrthoView
  3
AcMechDwgViewMgmt
 90
    32768
280
     1
281
     0
  0
CLASS
  1
ACDMVISEDIT
  2
AcDmViewEntityVisEdit
  3
AcMechDwgViewMgmt
 90
    32768
280
     1
281
     0
  0
CLASS
  1
SILEDGEID
  2
AcAdSilhouetteEdgeId
  3
DesignerServices
 90
    32768
280
     1
281
     0
  0
CLASS
  1
AM_VIEWDIMLINEAR
  2
AcDmViewDimLinear
  3
AcMechDwgViewMgmt
 90
    32768
280
     1
281
     0
  0
CLASS
  1
ACDMGREFEDIT
  2
AcDmViewEntityGeomrefEdit
  3
AcMechDwgViewMgmt
 90
    32768
280
     1
281
     0
  0
CLASS
  1
ACDMVIEWARCEDGERES
  2
AcDmViewArcEdgeRes
  3
AcMechDwgViewMgmt
 90
    32768
280
     1
281
     0
  0
CLASS
  1
ACADPARTELLIPSEEDGERES
  2
AcAdPartEllipseEdgeRes
  3
AdGrefServices
 90
    32768
280
     1
281
     0
  0
CLASS
  1
ACADPARTSKETCHPLANEAXISRES
  2
AcAdPartSketchPlaneAxisRes
  3
DesignerServices
 90
    32768
280
     1
281
     0
  0
CLASS
  1
AM_VIEWDIMPARALLEL
  2
AcDmViewDimParallel
  3
AcMechDwgViewMgmt
 90
    32768
280
     1
281
     0
  0
CLASS
  1
AMDTDMPARMAPDATA
  2
AmdtDmDimParMapData
  3
AcMechDwgViewMgmt
 90
    32768
280
     1
281
     0
  0
CLASS
  1
ACADPARTDATUMPOINTRES
  2
AcAdPartDatumPointRes
  3
AdGrefServices
 90
    32768
280
     1
281
     0
  0
CLASS
  1
AM_VIEWDIMDIAMETER
  2
AcDmViewDimDiameter
  3
AcMechDwgViewMgmt
 90
    32768
280
     1
281
     0
  0
CLASS
  1
ACADSKETCHLINERES
  2
AcAdSketchLineRes
  3
DesignerServices
 90
    32768
280
     1
281
     0
  0
CLASS
  1
AM_VIEWDIMANGULAR
  2
AcDmViewDimAngular
  3
AcMechDwgViewMgmt
 90
    32768
280
     1
281
     0
  0
CLASS
  1
ACDMVIEWLINEDGERES
  2
AcDmViewLinEdgeRes
  3
AcMechDwgViewMgmt
 90
    32768
280
     1
281
     0
  0
CLASS
  1
ACDBLINERES
  2
AcDbLineRes
  3
AcGrefServices
 90
    32768
280
     1
281
     0
  0
CLASS
  1
AMDTDETAILSYM
  2
AmdtDetailSym
  3
"AcmSymBB|Product Description: AutoCAD Mechanical|Company: Autodesk"
 90
    35839
280
     1
281
     1
  0
CLASS
  1
AM_VWNOTEADAPTER
  2
AcDmViewAnnotAdapter
  3
AcMechDwgViewMgmt
 90
    32768
280
     1
281
     0
  0
CLASS
  1
ACADPARTHOLERES
  2
AcAdPartHoleRes
  3
AdGrefServices
 90
    32768
280
     1
281
     0
  0
CLASS
  1
AM_FULLPLANESECTION
  2
AcDmFullPlaneSection
  3
AcMechDwgViewMgmt
 90
    32768
280
     1
281
     0
  0
CLASS
  1
AMDTSECTIONSYM
  2
AmdtSectionSym
  3
"AcmSymBB|Product Description: AutoCAD Mechanical|Company: Autodesk"
 90
    35839
280
     1
281
     1
  0
CLASS
  1
AMDTSECTIONSYMLABEL
  2
AmdtSectionSymLabel
  3
"AcmSymBB|Product Description: AutoCAD Mechanical|Company: Autodesk"
 90
    35839
280
     1
281
     1
  0
CLASS
  1
AM_ISO_VIEW_ORIENT
  2
AcDmIsoViewOr
  3
AcMechDwgViewMgmt
 90
    32768
280
     1
281
     0
  0
CLASS
  1
AM_ISO_VIEW
  2
AcDmIsoView
  3
AcMechDwgViewMgmt
 90
    32768
280
     1
281
     0
  0
CLASS
  1
ACAMVIEWREACTOR
  2
AcAmViewReactor
  3
DesignerAssemblies
 90
    32768
280
     1
281
     0
  0
CLASS
  1
AMVIEW
  2
AcAmView
  3
DesignerAssemblies
 90
    32768
280
     1
281
     0
  0
CLASS
  1
ACAMVIEWCONTEXT
  2
AcAmViewContext
  3
DesignerAssemblies
 90
    32768
280
     1
281
     0
  0
CLASS
  1
ACAMCOMPENTVIEW
  2
AcAmCompEntView
  3
DesignerAssemblies
 90
    32768
280
     1
281
     1
  0
CLASS
  1
ACAMCOMPVIEWREACTOR
  2
AcAmGrCompViewReactor
  3
DesignerAssemblies
 90
    32768
280
     1
281
     0
  0
CLASS
  1
ACAMEXPLODETWEAK
  2
AcAmExplodeTweak
  3
DesignerAssemblies
 90
    32768
280
     1
281
     0
  0
CLASS
  1
ACAMTRAIL
  2
AcAmTrail
  3
DesignerAssemblies
 90
    32768
280
     1
281
     0
  0
CLASS
  1
ACAMVECTORTWEAK
  2
AcAmVectorTweak
  3
DesignerAssemblies
 90
    32768
280
     1
281
     0
  0
CLASS
  1
ACIMLINEARTWEAKDISPLAY
  2
AcImLinearTweakDisplay
  3
DesignerAssemblies
 90
    32768
280
     1
281
     1
  0
CLASS
  1
ACAMVIEWENTITYFILTER
  2
AcAmViewEntityFilter
  3
DesignerAssemblies
 90
    32768
280
     1
281
     0
  0
CLASS
  1
AM_ABS_PLANE
  2
AcDmAbsPlnDef
  3
AcMechDwgViewMgmt
 90
    32768
280
     1
281
     0
  0
CLASS
  1
AM_ABS_AXIS
  2
AcDmAbsAxisDef
  3
AcMechDwgViewMgmt
 90
    32768
280
     1
281
     0
  0
CLASS
  1
ACMBOM
  2
AcmBom
  3
"AcmSymBB|Product Description: AutoCAD Mechanical|Company: Autodesk"
 90
    32768
280
     1
281
     0
  0
CLASS
  1
ACMBOMROW
  2
AcmBomRow
  3
"AcmSymBB|Product Description: AutoCAD Mechanical|Company: Autodesk"
 90
    32768
280
     1
281
     0
  0
CLASS
  1
ACMBALLOON
  2
AcmBalloon
  3
"AcmSymBB|Product Description: AutoCAD Mechanical|Company: Autodesk"
 90
    35839
280
     1
281
     1
  0
CLASS
  1
ACMPICKOBJ
  2
AcmPickEnt
  3
"AcmSymBB|Product Description: AutoCAD Mechanical|Company: Autodesk"
 90
    32768
280
     1
281
     1
  0
CLASS
  1
ACDBSOLLINEDGRES
  2
AcDbSolLinEdgRes
  3
AcGrefServices
 90
    32768
280
     1
281
     0
  0
CLASS
  1
MATERIAL
  2
AcDbMaterial
  3
ObjectDBX Classes
 90
     1153
280
     0
281
     0
  0
CLASS
  1
VISUALSTYLE
  2
AcDbVisualStyle
  3
ObjectDBX Classes
 90
     4095
280
     0
281
     0
  0
CLASS
  1
TABLESTYLE
  2
AcDbTableStyle
  3
ObjectDBX Classes
 90
     4095
280
     0
281
     0
  0
CLASS
  1
ACMTAPERSTANDARDJIS
  2
AcmTaperStdJIS
  3
"Amdt_StdImp|Product Description: AutoCAD Mechanical|Company: Autodesk"
 90
    32768
280
     1
281
     0
  0
CLASS
  1
ACMTAPERSTANDARDANSI
  2
AcmTaperStdANSI
  3
"Amdt_StdImp|Product Description: AutoCAD Mechanical|Company: Autodesk"
 90
    32768
280
     1
281
     0
  0
CLASS
  1
ACMTAPERSTANDARDISO
  2
AcmTaperStdISO
  3
"Amdt_StdImp|Product Description: AutoCAD Mechanical|Company: Autodesk"
 90
    32768
280
     1
281
     0
  0
CLASS
  1
SOLID_BACKGROUND
  2
AcDbSolidBackground
  3
SCENEOE
 90
    36863
280
     0
281
     0
  0
CLASS
  1
NPOCOLLECTION
  2
AcDbImpNonPersistentObjectsCollection
  3
ObjectDBX Classes
 90
    33921
280
     0
281
     0
  0
CLASS
  1
SCALE
  2
AcDbScale
  3
ObjectDBX Classes
 90
     1153
280
     0
281
     0
  0
CLASS
  1
MLEADERSTYLE
  2
AcDbMLeaderStyle
  3
ACDB_MLEADERSTYLE_CLASS
 90
    36863
280
     0
281
     0
  0
CLASS
  1
CELLSTYLEMAP
  2
AcDbCellStyleMap
  3
ObjectDBX Classes
 90
     1152
280
     0
281
     0
  0
CLASS
  1
ACDBPLACEHOLDER
  2
AcDbPlaceHolder
  3
ObjectDBX Classes
 90
        0
280
     0
281
     0
  0
CLASS
  1
LAYOUT
  2
AcDbLayout
  3
ObjectDBX Classes
 90
        0
280
     0
281
     0
  0
CLASS
  1
SORTENTSTABLE
  2
AcDbSortentsTable
  3
ObjectDBX Classes
 90
        0
280
     0
281
     0
  0
ENDSEC
  0
SECTION
  2
TABLES
  0
TABLE
  2
VPORT
  5
25
330
0
100
AcDbSymbolTable
 70
     1
  0
VPORT
  5
26
330
25
100
AcDbSymbolTableRecord
100
AcDbViewportTableRecord
  2
*Active
 70
     0
 10
0.0
 20
0.0
 11
1.0
 21
1.0
 12
0.0
 22
0.0
 13
0.0
 23
0.0
 14
2.5
 24
2.5
 15
10.0
 25
10.0
 16
0.0
 26
0.0
 36
4303.503274760458
 17
1376.443114336123
 27
256.4180220958442
 37
0.0
 40
1268.500130963261
 41
2.240398293029871
 42
50.0
 43
0.0
 44
0.0
 50
0.0
 51
0.0
 71
     0
 72
   100
 73
     1
 74
     0
 75
     0
 76
     0
 77
     0
 78
     0
281
     4
 65
     0
110
0.0
120
0.0
130
0.0
111
1.0
121
0.0
131
0.0
112
0.0
122
1.0
132
0.0
 79
     0
146
0.0
1001
ACAD_NAV_VCDISPLAY
1070
     3
  0
ENDTAB
  0
TABLE
  2
LTYPE
  5
20
330
0
100
AcDbSymbolTable
 70
     2
  0
LTYPE
  5
21
330
20
100
AcDbSymbolTableRecord
100
AcDbLinetypeTableRecord
  2
ByBlock
 70
     0
  3

 72
    65
 73
     0
 40
0.0
  0
LTYPE
  5
22
330
20
100
AcDbSymbolTableRecord
100
AcDbLinetypeTableRecord
  2
ByLayer
 70
     0
  3

 72
    65
 73
     0
 40
0.0
  0
LTYPE
  5
11
330
20
100
AcDbSymbolTableRecord
100
AcDbLinetypeTableRecord
  2
Continuous
 70
     0
  3
Solid line
 72
    65
 73
     0
 40
0.0
  0
LTYPE
  5
90
330
20
100
AcDbSymbolTableRecord
100
AcDbLinetypeTableRecord
  2
CENTER
 70
     0
  3
Center ____ _ ____ _ ____ _ ____ _ ____ _ ____
 72
    65
 73
     4
 40
50.8
 49
31.75
 74
     0
 49
-6.349999999999997
 74
     0
 49
6.349999999999997
 74
     0
 49
-6.349999999999997
 74
     0
  0
ENDTAB
  0
TABLE
  2
LAYER
  5
19
102
{ACAD_XDICTIONARY
360
1A
102
}
330
0
100
AcDbSymbolTable
 70
     1
  0
LAYER
  5
6
102
{ACAD_XDICTIONARY
360
7
102
}
330
19
100
AcDbSymbolTableRecord
100
AcDbLayerTableRecord
  2
0
 70
     0
 62
     7
  6
Continuous
370
    -3
390
9
  0
ENDTAB
  0
TABLE
  2
STYLE
  5
1D
330
0
100
AcDbSymbolTable
 70
     2
  0
STYLE
  5
1E
330
1D
100
AcDbSymbolTableRecord
100
AcDbTextStyleTableRecord
  2
STANDARD
 70
     0
 40
0.0
 41
1.0
 50
0.0
 71
     0
 42
2.5
  3
ISOCP.SHX
  4
EXTFONT.SHX
  0
STYLE
  5
2E
330
1D
100
AcDbSymbolTableRecord
100
AcDbTextStyleTableRecord
  2
CHINO
 70
     0
 40
0.0
 41
1.0
 50
0.0
 71
     0
 42
3.0
  3
ROMANS.shx
  4
EXTFONT.shx
  0
ENDTAB
  0
TABLE
  2
VIEW
  5
23
330
0
100
AcDbSymbolTable
 70
     0
  0
ENDTAB
  0
TABLE
  2
UCS
  5
24
330
0
100
AcDbSymbolTable
 70
     0
  0
ENDTAB
  0
TABLE
  2
APPID
  5
2B
330
0
100
AcDbSymbolTable
 70
     4
  0
APPID
  5
29
330
2B
100
AcDbSymbolTableRecord
100
AcDbRegAppTableRecord
  2
ACAD
 70
     0
  0
APPID
  5
91
330
2B
100
AcDbSymbolTableRecord
100
AcDbRegAppTableRecord
  2
GENIUS_GENODEF_13
 70
     0
  0
APPID
  5
92
330
2B
100
AcDbSymbolTableRecord
100
AcDbRegAppTableRecord
  2
GENIUS_GENOBJ-N-CEN_13
 70
     0
  0
APPID
  5
2A
330
2B
100
AcDbSymbolTableRecord
100
AcDbRegAppTableRecord
  2
ACAD_NAV_VCDISPLAY
 70
     0
  0
ENDTAB
  0
TABLE
  2
DIMSTYLE
  5
2C
330
0
100
AcDbSymbolTable
 70
     2
100
AcDbDimStyleTable
 71
     2
340
2D
340
35
  0
DIMSTYLE
105
2D
330
2C
100
AcDbSymbolTableRecord
100
AcDbDimStyleTableRecord
  2
AM_JIS
 70
     0
  4
"
 41
2.0
 42
0.5
 43
8.0
 44
0.5
 47
0.1
 48
0.1
 73
     0
 74
     0
 77
     3
 78
     8
 79
     2
140
3.0
141
0.0
143
0.0393701
146
0.71
147
0.5
172
     1
176
   256
177
   256
178
     2
271
     2
272
     2
283
     0
284
     8
340
2E
341
2F
342
2F
371
    -1
372
    -1
  0
DIMSTYLE
105
35
330
2C
100
AcDbSymbolTableRecord
100
AcDbDimStyleTableRecord
  2
STANDARD
 70
     0
 41
2.0
 42
1.0
 43
8.0
 44
2.0
 73
     0
 74
     0
 77
     3
 78
     8
 79
     2
140
3.0
147
1.0
172
     1
176
   256
177
   256
178
   256
179
     2
271
     2
272
     2
289
     0
340
1E
341
36
342
36
371
    -1
372
    -1
  0
ENDTAB
  0
TABLE
  2
BLOCK_RECORD
  5
1
330
0
100
AcDbSymbolTable
 70
     2
  0
BLOCK_RECORD
  5
2
102
{ACAD_XDICTIONARY
360
3
102
}
330
1
100
AcDbSymbolTableRecord
100
AcDbBlockTableRecord
  2
*Model_Space
340
13
  0
BLOCK_RECORD
  5
15
330
1
100
AcDbSymbolTableRecord
100
AcDbBlockTableRecord
  2
*Paper_Space
340
18
  0
BLOCK_RECORD
  5
2F
330
1
100
AcDbSymbolTableRecord
100
AcDbBlockTableRecord
  2
_Open30
340
0
  0
BLOCK_RECORD
  5
36
330
1
100
AcDbSymbolTableRecord
100
AcDbBlockTableRecord
  2
_OPEN
340
0
  0
ENDTAB
  0
ENDSEC
  0
SECTION
  2
BLOCKS
  0
BLOCK
  5
5
330
2
100
AcDbEntity
  8
0
100
AcDbBlockBegin
  2
*Model_Space
 70
     0
 10
0.0
 20
0.0
 30
0.0
  3
*Model_Space
  1

  0
ENDBLK
  5
12
330
2
100
AcDbEntity
  8
0
100
AcDbBlockEnd
  0
BLOCK
  5
16
330
15
100
AcDbEntity
 67
     1
  8
0
100
AcDbBlockBegin
  2
*Paper_Space
 70
     0
 10
0.0
 20
0.0
 30
0.0
  3
*Paper_Space
  1

  0
ENDBLK
  5
17
330
15
100
AcDbEntity
 67
     1
  8
0
100
AcDbBlockEnd
  0
BLOCK
  5
30
330
2F
100
AcDbEntity
  8
0
100
AcDbBlockBegin
  2
_Open30
 70
     0
 10
0.0
 20
0.0
 30
0.0
  3
_Open30
  1

  0
LINE
  5
31
330
2F
100
AcDbEntity
  8
0
  6
ByBlock
 62
     0
370
    -2
100
AcDbLine
 10
-1.0
 20
0.26794919
 30
0.0
 11
0.0
 21
0.0
 31
0.0
  0
LINE
  5
32
330
2F
100
AcDbEntity
  8
0
  6
ByBlock
 62
     0
370
    -2
100
AcDbLine
 10
0.0
 20
0.0
 30
0.0
 11
-1.0
 21
-0.26794919
 31
0.0
  0
LINE
  5
33
330
2F
100
AcDbEntity
  8
0
  6
ByBlock
 62
     0
370
    -2
100
AcDbLine
 10
0.0
 20
0.0
 30
0.0
 11
-1.0
 21
0.0
 31
0.0
  0
ENDBLK
  5
34
330
2F
100
AcDbEntity
  8
0
100
AcDbBlockEnd
  0
BLOCK
  5
37
330
36
100
AcDbEntity
  8
0
100
AcDbBlockBegin
  2
_OPEN
 70
     0
 10
0.0
 20
0.0
 30
0.0
  3
_OPEN
  1

  0
LINE
  5
38
330
36
100
AcDbEntity
  8
0
  6
ByBlock
 62
     0
100
AcDbLine
 10
-1.0
 20
0.1666666666666666
 30
0.0
 11
0.0
 21
0.0
 31
0.0
  0
LINE
  5
39
330
36
100
AcDbEntity
  8
0
  6
ByBlock
 62
     0
100
AcDbLine
 10
0.0
 20
0.0
 30
0.0
 11
-1.0
 21
-0.1666666666666666
 31
0.0
  0
LINE
  5
3A
330
36
100
AcDbEntity
  8
0
  6
ByBlock
 62
     0
100
AcDbLine
 10
0.0
 20
0.0
 30
0.0
 11
-1.0
 21
0.0
 31
0.0
  0
ENDBLK
  5
3B
330
36
100
AcDbEntity
  8
0
100
AcDbBlockEnd
  0
ENDSEC
  0
SECTION
  2
ENTITIES
  0
ARC
  5
60
330
2
100
AcDbEntity
  8
0
  6
Continuous
 62
     7
100
AcDbCircle
 10
197.2899688400341
 20
574.7403663832463
 30
0.0
 40
1.585999999999999
100
AcDbArc
 50
260.0
 51
190.0
  0
ARC
  5
61
330
2
100
AcDbEntity
  8
0
  6
Continuous
 62
     7
100
AcDbCircle
 10
197.2899688400341
 20
409.7403663832464
 30
0.0
 40
1.585999999999999
100
AcDbArc
 50
260.0
 51
190.0
  0
LINE
  5
62
330
2
100
AcDbEntity
  8
0
  6
Continuous
 62
     7
100
AcDbLine
 10
832.9808194857296
 20
402.7403663832464
 30
0.0
 11
835.9808194857299
 21
402.7403663832464
 31
0.0
  0
LINE
  5
63
330
2
100
AcDbEntity
  8
0
  6
Continuous
 62
     7
100
AcDbLine
 10
835.9808194857299
 20
402.7403663832464
 30
0.0
 11
835.9808194857299
 21
581.7403663832465
 31
0.0
  0
LINE
  5
64
330
2
100
AcDbEntity
  8
0
  6
Continuous
 62
     7
100
AcDbLine
 10
835.9808194857299
 20
581.7403663832463
 30
0.0
 11
832.9808194857296
 21
581.7403663832463
 31
0.0
  0
LINE
  5
65
330
2
100
AcDbEntity
  8
0
  6
Continuous
 62
     7
100
AcDbLine
 10
832.9808194857296
 20
581.7403663832463
 30
0.0
 11
832.9808194857296
 21
402.7403663832461
 31
0.0
  0
LINE
  5
66
330
2
100
AcDbEntity
  8
0
  6
Continuous
 62
     7
100
AcDbLine
 10
832.9808194857296
 20
402.7403663832464
 30
0.0
 11
797.9808194857296
 21
402.7403663832464
 31
0.0
  0
LINE
  5
67
330
2
100
AcDbEntity
  8
0
  6
Continuous
 62
     7
100
AcDbLine
 10
797.9808194857296
 20
581.7403663832464
 30
0.0
 11
832.9808194857296
 21
581.7403663832464
 31
0.0
  0
LINE
  5
68
330
2
100
AcDbEntity
  8
0
  6
Continuous
 62
     7
100
AcDbLine
 10
390.9808194857299
 20
581.7403663832465
 30
0.0
 11
387.9808194857299
 21
581.7403663832465
 31
0.0
  0
LINE
  5
69
330
2
100
AcDbEntity
  8
0
  6
Continuous
 62
     7
100
AcDbLine
 10
450.4808194857298
 20
159.4040847597776
 30
0.0
 11
443.4808194857299
 21
159.4040847597776
 31
0.0
  0
LINE
  5
6A
330
2
100
AcDbEntity
  8
0
  6
Continuous
 62
     7
100
AcDbLine
 10
427.1808194857299
 20
171.8040847597776
 30
0.0
 11
427.1808194857299
 21
176.6040847597776
 31
0.0
  0
CIRCLE
  5
6B
330
2
100
AcDbEntity
  8
0
  6
Continuous
 62
     7
100
AcDbCircle
 10
562.9808194857297
 20
192.2040847597776
 30
0.0
 40
2.749999999999979
  0
LINE
  5
6C
330
2
100
AcDbEntity
  8
0
  6
Continuous
 62
     7
100
AcDbLine
 10
553.48081948573
 20
159.4040847597776
 30
0.0
 11
553.48081948573
 21
162.2040847597776
 31
0.0
  0
LINE
  5
6D
330
2
100
AcDbEntity
  8
0
  6
Continuous
 62
     7
100
AcDbLine
 10
560.4808194857298
 20
159.4040847597776
 30
0.0
 11
560.4808194857298
 21
162.2040847597776
 31
0.0
  0
LINE
  5
6E
330
2
100
AcDbEntity
  8
0
  6
Continuous
 62
     7
100
AcDbLine
 10
556.9215461274011
 20
162.2040847597776
 30
0.0
 11
557.1851327471684
 21
162.2040847597776
 31
0.0
  0
LINE
  5
6F
330
2
100
AcDbEntity
  8
0
  6
Continuous
 62
     7
100
AcDbLine
 10
560.4808194857298
 20
159.4040847597776
 30
0.0
 11
553.4808194857298
 21
159.4040847597776
 31
0.0
  0
CIRCLE
  5
70
330
2
100
AcDbEntity
  8
0
  6
Continuous
 62
     7
100
AcDbCircle
 10
660.9808194857297
 20
192.2040847597776
 30
0.0
 40
2.749999999999979
  0
LINE
  5
71
330
2
100
AcDbEntity
  8
0
  6
Continuous
 62
     7
100
AcDbLine
 10
663.4808194857297
 20
159.4040847597776
 30
0.0
 11
663.4808194857297
 21
162.2040847597776
 31
0.0
  0
LINE
  5
72
330
2
100
AcDbEntity
  8
0
  6
Continuous
 62
     7
100
AcDbLine
 10
670.4808194857299
 20
159.4040847597776
 30
0.0
 11
670.4808194857299
 21
162.2040847597776
 31
0.0
  0
LINE
  5
73
330
2
100
AcDbEntity
  8
0
  6
Continuous
 62
     7
100
AcDbLine
 10
666.9215461274013
 20
162.2040847597776
 30
0.0
 11
667.1851327471686
 21
162.2040847597776
 31
0.0
  0
LINE
  5
74
330
2
100
AcDbEntity
  8
0
  6
Continuous
 62
     7
100
AcDbLine
 10
670.4808194857299
 20
159.4040847597776
 30
0.0
 11
663.4808194857297
 21
159.4040847597776
 31
0.0
  0
LINE
  5
75
330
2
100
AcDbEntity
  8
0
  6
Continuous
 62
     7
100
AcDbLine
 10
773.48081948573
 20
159.4040847597776
 30
0.0
 11
773.48081948573
 21
162.2040847597776
 31
0.0
  0
LINE
  5
76
330
2
100
AcDbEntity
  8
0
  6
Continuous
 62
     7
100
AcDbLine
 10
780.4808194857296
 20
159.4040847597776
 30
0.0
 11
780.4808194857296
 21
162.2040847597776
 31
0.0
  0
LINE
  5
77
330
2
100
AcDbEntity
  8
0
  6
Continuous
 62
     7
100
AcDbLine
 10
776.9215461274012
 20
162.2040847597776
 30
0.0
 11
777.1851327471687
 21
162.2040847597776
 31
0.0
  0
LINE
  5
78
330
2
100
AcDbEntity
  8
0
  6
Continuous
 62
     7
100
AcDbLine
 10
780.4808194857296
 20
159.4040847597776
 30
0.0
 11
773.48081948573
 21
159.4040847597776
 31
0.0
  0
LINE
  5
79
330
2
100
AcDbEntity
  8
0
  6
Continuous
 62
     7
100
AcDbLine
 10
796.7808194857297
 20
176.6040847597771
 30
0.0
 11
796.7808194857297
 21
171.8040847597778
 31
0.0
  0
CIRCLE
  5
7A
330
2
100
AcDbEntity
  8
0
  6
Continuous
 62
     7
100
AcDbCircle
 10
406.9808194857299
 20
214.2040847597776
 30
0.0
 40
13.25
  0
CIRCLE
  5
7B
330
2
100
AcDbEntity
  8
0
  6
Continuous
 62
     7
100
AcDbCircle
 10
406.9808194857299
 20
214.2040847597776
 30
0.0
 40
14.25
  0
CIRCLE
  5
7C
330
2
100
AcDbEntity
  8
0
  6
Continuous
 62
     7
100
AcDbCircle
 10
406.9808194857299
 20
214.2040847597776
 30
0.0
 40
17.5
  0
CIRCLE
  5
7D
330
2
100
AcDbEntity
  8
0
  6
Continuous
 62
     7
100
AcDbCircle
 10
521.9808194857298
 20
214.2040847597776
 30
0.0
 40
11.0
  0
CIRCLE
  5
7E
330
2
100
AcDbEntity
  8
0
  6
Continuous
 62
     7
100
AcDbCircle
 10
521.9808194857298
 20
214.2040847597776
 30
0.0
 40
17.75
  0
LINE
  5
7F
330
2
100
AcDbEntity
  8
0
  6
Continuous
 62
     7
100
AcDbLine
 10
427.1808194857299
 20
263.8040847597776
 30
0.0
 11
427.1808194857299
 21
268.6040847597776
 31
0.0
  0
LINE
  5
80
330
2
100
AcDbEntity
  8
0
  6
Continuous
 62
     7
100
AcDbLine
 10
449.7308194857299
 20
275.2040847597777
 30
0.0
 11
449.7308194857299
 21
273.2040847597777
 31
0.0
  0
LINE
  5
81
330
2
100
AcDbEntity
  8
0
  6
Continuous
 62
     7
100
AcDbLine
 10
444.2308194857298
 20
275.2040847597777
 30
0.0
 11
444.2308194857298
 21
273.2040847597777
 31
0.0
  0
LINE
  5
82
330
2
100
AcDbEntity
  8
0
  6
Continuous
 62
     7
100
AcDbLine
 10
444.2308194857298
 20
275.2040847597777
 30
0.0
 11
449.7308194857299
 21
275.2040847597777
 31
0.0
  0
CIRCLE
  5
83
330
2
100
AcDbEntity
  8
0
  6
Continuous
 62
     7
100
AcDbCircle
 10
562.9808194857297
 20
236.2040847597777
 30
0.0
 40
2.749999999999979
  0
CIRCLE
  5
84
330
2
100
AcDbEntity
  8
0
  6
Continuous
 62
     7
100
AcDbCircle
 10
660.9808194857297
 20
236.2040847597777
 30
0.0
 40
2.749999999999979
  0
LINE
  5
85
330
2
100
AcDbEntity
  8
0
  6
Continuous
 62
     7
100
AcDbLine
 10
614.7308194857297
 20
275.2040847597776
 30
0.0
 11
614.7308194857297
 21
273.2040847597776
 31
0.0
  0
LINE
  5
86
330
2
100
AcDbEntity
  8
0
  6
Continuous
 62
     7
100
AcDbLine
 10
609.23081948573
 20
275.2040847597776
 30
0.0
 11
609.23081948573
 21
273.2040847597776
 31
0.0
  0
LINE
  5
87
330
2
100
AcDbEntity
  8
0
  6
Continuous
 62
     7
100
AcDbLine
 10
609.23081948573
 20
275.2040847597776
 30
0.0
 11
614.7308194857297
 21
275.2040847597776
 31
0.0
  0
CIRCLE
  5
88
330
2
100
AcDbEntity
  8
0
  6
Continuous
 62
     7
100
AcDbCircle
 10
816.9808194857296
 20
214.2040847597776
 30
0.0
 40
13.25
  0
CIRCLE
  5
89
330
2
100
AcDbEntity
  8
0
  6
Continuous
 62
     7
100
AcDbCircle
 10
816.9808194857296
 20
214.2040847597776
 30
0.0
 40
14.25
  0
CIRCLE
  5
8A
330
2
100
AcDbEntity
  8
0
  6
Continuous
 62
     7
100
AcDbCircle
 10
816.9808194857296
 20
214.2040847597776
 30
0.0
 40
17.5
  0
LINE
  5
8B
330
2
100
AcDbEntity
  8
0
  6
Continuous
 62
     7
100
AcDbLine
 10
779.7308194857301
 20
275.2040847597776
 30
0.0
 11
779.7308194857301
 21
273.2040847597776
 31
0.0
  0
LINE
  5
8C
330
2
100
AcDbEntity
  8
0
  6
Continuous
 62
     7
100
AcDbLine
 10
774.2308194857296
 20
275.2040847597776
 30
0.0
 11
774.2308194857296
 21
273.2040847597776
 31
0.0
  0
LINE
  5
8D
330
2
100
AcDbEntity
  8
0
  6
Continuous
 62
     7
100
AcDbLine
 10
774.2308194857296
 20
275.2040847597776
 30
0.0
 11
779.73081948573
 21
275.2040847597776
 31
0.0
  0
LINE
  5
8E
330
2
100
AcDbEntity
  8
0
  6
Continuous
 62
     7
100
AcDbLine
 10
796.7808194857297
 20
268.6040847597774
 30
0.0
 11
796.7808194857297
 21
263.8040847597779
 31
0.0
  0
LINE
  5
8F
330
2
100
AcDbEntity
  8
0
  6
CENTER
 62
     4
100
AcDbLine
 10
380.9958194857299
 20
214.2040847597778
 30
0.0
 11
842.9658194857296
 21
214.2040847597777
 31
0.0
1001
GENIUS_GENODEF_13
1002
{
1000
HIER
1070
     0
1002
}
1002
{
1000
MANEDIT
1070
     0
1002
}
1002
{
1000
NOSEL
1070
     0
1002
}
1002
{
1000
BEHIND
1070
     0
1002
}
1002
{
1000
OTHER
1070
     0
1002
}
1002
{
1000
REACTOR
1002
}
1001
GENIUS_GENOBJ-N-CEN_13
1002
{
1000
OWNER
1000
GEN
1002
}
  0
LINE
  5
93
330
2
100
AcDbEntity
  8
0
  6
CENTER
 62
     4
100
AcDbLine
 10
406.9808194857299
 20
239.1890847597777
 30
0.0
 11
406.9808194857299
 21
189.2190847597776
 31
0.0
1001
GENIUS_GENODEF_13
1002
{
1000
HIER
1070
     0
1002
}
1002
{
1000
MANEDIT
1070
     0
1002
}
1002
{
1000
NOSEL
1070
     0
1002
}
1002
{
1000
BEHIND
1070
     0
1002
}
1002
{
1000
OTHER
1070
     0
1002
}
1002
{
1000
REACTOR
1002
}
1001
GENIUS_GENOBJ-N-CEN_13
1002
{
1000
OWNER
1000
GEN
1002
}
  0
LINE
  5
94
330
2
100
AcDbEntity
  8
0
  6
Continuous
 62
     7
 48
0.3
100
AcDbLine
 10
443.2308194857299
 20
163.2040847597776
 30
0.0
 11
450.7308194857299
 21
163.2040847597776
 31
0.0
  0
LINE
  5
95
330
2
100
AcDbEntity
  8
0
  6
Continuous
 62
     7
 48
0.7
100
AcDbLine
 10
443.4808194857299
 20
162.2040847597777
 30
0.0
 11
450.4808194857298
 21
162.2040847597777
 31
0.0
  0
LINE
  5
96
330
2
100
AcDbEntity
  8
0
  6
Continuous
 62
     7
 48
0.7
100
AcDbLine
 10
443.4808194857299
 20
162.2040847597777
 30
0.0
 11
443.4808194857299
 21
163.2040847597776
 31
0.0
  0
LINE
  5
97
330
2
100
AcDbEntity
  8
0
  6
Continuous
 62
     7
 48
0.7
100
AcDbLine
 10
450.4808194857298
 20
162.2040847597777
 30
0.0
 11
450.4808194857298
 21
163.2040847597776
 31
0.0
  0
LINE
  5
98
330
2
100
AcDbEntity
  8
0
  6
CENTER
 62
     4
100
AcDbLine
 10
197.2899688400342
 20
594.7662615980261
 30
0.0
 11
197.2899688400342
 21
394.3085622070628
 31
0.0
1001
GENIUS_GENODEF_13
1002
{
1000
HIER
1070
     0
1002
}
1002
{
1000
MANEDIT
1070
     0
1002
}
1002
{
1000
NOSEL
1070
     0
1002
}
1002
{
1000
BEHIND
1070
     0
1002
}
1002
{
1000
OTHER
1070
     0
1002
}
1002
{
1000
REACTOR
1002
}
1001
GENIUS_GENOBJ-N-CEN_13
1002
{
1000
OWNER
1000
GEN
1002
}
  0
LINE
  5
99
330
2
100
AcDbEntity
  8
0
  6
CENTER
 62
     4
100
AcDbLine
 10
406.9808194857299
 20
395.7553663832479
 30
0.0
 11
406.9808194857299
 21
590.7253663832476
 31
0.0
1001
GENIUS_GENODEF_13
1002
{
1000
HIER
1070
     0
1002
}
1002
{
1000
MANEDIT
1070
     0
1002
}
1002
{
1000
NOSEL
1070
     0
1002
}
1002
{
1000
BEHIND
1070
     0
1002
}
1002
{
1000
OTHER
1070
     0
1002
}
1002
{
1000
REACTOR
1002
}
1001
GENIUS_GENOBJ-N-CEN_13
1002
{
1000
OWNER
1000
GEN
1002
}
  0
LINE
  5
9A
330
2
100
AcDbEntity
  8
0
  6
CENTER
 62
     4
100
AcDbLine
 10
611.9808194857299
 20
282.1890847597779
 30
0.0
 11
611.9808194857299
 21
152.2190847597777
 31
0.0
1001
GENIUS_GENODEF_13
1002
{
1000
HIER
1070
     0
1002
}
1002
{
1000
MANEDIT
1070
     0
1002
}
1002
{
1000
NOSEL
1070
     0
1002
}
1002
{
1000
BEHIND
1070
     0
1002
}
1002
{
1000
OTHER
1070
     0
1002
}
1002
{
1000
REACTOR
1002
}
1001
GENIUS_GENOBJ-N-CEN_13
1002
{
1000
OWNER
1000
GEN
1002
}
  0
LINE
  5
9B
330
2
100
AcDbEntity
  8
0
  6
Continuous
 62
     7
 48
0.3
100
AcDbLine
 10
560.7308194857298
 20
163.2040847597776
 30
0.0
 11
553.2308194857298
 21
163.2040847597776
 31
0.0
  0
LINE
  5
9C
330
2
100
AcDbEntity
  8
0
  6
Continuous
 62
     7
 48
0.7
100
AcDbLine
 10
560.4808194857298
 20
162.2040847597777
 30
0.0
 11
560.4808194857298
 21
163.2040847597776
 31
0.0
  0
LINE
  5
9D
330
2
100
AcDbEntity
  8
0
  6
Continuous
 62
     7
 48
0.7
100
AcDbLine
 10
553.48081948573
 20
162.2040847597777
 30
0.0
 11
553.48081948573
 21
163.2040847597776
 31
0.0
  0
LINE
  5
9E
330
2
100
AcDbEntity
  8
0
  6
Continuous
 62
     7
 48
0.7
100
AcDbLine
 10
553.48081948573
 20
162.2040847597777
 30
0.0
 11
560.4808194857298
 21
162.2040847597777
 31
0.0
  0
LINE
  5
9F
330
2
100
AcDbEntity
  8
0
  6
Continuous
 62
     7
 48
0.3
100
AcDbLine
 10
663.2308194857297
 20
163.2040847597776
 30
0.0
 11
670.7308194857297
 21
163.2040847597776
 31
0.0
  0
LINE
  5
A0
330
2
100
AcDbEntity
  8
0
  6
Continuous
 62
     7
 48
0.7
100
AcDbLine
 10
663.4808194857297
 20
162.2040847597777
 30
0.0
 11
663.4808194857297
 21
163.2040847597776
 31
0.0
  0
LINE
  5
A1
330
2
100
AcDbEntity
  8
0
  6
Continuous
 62
     7
 48
0.7
100
AcDbLine
 10
670.4808194857299
 20
162.2040847597777
 30
0.0
 11
670.4808194857299
 21
163.2040847597776
 31
0.0
  0
LINE
  5
A2
330
2
100
AcDbEntity
  8
0
  6
Continuous
 62
     7
 48
0.7
100
AcDbLine
 10
663.4808194857297
 20
162.2040847597777
 30
0.0
 11
670.4808194857299
 21
162.2040847597777
 31
0.0
  0
LINE
  5
A3
330
2
100
AcDbEntity
  8
0
  6
Continuous
 62
     7
 48
0.3
100
AcDbLine
 10
773.2308194857296
 20
163.2040847597776
 30
0.0
 11
780.7308194857299
 21
163.2040847597776
 31
0.0
  0
LINE
  5
A4
330
2
100
AcDbEntity
  8
0
  6
Continuous
 62
     7
 48
0.7
100
AcDbLine
 10
773.48081948573
 20
162.2040847597777
 30
0.0
 11
780.4808194857296
 21
162.2040847597777
 31
0.0
  0
LINE
  5
A5
330
2
100
AcDbEntity
  8
0
  6
Continuous
 62
     7
 48
0.3
100
AcDbLine
 10
773.48081948573
 20
162.2040847597777
 30
0.0
 11
773.48081948573
 21
163.2040847597776
 31
0.0
  0
LINE
  5
A6
330
2
100
AcDbEntity
  8
0
  6
Continuous
 62
     7
 48
0.7
100
AcDbLine
 10
780.4808194857296
 20
162.2040847597777
 30
0.0
 11
780.4808194857296
 21
163.2040847597776
 31
0.0
  0
LINE
  5
A7
330
2
100
AcDbEntity
  8
0
  6
CENTER
 62
     4
100
AcDbLine
 10
816.9808194857296
 20
239.1890847597777
 30
0.0
 11
816.9808194857296
 21
189.2190847597776
 31
0.0
1001
GENIUS_GENODEF_13
1002
{
1000
HIER
1070
     0
1002
}
1002
{
1000
MANEDIT
1070
     0
1002
}
1002
{
1000
NOSEL
1070
     0
1002
}
1002
{
1000
BEHIND
1070
     0
1002
}
1002
{
1000
OTHER
1070
     0
1002
}
1002
{
1000
REACTOR
1002
}
1001
GENIUS_GENOBJ-N-CEN_13
1002
{
1000
OWNER
1000
GEN
1002
}
  0
LINE
  5
A8
330
2
100
AcDbEntity
  8
0
  6
CENTER
 62
     4
100
AcDbLine
 10
611.9808194857299
 20
596.7253663832467
 30
0.0
 11
611.9808194857299
 21
375.7553663832466
 31
0.0
1001
GENIUS_GENODEF_13
1002
{
1000
HIER
1070
     0
1002
}
1002
{
1000
MANEDIT
1070
     0
1002
}
1002
{
1000
NOSEL
1070
     0
1002
}
1002
{
1000
BEHIND
1070
     0
1002
}
1002
{
1000
OTHER
1070
     0
1002
}
1002
{
1000
REACTOR
1002
}
1001
GENIUS_GENOBJ-N-CEN_13
1002
{
1000
OWNER
1000
GEN
1002
}
  0
LINE
  5
A9
330
2
100
AcDbEntity
  8
0
  6
CENTER
 62
     4
100
AcDbLine
 10
816.9808194857296
 20
395.7553663832482
 30
0.0
 11
816.9808194857294
 21
590.7253663832482
 31
0.0
1001
GENIUS_GENODEF_13
1002
{
1000
HIER
1070
     0
1002
}
1002
{
1000
MANEDIT
1070
     0
1002
}
1002
{
1000
NOSEL
1070
     0
1002
}
1002
{
1000
BEHIND
1070
     0
1002
}
1002
{
1000
OTHER
1070
     0
1002
}
1002
{
1000
REACTOR
1002
}
1001
GENIUS_GENOBJ-N-CEN_13
1002
{
1000
OWNER
1000
GEN
1002
}
  0
LINE
  5
AA
330
2
100
AcDbEntity
  8
0
  6
Continuous
 62
     7
100
AcDbLine
 10
387.9808194857299
 20
581.7403663832465
 30
0.0
 11
387.9808194857298
 21
402.7403663832464
 31
0.0
  0
LINE
  5
AB
330
2
100
AcDbEntity
  8
0
  6
Continuous
 62
     7
100
AcDbLine
 10
387.9808194857298
 20
402.7403663832464
 30
0.0
 11
390.9808194857299
 21
402.7403663832464
 31
0.0
  0
LINE
  5
AC
330
2
100
AcDbEntity
  8
0
  6
Continuous
 62
     7
100
AcDbLine
 10
390.9808194857299
 20
402.7403663832464
 30
0.0
 11
390.9808194857299
 21
581.7403663832465
 31
0.0
  0
LINE
  5
AD
330
2
100
AcDbEntity
  8
0
  6
Continuous
 62
     7
100
AcDbLine
 10
390.9808194857299
 20
581.7403663832465
 30
0.0
 11
425.9808194857297
 21
581.7403663832465
 31
0.0
  0
LINE
  5
AE
330
2
100
AcDbEntity
  8
0
  6
Continuous
 62
     7
100
AcDbLine
 10
425.9808194857297
 20
402.7403663832464
 30
0.0
 11
390.9808194857299
 21
402.7403663832464
 31
0.0
  0
LINE
  5
AF
330
2
100
AcDbEntity
  8
0
  6
Continuous
 62
     7
100
AcDbLine
 10
614.98081948573
 20
589.7403663832464
 30
0.0
 11
614.98081948573
 21
586.9903663832464
 31
0.0
  0
LINE
  5
B0
330
2
100
AcDbEntity
  8
0
  6
Continuous
 62
     7
100
AcDbLine
 10
608.9808194857297
 20
586.9903663832464
 30
0.0
 11
608.9808194857297
 21
589.7403663832464
 31
0.0
  0
LINE
  5
B1
330
2
100
AcDbEntity
  8
0
  6
Continuous
 62
     7
100
AcDbLine
 10
608.9808194857297
 20
589.7403663832465
 30
0.0
 11
614.98081948573
 21
589.7403663832465
 31
0.0
  0
LINE
  5
B2
330
2
100
AcDbEntity
  8
0
  6
Continuous
 62
     7
100
AcDbLine
 10
773.98081948573
 20
382.7403663832463
 30
0.0
 11
773.98081948573
 21
385.4903663832463
 31
0.0
  0
LINE
  5
B3
330
2
100
AcDbEntity
  8
0
  6
Continuous
 62
     7
100
AcDbLine
 10
779.9808194857296
 20
385.4903663832463
 30
0.0
 11
779.9808194857296
 21
382.7403663832463
 31
0.0
  0
LINE
  5
B4
330
2
100
AcDbEntity
  8
0
  6
Continuous
 62
     7
100
AcDbLine
 10
779.9808194857296
 20
382.7403663832464
 30
0.0
 11
773.98081948573
 21
382.7403663832464
 31
0.0
  0
LINE
  5
B5
330
2
100
AcDbEntity
  8
0
  6
Continuous
 62
     7
100
AcDbLine
 10
443.9808194857299
 20
382.7403663832463
 30
0.0
 11
443.9808194857299
 21
385.4903663832463
 31
0.0
  0
LINE
  5
B6
330
2
100
AcDbEntity
  8
0
  6
Continuous
 62
     7
100
AcDbLine
 10
449.9808194857298
 20
385.4903663832463
 30
0.0
 11
449.9808194857298
 21
382.7403663832463
 31
0.0
  0
LINE
  5
B7
330
2
100
AcDbEntity
  8
0
  6
Continuous
 62
     7
100
AcDbLine
 10
449.9808194857298
 20
382.7403663832464
 30
0.0
 11
443.9808194857298
 21
382.7403663832464
 31
0.0
  0
LINE
  5
B8
330
2
100
AcDbEntity
  8
0
  6
Continuous
 62
     7
100
AcDbLine
 10
608.9808194857297
 20
382.7403663832463
 30
0.0
 11
608.9808194857297
 21
385.4903663832463
 31
0.0
  0
LINE
  5
B9
330
2
100
AcDbEntity
  8
0
  6
Continuous
 62
     7
100
AcDbLine
 10
614.9808194857297
 20
385.4903663832463
 30
0.0
 11
614.9808194857297
 21
382.7403663832463
 31
0.0
  0
LINE
  5
BA
330
2
100
AcDbEntity
  8
0
  6
Continuous
 62
     7
100
AcDbLine
 10
614.9808194857297
 20
382.7403663832464
 30
0.0
 11
608.9808194857297
 21
382.7403663832464
 31
0.0
  0
LINE
  5
BB
330
2
100
AcDbEntity
  8
0
  6
Continuous
 62
     7
100
AcDbLine
 10
449.9808194857298
 20
589.7403663832465
 30
0.0
 11
449.9808194857298
 21
586.9903663832465
 31
0.0
  0
LINE
  5
BC
330
2
100
AcDbEntity
  8
0
  6
Continuous
 62
     7
100
AcDbLine
 10
443.9808194857299
 20
586.9903663832464
 30
0.0
 11
443.9808194857299
 21
589.7403663832464
 31
0.0
  0
LINE
  5
BD
330
2
100
AcDbEntity
  8
0
  6
Continuous
 62
     7
100
AcDbLine
 10
443.9808194857299
 20
589.7403663832465
 30
0.0
 11
449.9808194857298
 21
589.7403663832465
 31
0.0
  0
LINE
  5
BE
330
2
100
AcDbEntity
  8
0
  6
Continuous
 62
     7
100
AcDbLine
 10
779.9808194857303
 20
589.7403663832464
 30
0.0
 11
779.9808194857303
 21
586.9903663832464
 31
0.0
  0
LINE
  5
BF
330
2
100
AcDbEntity
  8
0
  6
Continuous
 62
     7
100
AcDbLine
 10
773.98081948573
 20
586.9903663832464
 30
0.0
 11
773.98081948573
 21
589.7403663832464
 31
0.0
  0
LINE
  5
C0
330
2
100
AcDbEntity
  8
0
  6
Continuous
 62
     7
100
AcDbLine
 10
773.98081948573
 20
589.7403663832465
 30
0.0
 11
779.9808194857296
 21
589.7403663832465
 31
0.0
  0
LINE
  5
C1
330
2
100
AcDbEntity
  8
0
  6
Continuous
 62
     7
100
AcDbLine
 10
773.98081948573
 20
382.7403663832464
 30
0.0
 11
614.98081948573
 21
382.7403663832464
 31
0.0
  0
LINE
  5
C2
330
2
100
AcDbEntity
  8
0
  6
Continuous
 62
     7
100
AcDbLine
 10
608.9808194857297
 20
382.7403663832464
 30
0.0
 11
449.9808194857298
 21
382.7403663832464
 31
0.0
  0
LINE
  5
C3
330
2
100
AcDbEntity
  8
0
  6
Continuous
 62
     7
100
AcDbLine
 10
443.9808194857299
 20
382.7403663832464
 30
0.0
 11
428.9808194857299
 21
382.7403663832464
 31
0.0
  0
LINE
  5
C4
330
2
100
AcDbEntity
  8
0
  6
Continuous
 62
     7
100
AcDbLine
 10
794.98081948573
 20
382.7403663832464
 30
0.0
 11
779.9808194857296
 21
382.7403663832464
 31
0.0
  0
LINE
  5
C5
330
2
100
AcDbEntity
  8
0
  6
Continuous
 62
     7
100
AcDbLine
 10
614.98081948573
 20
589.7403663832464
 30
0.0
 11
773.98081948573
 21
589.7403663832464
 31
0.0
  0
LINE
  5
C6
330
2
100
AcDbEntity
  8
0
  6
Continuous
 62
     7
100
AcDbLine
 10
779.9808194857303
 20
589.7403663832465
 30
0.0
 11
794.98081948573
 21
589.7403663832465
 31
0.0
  0
LINE
  5
C7
330
2
100
AcDbEntity
  8
0
  6
Continuous
 62
     7
100
AcDbLine
 10
428.9808194857299
 20
589.7403663832465
 30
0.0
 11
443.9808194857299
 21
589.7403663832465
 31
0.0
  0
LINE
  5
C8
330
2
100
AcDbEntity
  8
0
  6
Continuous
 62
     7
100
AcDbLine
 10
449.9808194857298
 20
589.7403663832465
 30
0.0
 11
608.9808194857297
 21
589.7403663832465
 31
0.0
  0
LINE
  5
C9
330
2
100
AcDbEntity
  8
0
  6
Continuous
 62
     7
100
AcDbLine
 10
797.9808194857296
 20
385.7403663832464
 30
0.0
 11
794.98081948573
 21
382.7403663832464
 31
0.0
  0
LINE
  5
CA
330
2
100
AcDbEntity
  8
0
  6
Continuous
 62
     7
100
AcDbLine
 10
797.9808194857296
 20
586.7403663832464
 30
0.0
 11
797.9808194857301
 21
385.7403663832464
 31
0.0
  0
LINE
  5
CB
330
2
100
AcDbEntity
  8
0
  6
Continuous
 62
     7
100
AcDbLine
 10
794.98081948573
 20
589.7403663832465
 30
0.0
 11
797.9808194857296
 21
586.7403663832464
 31
0.0
  0
LINE
  5
CC
330
2
100
AcDbEntity
  8
0
  6
Continuous
 62
     7
100
AcDbLine
 10
425.9808194857298
 20
586.7403663832464
 30
0.0
 11
428.9808194857299
 21
589.7403663832464
 31
0.0
  0
LINE
  5
CD
330
2
100
AcDbEntity
  8
0
  6
Continuous
 62
     7
100
AcDbLine
 10
425.9808194857298
 20
385.7403663832464
 30
0.0
 11
425.9808194857298
 21
586.7403663832464
 31
0.0
  0
LINE
  5
CE
330
2
100
AcDbEntity
  8
0
  6
Continuous
 62
     7
100
AcDbLine
 10
428.9808194857299
 20
382.7403663832464
 30
0.0
 11
425.9808194857298
 21
385.7403663832464
 31
0.0
  0
ARC
  5
CF
330
2
100
AcDbEntity
  8
0
  6
Continuous
 62
     7
100
AcDbCircle
 10
611.9808194857299
 20
586.9903663832464
 30
0.0
 40
3.0
100
AcDbArc
 50
180.0
 51
0.0
  0
ARC
  5
D0
330
2
100
AcDbEntity
  8
0
  6
Continuous
 62
     7
100
AcDbCircle
 10
776.9808194857301
 20
385.4903663832463
 30
0.0
 40
3.0
100
AcDbArc
 50
0.0
 51
180.0
  0
ARC
  5
D1
330
2
100
AcDbEntity
  8
0
  6
Continuous
 62
     7
100
AcDbCircle
 10
446.9808194857299
 20
385.4903663832463
 30
0.0
 40
3.0
100
AcDbArc
 50
0.0
 51
180.0
  0
ARC
  5
D2
330
2
100
AcDbEntity
  8
0
  6
Continuous
 62
     7
100
AcDbCircle
 10
611.9808194857299
 20
385.4903663832463
 30
0.0
 40
3.0
100
AcDbArc
 50
0.0
 51
180.0
  0
ARC
  5
D3
330
2
100
AcDbEntity
  8
0
  6
Continuous
 62
     7
100
AcDbCircle
 10
446.9808194857299
 20
586.9903663832464
 30
0.0
 40
2.999999999999984
100
AcDbArc
 50
180.0
 51
0.0
  0
ARC
  5
D4
330
2
100
AcDbEntity
  8
0
  6
Continuous
 62
     7
100
AcDbCircle
 10
776.9808194857301
 20
586.9903663832464
 30
0.0
 40
3.000000000000013
100
AcDbArc
 50
180.0
 51
0.0
  0
LINE
  5
D5
330
2
100
AcDbEntity
  8
0
  6
Continuous
 62
     7
100
AcDbLine
 10
389.4808194857299
 20
401.7403663832464
 30
0.0
 11
389.4808194857299
 21
402.7403663832464
 31
0.0
  0
LINE
  5
D6
330
2
100
AcDbEntity
  8
0
  6
Continuous
 62
     7
100
AcDbLine
 10
424.4808194857298
 20
401.7403663832464
 30
0.0
 11
424.4808194857298
 21
402.7403663832464
 31
0.0
  0
LINE
  5
D7
330
2
100
AcDbEntity
  8
0
  6
Continuous
 62
     7
100
AcDbLine
 10
424.4808194857298
 20
401.7403663832464
 30
0.0
 11
389.4808194857299
 21
401.7403663832464
 31
0.0
  0
LINE
  5
D8
330
2
100
AcDbEntity
  8
0
  6
Continuous
 62
     7
100
AcDbLine
 10
427.1808194857299
 20
384.2403663832477
 30
0.0
 11
427.4808194857293
 21
384.2403663832477
 31
0.0
  0
LINE
  5
D9
330
2
100
AcDbEntity
  8
0
  6
Continuous
 62
     7
100
AcDbLine
 10
427.1808194857299
 20
384.2403663832477
 30
0.0
 11
427.1808194857299
 21
384.5403663832471
 31
0.0
  0
LINE
  5
DA
330
2
100
AcDbEntity
  8
0
  6
Continuous
 62
     7
100
AcDbLine
 10
446.2591316492427
 20
385.4903663832463
 30
0.0
 11
446.6199755674863
 21
386.1153663832463
 31
0.0
  0
LINE
  5
DB
330
2
100
AcDbEntity
  8
0
  6
Continuous
 62
     7
100
AcDbLine
 10
446.6199755674863
 20
384.8653663832463
 30
0.0
 11
446.2591316492427
 21
385.4903663832463
 31
0.0
  0
LINE
  5
DC
330
2
100
AcDbEntity
  8
0
  6
Continuous
 62
     7
100
AcDbLine
 10
447.3416634039731
 20
384.8653663832463
 30
0.0
 11
446.6199755674863
 21
384.8653663832463
 31
0.0
  0
LINE
  5
DD
330
2
100
AcDbEntity
  8
0
  6
Continuous
 62
     7
100
AcDbLine
 10
447.7025073222169
 20
385.4903663832463
 30
0.0
 11
447.3416634039731
 21
384.8653663832463
 31
0.0
  0
LINE
  5
DE
330
2
100
AcDbEntity
  8
0
  6
Continuous
 62
     7
100
AcDbLine
 10
447.3416634039731
 20
386.1153663832463
 30
0.0
 11
447.7025073222169
 21
385.4903663832463
 31
0.0
  0
LINE
  5
DF
330
2
100
AcDbEntity
  8
0
  6
Continuous
 62
     7
100
AcDbLine
 10
446.6199755674863
 20
386.1153663832463
 30
0.0
 11
447.3416634039731
 21
386.1153663832463
 31
0.0
  0
CIRCLE
  5
E0
330
2
100
AcDbEntity
  8
0
  6
Continuous
 62
     7
100
AcDbCircle
 10
446.9808194857299
 20
385.4903663832463
 30
0.0
 40
2.75
  0
LINE
  5
E1
330
2
100
AcDbEntity
  8
0
  6
Continuous
 62
     7
100
AcDbLine
 10
611.2591316492427
 20
385.4903663832463
 30
0.0
 11
611.6199755674862
 21
386.1153663832463
 31
0.0
  0
LINE
  5
E2
330
2
100
AcDbEntity
  8
0
  6
Continuous
 62
     7
100
AcDbLine
 10
611.6199755674862
 20
384.8653663832463
 30
0.0
 11
611.2591316492427
 21
385.4903663832463
 31
0.0
  0
LINE
  5
E3
330
2
100
AcDbEntity
  8
0
  6
Continuous
 62
     7
100
AcDbLine
 10
612.3416634039734
 20
384.8653663832463
 30
0.0
 11
611.6199755674862
 21
384.8653663832463
 31
0.0
  0
LINE
  5
E4
330
2
100
AcDbEntity
  8
0
  6
Continuous
 62
     7
100
AcDbLine
 10
612.7025073222169
 20
385.4903663832463
 30
0.0
 11
612.3416634039734
 21
384.8653663832463
 31
0.0
  0
LINE
  5
E5
330
2
100
AcDbEntity
  8
0
  6
Continuous
 62
     7
100
AcDbLine
 10
612.3416634039734
 20
386.1153663832463
 30
0.0
 11
612.7025073222169
 21
385.4903663832463
 31
0.0
  0
LINE
  5
E6
330
2
100
AcDbEntity
  8
0
  6
Continuous
 62
     7
100
AcDbLine
 10
611.6199755674862
 20
386.1153663832463
 30
0.0
 11
612.3416634039734
 21
386.1153663832463
 31
0.0
  0
CIRCLE
  5
E7
330
2
100
AcDbEntity
  8
0
  6
Continuous
 62
     7
100
AcDbCircle
 10
611.9808194857299
 20
385.4903663832463
 30
0.0
 40
2.75
  0
LINE
  5
E8
330
2
100
AcDbEntity
  8
0
  6
Continuous
 62
     7
100
AcDbLine
 10
799.4808194857299
 20
401.7403663832464
 30
0.0
 11
799.4808194857299
 21
402.7403663832464
 31
0.0
  0
LINE
  5
E9
330
2
100
AcDbEntity
  8
0
  6
Continuous
 62
     7
100
AcDbLine
 10
834.4808194857296
 20
401.7403663832464
 30
0.0
 11
834.4808194857296
 21
402.7403663832464
 31
0.0
  0
LINE
  5
EA
330
2
100
AcDbEntity
  8
0
  6
Continuous
 62
     7
100
AcDbLine
 10
834.4808194857296
 20
401.7403663832464
 30
0.0
 11
799.4808194857299
 21
401.7403663832464
 31
0.0
  0
LINE
  5
EB
330
2
100
AcDbEntity
  8
0
  6
Continuous
 62
     7
100
AcDbLine
 10
776.259131649243
 20
385.4903663832462
 30
0.0
 11
776.6199755674864
 21
386.1153663832462
 31
0.0
  0
LINE
  5
EC
330
2
100
AcDbEntity
  8
0
  6
Continuous
 62
     7
100
AcDbLine
 10
776.6199755674864
 20
384.8653663832462
 30
0.0
 11
776.259131649243
 21
385.4903663832462
 31
0.0
  0
LINE
  5
ED
330
2
100
AcDbEntity
  8
0
  6
Continuous
 62
     7
100
AcDbLine
 10
777.3416634039732
 20
384.8653663832462
 30
0.0
 11
776.6199755674864
 21
384.8653663832462
 31
0.0
  0
LINE
  5
EE
330
2
100
AcDbEntity
  8
0
  6
Continuous
 62
     7
100
AcDbLine
 10
777.702507322217
 20
385.4903663832462
 30
0.0
 11
777.3416634039732
 21
384.8653663832462
 31
0.0
  0
LINE
  5
EF
330
2
100
AcDbEntity
  8
0
  6
Continuous
 62
     7
100
AcDbLine
 10
777.3416634039732
 20
386.1153663832462
 30
0.0
 11
777.702507322217
 21
385.4903663832462
 31
0.0
  0
LINE
  5
F0
330
2
100
AcDbEntity
  8
0
  6
Continuous
 62
     7
100
AcDbLine
 10
776.6199755674864
 20
386.1153663832462
 30
0.0
 11
777.3416634039732
 21
386.1153663832462
 31
0.0
  0
CIRCLE
  5
F1
330
2
100
AcDbEntity
  8
0
  6
Continuous
 62
     7
100
AcDbCircle
 10
776.9808194857301
 20
385.4903663832462
 30
0.0
 40
2.75
  0
LINE
  5
F2
330
2
100
AcDbEntity
  8
0
  6
Continuous
 62
     7
100
AcDbLine
 10
796.7808194857297
 20
384.2403663832475
 30
0.0
 11
796.4808194857304
 21
384.2403663832475
 31
0.0
  0
LINE
  5
F3
330
2
100
AcDbEntity
  8
0
  6
Continuous
 62
     7
100
AcDbLine
 10
796.7808194857297
 20
384.5403663832469
 30
0.0
 11
796.7808194857297
 21
384.2403663832475
 31
0.0
  0
LINE
  5
F4
330
2
100
AcDbEntity
  8
0
  6
Continuous
 62
     7
100
AcDbLine
 10
721.9808194857296
 20
589.7403663832466
 30
0.0
 11
721.9808194857296
 21
590.7403663832467
 31
0.0
  0
LINE
  5
F5
330
2
100
AcDbEntity
  8
0
  6
Continuous
 62
     7
100
AcDbLine
 10
719.98081948573
 20
590.7403663832467
 30
0.0
 11
663.9808194857301
 21
590.7403663832467
 31
0.0
  0
LINE
  5
F6
330
2
100
AcDbEntity
  8
0
  6
Continuous
 62
     7
100
AcDbLine
 10
661.9808194857299
 20
589.7403663832466
 30
0.0
 11
661.9808194857299
 21
590.7403663832467
 31
0.0
  0
LINE
  5
F7
330
2
100
AcDbEntity
  8
0
  6
Continuous
 62
     7
100
AcDbLine
 10
719.98081948573
 20
590.7403663832467
 30
0.0
 11
721.9808194857296
 21
590.7403663832467
 31
0.0
  0
LINE
  5
F8
330
2
100
AcDbEntity
  8
0
  6
Continuous
 62
     7
100
AcDbLine
 10
661.9808194857299
 20
590.7403663832467
 30
0.0
 11
663.9808194857301
 21
590.7403663832467
 31
0.0
  0
LINE
  5
F9
330
2
100
AcDbEntity
  8
0
  6
Continuous
 62
     7
100
AcDbLine
 10
719.98081948573
 20
590.7403663832467
 30
0.0
 11
663.9808194857301
 21
590.7403663832467
 31
0.0
  0
LINE
  5
FA
330
2
100
AcDbEntity
  8
0
  6
Continuous
 62
     7
100
AcDbLine
 10
721.9808194857296
 20
589.7403663832466
 30
0.0
 11
721.9808194857296
 21
590.7403663832467
 31
0.0
  0
LINE
  5
FB
330
2
100
AcDbEntity
  8
0
  6
Continuous
 62
     7
100
AcDbLine
 10
661.9808194857299
 20
589.7403663832466
 30
0.0
 11
661.9808194857299
 21
590.7403663832467
 31
0.0
  0
LINE
  5
FC
330
2
100
AcDbEntity
  8
0
  6
Continuous
 62
     7
100
AcDbLine
 10
661.9808194857299
 20
590.7403663832467
 30
0.0
 11
663.9808194857301
 21
590.7403663832467
 31
0.0
  0
LINE
  5
FD
330
2
100
AcDbEntity
  8
0
  6
Continuous
 62
     7
100
AcDbLine
 10
719.98081948573
 20
590.7403663832467
 30
0.0
 11
721.9808194857296
 21
590.7403663832467
 31
0.0
  0
LINE
  5
FE
330
2
100
AcDbEntity
  8
0
  6
Continuous
 62
     7
100
AcDbLine
 10
723.9808194857303
 20
590.7403663832467
 30
0.0
 11
723.9808194857303
 21
606.7403663832467
 31
0.0
  0
LINE
  5
FF
330
2
100
AcDbEntity
  8
0
  6
Continuous
 62
     7
100
AcDbLine
 10
721.9808194857303
 20
608.7403663832467
 30
0.0
 11
661.9808194857303
 21
608.7403663832467
 31
0.0
  0
LINE
  5
100
330
2
100
AcDbEntity
  8
0
  6
Continuous
 62
     7
100
AcDbLine
 10
659.9808194857303
 20
606.7403663832467
 30
0.0
 11
659.9808194857303
 21
590.7403663832467
 31
0.0
  0
ELLIPSE
  5
101
330
2
100
AcDbEntity
  8
0
  6
Continuous
 62
     7
100
AcDbEllipse
 10
679.9808194857303
 20
613.3117949546754
 30
0.0
 11
-0.0000000000000018
 21
3.428571428571427
 31
0.0
210
0.0
220
0.0
230
1.0
 40
0.8749999999999998
 41
-0.0000000000000006
 42
1.570796326794894
  0
LINE
  5
102
330
2
100
AcDbEntity
  8
0
  6
Continuous
 62
     7
100
AcDbLine
 10
703.9808194857303
 20
616.7403663832467
 30
0.0
 11
679.9808194857303
 21
616.7403663832467
 31
0.0
  0
LINE
  5
103
330
2
100
AcDbEntity
  8
0
  6
Continuous
 62
     7
100
AcDbLine
 10
676.9808194857303
 20
613.3117949546754
 30
0.0
 11
676.9808194857303
 21
608.7403663832467
 31
0.0
  0
LINE
  5
104
330
2
100
AcDbEntity
  8
0
  6
Continuous
 62
     7
100
AcDbLine
 10
706.9808194857302
 20
608.7403663832467
 30
0.0
 11
706.9808194857302
 21
613.3117949546754
 31
0.0
  0
ELLIPSE
  5
105
330
2
100
AcDbEntity
  8
0
  6
Continuous
 62
     7
100
AcDbEllipse
 10
703.9808194857303
 20
613.3117949546754
 30
0.0
 11
-0.0000000000000014
 21
3.428571428571427
 31
0.0
210
0.0
220
0.0
230
1.0
 40
0.8749999999999998
 41
4.712388980384688
 42
6.283185307179584
  0
ARC
  5
106
330
2
100
AcDbEntity
  8
0
  6
Continuous
 62
     7
100
AcDbCircle
 10
661.9808194857303
 20
606.7403663832467
 30
0.0
 40
1.999999999999999
100
AcDbArc
 50
89.99999999999998
 51
180.0
  0
ARC
  5
107
330
2
100
AcDbEntity
  8
0
  6
Continuous
 62
     7
100
AcDbCircle
 10
721.9808194857303
 20
606.7403663832467
 30
0.0
 40
2.0
100
AcDbArc
 50
0.0
 51
89.99999999999998
  0
LINE
  5
108
330
2
100
AcDbEntity
  8
0
  6
Continuous
 62
     7
100
AcDbLine
 10
723.9808194857303
 20
590.7403663832467
 30
0.0
 11
721.9808194857303
 21
590.7403663832467
 31
0.0
  0
LINE
  5
109
330
2
100
AcDbEntity
  8
0
  6
Continuous
 62
     7
100
AcDbLine
 10
661.9808194857303
 20
590.7403663832467
 30
0.0
 11
659.9808194857303
 21
590.7403663832467
 31
0.0
  0
LINE
  5
10A
330
2
100
AcDbEntity
  8
0
  6
Continuous
 62
     7
100
AcDbLine
 10
424.4808194857298
 20
582.7403663832463
 30
0.0
 11
424.4808194857298
 21
581.7403663832465
 31
0.0
  0
LINE
  5
10B
330
2
100
AcDbEntity
  8
0
  6
Continuous
 62
     7
100
AcDbLine
 10
389.4808194857299
 20
582.7403663832463
 30
0.0
 11
389.4808194857299
 21
581.7403663832465
 31
0.0
  0
LINE
  5
10C
330
2
100
AcDbEntity
  8
0
  6
Continuous
 62
     7
100
AcDbLine
 10
389.4808194857299
 20
582.7403663832463
 30
0.0
 11
424.4808194857298
 21
582.7403663832463
 31
0.0
  0
LINE
  5
10D
330
2
100
AcDbEntity
  8
0
  6
Continuous
 62
     7
100
AcDbLine
 10
427.1808194857299
 20
588.2403663832476
 30
0.0
 11
427.4808194857305
 21
588.2403663832476
 31
0.0
  0
LINE
  5
10E
330
2
100
AcDbEntity
  8
0
  6
Continuous
 62
     7
100
AcDbLine
 10
427.1808194857299
 20
587.9403663832468
 30
0.0
 11
427.1808194857299
 21
588.2403663832475
 31
0.0
  0
LINE
  5
10F
330
2
100
AcDbEntity
  8
0
  6
Continuous
 62
     7
100
AcDbLine
 10
446.259131649243
 20
586.9903663832464
 30
0.0
 11
446.6199755674865
 21
587.6153663832464
 31
0.0
  0
LINE
  5
110
330
2
100
AcDbEntity
  8
0
  6
Continuous
 62
     7
100
AcDbLine
 10
446.6199755674863
 20
586.3653663832463
 30
0.0
 11
446.2591316492427
 21
586.9903663832464
 31
0.0
  0
LINE
  5
111
330
2
100
AcDbEntity
  8
0
  6
Continuous
 62
     7
100
AcDbLine
 10
447.3416634039731
 20
586.3653663832463
 30
0.0
 11
446.6199755674863
 21
586.3653663832463
 31
0.0
  0
LINE
  5
112
330
2
100
AcDbEntity
  8
0
  6
Continuous
 62
     7
100
AcDbLine
 10
447.7025073222169
 20
586.9903663832464
 30
0.0
 11
447.3416634039731
 21
586.3653663832463
 31
0.0
  0
LINE
  5
113
330
2
100
AcDbEntity
  8
0
  6
Continuous
 62
     7
100
AcDbLine
 10
447.3416634039731
 20
587.6153663832464
 30
0.0
 11
447.7025073222169
 21
586.9903663832464
 31
0.0
  0
LINE
  5
114
330
2
100
AcDbEntity
  8
0
  6
Continuous
 62
     7
100
AcDbLine
 10
446.6199755674863
 20
587.6153663832464
 30
0.0
 11
447.3416634039731
 21
587.6153663832464
 31
0.0
  0
CIRCLE
  5
115
330
2
100
AcDbEntity
  8
0
  6
Continuous
 62
     7
100
AcDbCircle
 10
446.9808194857299
 20
586.9903663832464
 30
0.0
 40
2.75
  0
LINE
  5
116
330
2
100
AcDbEntity
  8
0
  6
Continuous
 62
     7
100
AcDbLine
 10
834.4808194857296
 20
582.7403663832463
 30
0.0
 11
834.4808194857296
 21
581.7403663832463
 31
0.0
  0
LINE
  5
117
330
2
100
AcDbEntity
  8
0
  6
Continuous
 62
     7
100
AcDbLine
 10
799.4808194857299
 20
582.7403663832463
 30
0.0
 11
799.4808194857299
 21
581.7403663832464
 31
0.0
  0
LINE
  5
118
330
2
100
AcDbEntity
  8
0
  6
Continuous
 62
     7
100
AcDbLine
 10
799.4808194857299
 20
582.7403663832463
 30
0.0
 11
834.48081948573
 21
582.7403663832463
 31
0.0
  0
LINE
  5
119
330
2
100
AcDbEntity
  8
0
  6
Continuous
 62
     7
100
AcDbLine
 10
611.259131649243
 20
586.9903663832464
 30
0.0
 11
611.6199755674862
 21
587.6153663832464
 31
0.0
  0
LINE
  5
11A
330
2
100
AcDbEntity
  8
0
  6
Continuous
 62
     7
100
AcDbLine
 10
611.6199755674862
 20
586.3653663832463
 30
0.0
 11
611.2591316492427
 21
586.9903663832464
 31
0.0
  0
LINE
  5
11B
330
2
100
AcDbEntity
  8
0
  6
Continuous
 62
     7
100
AcDbLine
 10
612.3416634039735
 20
586.3653663832463
 30
0.0
 11
611.6199755674862
 21
586.3653663832463
 31
0.0
  0
LINE
  5
11C
330
2
100
AcDbEntity
  8
0
  6
Continuous
 62
     7
100
AcDbLine
 10
612.702507322217
 20
586.9903663832464
 30
0.0
 11
612.3416634039735
 21
586.3653663832463
 31
0.0
  0
LINE
  5
11D
330
2
100
AcDbEntity
  8
0
  6
Continuous
 62
     7
100
AcDbLine
 10
612.3416634039735
 20
587.6153663832464
 30
0.0
 11
612.702507322217
 21
586.9903663832464
 31
0.0
  0
LINE
  5
11E
330
2
100
AcDbEntity
  8
0
  6
Continuous
 62
     7
100
AcDbLine
 10
611.6199755674862
 20
587.6153663832464
 30
0.0
 11
612.3416634039735
 21
587.6153663832464
 31
0.0
  0
CIRCLE
  5
11F
330
2
100
AcDbEntity
  8
0
  6
Continuous
 62
     7
100
AcDbCircle
 10
611.9808194857299
 20
586.9903663832464
 30
0.0
 40
2.75
  0
LINE
  5
120
330
2
100
AcDbEntity
  8
0
  6
Continuous
 62
     7
100
AcDbLine
 10
776.2591316492431
 20
586.9903663832464
 30
0.0
 11
776.6199755674866
 21
587.6153663832464
 31
0.0
  0
LINE
  5
121
330
2
100
AcDbEntity
  8
0
  6
Continuous
 62
     7
100
AcDbLine
 10
776.6199755674866
 20
586.3653663832463
 30
0.0
 11
776.2591316492431
 21
586.9903663832464
 31
0.0
  0
LINE
  5
122
330
2
100
AcDbEntity
  8
0
  6
Continuous
 62
     7
100
AcDbLine
 10
777.3416634039737
 20
586.3653663832463
 30
0.0
 11
776.6199755674866
 21
586.3653663832463
 31
0.0
  0
LINE
  5
123
330
2
100
AcDbEntity
  8
0
  6
Continuous
 62
     7
100
AcDbLine
 10
777.7025073222172
 20
586.9903663832464
 30
0.0
 11
777.3416634039737
 21
586.3653663832463
 31
0.0
  0
LINE
  5
124
330
2
100
AcDbEntity
  8
0
  6
Continuous
 62
     7
100
AcDbLine
 10
777.3416634039737
 20
587.6153663832464
 30
0.0
 11
777.7025073222171
 21
586.9903663832464
 31
0.0
  0
LINE
  5
125
330
2
100
AcDbEntity
  8
0
  6
Continuous
 62
     7
100
AcDbLine
 10
776.6199755674866
 20
587.6153663832464
 30
0.0
 11
777.3416634039737
 21
587.6153663832464
 31
0.0
  0
CIRCLE
  5
126
330
2
100
AcDbEntity
  8
0
  6
Continuous
 62
     7
100
AcDbCircle
 10
776.9808194857303
 20
586.9903663832464
 30
0.0
 40
2.75
  0
LINE
  5
127
330
2
100
AcDbEntity
  8
0
  6
Continuous
 62
     7
100
AcDbLine
 10
796.7808194857297
 20
588.2403663832476
 30
0.0
 11
796.4808194857294
 21
588.2403663832476
 31
0.0
  0
LINE
  5
128
330
2
100
AcDbEntity
  8
0
  6
Continuous
 62
     7
100
AcDbLine
 10
796.7808194857297
 20
588.2403663832476
 30
0.0
 11
796.7808194857297
 21
587.9403663832471
 31
0.0
  0
CIRCLE
  5
129
330
2
100
AcDbEntity
  8
0
  6
Continuous
 62
     7
100
AcDbCircle
 10
226.7899688400342
 20
430.2403663832476
 30
0.0
 40
2.749999999999979
  0
LINE
  5
12A
330
2
100
AcDbEntity
  8
0
  6
Continuous
 62
     7
100
AcDbLine
 10
232.0663579331114
 20
430.7403663832475
 30
0.0
 11
241.513579746957
 21
430.7403663832475
 31
0.0
  0
LINE
  5
12B
330
2
100
AcDbEntity
  8
0
  6
Continuous
 62
     7
100
AcDbLine
 10
241.513579746957
 20
429.7403663832476
 30
0.0
 11
232.0663579331114
 21
429.7403663832476
 31
0.0
  0
ARC
  5
12C
330
2
100
AcDbEntity
  8
0
  6
Continuous
 62
     7
100
AcDbCircle
 10
236.7899688400342
 20
430.2403663832476
 30
0.0
 40
4.75
100
AcDbArc
 50
173.9576715809459
 51
186.042328419054
  0
ARC
  5
12D
330
2
100
AcDbEntity
  8
0
  6
Continuous
 62
     7
100
AcDbCircle
 10
236.7899688400342
 20
430.2403663832476
 30
0.0
 40
4.75
100
AcDbArc
 50
353.9576715809459
 51
6.042328419054046
  0
ARC
  5
12E
330
2
100
AcDbEntity
  8
0
  6
Continuous
 62
     7
100
AcDbCircle
 10
236.7899688400342
 20
430.2403663832476
 30
0.0
 40
4.75
100
AcDbArc
 50
186.0423284190541
 51
353.9576715809459
  0
ARC
  5
12F
330
2
100
AcDbEntity
  8
0
  6
Continuous
 62
     7
100
AcDbCircle
 10
236.7899688400342
 20
430.2403663832476
 30
0.0
 40
4.75
100
AcDbArc
 50
6.042328419054046
 51
173.9576715809459
  0
LINE
  5
130
330
2
100
AcDbEntity
  8
0
  6
Continuous
 62
     7
100
AcDbLine
 10
246.7899688400342
 20
421.5476970578904
 30
0.0
 11
246.7899688400342
 21
438.9330357086045
 31
0.0
  0
CIRCLE
  5
131
330
2
100
AcDbEntity
  8
0
  6
Continuous
 62
     7
100
AcDbCircle
 10
241.7899688400342
 20
438.9003663832474
 30
0.0
 40
3.1
  0
CIRCLE
  5
132
330
2
100
AcDbEntity
  8
0
  6
Continuous
 62
     7
100
AcDbCircle
 10
226.7899688400342
 20
430.2403663832476
 30
0.0
 40
3.1
  0
CIRCLE
  5
133
330
2
100
AcDbEntity
  8
0
  6
Continuous
 62
     7
100
AcDbCircle
 10
241.7899688400342
 20
421.5803663832475
 30
0.0
 40
3.1
  0
CIRCLE
  5
134
330
2
100
AcDbEntity
  8
0
  6
Continuous
 62
     7
100
AcDbCircle
 10
236.7899688400342
 20
430.2403663832476
 30
0.0
 40
5.0
  0
ARC
  5
135
330
2
100
AcDbEntity
  8
0
  6
Continuous
 62
     7
100
AcDbCircle
 10
236.7899688400342
 20
430.2403663832476
 30
0.0
 40
13.25
100
AcDbArc
 50
40.99935365020466
 51
319.0006463497953
  0
LINE
  5
136
330
2
100
AcDbEntity
  8
0
  6
Continuous
 62
     7
100
AcDbLine
 10
216.2899688400341
 20
581.7403663832465
 30
0.0
 11
213.2899688400341
 21
581.7403663832465
 31
0.0
  0
LINE
  5
137
330
2
100
AcDbEntity
  8
0
  6
Continuous
 62
     7
100
AcDbLine
 10
213.2899688400341
 20
581.7403663832465
 30
0.0
 11
213.2899688400341
 21
402.7403663832464
 31
0.0
  0
LINE
  5
138
330
2
100
AcDbEntity
  8
0
  6
Continuous
 62
     7
100
AcDbLine
 10
213.2899688400341
 20
402.7403663832464
 30
0.0
 11
216.2899688400341
 21
402.7403663832464
 31
0.0
  0
LINE
  5
139
330
2
100
AcDbEntity
  8
0
  6
Continuous
 62
     7
100
AcDbLine
 10
216.2899688400341
 20
402.7403663832464
 30
0.0
 11
216.2899688400341
 21
581.7403663832465
 31
0.0
  0
LINE
  5
13A
330
2
100
AcDbEntity
  8
0
  6
Continuous
 62
     7
100
AcDbLine
 10
181.2899688400341
 20
581.7403663832465
 30
0.0
 11
213.2899688400341
 21
581.7403663832465
 31
0.0
  0
LINE
  5
13B
330
2
100
AcDbEntity
  8
0
  6
Continuous
 62
     7
100
AcDbLine
 10
181.289968840034
 20
402.7403663832464
 30
0.0
 11
181.289968840034
 21
581.7403663832465
 31
0.0
  0
LINE
  5
13C
330
2
100
AcDbEntity
  8
0
  6
Continuous
 62
     7
100
AcDbLine
 10
181.289968840034
 20
402.7403663832464
 30
0.0
 11
213.2899688400341
 21
402.7403663832464
 31
0.0
  0
LINE
  5
13D
330
2
100
AcDbEntity
  8
0
  6
Continuous
 62
     7
100
AcDbLine
 10
181.2899688400341
 20
581.7403663832465
 30
0.0
 11
178.2899688400341
 21
581.7403663832465
 31
0.0
  0
LINE
  5
13E
330
2
100
AcDbEntity
  8
0
  6
Continuous
 62
     7
100
AcDbLine
 10
178.289968840034
 20
402.7403663832464
 30
0.0
 11
181.289968840034
 21
402.7403663832464
 31
0.0
  0
LINE
  5
13F
330
2
100
AcDbEntity
  8
0
  6
Continuous
 62
     7
100
AcDbLine
 10
178.2899688400341
 20
581.7403663832465
 30
0.0
 11
178.2899688400341
 21
402.7403663832464
 31
0.0
  0
CIRCLE
  5
140
330
2
100
AcDbEntity
  8
0
  6
Continuous
 62
     7
100
AcDbCircle
 10
187.2899688400341
 20
552.2403663832465
 30
0.0
 40
4.000000000000075
  0
CIRCLE
  5
141
330
2
100
AcDbEntity
  8
0
  6
Continuous
 62
     7
100
AcDbCircle
 10
187.2899688400341
 20
432.2403663832464
 30
0.0
 40
4.000000000000079
  0
CIRCLE
  5
142
330
2
100
AcDbEntity
  8
0
  6
Continuous
 62
     7
100
AcDbCircle
 10
207.289968840034
 20
552.2403663832465
 30
0.0
 40
4.000000000000079
  0
CIRCLE
  5
143
330
2
100
AcDbEntity
  8
0
  6
Continuous
 62
     7
100
AcDbCircle
 10
207.289968840034
 20
432.2403663832464
 30
0.0
 40
4.000000000000079
  0
CIRCLE
  5
144
330
2
100
AcDbEntity
  8
0
  6
Continuous
 62
     7
100
AcDbCircle
 10
197.2899688400341
 20
574.7403663832463
 30
0.0
 40
1.2995
  0
CIRCLE
  5
145
330
2
100
AcDbEntity
  8
0
  6
Continuous
 62
     7
100
AcDbCircle
 10
197.2899688400341
 20
409.7403663832464
 30
0.0
 40
1.2995
  0
CIRCLE
  5
146
330
2
100
AcDbEntity
  8
0
  6
Continuous
 62
     7
100
AcDbCircle
 10
187.2899688400341
 20
552.2403663832465
 30
0.0
 40
4.0
  0
CIRCLE
  5
147
330
2
100
AcDbEntity
  8
0
  6
Continuous
 62
     7
100
AcDbCircle
 10
187.2899688400341
 20
432.2403663832464
 30
0.0
 40
4.0
  0
CIRCLE
  5
148
330
2
100
AcDbEntity
  8
0
  6
Continuous
 62
     7
100
AcDbCircle
 10
207.2899688400341
 20
552.2403663832465
 30
0.0
 40
4.0
  0
CIRCLE
  5
149
330
2
100
AcDbEntity
  8
0
  6
Continuous
 62
     7
100
AcDbCircle
 10
207.2899688400341
 20
432.2403663832464
 30
0.0
 40
4.0
  0
LINE
  5
14A
330
2
100
AcDbEntity
  8
0
  6
Continuous
 62
     7
100
AcDbLine
 10
239.7899688400342
 20
385.7403663832477
 30
0.0
 11
239.7899688400342
 21
384.7403663832476
 31
0.0
  0
LINE
  5
14B
330
2
100
AcDbEntity
  8
0
  6
Continuous
 62
     7
100
AcDbLine
 10
239.7899688400342
 20
400.7403663832476
 30
0.0
 11
239.7899688400342
 21
385.7403663832477
 31
0.0
  0
LINE
  5
14C
330
2
100
AcDbEntity
  8
0
  6
Continuous
 62
     7
100
AcDbLine
 10
239.7899688400342
 20
384.7403663832476
 30
0.0
 11
159.9357201510987
 21
384.7403663832476
 31
0.0
  0
LINE
  5
14D
330
2
100
AcDbEntity
  8
0
  6
Continuous
 62
     7
100
AcDbLine
 10
157.7899688400342
 20
403.7403663832476
 30
0.0
 11
178.2899688400341
 21
403.7403663832476
 31
0.0
  0
LINE
  5
14E
330
2
100
AcDbEntity
  8
0
  6
Continuous
 62
     7
100
AcDbLine
 10
216.2899688400342
 20
403.7403663832476
 30
0.0
 11
236.7899688400342
 21
403.7403663832476
 31
0.0
  0
LINE
  5
14F
330
2
100
AcDbEntity
  8
0
  6
Continuous
 62
     7
100
AcDbLine
 10
154.7899688400342
 20
390.8628653824468
 30
0.0
 11
154.7899688400342
 21
400.7403663832476
 31
0.0
  0
ARC
  5
150
330
2
100
AcDbEntity
  8
0
  6
Continuous
 62
     7
100
AcDbCircle
 10
157.2899688400342
 20
387.7403663832477
 30
0.0
 40
4.0
100
AcDbArc
 50
210.0
 51
311.4096221092709
  0
LINE
  5
151
330
2
100
AcDbEntity
  8
0
  6
Continuous
 62
     7
100
AcDbLine
 10
153.8258672248964
 20
385.7403663832477
 30
0.0
 11
152.2899688400342
 21
385.7403663832477
 31
0.0
  0
LINE
  5
152
330
2
100
AcDbEntity
  8
0
  6
Continuous
 62
     7
100
AcDbLine
 10
152.2899688400342
 20
385.7403663832477
 30
0.0
 11
152.2899688400342
 21
382.7403663832476
 31
0.0
  0
LINE
  5
153
330
2
100
AcDbEntity
  8
0
  6
Continuous
 62
     7
100
AcDbLine
 10
152.2899688400342
 20
382.7403663832476
 30
0.0
 11
254.2899688400342
 21
382.7403663832476
 31
0.0
  0
LINE
  5
154
330
2
100
AcDbEntity
  8
0
  6
Continuous
 62
     7
100
AcDbLine
 10
254.2899688400342
 20
382.7403663832476
 30
0.0
 11
254.2899688400342
 21
385.7403663832475
 31
0.0
  0
LINE
  5
155
330
2
100
AcDbEntity
  8
0
  6
Continuous
 62
     7
100
AcDbLine
 10
254.2899688400342
 20
385.7403663832477
 30
0.0
 11
252.754070455172
 21
385.7403663832477
 31
0.0
  0
ARC
  5
156
330
2
100
AcDbEntity
  8
0
  6
Continuous
 62
     7
100
AcDbCircle
 10
249.2899688400342
 20
387.7403663832477
 30
0.0
 40
4.0
100
AcDbArc
 50
210.0
 51
330.0000000000001
  0
LINE
  5
157
330
2
100
AcDbEntity
  8
0
  6
Continuous
 62
     7
100
AcDbLine
 10
245.8258672248965
 20
385.7403663832477
 30
0.0
 11
239.7899688400342
 21
385.7403663832477
 31
0.0
  0
ARC
  5
158
330
2
100
AcDbEntity
  8
0
  6
Continuous
 62
     7
100
AcDbCircle
 10
249.2899688400342
 20
584.7403663832476
 30
0.0
 40
4.0
100
AcDbArc
 50
30.00000000000002
 51
150.0
  0
LINE
  5
159
330
2
100
AcDbEntity
  8
0
  6
Continuous
 62
     7
100
AcDbLine
 10
252.754070455172
 20
586.7403663832476
 30
0.0
 11
254.2899688400342
 21
586.7403663832476
 31
0.0
  0
LINE
  5
15A
330
2
100
AcDbEntity
  8
0
  6
Continuous
 62
     7
100
AcDbLine
 10
254.2899688400342
 20
586.7403663832476
 30
0.0
 11
254.2899688400342
 21
589.7403663832476
 31
0.0
  0
LINE
  5
15B
330
2
100
AcDbEntity
  8
0
  6
Continuous
 62
     7
100
AcDbLine
 10
254.2899688400342
 20
589.7403663832476
 30
0.0
 11
152.289968840034
 21
589.7403663832476
 31
0.0
  0
LINE
  5
15C
330
2
100
AcDbEntity
  8
0
  6
Continuous
 62
     7
100
AcDbLine
 10
152.2899688400342
 20
589.7403663832476
 30
0.0
 11
152.2899688400342
 21
586.7403663832476
 31
0.0
  0
LINE
  5
15D
330
2
100
AcDbEntity
  8
0
  6
Continuous
 62
     7
100
AcDbLine
 10
152.2899688400342
 20
586.7403663832476
 30
0.0
 11
153.8258672248964
 21
586.7403663832476
 31
0.0
  0
ARC
  5
15E
330
2
100
AcDbEntity
  8
0
  6
Continuous
 62
     7
100
AcDbCircle
 10
157.2899688400342
 20
584.7403663832476
 30
0.0
 40
4.0
100
AcDbArc
 50
30.00000000000002
 51
150.0
  0
LINE
  5
15F
330
2
100
AcDbEntity
  8
0
  6
Continuous
 62
     7
100
AcDbLine
 10
160.7540704551719
 20
586.7403663832476
 30
0.0
 11
245.8258672248964
 21
586.7403663832476
 31
0.0
  0
LINE
  5
160
330
2
100
AcDbEntity
  8
0
  6
Continuous
 62
     7
100
AcDbLine
 10
254.2899688400342
 20
586.7403663832476
 30
0.0
 11
254.2899688400342
 21
385.7403663832477
 31
0.0
  0
LINE
  5
161
330
2
100
AcDbEntity
  8
0
  6
Continuous
 62
     7
100
AcDbLine
 10
152.2899688400342
 20
385.7403663832477
 30
0.0
 11
152.2899688400342
 21
586.7403663832476
 31
0.0
  0
ARC
  5
162
330
2
100
AcDbEntity
  8
0
  6
Continuous
 62
     7
100
AcDbCircle
 10
157.2899688400342
 20
387.7403663832477
 30
0.0
 40
4.0
100
AcDbArc
 50
311.4096221092709
 51
128.6821874534892
  0
ARC
  5
163
330
2
100
AcDbEntity
  8
0
  6
Continuous
 62
     7
100
AcDbCircle
 10
236.7899688400342
 20
400.7403663832476
 30
0.0
 40
3.0
100
AcDbArc
 50
0.0
 51
90.0
  0
ARC
  5
164
330
2
100
AcDbEntity
  8
0
  6
Continuous
 62
     7
100
AcDbCircle
 10
157.7899688400342
 20
400.7403663832476
 30
0.0
 40
3.0
100
AcDbArc
 50
90.0
 51
180.0
  0
ARC
  5
165
330
2
100
AcDbEntity
  8
0
  6
Continuous
 62
     7
100
AcDbCircle
 10
157.2899688400342
 20
387.7403663832477
 30
0.0
 40
4.0
100
AcDbArc
 50
128.6821874534892
 51
210.0
  0
ARC
  5
166
330
2
100
AcDbEntity
  8
0
  6
Continuous
 62
     7
100
AcDbCircle
 10
249.2899688400342
 20
387.7403663832477
 30
0.0
 40
4.0
100
AcDbArc
 50
329.9999999999999
 51
210.0
  0
ARC
  5
167
330
2
100
AcDbEntity
  8
0
  6
Continuous
 62
     7
100
AcDbCircle
 10
157.2899688400342
 20
584.7403663832476
 30
0.0
 40
4.0
100
AcDbArc
 50
150.0
 51
270.0
  0
ARC
  5
168
330
2
100
AcDbEntity
  8
0
  6
Continuous
 62
     7
100
AcDbCircle
 10
157.2899688400342
 20
584.7403663832476
 30
0.0
 40
4.0
100
AcDbArc
 50
270.0
 51
30.00000000000005
  0
ARC
  5
169
330
2
100
AcDbEntity
  8
0
  6
Continuous
 62
     7
100
AcDbCircle
 10
249.2899688400342
 20
584.7403663832476
 30
0.0
 40
4.0
100
AcDbArc
 50
270.0
 51
30.00000000000005
  0
ARC
  5
16A
330
2
100
AcDbEntity
  8
0
  6
Continuous
 62
     7
100
AcDbCircle
 10
249.2899688400342
 20
584.7403663832476
 30
0.0
 40
4.0
100
AcDbArc
 50
150.0
 51
270.0
  0
CIRCLE
  5
16B
330
2
100
AcDbEntity
  8
0
  6
Continuous
 62
     7
100
AcDbCircle
 10
236.7899688400342
 20
430.2403663832476
 30
0.0
 40
13.5
  0
LINE
  5
16C
330
2
100
AcDbEntity
  8
0
  6
Continuous
 62
     7
100
AcDbLine
 10
258.2899688400341
 20
382.7403663832464
 30
0.0
 11
254.2899688400342
 21
382.7403663832464
 31
0.0
  0
LINE
  5
16D
330
2
100
AcDbEntity
  8
0
  6
Continuous
 62
     7
100
AcDbLine
 10
258.2899688400341
 20
589.7403663832464
 30
0.0
 11
254.2899688400342
 21
589.7403663832464
 31
0.0
  0
LINE
  5
16E
330
2
100
AcDbEntity
  8
0
  6
Continuous
 62
     7
100
AcDbLine
 10
254.2899688400342
 20
589.7403663832464
 30
0.0
 11
254.2899688400342
 21
586.7403663832464
 31
0.0
  0
LINE
  5
16F
330
2
100
AcDbEntity
  8
0
  6
Continuous
 62
     7
100
AcDbLine
 10
258.2899688400341
 20
586.7403663832464
 30
0.0
 11
254.2899688400342
 21
586.7403663832464
 31
0.0
  0
LINE
  5
170
330
2
100
AcDbEntity
  8
0
  6
Continuous
 62
     7
100
AcDbLine
 10
258.2899688400341
 20
586.7403663832464
 30
0.0
 11
258.2899688400341
 21
589.7403663832464
 31
0.0
  0
LINE
  5
171
330
2
100
AcDbEntity
  8
0
  6
Continuous
 62
     7
100
AcDbLine
 10
254.2899688400342
 20
586.7403663832464
 30
0.0
 11
254.2899688400342
 21
385.7403663832464
 31
0.0
  0
LINE
  5
172
330
2
100
AcDbEntity
  8
0
  6
Continuous
 62
     7
100
AcDbLine
 10
258.2899688400341
 20
385.7403663832464
 30
0.0
 11
254.2899688400342
 21
385.7403663832464
 31
0.0
  0
LINE
  5
173
330
2
100
AcDbEntity
  8
0
  6
Continuous
 62
     7
100
AcDbLine
 10
258.2899688400341
 20
385.7403663832464
 30
0.0
 11
258.2899688400341
 21
586.7403663832464
 31
0.0
  0
LINE
  5
174
330
2
100
AcDbEntity
  8
0
  6
Continuous
 62
     7
100
AcDbLine
 10
254.2899688400342
 20
385.7403663832464
 30
0.0
 11
254.2899688400342
 21
382.7403663832464
 31
0.0
  0
LINE
  5
175
330
2
100
AcDbEntity
  8
0
  6
Continuous
 62
     7
100
AcDbLine
 10
258.2899688400341
 20
382.7403663832464
 30
0.0
 11
258.2899688400341
 21
385.7403663832464
 31
0.0
  0
LINE
  5
176
330
2
100
AcDbEntity
  8
0
  6
Continuous
 62
     7
100
AcDbLine
 10
142.2899688400342
 20
382.7403663832476
 30
0.0
 11
152.2899688400342
 21
382.7403663832476
 31
0.0
  0
LINE
  5
177
330
2
100
AcDbEntity
  8
0
  6
Continuous
 62
     7
100
AcDbLine
 10
142.2899688400342
 20
589.7403663832476
 30
0.0
 11
152.2899688400342
 21
589.7403663832476
 31
0.0
  0
LINE
  5
178
330
2
100
AcDbEntity
  8
0
  6
Continuous
 62
     7
100
AcDbLine
 10
152.2899688400342
 20
382.7403663832476
 30
0.0
 11
152.2899688400342
 21
385.7403663832477
 31
0.0
  0
LINE
  5
179
330
2
100
AcDbEntity
  8
0
  6
Continuous
 62
     7
100
AcDbLine
 10
142.2899688400342
 20
385.7403663832477
 30
0.0
 11
152.2899688400342
 21
385.7403663832477
 31
0.0
  0
LINE
  5
17A
330
2
100
AcDbEntity
  8
0
  6
Continuous
 62
     7
100
AcDbLine
 10
142.2899688400342
 20
385.7403663832477
 30
0.0
 11
142.2899688400342
 21
382.7403663832476
 31
0.0
  0
LINE
  5
17B
330
2
100
AcDbEntity
  8
0
  6
Continuous
 62
     7
100
AcDbLine
 10
152.2899688400342
 20
385.7403663832477
 30
0.0
 11
152.2899688400342
 21
586.7403663832476
 31
0.0
  0
LINE
  5
17C
330
2
100
AcDbEntity
  8
0
  6
Continuous
 62
     7
100
AcDbLine
 10
142.2899688400342
 20
586.7403663832476
 30
0.0
 11
152.2899688400342
 21
586.7403663832476
 31
0.0
  0
LINE
  5
17D
330
2
100
AcDbEntity
  8
0
  6
Continuous
 62
     7
100
AcDbLine
 10
142.2899688400342
 20
586.7403663832476
 30
0.0
 11
142.2899688400342
 21
385.7403663832477
 31
0.0
  0
LINE
  5
17E
330
2
100
AcDbEntity
  8
0
  6
Continuous
 62
     7
100
AcDbLine
 10
152.2899688400342
 20
586.7403663832476
 30
0.0
 11
152.2899688400342
 21
589.7403663832476
 31
0.0
  0
LINE
  5
17F
330
2
100
AcDbEntity
  8
0
  6
Continuous
 62
     7
100
AcDbLine
 10
142.2899688400342
 20
589.7403663832476
 30
0.0
 11
142.2899688400342
 21
586.7403663832476
 31
0.0
  0
LINE
  5
180
330
2
100
AcDbEntity
  8
0
  6
Continuous
 62
     7
100
AcDbLine
 10
157.5001739166994
 20
384.2466843963255
 30
0.0
 11
157.4942821014742
 21
383.7455877797203
 31
0.0
  0
LINE
  5
181
330
2
100
AcDbEntity
  8
0
  6
Continuous
 62
     7
100
AcDbLine
 10
157.2248168976799
 20
383.740897015393
 30
0.0
 11
157.2306954817067
 21
384.2408683236692
 31
0.0
  0
LINE
  5
182
330
2
100
AcDbEntity
  8
0
  6
Continuous
 62
     7
100
AcDbLine
 10
156.5682810035471
 20
387.7403663832477
 30
0.0
 11
156.9291249217906
 21
388.3653663832476
 31
0.0
  0
LINE
  5
183
330
2
100
AcDbEntity
  8
0
  6
Continuous
 62
     7
100
AcDbLine
 10
156.9291249217906
 20
387.1153663832476
 30
0.0
 11
156.5682810035471
 21
387.7403663832477
 31
0.0
  0
LINE
  5
184
330
2
100
AcDbEntity
  8
0
  6
Continuous
 62
     7
100
AcDbLine
 10
157.6508127582776
 20
387.1153663832476
 30
0.0
 11
156.9291249217906
 21
387.1153663832476
 31
0.0
  0
LINE
  5
185
330
2
100
AcDbEntity
  8
0
  6
Continuous
 62
     7
100
AcDbLine
 10
158.0116566765212
 20
387.7403663832477
 30
0.0
 11
157.6508127582776
 21
387.1153663832476
 31
0.0
  0
LINE
  5
186
330
2
100
AcDbEntity
  8
0
  6
Continuous
 62
     7
100
AcDbLine
 10
157.6508127582776
 20
388.3653663832476
 30
0.0
 11
158.0116566765212
 21
387.7403663832477
 31
0.0
  0
LINE
  5
187
330
2
100
AcDbEntity
  8
0
  6
Continuous
 62
     7
100
AcDbLine
 10
156.9291249217906
 20
388.3653663832476
 30
0.0
 11
157.6508127582776
 21
388.3653663832476
 31
0.0
  0
CIRCLE
  5
188
330
2
100
AcDbEntity
  8
0
  6
Continuous
 62
     7
100
AcDbCircle
 10
157.2899688400342
 20
387.7403663832477
 30
0.0
 40
3.5
  0
LINE
  5
189
330
2
100
AcDbEntity
  8
0
  6
Continuous
 62
     7
100
AcDbLine
 10
179.7899688400341
 20
401.7403663832464
 30
0.0
 11
179.7899688400341
 21
402.7403663832464
 31
0.0
  0
LINE
  5
18A
330
2
100
AcDbEntity
  8
0
  6
Continuous
 62
     7
100
AcDbLine
 10
214.7899688400341
 20
401.7403663832464
 30
0.0
 11
214.7899688400341
 21
402.7403663832464
 31
0.0
  0
LINE
  5
18B
330
2
100
AcDbEntity
  8
0
  6
Continuous
 62
     7
100
AcDbLine
 10
214.7899688400341
 20
401.7403663832464
 30
0.0
 11
197.2899688400341
 21
401.7403663832464
 31
0.0
  0
LINE
  5
18C
330
2
100
AcDbEntity
  8
0
  6
Continuous
 62
     7
100
AcDbLine
 10
197.2899688400341
 20
401.7403663832464
 30
0.0
 11
179.7899688400341
 21
401.7403663832464
 31
0.0
  0
LINE
  5
18D
330
2
100
AcDbEntity
  8
0
  6
Continuous
 62
     7
100
AcDbLine
 10
197.2899688400341
 20
408.758870925624
 30
0.0
 11
196.439968840034
 21
409.2496186544352
 31
0.0
  0
LINE
  5
18E
330
2
100
AcDbEntity
  8
0
  6
Continuous
 62
     7
100
AcDbLine
 10
198.1399688400341
 20
409.2496186544352
 30
0.0
 11
197.2899688400341
 21
408.758870925624
 31
0.0
  0
LINE
  5
18F
330
2
100
AcDbEntity
  8
0
  6
Continuous
 62
     7
100
AcDbLine
 10
198.1399688400341
 20
410.2311141120576
 30
0.0
 11
198.1399688400341
 21
409.2496186544352
 31
0.0
  0
LINE
  5
190
330
2
100
AcDbEntity
  8
0
  6
Continuous
 62
     7
100
AcDbLine
 10
197.2899688400341
 20
410.7218618408685
 30
0.0
 11
198.1399688400341
 21
410.2311141120576
 31
0.0
  0
LINE
  5
191
330
2
100
AcDbEntity
  8
0
  6
Continuous
 62
     7
100
AcDbLine
 10
196.439968840034
 20
410.2311141120576
 30
0.0
 11
197.2899688400341
 21
410.7218618408689
 31
0.0
  0
LINE
  5
192
330
2
100
AcDbEntity
  8
0
  6
Continuous
 62
     7
100
AcDbLine
 10
196.439968840034
 20
409.2496186544352
 30
0.0
 11
196.439968840034
 21
410.2311141120576
 31
0.0
  0
LINE
  5
193
330
2
100
AcDbEntity
  8
0
  6
Continuous
 62
     7
100
AcDbLine
 10
248.5682810035472
 20
387.7403663832477
 30
0.0
 11
248.9291249217907
 21
388.3653663832476
 31
0.0
  0
LINE
  5
194
330
2
100
AcDbEntity
  8
0
  6
Continuous
 62
     7
100
AcDbLine
 10
248.9291249217906
 20
387.1153663832476
 30
0.0
 11
248.5682810035471
 21
387.7403663832477
 31
0.0
  0
LINE
  5
195
330
2
100
AcDbEntity
  8
0
  6
Continuous
 62
     7
100
AcDbLine
 10
249.6508127582777
 20
387.1153663832476
 30
0.0
 11
248.9291249217907
 21
387.1153663832476
 31
0.0
  0
LINE
  5
196
330
2
100
AcDbEntity
  8
0
  6
Continuous
 62
     7
100
AcDbLine
 10
250.0116566765212
 20
387.7403663832477
 30
0.0
 11
249.6508127582777
 21
387.1153663832476
 31
0.0
  0
LINE
  5
197
330
2
100
AcDbEntity
  8
0
  6
Continuous
 62
     7
100
AcDbLine
 10
249.6508127582777
 20
388.3653663832476
 30
0.0
 11
250.0116566765212
 21
387.7403663832477
 31
0.0
  0
LINE
  5
198
330
2
100
AcDbEntity
  8
0
  6
Continuous
 62
     7
100
AcDbLine
 10
248.9291249217906
 20
388.3653663832476
 30
0.0
 11
249.6508127582777
 21
388.3653663832476
 31
0.0
  0
CIRCLE
  5
199
330
2
100
AcDbEntity
  8
0
  6
Continuous
 62
     7
100
AcDbCircle
 10
249.2899688400342
 20
387.7403663832477
 30
0.0
 40
3.5
  0
LINE
  5
19A
330
2
100
AcDbEntity
  8
0
  6
Continuous
 62
     7
100
AcDbLine
 10
249.5001739166994
 20
384.2466843963255
 30
0.0
 11
249.4942821014742
 21
383.7455877797201
 31
0.0
  0
LINE
  5
19B
330
2
100
AcDbEntity
  8
0
  6
Continuous
 62
     7
100
AcDbLine
 10
249.2248168976799
 20
383.7408970153928
 30
0.0
 11
249.2306954817067
 21
384.2408683236693
 31
0.0
  0
CIRCLE
  5
19C
330
2
100
AcDbEntity
  8
0
  6
Continuous
 62
     7
100
AcDbCircle
 10
241.7899688400342
 20
421.5803663832475
 30
0.0
 40
2.749999999999979
  0
LINE
  5
19D
330
2
100
AcDbEntity
  8
0
  6
Continuous
 62
     7
100
AcDbLine
 10
167.2899688400341
 20
589.7403663832472
 30
0.0
 11
167.2899688400341
 21
590.7403663832467
 31
0.0
  0
LINE
  5
19E
330
2
100
AcDbEntity
  8
0
  6
Continuous
 62
     7
100
AcDbLine
 10
207.2899688400341
 20
589.7403663832472
 30
0.0
 11
207.2899688400341
 21
590.7403663832467
 31
0.0
  0
LINE
  5
19F
330
2
100
AcDbEntity
  8
0
  6
Continuous
 62
     7
100
AcDbLine
 10
179.2899688400342
 20
590.7403663832467
 30
0.0
 11
169.2899688400342
 21
590.7403663832467
 31
0.0
  0
LINE
  5
1A0
330
2
100
AcDbEntity
  8
0
  6
Continuous
 62
     7
100
AcDbLine
 10
205.2899688400342
 20
590.7403663832467
 30
0.0
 11
207.2899688400341
 21
590.7403663832467
 31
0.0
  0
LINE
  5
1A1
330
2
100
AcDbEntity
  8
0
  6
Continuous
 62
     7
100
AcDbLine
 10
167.2899688400341
 20
590.7403663832467
 30
0.0
 11
169.2899688400341
 21
590.7403663832467
 31
0.0
  0
LINE
  5
1A2
330
2
100
AcDbEntity
  8
0
  6
Continuous
 62
     7
100
AcDbLine
 10
179.2899688400342
 20
590.7403663832467
 30
0.0
 11
169.2899688400341
 21
590.7403663832467
 31
0.0
  0
LINE
  5
1A3
330
2
100
AcDbEntity
  8
0
  6
Continuous
 62
     7
100
AcDbLine
 10
167.2899688400341
 20
589.7403663832472
 30
0.0
 11
167.2899688400341
 21
590.7403663832467
 31
0.0
  0
LINE
  5
1A4
330
2
100
AcDbEntity
  8
0
  6
Continuous
 62
     7
100
AcDbLine
 10
207.2899688400341
 20
589.7403663832472
 30
0.0
 11
207.2899688400341
 21
590.7403663832467
 31
0.0
  0
LINE
  5
1A5
330
2
100
AcDbEntity
  8
0
  6
Continuous
 62
     7
100
AcDbLine
 10
167.2899688400341
 20
590.7403663832467
 30
0.0
 11
169.2899688400341
 21
590.7403663832467
 31
0.0
  0
LINE
  5
1A6
330
2
100
AcDbEntity
  8
0
  6
Continuous
 62
     7
100
AcDbLine
 10
205.2899688400342
 20
590.7403663832467
 30
0.0
 11
207.2899688400342
 21
590.7403663832467
 31
0.0
  0
LINE
  5
1A7
330
2
100
AcDbEntity
  8
0
  6
Continuous
 62
     7
100
AcDbLine
 10
203.2899688400342
 20
608.7403663832467
 30
0.0
 11
179.2899688400342
 21
608.7403663832467
 31
0.0
  0
LINE
  5
1A8
330
2
100
AcDbEntity
  8
0
  6
Continuous
 62
     7
100
AcDbLine
 10
205.2899688400342
 20
590.7403663832467
 30
0.0
 11
205.2899688400342
 21
606.7403663832467
 31
0.0
  0
LINE
  5
1A9
330
2
100
AcDbEntity
  8
0
  6
Continuous
 62
     7
100
AcDbLine
 10
203.2899688400342
 20
590.7403663832467
 30
0.0
 11
179.2899688400342
 21
590.7403663832467
 31
0.0
  0
LINE
  5
1AA
330
2
100
AcDbEntity
  8
0
  6
Continuous
 62
     7
100
AcDbLine
 10
172.2899688400342
 20
616.7403663832467
 30
0.0
 11
175.2899688400342
 21
613.3117949546754
 31
0.0
  0
LINE
  5
1AB
330
2
100
AcDbEntity
  8
0
  6
Continuous
 62
     7
100
AcDbLine
 10
172.2899688400342
 20
616.7403663832467
 30
0.0
 11
172.2899688400342
 21
614.7431818653226
 31
0.0
  0
LINE
  5
1AC
330
2
100
AcDbEntity
  8
0
  6
Continuous
 62
     7
100
AcDbLine
 10
175.2899688400342
 20
611.3146104367512
 30
0.0
 11
172.2899688400342
 21
614.7431818653226
 31
0.0
  0
LINE
  5
1AD
330
2
100
AcDbEntity
  8
0
  6
Continuous
 62
     7
100
AcDbLine
 10
175.2899688400342
 20
613.3117949546754
 30
0.0
 11
179.2899688400342
 21
608.7403663832467
 31
0.0
  0
LINE
  5
1AE
330
2
100
AcDbEntity
  8
0
  6
Continuous
 62
     7
100
AcDbLine
 10
179.2899688400342
 20
606.7431818653226
 30
0.0
 11
175.2899688400341
 21
611.3146104367512
 31
0.0
  0
LINE
  5
1AF
330
2
100
AcDbEntity
  8
0
  6
Continuous
 62
     7
100
AcDbLine
 10
179.2899688400342
 20
606.7403663832467
 30
0.0
 11
179.2899688400342
 21
590.7403663832467
 31
0.0
  0
ARC
  5
1B0
330
2
100
AcDbEntity
  8
0
  6
Continuous
 62
     7
100
AcDbCircle
 10
203.2899688400342
 20
606.7403663832467
 30
0.0
 40
2.0
100
AcDbArc
 50
0.0
 51
90.0
  0
LINE
  5
1B1
330
2
100
AcDbEntity
  8
0
  6
Continuous
 62
     7
100
AcDbLine
 10
179.2899688400342
 20
606.7403663832467
 30
0.0
 11
179.2899688400342
 21
608.7403663832467
 31
0.0
  0
LINE
  5
1B2
330
2
100
AcDbEntity
  8
0
  6
Continuous
 62
     7
100
AcDbLine
 10
205.2899688400342
 20
590.7403663832467
 30
0.0
 11
203.2899688400342
 21
590.7403663832467
 31
0.0
  0
LINE
  5
1B3
330
2
100
AcDbEntity
  8
0
  6
Continuous
 62
     7
100
AcDbLine
 10
157.5001739166994
 20
581.2466843963252
 30
0.0
 11
157.4942821014742
 21
580.7455877797202
 31
0.0
  0
LINE
  5
1B4
330
2
100
AcDbEntity
  8
0
  6
Continuous
 62
     7
100
AcDbLine
 10
157.2248168976799
 20
580.740897015393
 30
0.0
 11
157.2306954817067
 21
581.2408683236692
 31
0.0
  0
LINE
  5
1B5
330
2
100
AcDbEntity
  8
0
  6
Continuous
 62
     7
100
AcDbLine
 10
156.5682810035471
 20
584.7403663832476
 30
0.0
 11
156.9291249217906
 21
585.3653663832476
 31
0.0
  0
LINE
  5
1B6
330
2
100
AcDbEntity
  8
0
  6
Continuous
 62
     7
100
AcDbLine
 10
156.9291249217906
 20
584.1153663832476
 30
0.0
 11
156.5682810035471
 21
584.7403663832476
 31
0.0
  0
LINE
  5
1B7
330
2
100
AcDbEntity
  8
0
  6
Continuous
 62
     7
100
AcDbLine
 10
157.6508127582776
 20
584.1153663832476
 30
0.0
 11
156.9291249217906
 21
584.1153663832476
 31
0.0
  0
LINE
  5
1B8
330
2
100
AcDbEntity
  8
0
  6
Continuous
 62
     7
100
AcDbLine
 10
158.0116566765212
 20
584.7403663832476
 30
0.0
 11
157.6508127582776
 21
584.1153663832476
 31
0.0
  0
LINE
  5
1B9
330
2
100
AcDbEntity
  8
0
  6
Continuous
 62
     7
100
AcDbLine
 10
157.6508127582776
 20
585.3653663832476
 30
0.0
 11
158.0116566765212
 21
584.7403663832476
 31
0.0
  0
LINE
  5
1BA
330
2
100
AcDbEntity
  8
0
  6
Continuous
 62
     7
100
AcDbLine
 10
156.9291249217906
 20
585.3653663832476
 30
0.0
 11
157.6508127582776
 21
585.3653663832476
 31
0.0
  0
CIRCLE
  5
1BB
330
2
100
AcDbEntity
  8
0
  6
Continuous
 62
     7
100
AcDbCircle
 10
157.2899688400342
 20
584.7403663832476
 30
0.0
 40
3.5
  0
LINE
  5
1BC
330
2
100
AcDbEntity
  8
0
  6
Continuous
 62
     7
100
AcDbLine
 10
214.7899688400341
 20
582.7403663832463
 30
0.0
 11
214.7899688400341
 21
581.7403663832465
 31
0.0
  0
LINE
  5
1BD
330
2
100
AcDbEntity
  8
0
  6
Continuous
 62
     7
100
AcDbLine
 10
179.7899688400341
 20
582.7403663832463
 30
0.0
 11
179.7899688400341
 21
581.7403663832465
 31
0.0
  0
LINE
  5
1BE
330
2
100
AcDbEntity
  8
0
  6
Continuous
 62
     7
100
AcDbLine
 10
179.7899688400341
 20
582.7403663832463
 30
0.0
 11
197.2899688400341
 21
582.7403663832463
 31
0.0
  0
LINE
  5
1BF
330
2
100
AcDbEntity
  8
0
  6
Continuous
 62
     7
100
AcDbLine
 10
197.2899688400341
 20
582.7403663832463
 30
0.0
 11
214.7899688400341
 21
582.7403663832463
 31
0.0
  0
LINE
  5
1C0
330
2
100
AcDbEntity
  8
0
  6
Continuous
 62
     7
100
AcDbLine
 10
208.0116566765211
 20
432.2403663832464
 30
0.0
 11
207.6508127582776
 21
431.6153663832464
 31
0.0
  0
LINE
  5
1C1
330
2
100
AcDbEntity
  8
0
  6
Continuous
 62
     7
100
AcDbLine
 10
207.6508127582776
 20
432.8653663832461
 30
0.0
 11
208.0116566765211
 21
432.2403663832464
 31
0.0
  0
LINE
  5
1C2
330
2
100
AcDbEntity
  8
0
  6
Continuous
 62
     7
100
AcDbLine
 10
206.9291249217906
 20
432.8653663832461
 30
0.0
 11
207.6508127582776
 21
432.8653663832461
 31
0.0
  0
LINE
  5
1C3
330
2
100
AcDbEntity
  8
0
  6
Continuous
 62
     7
100
AcDbLine
 10
206.568281003547
 20
432.2403663832464
 30
0.0
 11
206.9291249217906
 21
432.8653663832461
 31
0.0
  0
LINE
  5
1C4
330
2
100
AcDbEntity
  8
0
  6
Continuous
 62
     7
100
AcDbLine
 10
206.9291249217906
 20
431.6153663832464
 30
0.0
 11
206.568281003547
 21
432.2403663832464
 31
0.0
  0
LINE
  5
1C5
330
2
100
AcDbEntity
  8
0
  6
Continuous
 62
     7
100
AcDbLine
 10
207.6508127582776
 20
431.6153663832464
 30
0.0
 11
206.9291249217906
 21
431.6153663832464
 31
0.0
  0
CIRCLE
  5
1C6
330
2
100
AcDbEntity
  8
0
  6
Continuous
 62
     7
100
AcDbCircle
 10
207.2899688400341
 20
432.2403663832464
 30
0.0
 40
3.5
  0
LINE
  5
1C7
330
2
100
AcDbEntity
  8
0
  6
Continuous
 62
     7
100
AcDbLine
 10
203.2951902365068
 20
432.4446796446848
 30
0.0
 11
203.7962868531119
 21
432.4505714599105
 31
0.0
  0
LINE
  5
1C8
330
2
100
AcDbEntity
  8
0
  6
Continuous
 62
     7
100
AcDbLine
 10
203.7904707804559
 20
432.1810930249177
 30
0.0
 11
203.2904994721795
 21
432.1752144408907
 31
0.0
  0
LINE
  5
1C9
330
2
100
AcDbEntity
  8
0
  6
Continuous
 62
     7
100
AcDbLine
 10
188.0116566765211
 20
432.2403663832464
 30
0.0
 11
187.6508127582776
 21
431.6153663832464
 31
0.0
  0
LINE
  5
1CA
330
2
100
AcDbEntity
  8
0
  6
Continuous
 62
     7
100
AcDbLine
 10
187.6508127582776
 20
432.8653663832461
 30
0.0
 11
188.0116566765211
 21
432.2403663832464
 31
0.0
  0
LINE
  5
1CB
330
2
100
AcDbEntity
  8
0
  6
Continuous
 62
     7
100
AcDbLine
 10
186.9291249217906
 20
432.8653663832461
 30
0.0
 11
187.6508127582776
 21
432.8653663832461
 31
0.0
  0
LINE
  5
1CC
330
2
100
AcDbEntity
  8
0
  6
Continuous
 62
     7
100
AcDbLine
 10
186.568281003547
 20
432.2403663832464
 30
0.0
 11
186.9291249217906
 21
432.8653663832461
 31
0.0
  0
LINE
  5
1CD
330
2
100
AcDbEntity
  8
0
  6
Continuous
 62
     7
100
AcDbLine
 10
186.9291249217906
 20
431.6153663832464
 30
0.0
 11
186.568281003547
 21
432.2403663832464
 31
0.0
  0
LINE
  5
1CE
330
2
100
AcDbEntity
  8
0
  6
Continuous
 62
     7
100
AcDbLine
 10
187.6508127582776
 20
431.6153663832464
 30
0.0
 11
186.9291249217906
 21
431.6153663832464
 31
0.0
  0
CIRCLE
  5
1CF
330
2
100
AcDbEntity
  8
0
  6
Continuous
 62
     7
100
AcDbCircle
 10
187.2899688400341
 20
432.2403663832464
 30
0.0
 40
3.5
  0
LINE
  5
1D0
330
2
100
AcDbEntity
  8
0
  6
Continuous
 62
     7
100
AcDbLine
 10
183.2951902365065
 20
432.4446796446848
 30
0.0
 11
183.7962868531118
 21
432.4505714599105
 31
0.0
  0
LINE
  5
1D1
330
2
100
AcDbEntity
  8
0
  6
Continuous
 62
     7
100
AcDbLine
 10
183.7904707804557
 20
432.1810930249177
 30
0.0
 11
183.2904994721793
 21
432.1752144408907
 31
0.0
  0
CIRCLE
  5
1D2
330
2
100
AcDbEntity
  8
0
  6
Continuous
 62
     7
100
AcDbCircle
 10
241.7899688400342
 20
438.9003663832474
 30
0.0
 40
2.749999999999979
  0
LINE
  5
1D3
330
2
100
AcDbEntity
  8
0
  6
Continuous
 62
     7
100
AcDbLine
 10
203.2951902365068
 20
552.4446796446851
 30
0.0
 11
203.7962868531119
 21
552.4505714599105
 31
0.0
  0
LINE
  5
1D4
330
2
100
AcDbEntity
  8
0
  6
Continuous
 62
     7
100
AcDbLine
 10
203.7904707804559
 20
552.1810930249178
 30
0.0
 11
203.2904994721795
 21
552.1752144408908
 31
0.0
  0
LINE
  5
1D5
330
2
100
AcDbEntity
  8
0
  6
Continuous
 62
     7
100
AcDbLine
 10
208.0116566765211
 20
552.2403663832465
 30
0.0
 11
207.6508127582776
 21
551.6153663832465
 31
0.0
  0
LINE
  5
1D6
330
2
100
AcDbEntity
  8
0
  6
Continuous
 62
     7
100
AcDbLine
 10
207.6508127582776
 20
552.8653663832463
 30
0.0
 11
208.0116566765211
 21
552.2403663832465
 31
0.0
  0
LINE
  5
1D7
330
2
100
AcDbEntity
  8
0
  6
Continuous
 62
     7
100
AcDbLine
 10
206.9291249217906
 20
552.8653663832463
 30
0.0
 11
207.6508127582776
 21
552.8653663832463
 31
0.0
  0
LINE
  5
1D8
330
2
100
AcDbEntity
  8
0
  6
Continuous
 62
     7
100
AcDbLine
 10
206.568281003547
 20
552.2403663832465
 30
0.0
 11
206.9291249217906
 21
552.8653663832463
 31
0.0
  0
LINE
  5
1D9
330
2
100
AcDbEntity
  8
0
  6
Continuous
 62
     7
100
AcDbLine
 10
206.9291249217906
 20
551.6153663832465
 30
0.0
 11
206.568281003547
 21
552.2403663832465
 31
0.0
  0
LINE
  5
1DA
330
2
100
AcDbEntity
  8
0
  6
Continuous
 62
     7
100
AcDbLine
 10
207.6508127582776
 20
551.6153663832465
 30
0.0
 11
206.9291249217906
 21
551.6153663832465
 31
0.0
  0
CIRCLE
  5
1DB
330
2
100
AcDbEntity
  8
0
  6
Continuous
 62
     7
100
AcDbCircle
 10
207.2899688400341
 20
552.2403663832465
 30
0.0
 40
3.5
  0
LINE
  5
1DC
330
2
100
AcDbEntity
  8
0
  6
Continuous
 62
     7
100
AcDbLine
 10
188.0116566765211
 20
552.2403663832465
 30
0.0
 11
187.6508127582776
 21
551.6153663832465
 31
0.0
  0
LINE
  5
1DD
330
2
100
AcDbEntity
  8
0
  6
Continuous
 62
     7
100
AcDbLine
 10
187.6508127582776
 20
552.8653663832463
 30
0.0
 11
188.0116566765211
 21
552.2403663832465
 31
0.0
  0
LINE
  5
1DE
330
2
100
AcDbEntity
  8
0
  6
Continuous
 62
     7
100
AcDbLine
 10
186.9291249217906
 20
552.8653663832463
 30
0.0
 11
187.6508127582776
 21
552.8653663832463
 31
0.0
  0
LINE
  5
1DF
330
2
100
AcDbEntity
  8
0
  6
Continuous
 62
     7
100
AcDbLine
 10
186.568281003547
 20
552.2403663832465
 30
0.0
 11
186.9291249217906
 21
552.8653663832463
 31
0.0
  0
LINE
  5
1E0
330
2
100
AcDbEntity
  8
0
  6
Continuous
 62
     7
100
AcDbLine
 10
186.9291249217906
 20
551.6153663832465
 30
0.0
 11
186.568281003547
 21
552.2403663832465
 31
0.0
  0
LINE
  5
1E1
330
2
100
AcDbEntity
  8
0
  6
Continuous
 62
     7
100
AcDbLine
 10
187.6508127582776
 20
551.6153663832465
 30
0.0
 11
186.9291249217906
 21
551.6153663832465
 31
0.0
  0
CIRCLE
  5
1E2
330
2
100
AcDbEntity
  8
0
  6
Continuous
 62
     7
100
AcDbCircle
 10
187.2899688400341
 20
552.2403663832465
 30
0.0
 40
3.5
  0
LINE
  5
1E3
330
2
100
AcDbEntity
  8
0
  6
Continuous
 62
     7
100
AcDbLine
 10
183.2951902365065
 20
552.4446796446851
 30
0.0
 11
183.7962868531118
 21
552.4505714599105
 31
0.0
  0
LINE
  5
1E4
330
2
100
AcDbEntity
  8
0
  6
Continuous
 62
     7
100
AcDbLine
 10
183.7904707804557
 20
552.181093024918
 30
0.0
 11
183.2904994721793
 21
552.175214440891
 31
0.0
  0
LINE
  5
1E5
330
2
100
AcDbEntity
  8
0
  6
Continuous
 62
     7
100
AcDbLine
 10
197.2899688400341
 20
573.7588709256241
 30
0.0
 11
196.439968840034
 21
574.2496186544351
 31
0.0
  0
LINE
  5
1E6
330
2
100
AcDbEntity
  8
0
  6
Continuous
 62
     7
100
AcDbLine
 10
198.1399688400341
 20
574.2496186544351
 30
0.0
 11
197.2899688400341
 21
573.7588709256241
 31
0.0
  0
LINE
  5
1E7
330
2
100
AcDbEntity
  8
0
  6
Continuous
 62
     7
100
AcDbLine
 10
198.1399688400341
 20
575.2311141120575
 30
0.0
 11
198.1399688400341
 21
574.2496186544351
 31
0.0
  0
LINE
  5
1E8
330
2
100
AcDbEntity
  8
0
  6
Continuous
 62
     7
100
AcDbLine
 10
197.2899688400341
 20
575.7218618408687
 30
0.0
 11
198.1399688400341
 21
575.2311141120575
 31
0.0
  0
LINE
  5
1E9
330
2
100
AcDbEntity
  8
0
  6
Continuous
 62
     7
100
AcDbLine
 10
196.439968840034
 20
575.2311141120575
 30
0.0
 11
197.2899688400341
 21
575.7218618408687
 31
0.0
  0
LINE
  5
1EA
330
2
100
AcDbEntity
  8
0
  6
Continuous
 62
     7
100
AcDbLine
 10
196.439968840034
 20
574.2496186544351
 30
0.0
 11
196.439968840034
 21
575.2311141120575
 31
0.0
  0
LINE
  5
1EB
330
2
100
AcDbEntity
  8
0
  6
Continuous
 62
     7
100
AcDbLine
 10
249.5001739166994
 20
581.2466843963252
 30
0.0
 11
249.4942821014742
 21
580.7455877797202
 31
0.0
  0
LINE
  5
1EC
330
2
100
AcDbEntity
  8
0
  6
Continuous
 62
     7
100
AcDbLine
 10
249.22481689768
 20
580.740897015393
 30
0.0
 11
249.2306954817068
 21
581.2408683236692
 31
0.0
  0
LINE
  5
1ED
330
2
100
AcDbEntity
  8
0
  6
Continuous
 62
     7
100
AcDbLine
 10
248.5682810035472
 20
584.7403663832476
 30
0.0
 11
248.9291249217907
 21
585.3653663832476
 31
0.0
  0
LINE
  5
1EE
330
2
100
AcDbEntity
  8
0
  6
Continuous
 62
     7
100
AcDbLine
 10
248.9291249217906
 20
584.1153663832476
 30
0.0
 11
248.5682810035471
 21
584.7403663832476
 31
0.0
  0
LINE
  5
1EF
330
2
100
AcDbEntity
  8
0
  6
Continuous
 62
     7
100
AcDbLine
 10
249.6508127582777
 20
584.1153663832476
 30
0.0
 11
248.9291249217907
 21
584.1153663832476
 31
0.0
  0
LINE
  5
1F0
330
2
100
AcDbEntity
  8
0
  6
Continuous
 62
     7
100
AcDbLine
 10
250.0116566765212
 20
584.7403663832476
 30
0.0
 11
249.6508127582777
 21
584.1153663832476
 31
0.0
  0
LINE
  5
1F1
330
2
100
AcDbEntity
  8
0
  6
Continuous
 62
     7
100
AcDbLine
 10
249.6508127582777
 20
585.3653663832476
 30
0.0
 11
250.0116566765212
 21
584.7403663832476
 31
0.0
  0
LINE
  5
1F2
330
2
100
AcDbEntity
  8
0
  6
Continuous
 62
     7
100
AcDbLine
 10
248.9291249217906
 20
585.3653663832476
 30
0.0
 11
249.6508127582777
 21
585.3653663832476
 31
0.0
  0
CIRCLE
  5
1F3
330
2
100
AcDbEntity
  8
0
  6
Continuous
 62
     7
100
AcDbCircle
 10
249.2899688400342
 20
584.7403663832476
 30
0.0
 40
3.5
  0
LINE
  5
1F4
330
2
100
AcDbEntity
  8
0
  6
Continuous
 62
     7
100
AcDbLine
 10
832.9808194857296
 20
233.2040847597776
 30
0.0
 11
835.9808194857299
 21
230.2040847597776
 31
0.0
  0
LINE
  5
1F5
330
2
100
AcDbEntity
  8
0
  6
Continuous
 62
     7
100
AcDbLine
 10
835.9808194857299
 20
198.2040847597776
 30
0.0
 11
835.9808194857299
 21
230.2040847597776
 31
0.0
  0
LINE
  5
1F6
330
2
100
AcDbEntity
  8
0
  6
Continuous
 62
     7
100
AcDbLine
 10
832.9808194857296
 20
233.2040847597776
 30
0.0
 11
797.9808194857296
 21
233.2040847597776
 31
0.0
  0
LINE
  5
1F7
330
2
100
AcDbEntity
  8
0
  6
Continuous
 62
     7
100
AcDbLine
 10
797.9808194857296
 20
195.2040847597776
 30
0.0
 11
832.9808194857296
 21
195.2040847597776
 31
0.0
  0
LINE
  5
1F8
330
2
100
AcDbEntity
  8
0
  6
Continuous
 62
     7
100
AcDbLine
 10
835.9808194857299
 20
198.2040847597776
 30
0.0
 11
832.9808194857296
 21
195.2040847597776
 31
0.0
  0
CIRCLE
  5
1F9
330
2
100
AcDbEntity
  8
0
  6
Continuous
 62
     7
100
AcDbCircle
 10
816.9808194857296
 20
214.2040847597776
 30
0.0
 40
18.0
  0
LINE
  5
1FA
330
2
100
AcDbEntity
  8
0
  6
Continuous
 62
     7
100
AcDbLine
 10
797.9808194857296
 20
171.7040847597776
 30
0.0
 11
796.9808194857301
 21
171.7040847597776
 31
0.0
  0
LINE
  5
1FB
330
2
100
AcDbEntity
  8
0
  6
Continuous
 62
     7
100
AcDbLine
 10
796.9808194857301
 20
176.8498360708421
 30
0.0
 11
796.9808194857301
 21
256.7040847597776
 31
0.0
  0
LINE
  5
1FC
330
2
100
AcDbEntity
  8
0
  6
Continuous
 62
     7
100
AcDbLine
 10
797.9808194857296
 20
253.7040847597775
 30
0.0
 11
797.9808194857296
 21
174.7040847597777
 31
0.0
  0
LINE
  5
1FD
330
2
100
AcDbEntity
  8
0
  6
Continuous
 62
     7
100
AcDbLine
 10
796.9808194857301
 20
256.7040847597776
 30
0.0
 11
797.9808194857296
 21
256.7040847597776
 31
0.0
  0
ARC
  5
1FE
330
2
100
AcDbEntity
  8
0
  6
Continuous
 62
     7
100
AcDbCircle
 10
799.9808194857296
 20
174.2040847597776
 30
0.0
 40
4.0
100
AcDbArc
 50
138.5903778907293
 51
240.0
  0
LINE
  5
1FF
330
2
100
AcDbEntity
  8
0
  6
Continuous
 62
     7
100
AcDbLine
 10
797.9808194857296
 20
256.7040847597776
 30
0.0
 11
797.9808194857296
 21
262.7399831446398
 31
0.0
  0
ARC
  5
200
330
2
100
AcDbEntity
  8
0
  6
Continuous
 62
     7
100
AcDbCircle
 10
799.9808194857296
 20
266.2040847597776
 30
0.0
 40
4.0
100
AcDbArc
 50
120.0
 51
240.0
  0
LINE
  5
201
330
2
100
AcDbEntity
  8
0
  6
Continuous
 62
     7
100
AcDbLine
 10
797.9808194857296
 20
269.6681863749154
 30
0.0
 11
797.9808194857296
 21
271.2040847597776
 31
0.0
  0
LINE
  5
202
330
2
100
AcDbEntity
  8
0
  6
Continuous
 62
     7
100
AcDbLine
 10
797.9808194857296
 20
271.2040847597776
 30
0.0
 11
794.98081948573
 21
271.2040847597776
 31
0.0
  0
LINE
  5
203
330
2
100
AcDbEntity
  8
0
  6
Continuous
 62
     7
100
AcDbLine
 10
794.98081948573
 20
271.2040847597776
 30
0.0
 11
794.98081948573
 21
169.2040847597775
 31
0.0
  0
LINE
  5
204
330
2
100
AcDbEntity
  8
0
  6
Continuous
 62
     7
100
AcDbLine
 10
794.98081948573
 20
169.2040847597775
 30
0.0
 11
797.9808194857296
 21
169.2040847597775
 31
0.0
  0
LINE
  5
205
330
2
100
AcDbEntity
  8
0
  6
Continuous
 62
     7
100
AcDbLine
 10
797.9808194857296
 20
169.2040847597775
 30
0.0
 11
797.9808194857296
 21
170.7399831446398
 31
0.0
  0
LINE
  5
206
330
2
100
AcDbEntity
  8
0
  6
Continuous
 62
     7
100
AcDbLine
 10
790.98081948573
 20
271.2040847597776
 30
0.0
 11
794.98081948573
 21
271.2040847597776
 31
0.0
  0
LINE
  5
207
330
2
100
AcDbEntity
  8
0
  6
Continuous
 62
     7
100
AcDbLine
 10
790.98081948573
 20
169.2040847597775
 30
0.0
 11
794.98081948573
 21
169.2040847597775
 31
0.0
  0
LINE
  5
208
330
2
100
AcDbEntity
  8
0
  6
Continuous
 62
     7
100
AcDbLine
 10
790.98081948573
 20
271.2040847597776
 30
0.0
 11
790.98081948573
 21
169.2040847597775
 31
0.0
  0
LINE
  5
209
330
2
100
AcDbEntity
  8
0
  6
Continuous
 62
     7
100
AcDbLine
 10
796.9808194857301
 20
171.7040847597777
 30
0.0
 11
796.9808194857301
 21
176.8498360708421
 31
0.0
  0
LINE
  5
20A
330
2
100
AcDbEntity
  8
0
  6
Continuous
 62
     7
100
AcDbLine
 10
797.9808194857296
 20
174.7040847597777
 30
0.0
 11
797.9808194857296
 21
171.7040847597776
 31
0.0
  0
LINE
  5
20B
330
2
100
AcDbEntity
  8
0
  6
Continuous
 62
     7
100
AcDbLine
 10
797.9808194857296
 20
256.7040847597776
 30
0.0
 11
797.9808194857296
 21
253.7040847597774
 31
0.0
  0
LINE
  5
20C
330
2
100
AcDbEntity
  8
0
  6
Continuous
 62
     7
100
AcDbLine
 10
797.9808194857296
 20
171.7040847597777
 30
0.0
 11
797.9808194857296
 21
170.7399831446398
 31
0.0
  0
LINE
  5
20D
330
2
100
AcDbEntity
  8
0
  6
Continuous
 62
     7
100
AcDbLine
 10
797.9808194857296
 20
269.6681863749154
 30
0.0
 11
797.9808194857296
 21
262.7399831446398
 31
0.0
  0
LINE
  5
20E
330
2
100
AcDbEntity
  8
0
  6
Continuous
 62
     7
100
AcDbLine
 10
387.9808194857298
 20
230.2040847597776
 30
0.0
 11
390.9808194857299
 21
233.2040847597776
 31
0.0
  0
LINE
  5
20F
330
2
100
AcDbEntity
  8
0
  6
Continuous
 62
     7
100
AcDbLine
 10
387.9808194857298
 20
198.2040847597776
 30
0.0
 11
387.9808194857298
 21
230.2040847597776
 31
0.0
  0
LINE
  5
210
330
2
100
AcDbEntity
  8
0
  6
Continuous
 62
     7
100
AcDbLine
 10
390.9808194857299
 20
195.2040847597776
 30
0.0
 11
387.9808194857299
 21
198.2040847597776
 31
0.0
  0
LINE
  5
211
330
2
100
AcDbEntity
  8
0
  6
Continuous
 62
     7
100
AcDbLine
 10
390.9808194857299
 20
195.2040847597776
 30
0.0
 11
425.9808194857298
 21
195.2040847597776
 31
0.0
  0
LINE
  5
212
330
2
100
AcDbEntity
  8
0
  6
Continuous
 62
     7
100
AcDbLine
 10
425.9808194857298
 20
233.2040847597776
 30
0.0
 11
390.9808194857299
 21
233.2040847597776
 31
0.0
  0
CIRCLE
  5
213
330
2
100
AcDbEntity
  8
0
  6
Continuous
 62
     7
100
AcDbCircle
 10
406.9808194857299
 20
214.2040847597776
 30
0.0
 40
18.0
  0
LINE
  5
214
330
2
100
AcDbEntity
  8
0
  6
Continuous
 62
     7
100
AcDbLine
 10
425.9808194857298
 20
256.7040847597776
 30
0.0
 11
426.9808194857299
 21
256.7040847597776
 31
0.0
  0
LINE
  5
215
330
2
100
AcDbEntity
  8
0
  6
Continuous
 62
     7
100
AcDbLine
 10
426.9808194857299
 20
256.7040847597776
 30
0.0
 11
426.9808194857299
 21
176.8498360708421
 31
0.0
  0
LINE
  5
216
330
2
100
AcDbEntity
  8
0
  6
Continuous
 62
     7
100
AcDbLine
 10
425.9808194857298
 20
174.7040847597776
 30
0.0
 11
425.9808194857298
 21
253.7040847597776
 31
0.0
  0
LINE
  5
217
330
2
100
AcDbEntity
  8
0
  6
Continuous
 62
     7
100
AcDbLine
 10
426.9808194857299
 20
171.7040847597776
 30
0.0
 11
425.9808194857298
 21
171.7040847597776
 31
0.0
  0
ARC
  5
218
330
2
100
AcDbEntity
  8
0
  6
Continuous
 62
     7
100
AcDbCircle
 10
423.98081948573
 20
174.2040847597776
 30
0.0
 40
4.0
100
AcDbArc
 50
300.0
 51
41.40962210927088
  0
LINE
  5
219
330
2
100
AcDbEntity
  8
0
  6
Continuous
 62
     7
100
AcDbLine
 10
425.9808194857298
 20
170.7399831446398
 30
0.0
 11
425.9808194857298
 21
169.2040847597776
 31
0.0
  0
LINE
  5
21A
330
2
100
AcDbEntity
  8
0
  6
Continuous
 62
     7
100
AcDbLine
 10
425.9808194857298
 20
169.2040847597776
 30
0.0
 11
428.9808194857299
 21
169.2040847597776
 31
0.0
  0
LINE
  5
21B
330
2
100
AcDbEntity
  8
0
  6
Continuous
 62
     7
100
AcDbLine
 10
428.9808194857299
 20
169.2040847597776
 30
0.0
 11
428.9808194857299
 21
271.2040847597776
 31
0.0
  0
LINE
  5
21C
330
2
100
AcDbEntity
  8
0
  6
Continuous
 62
     7
100
AcDbLine
 10
428.9808194857299
 20
271.2040847597776
 30
0.0
 11
425.9808194857298
 21
271.2040847597776
 31
0.0
  0
LINE
  5
21D
330
2
100
AcDbEntity
  8
0
  6
Continuous
 62
     7
100
AcDbLine
 10
425.9808194857298
 20
271.2040847597776
 30
0.0
 11
425.9808194857298
 21
269.6681863749154
 31
0.0
  0
ARC
  5
21E
330
2
100
AcDbEntity
  8
0
  6
Continuous
 62
     7
100
AcDbCircle
 10
423.98081948573
 20
266.2040847597776
 30
0.0
 40
4.0
100
AcDbArc
 50
300.0
 51
60.00000000000003
  0
LINE
  5
21F
330
2
100
AcDbEntity
  8
0
  6
Continuous
 62
     7
100
AcDbLine
 10
425.9808194857298
 20
262.7399831446399
 30
0.0
 11
425.9808194857298
 21
256.7040847597776
 31
0.0
  0
LINE
  5
220
330
2
100
AcDbEntity
  8
0
  6
Continuous
 62
     7
100
AcDbLine
 10
432.9808194857299
 20
169.2040847597776
 30
0.0
 11
428.9808194857299
 21
169.2040847597776
 31
0.0
  0
LINE
  5
221
330
2
100
AcDbEntity
  8
0
  6
Continuous
 62
     7
100
AcDbLine
 10
432.9808194857299
 20
271.2040847597776
 30
0.0
 11
428.9808194857299
 21
271.2040847597776
 31
0.0
  0
LINE
  5
222
330
2
100
AcDbEntity
  8
0
  6
Continuous
 62
     7
100
AcDbLine
 10
432.9808194857299
 20
169.2040847597776
 30
0.0
 11
432.9808194857299
 21
271.2040847597776
 31
0.0
  0
LINE
  5
223
330
2
100
AcDbEntity
  8
0
  6
Continuous
 62
     7
100
AcDbLine
 10
426.9808194857299
 20
176.8498360708421
 30
0.0
 11
426.9808194857299
 21
171.7040847597776
 31
0.0
  0
LINE
  5
224
330
2
100
AcDbEntity
  8
0
  6
Continuous
 62
     7
100
AcDbLine
 10
425.9808194857298
 20
253.7040847597776
 30
0.0
 11
425.9808194857298
 21
256.7040847597776
 31
0.0
  0
LINE
  5
225
330
2
100
AcDbEntity
  8
0
  6
Continuous
 62
     7
100
AcDbLine
 10
425.9808194857298
 20
171.7040847597776
 30
0.0
 11
425.9808194857298
 21
174.7040847597776
 31
0.0
  0
LINE
  5
226
330
2
100
AcDbEntity
  8
0
  6
Continuous
 62
     7
100
AcDbLine
 10
425.9808194857298
 20
170.7399831446398
 30
0.0
 11
425.9808194857298
 21
171.7040847597776
 31
0.0
  0
LINE
  5
227
330
2
100
AcDbEntity
  8
0
  6
Continuous
 62
     7
100
AcDbLine
 10
425.9808194857298
 20
262.7399831446399
 30
0.0
 11
425.9808194857298
 21
269.6681863749154
 31
0.0
  0
LINE
  5
228
330
2
100
AcDbEntity
  8
0
  6
Continuous
 62
     7
100
AcDbLine
 10
773.98081948573
 20
273.2040847597776
 30
0.0
 11
773.98081948573
 21
275.2040847597776
 31
0.0
  0
LINE
  5
229
330
2
100
AcDbEntity
  8
0
  6
Continuous
 62
     7
100
AcDbLine
 10
779.9808194857296
 20
275.2040847597776
 30
0.0
 11
779.9808194857296
 21
273.2040847597776
 31
0.0
  0
LINE
  5
22A
330
2
100
AcDbEntity
  8
0
  6
Continuous
 62
     7
100
AcDbLine
 10
779.9808194857296
 20
273.2040847597776
 30
0.0
 11
773.98081948573
 21
273.2040847597776
 31
0.0
  0
LINE
  5
22B
330
2
100
AcDbEntity
  8
0
  6
Continuous
 62
     7
100
AcDbLine
 10
443.9808194857299
 20
273.2040847597776
 30
0.0
 11
443.9808194857299
 21
275.2040847597776
 31
0.0
  0
LINE
  5
22C
330
2
100
AcDbEntity
  8
0
  6
Continuous
 62
     7
100
AcDbLine
 10
449.9808194857298
 20
275.2040847597776
 30
0.0
 11
449.9808194857298
 21
273.2040847597776
 31
0.0
  0
LINE
  5
22D
330
2
100
AcDbEntity
  8
0
  6
Continuous
 62
     7
100
AcDbLine
 10
449.9808194857298
 20
273.2040847597776
 30
0.0
 11
443.9808194857298
 21
273.2040847597776
 31
0.0
  0
LINE
  5
22E
330
2
100
AcDbEntity
  8
0
  6
Continuous
 62
     7
100
AcDbLine
 10
608.9808194857297
 20
273.2040847597776
 30
0.0
 11
608.9808194857297
 21
275.2040847597776
 31
0.0
  0
LINE
  5
22F
330
2
100
AcDbEntity
  8
0
  6
Continuous
 62
     7
100
AcDbLine
 10
614.98081948573
 20
275.2040847597776
 30
0.0
 11
614.98081948573
 21
273.2040847597776
 31
0.0
  0
LINE
  5
230
330
2
100
AcDbEntity
  8
0
  6
Continuous
 62
     7
100
AcDbLine
 10
614.98081948573
 20
273.2040847597776
 30
0.0
 11
608.9808194857297
 21
273.2040847597776
 31
0.0
  0
LINE
  5
231
330
2
100
AcDbEntity
  8
0
  6
Continuous
 62
     7
100
AcDbLine
 10
773.98081948573
 20
275.2040847597776
 30
0.0
 11
614.98081948573
 21
275.2040847597776
 31
0.0
  0
LINE
  5
232
330
2
100
AcDbEntity
  8
0
  6
Continuous
 62
     7
100
AcDbLine
 10
608.9808194857297
 20
275.2040847597776
 30
0.0
 11
449.9808194857298
 21
275.2040847597776
 31
0.0
  0
LINE
  5
233
330
2
100
AcDbEntity
  8
0
  6
Continuous
 62
     7
100
AcDbLine
 10
443.9808194857299
 20
275.2040847597776
 30
0.0
 11
428.9808194857299
 21
275.2040847597776
 31
0.0
  0
LINE
  5
234
330
2
100
AcDbEntity
  8
0
  6
Continuous
 62
     7
100
AcDbLine
 10
428.9808194857299
 20
275.2040847597776
 30
0.0
 11
428.9808194857299
 21
271.2040847597776
 31
0.0
  0
LINE
  5
235
330
2
100
AcDbEntity
  8
0
  6
Continuous
 62
     7
100
AcDbLine
 10
428.9808194857299
 20
271.2040847597776
 30
0.0
 11
794.98081948573
 21
271.2040847597776
 31
0.0
  0
LINE
  5
236
330
2
100
AcDbEntity
  8
0
  6
Continuous
 62
     7
100
AcDbLine
 10
794.98081948573
 20
275.2040847597776
 30
0.0
 11
794.98081948573
 21
271.2040847597776
 31
0.0
  0
LINE
  5
237
330
2
100
AcDbEntity
  8
0
  6
Continuous
 62
     7
100
AcDbLine
 10
794.98081948573
 20
275.2040847597776
 30
0.0
 11
779.9808194857296
 21
275.2040847597776
 31
0.0
  0
LINE
  5
238
330
2
100
AcDbEntity
  8
0
  6
Continuous
 62
     7
100
AcDbLine
 10
794.98081948573
 20
271.2040847597776
 30
0.0
 11
797.9808194857296
 21
271.2040847597776
 31
0.0
  0
LINE
  5
239
330
2
100
AcDbEntity
  8
0
  6
Continuous
 62
     7
100
AcDbLine
 10
797.9808194857296
 20
275.2040847597776
 30
0.0
 11
797.9808194857296
 21
271.2040847597776
 31
0.0
  0
LINE
  5
23A
330
2
100
AcDbEntity
  8
0
  6
Continuous
 62
     7
100
AcDbLine
 10
797.9808194857296
 20
275.2040847597776
 30
0.0
 11
794.98081948573
 21
275.2040847597776
 31
0.0
  0
LINE
  5
23B
330
2
100
AcDbEntity
  8
0
  6
Continuous
 62
     7
100
AcDbLine
 10
425.9808194857298
 20
275.2040847597776
 30
0.0
 11
425.9808194857298
 21
271.2040847597776
 31
0.0
  0
LINE
  5
23C
330
2
100
AcDbEntity
  8
0
  6
Continuous
 62
     7
100
AcDbLine
 10
425.9808194857298
 20
271.2040847597776
 30
0.0
 11
428.9808194857299
 21
271.2040847597776
 31
0.0
  0
LINE
  5
23D
330
2
100
AcDbEntity
  8
0
  6
Continuous
 62
     7
100
AcDbLine
 10
428.9808194857299
 20
275.2040847597776
 30
0.0
 11
425.9808194857298
 21
275.2040847597776
 31
0.0
  0
LINE
  5
23E
330
2
100
AcDbEntity
  8
0
  6
Continuous
 62
     7
100
AcDbLine
 10
773.98081948573
 20
275.2040847597776
 30
0.0
 11
774.2308194857301
 21
275.2040847597776
 31
0.0
  0
LINE
  5
23F
330
2
100
AcDbEntity
  8
0
  6
Continuous
 62
     7
100
AcDbLine
 10
779.7308194857301
 20
275.2040847597776
 30
0.0
 11
779.9808194857303
 21
275.2040847597776
 31
0.0
  0
LINE
  5
240
330
2
100
AcDbEntity
  8
0
  6
Continuous
 62
     7
100
AcDbLine
 10
443.9808194857299
 20
275.2040847597776
 30
0.0
 11
444.2308194857298
 21
275.2040847597776
 31
0.0
  0
LINE
  5
241
330
2
100
AcDbEntity
  8
0
  6
Continuous
 62
     7
100
AcDbLine
 10
449.7308194857299
 20
275.2040847597776
 30
0.0
 11
449.9808194857298
 21
275.2040847597776
 31
0.0
  0
LINE
  5
242
330
2
100
AcDbEntity
  8
0
  6
Continuous
 62
     7
100
AcDbLine
 10
608.9808194857297
 20
275.2040847597776
 30
0.0
 11
609.23081948573
 21
275.2040847597776
 31
0.0
  0
LINE
  5
243
330
2
100
AcDbEntity
  8
0
  6
Continuous
 62
     7
100
AcDbLine
 10
614.7308194857297
 20
275.2040847597776
 30
0.0
 11
614.98081948573
 21
275.2040847597776
 31
0.0
  0
LINE
  5
244
330
2
100
AcDbEntity
  8
0
  6
Continuous
 62
     7
100
AcDbLine
 10
670.7308194857297
 20
163.2040847597776
 30
0.0
 11
670.7308194857297
 21
159.2040847597776
 31
0.0
  0
LINE
  5
245
330
2
100
AcDbEntity
  8
0
  6
Continuous
 62
     7
100
AcDbLine
 10
663.2308194857297
 20
159.2040847597776
 30
0.0
 11
663.2308194857297
 21
163.2040847597776
 31
0.0
  0
LINE
  5
246
330
2
100
AcDbEntity
  8
0
  6
Continuous
 62
     7
100
AcDbLine
 10
560.7308194857298
 20
163.2040847597776
 30
0.0
 11
560.7308194857298
 21
159.2040847597776
 31
0.0
  0
LINE
  5
247
330
2
100
AcDbEntity
  8
0
  6
Continuous
 62
     7
100
AcDbLine
 10
553.2308194857298
 20
159.2040847597776
 30
0.0
 11
553.2308194857298
 21
163.2040847597776
 31
0.0
  0
LINE
  5
248
330
2
100
AcDbEntity
  8
0
  6
Continuous
 62
     7
100
AcDbLine
 10
450.73081948573
 20
163.2040847597776
 30
0.0
 11
450.73081948573
 21
159.2040847597776
 31
0.0
  0
LINE
  5
249
330
2
100
AcDbEntity
  8
0
  6
Continuous
 62
     7
100
AcDbLine
 10
443.2308194857299
 20
159.2040847597776
 30
0.0
 11
443.2308194857299
 21
163.2040847597776
 31
0.0
  0
LINE
  5
24A
330
2
100
AcDbEntity
  8
0
  6
Continuous
 62
     7
100
AcDbLine
 10
780.7308194857299
 20
163.2040847597776
 30
0.0
 11
780.7308194857299
 21
159.2040847597776
 31
0.0
  0
LINE
  5
24B
330
2
100
AcDbEntity
  8
0
  6
Continuous
 62
     7
100
AcDbLine
 10
773.2308194857296
 20
159.2040847597776
 30
0.0
 11
773.2308194857296
 21
163.2040847597776
 31
0.0
  0
LINE
  5
24C
330
2
100
AcDbEntity
  8
0
  6
Continuous
 62
     7
100
AcDbLine
 10
670.7308194857297
 20
159.2040847597776
 30
0.0
 11
773.2308194857296
 21
159.2040847597776
 31
0.0
  0
LINE
  5
24D
330
2
100
AcDbEntity
  8
0
  6
Continuous
 62
     7
100
AcDbLine
 10
780.7308194857299
 20
159.2040847597776
 30
0.0
 11
794.98081948573
 21
159.2040847597776
 31
0.0
  0
LINE
  5
24E
330
2
100
AcDbEntity
  8
0
  6
Continuous
 62
     7
100
AcDbLine
 10
794.9808194857296
 20
159.2040847597776
 30
0.0
 11
794.9808194857296
 21
169.2040847597775
 31
0.0
  0
LINE
  5
24F
330
2
100
AcDbEntity
  8
0
  6
Continuous
 62
     7
100
AcDbLine
 10
794.9808194857296
 20
169.2040847597775
 30
0.0
 11
428.9808194857299
 21
169.2040847597776
 31
0.0
  0
LINE
  5
250
330
2
100
AcDbEntity
  8
0
  6
Continuous
 62
     7
100
AcDbLine
 10
428.9808194857299
 20
159.2040847597776
 30
0.0
 11
428.9808194857299
 21
169.2040847597776
 31
0.0
  0
LINE
  5
251
330
2
100
AcDbEntity
  8
0
  6
Continuous
 62
     7
100
AcDbLine
 10
428.9808194857299
 20
159.2040847597776
 30
0.0
 11
443.2308194857299
 21
159.2040847597776
 31
0.0
  0
LINE
  5
252
330
2
100
AcDbEntity
  8
0
  6
Continuous
 62
     7
100
AcDbLine
 10
450.73081948573
 20
159.2040847597776
 30
0.0
 11
553.2308194857298
 21
159.2040847597776
 31
0.0
  0
LINE
  5
253
330
2
100
AcDbEntity
  8
0
  6
Continuous
 62
     7
100
AcDbLine
 10
560.7308194857298
 20
159.2040847597776
 30
0.0
 11
663.2308194857297
 21
159.2040847597776
 31
0.0
  0
LINE
  5
254
330
2
100
AcDbEntity
  8
0
  6
Continuous
 62
     7
100
AcDbLine
 10
797.9808194857296
 20
159.2040847597776
 30
0.0
 11
797.9808194857296
 21
169.2040847597775
 31
0.0
  0
LINE
  5
255
330
2
100
AcDbEntity
  8
0
  6
Continuous
 62
     7
100
AcDbLine
 10
797.9808194857296
 20
169.2040847597775
 30
0.0
 11
794.98081948573
 21
169.2040847597775
 31
0.0
  0
LINE
  5
256
330
2
100
AcDbEntity
  8
0
  6
Continuous
 62
     7
100
AcDbLine
 10
794.9808194857296
 20
159.2040847597776
 30
0.0
 11
797.9808194857296
 21
159.2040847597776
 31
0.0
  0
LINE
  5
257
330
2
100
AcDbEntity
  8
0
  6
Continuous
 62
     7
100
AcDbLine
 10
428.9808194857299
 20
169.2040847597776
 30
0.0
 11
425.9808194857298
 21
169.2040847597776
 31
0.0
  0
LINE
  5
258
330
2
100
AcDbEntity
  8
0
  6
Continuous
 62
     7
100
AcDbLine
 10
425.9808194857298
 20
159.2040847597776
 30
0.0
 11
425.9808194857298
 21
169.2040847597776
 31
0.0
  0
LINE
  5
259
330
2
100
AcDbEntity
  8
0
  6
Continuous
 62
     7
100
AcDbLine
 10
425.9808194857298
 20
159.2040847597776
 30
0.0
 11
428.9808194857299
 21
159.2040847597776
 31
0.0
  0
LINE
  5
25A
330
2
100
AcDbEntity
  8
0
  6
Continuous
 62
     7
100
AcDbLine
 10
670.7308194857297
 20
159.2040847597776
 30
0.0
 11
663.2308194857297
 21
159.2040847597776
 31
0.0
  0
LINE
  5
25B
330
2
100
AcDbEntity
  8
0
  6
Continuous
 62
     7
100
AcDbLine
 10
560.7308194857298
 20
159.2040847597776
 30
0.0
 11
553.2308194857298
 21
159.2040847597776
 31
0.0
  0
LINE
  5
25C
330
2
100
AcDbEntity
  8
0
  6
Continuous
 62
     7
100
AcDbLine
 10
450.73081948573
 20
159.2040847597776
 30
0.0
 11
443.2308194857299
 21
159.2040847597776
 31
0.0
  0
LINE
  5
25D
330
2
100
AcDbEntity
  8
0
  6
Continuous
 62
     7
100
AcDbLine
 10
780.7308194857299
 20
159.2040847597776
 30
0.0
 11
773.2308194857296
 21
159.2040847597776
 31
0.0
  0
ELLIPSE
  5
25E
330
2
100
AcDbEntity
  8
0
  6
Continuous
 62
     7
100
AcDbEllipse
 10
571.7128702932987
 20
231.2040847597776
 30
0.0
 11
-3.464101615137751
 21
-0.0000000000000005
 31
0.0
210
0.0
220
0.0
230
1.0
 40
0.8660254037844396
 41
4.712388980384688
 42
6.283185307179584
  0
ELLIPSE
  5
25F
330
2
100
AcDbEntity
  8
0
  6
Continuous
 62
     7
100
AcDbEllipse
 10
573.4449211008676
 20
231.2040847597776
 30
0.0
 11
-3.464101615137751
 21
-0.0000000000000005
 31
0.0
210
0.0
220
0.0
230
1.0
 40
0.8660254037844396
 41
4.712388980384688
 42
6.283185307179584
  0
LINE
  5
260
330
2
100
AcDbEntity
  8
0
  6
Continuous
 62
     7
100
AcDbLine
 10
568.248768678161
 20
197.2040847597776
 30
0.0
 11
568.248768678161
 21
231.2040847597776
 31
0.0
  0
LINE
  5
261
330
2
100
AcDbEntity
  8
0
  6
Continuous
 62
     7
100
AcDbLine
 10
569.9808194857297
 20
231.2040847597776
 30
0.0
 11
569.9808194857297
 21
197.2040847597776
 31
0.0
  0
ELLIPSE
  5
262
330
2
100
AcDbEntity
  8
0
  6
Continuous
 62
     7
100
AcDbEllipse
 10
650.5167178705917
 20
231.2040847597776
 30
0.0
 11
3.464101615137732
 21
-0.0000000000000004
 31
0.0
210
0.0
220
0.0
230
1.0
 40
0.8660254037844431
 41
0.0000000000000002
 42
1.570796326794896
  0
ELLIPSE
  5
263
330
2
100
AcDbEntity
  8
0
  6
Continuous
 62
     7
100
AcDbEllipse
 10
652.2487686781609
 20
231.2040847597776
 30
0.0
 11
3.464101615137732
 21
-0.0000000000000004
 31
0.0
210
0.0
220
0.0
230
1.0
 40
0.8660254037844431
 41
0.0000000000000001
 42
1.570796326794896
  0
LINE
  5
264
330
2
100
AcDbEntity
  8
0
  6
Continuous
 62
     7
100
AcDbLine
 10
653.9808194857299
 20
197.2040847597776
 30
0.0
 11
653.9808194857299
 21
231.2040847597776
 31
0.0
  0
LINE
  5
265
330
2
100
AcDbEntity
  8
0
  6
Continuous
 62
     7
100
AcDbLine
 10
655.7128702932986
 20
231.2040847597776
 30
0.0
 11
655.7128702932986
 21
197.2040847597776
 31
0.0
  0
ELLIPSE
  5
266
330
2
100
AcDbEntity
  8
0
  6
Continuous
 62
     7
100
AcDbEllipse
 10
652.2487686781609
 20
197.2040847597776
 30
0.0
 11
3.464101615137736
 21
0.0000000000000018
 31
0.0
210
0.0
220
0.0
230
1.0
 40
0.8660254037844431
 41
4.712388980384685
 42
6.283185307179584
  0
ELLIPSE
  5
267
330
2
100
AcDbEntity
  8
0
  6
Continuous
 62
     7
100
AcDbEllipse
 10
650.5167178705917
 20
197.2040847597776
 30
0.0
 11
3.464101615137736
 21
0.0000000000000018
 31
0.0
210
0.0
220
0.0
230
1.0
 40
0.8660254037844431
 41
4.712388980384688
 42
6.283185307179584
  0
ELLIPSE
  5
268
330
2
100
AcDbEntity
  8
0
  6
Continuous
 62
     7
100
AcDbEllipse
 10
573.4449211008676
 20
197.2040847597776
 30
0.0
 11
-3.464101615137748
 21
0.0000000000000004
 31
0.0
210
0.0
220
0.0
230
1.0
 40
0.8660254037844396
 41
0.0000000000000002
 42
1.570796326794898
  0
ELLIPSE
  5
269
330
2
100
AcDbEntity
  8
0
  6
Continuous
 62
     7
100
AcDbEllipse
 10
571.7128702932987
 20
197.2040847597776
 30
0.0
 11
-3.464101615137748
 21
0.0000000000000004
 31
0.0
210
0.0
220
0.0
230
1.0
 40
0.8660254037844396
 41
0.0000000000000001
 42
1.570796326794898
  0
LINE
  5
26A
330
2
100
AcDbEntity
  8
0
  6
Continuous
 62
     7
100
AcDbLine
 10
561.9808194857298
 20
240.2040847597776
 30
0.0
 11
661.9808194857299
 21
240.2040847597776
 31
0.0
  0
LINE
  5
26B
330
2
100
AcDbEntity
  8
0
  6
Continuous
 62
     7
100
AcDbLine
 10
558.9808194857298
 20
191.2040847597776
 30
0.0
 11
558.9808194857298
 21
237.2040847597777
 31
0.0
  0
LINE
  5
26C
330
2
100
AcDbEntity
  8
0
  6
Continuous
 62
     7
100
AcDbLine
 10
661.9808194857299
 20
188.2040847597776
 30
0.0
 11
561.9808194857298
 21
188.2040847597776
 31
0.0
  0
LINE
  5
26D
330
2
100
AcDbEntity
  8
0
  6
Continuous
 62
     7
100
AcDbLine
 10
664.9808194857297
 20
237.2040847597777
 30
0.0
 11
664.9808194857297
 21
191.2040847597776
 31
0.0
  0
LINE
  5
26E
330
2
100
AcDbEntity
  8
0
  6
Continuous
 62
     7
100
AcDbLine
 10
571.7128702932987
 20
234.2040847597777
 30
0.0
 11
652.2487686781609
 21
234.2040847597777
 31
0.0
  0
LINE
  5
26F
330
2
100
AcDbEntity
  8
0
  6
Continuous
 62
     7
100
AcDbLine
 10
652.2487686781609
 20
194.2040847597776
 30
0.0
 11
571.7128702932987
 21
194.2040847597776
 31
0.0
  0
CIRCLE
  5
270
330
2
100
AcDbEntity
  8
0
  6
Continuous
 62
     7
100
AcDbCircle
 10
660.9808194857297
 20
236.2040847597776
 30
0.0
 40
3.0
  0
CIRCLE
  5
271
330
2
100
AcDbEntity
  8
0
  6
Continuous
 62
     7
100
AcDbCircle
 10
660.9808194857297
 20
192.2040847597776
 30
0.0
 40
3.0
  0
CIRCLE
  5
272
330
2
100
AcDbEntity
  8
0
  6
Continuous
 62
     7
100
AcDbCircle
 10
562.9808194857297
 20
192.2040847597776
 30
0.0
 40
3.0
  0
CIRCLE
  5
273
330
2
100
AcDbEntity
  8
0
  6
Continuous
 62
     7
100
AcDbCircle
 10
562.9808194857297
 20
236.2040847597776
 30
0.0
 40
3.0
  0
ARC
  5
274
330
2
100
AcDbEntity
  8
0
  6
Continuous
 62
     7
100
AcDbCircle
 10
561.9808194857298
 20
237.2040847597777
 30
0.0
 40
3.0
100
AcDbArc
 50
90.0
 51
180.0
  0
ARC
  5
275
330
2
100
AcDbEntity
  8
0
  6
Continuous
 62
     7
100
AcDbCircle
 10
561.9808194857298
 20
191.2040847597776
 30
0.0
 40
3.0
100
AcDbArc
 50
180.0
 51
270.0
  0
ARC
  5
276
330
2
100
AcDbEntity
  8
0
  6
Continuous
 62
     7
100
AcDbCircle
 10
661.9808194857299
 20
191.2040847597776
 30
0.0
 40
3.0
100
AcDbArc
 50
270.0
 51
0.0
  0
ARC
  5
277
330
2
100
AcDbEntity
  8
0
  6
Continuous
 62
     7
100
AcDbCircle
 10
661.9808194857297
 20
237.2040847597777
 30
0.0
 40
3.0
100
AcDbArc
 50
0.0
 51
90.0
  0
LINE
  5
278
330
2
100
AcDbEntity
  8
0
  6
Continuous
 62
     7
100
AcDbLine
 10
561.4808194857296
 20
240.7040847597776
 30
0.0
 11
662.4808194857297
 21
240.7040847597776
 31
0.0
  0
LINE
  5
279
330
2
100
AcDbEntity
  8
0
  6
Continuous
 62
     7
100
AcDbLine
 10
665.4808194857297
 20
237.7040847597776
 30
0.0
 11
665.4808194857297
 21
190.7040847597776
 31
0.0
  0
LINE
  5
27A
330
2
100
AcDbEntity
  8
0
  6
Continuous
 62
     7
100
AcDbLine
 10
662.4808194857297
 20
187.7040847597776
 30
0.0
 11
561.4808194857296
 21
187.7040847597776
 31
0.0
  0
LINE
  5
27B
330
2
100
AcDbEntity
  8
0
  6
Continuous
 62
     7
100
AcDbLine
 10
558.4808194857296
 20
190.7040847597776
 30
0.0
 11
558.4808194857296
 21
237.7040847597776
 31
0.0
  0
LINE
  5
27C
330
2
100
AcDbEntity
  8
0
  6
Continuous
 62
     7
100
AcDbLine
 10
432.9808194857297
 20
271.2040847597776
 30
0.0
 11
790.9808194857296
 21
271.2040847597776
 31
0.0
  0
LINE
  5
27D
330
2
100
AcDbEntity
  8
0
  6
Continuous
 62
     7
100
AcDbLine
 10
790.9808194857296
 20
271.2040847597776
 30
0.0
 11
790.9808194857296
 21
169.2040847597776
 31
0.0
  0
LINE
  5
27E
330
2
100
AcDbEntity
  8
0
  6
Continuous
 62
     7
100
AcDbLine
 10
790.9808194857296
 20
169.2040847597776
 30
0.0
 11
432.9808194857296
 21
169.2040847597776
 31
0.0
  0
LINE
  5
27F
330
2
100
AcDbEntity
  8
0
  6
Continuous
 62
     7
100
AcDbLine
 10
432.9808194857297
 20
169.2040847597776
 30
0.0
 11
432.9808194857297
 21
271.2040847597776
 31
0.0
  0
ARC
  5
280
330
2
100
AcDbEntity
  8
0
  6
Continuous
 62
     7
100
AcDbCircle
 10
662.4808194857297
 20
237.7040847597776
 30
0.0
 40
3.0
100
AcDbArc
 50
0.0
 51
90.0
  0
ARC
  5
281
330
2
100
AcDbEntity
  8
0
  6
Continuous
 62
     7
100
AcDbCircle
 10
662.4808194857297
 20
190.7040847597776
 30
0.0
 40
3.0
100
AcDbArc
 50
270.0
 51
0.0
  0
ARC
  5
282
330
2
100
AcDbEntity
  8
0
  6
Continuous
 62
     7
100
AcDbCircle
 10
561.4808194857296
 20
190.7040847597776
 30
0.0
 40
3.0
100
AcDbArc
 50
180.0
 51
270.0
  0
ARC
  5
283
330
2
100
AcDbEntity
  8
0
  6
Continuous
 62
     7
100
AcDbCircle
 10
561.4808194857296
 20
237.7040847597776
 30
0.0
 40
3.0
100
AcDbArc
 50
90.0
 51
180.0
  0
CIRCLE
  5
284
330
2
100
AcDbEntity
  8
0
  6
Continuous
 62
     7
100
AcDbCircle
 10
521.9808194857296
 20
214.2040847597776
 30
0.0
 40
18.0
  0
LINE
  5
285
330
2
100
AcDbEntity
  8
0
  6
Continuous
 62
     7
100
AcDbLine
 10
443.4808194857299
 20
159.4040847597776
 30
0.0
 11
443.4808194857299
 21
162.2040847597776
 31
0.0
  0
LINE
  5
286
330
2
100
AcDbEntity
  8
0
  6
Continuous
 62
     7
100
AcDbLine
 10
450.4808194857298
 20
159.4040847597776
 30
0.0
 11
450.4808194857298
 21
162.2040847597776
 31
0.0
  0
LINE
  5
287
330
2
100
AcDbEntity
  8
0
  6
Continuous
 62
     7
100
AcDbLine
 10
446.9215461274012
 20
162.2040847597776
 30
0.0
 11
447.1851327471687
 21
162.2040847597776
 31
0.0
  0
ENDSEC
  0
SECTION
  2
OBJECTS
  0
DICTIONARY
  5
B
330
0
100
AcDbDictionary
281
     1
  3
ACAD_COLOR
350
46
  3
ACAD_GROUP
350
3D
  3
ACAD_LAYOUT
350
14
  3
ACAD_MATERIAL
350
D
  3
ACAD_MLEADERSTYLE
350
49
  3
ACAD_MLINESTYLE
350
3E
  3
ACAD_PLOTSETTINGS
350
3F
  3
ACAD_PLOTSTYLENAME
350
A
  3
ACAD_SCALELIST
350
47
  3
ACAD_TABLESTYLE
350
48
  3
ACAD_VISUALSTYLE
350
28
  3
ACDB_RECOMPOSE_DATA
350
294
  3
AcDbVariableDictionary
350
289
  0
DICTIONARY
  5
1A
330
19
100
AcDbDictionary
280
     1
281
     1
  3
ACAD_LAYERFILTERS
360
1B
  3
ACAD_LAYERSTATES
360
1C
  0
DICTIONARY
  5
7
330
6
100
AcDbDictionary
280
     1
281
     1
  3
ADSK_XREC_LAYER_RECONCILED
360
8
  0
DICTIONARY
  5
3
330
2
100
AcDbDictionary
280
     1
281
     1
  3
ACAD_SORTENTS
360
288
  0
DICTIONARY
  5
46
102
{ACAD_REACTORS
330
B
102
}
330
B
100
AcDbDictionary
281
     1
  0
DICTIONARY
  5
3D
102
{ACAD_REACTORS
330
B
102
}
330
B
100
AcDbDictionary
281
     1
  0
DICTIONARY
  5
14
102
{ACAD_REACTORS
330
B
102
}
330
B
100
AcDbDictionary
281
     1
  3
Model
350
13
  3
外形図
350
18
  0
DICTIONARY
  5
D
102
{ACAD_REACTORS
330
B
102
}
330
B
100
AcDbDictionary
281
     1
  3
ByBlock
350
43
  3
ByLayer
350
40
  3
Global
350
C
  0
DICTIONARY
  5
49
102
{ACAD_REACTORS
330
B
102
}
330
B
100
AcDbDictionary
281
     1
  0
DICTIONARY
  5
3E
102
{ACAD_REACTORS
330
B
102
}
330
B
100
AcDbDictionary
281
     1
  3
Standard
350
4A
  0
DICTIONARY
  5
3F
102
{ACAD_REACTORS
330
B
102
}
330
B
100
AcDbDictionary
281
     1
  0
ACDBDICTIONARYWDFLT
  5
A
102
{ACAD_REACTORS
330
B
102
}
330
B
100
AcDbDictionary
281
     1
  3
Normal
350
9
100
AcDbDictionaryWithDefault
340
9
  0
DICTIONARY
  5
47
102
{ACAD_REACTORS
330
B
102
}
330
B
100
AcDbDictionary
281
     1
  3
A0
350
4F
  3
A1
350
50
  3
A2
350
51
  3
A3
350
52
  3
A4
350
53
  3
A5
350
54
  3
A6
350
55
  3
A7
350
56
  3
A8
350
57
  3
A9
350
58
  3
B0
350
59
  3
B1
350
5A
  3
B2
350
5B
  3
B3
350
5C
  3
B4
350
5D
  3
B5
350
5E
  3
B6
350
5F
  0
DICTIONARY
  5
48
102
{ACAD_REACTORS
330
B
102
}
330
B
100
AcDbDictionary
281
     1
  3
Standard
350
4B
  0
DICTIONARY
  5
28
102
{ACAD_REACTORS
330
B
102
}
330
B
100
AcDbDictionary
281
     1
  3
Gouraud
350
27
  3
Realistic
350
4D
  3
Wireframe
350
4E
  0
XRECORD
  5
294
102
{ACAD_REACTORS
330
B
102
}
330
B
100
AcDbXrecord
280
     1
 90
        1
330
4B
  0
DICTIONARY
  5
289
102
{ACAD_REACTORS
330
B
102
}
330
B
100
AcDbDictionary
281
     1
  3
CANNOSCALE
350
28C
  3
CMLEADERSTYLE
350
28B
  3
CTABLESTYLE
350
28A
  3
DIMASSOC
350
290
  3
HIDETEXT
350
28F
  3
INDEXCTL
350
28E
  3
SOLIDHIST
350
291
  3
SORTENTS
350
28D
  3
XCLIPFRAME
350
292
  0
DICTIONARY
  5
1B
102
{ACAD_REACTORS
330
1A
102
}
330
1A
100
AcDbDictionary
280
     1
281
     1
  0
DICTIONARY
  5
1C
102
{ACAD_REACTORS
330
1A
102
}
330
1A
100
AcDbDictionary
281
     1
  0
XRECORD
  5
8
102
{ACAD_REACTORS
330
7
102
}
330
7
100
AcDbXrecord
280
     1
290
     1
  0
SORTENTSTABLE
  5
288
102
{ACAD_REACTORS
330
3
102
}
330
3
100
AcDbSortentsTable
330
2
  0
LAYOUT
  5
13
102
{ACAD_XDICTIONARY
360
295
102
}
102
{ACAD_REACTORS
330
14
102
}
330
14
100
AcDbPlotSettings
  1

  2
いきなりPDF Professional
  4

  6

 40
0.0
 41
0.0
 42
0.0
 43
0.0
 44
0.0
 45
0.0
 46
0.0
 47
0.0
 48
0.0
 49
0.0
140
0.0
141
0.0
142
1.0
143
1.0
 70
  1712
 72
     0
 73
     0
 74
     0
  7

 75
     0
147
1.0
148
0.0
149
0.0
100
AcDbLayout
  1
Model
 70
     1
 71
     0
 10
0.0
 20
0.0
 11
12.0
 21
9.0
 12
0.0
 22
0.0
 32
0.0
 14
0.0
 24
0.0
 34
0.0
 15
0.0
 25
0.0
 35
0.0
146
0.0
 13
0.0
 23
0.0
 33
0.0
 16
1.0
 26
0.0
 36
0.0
 17
0.0
 27
1.0
 37
0.0
 76
     0
330
2
331
26
  0
LAYOUT
  5
18
102
{ACAD_XDICTIONARY
360
297
102
}
102
{ACAD_REACTORS
330
14
102
}
330
14
100
AcDbPlotSettings
  1

  2
EPSON LP-7700
  4
A3
  6

 40
5.873749732971191
 41
5.873747825622557
 42
5.873748779296875
 43
5.873748779296875
 44
297.0106506347656
 45
419.9466552734373
 46
0.0
 47
0.0
 48
0.0
 49
0.0
140
0.0
141
0.0
142
1.0
143
1.0
 70
   688
 72
     1
 73
     1
 74
     5
  7
ﾍﾟﾝ設定.ctb
 75
    16
147
1.0
148
0.0
149
0.0
100
AcDbLayout
  1
外形図
 70
     1
 71
     1
 10
-5.873748779296875
 20
-5.873749732971191
 11
414.0729064941406
 21
291.1369009017944
 12
0.0
 22
0.0
 32
0.0
 14
2.068687027208284
 24
-194.2661870753876
 34
0.0
 15
397.1517026569764
 25
278.0854529133656
 35
0.0
146
0.0
 13
0.0
 23
0.0
 33
0.0
 16
1.0
 26
0.0
 36
0.0
 17
0.0
 27
1.0
 37
0.0
 76
     0
330
15
  0
MATERIAL
  5
43
102
{ACAD_XDICTIONARY
360
44
102
}
102
{ACAD_REACTORS
330
D
102
}
330
D
100
AcDbMaterial
  1
ByBlock
 73
     1
 78
     1
172
     1
176
     1
270
     1
274
     1
  0
MATERIAL
  5
40
102
{ACAD_XDICTIONARY
360
41
102
}
102
{ACAD_REACTORS
330
D
102
}
330
D
100
AcDbMaterial
  1
ByLayer
 73
     1
 78
     1
172
     1
176
     1
270
     1
274
     1
  0
MATERIAL
  5
C
102
{ACAD_XDICTIONARY
360
E
102
}
102
{ACAD_REACTORS
330
D
102
}
330
D
100
AcDbMaterial
  1
Global
 73
     1
 78
     1
172
     1
176
     1
270
     1
274
     1
  0
MLINESTYLE
  5
4A
102
{ACAD_REACTORS
330
3E
102
}
330
3E
100
AcDbMlineStyle
  2
STANDARD
 70
     0
  3

 62
   256
 51
90.0
 52
90.0
 71
     2
 49
0.5
 62
   256
  6
BYLAYER
 49
-0.5
 62
   256
  6
BYLAYER
  0
ACDBPLACEHOLDER
  5
9
102
{ACAD_REACTORS
330
A
102
}
330
A
  0
SCALE
  5
4F
102
{ACAD_REACTORS
330
47
102
}
330
47
100
AcDbScale
 70
     0
300
1:1
140
1.0
141
1.0
290
     1
  0
SCALE
  5
50
102
{ACAD_REACTORS
330
47
102
}
330
47
100
AcDbScale
 70
     0
300
1:2
140
1.0
141
2.0
290
     0
  0
SCALE
  5
51
102
{ACAD_REACTORS
330
47
102
}
330
47
100
AcDbScale
 70
     0
300
1:4
140
1.0
141
4.0
290
     0
  0
SCALE
  5
52
102
{ACAD_REACTORS
330
47
102
}
330
47
100
AcDbScale
 70
     0
300
1:5
140
1.0
141
5.0
290
     0
  0
SCALE
  5
53
102
{ACAD_REACTORS
330
47
102
}
330
47
100
AcDbScale
 70
     0
300
1:8
140
1.0
141
8.0
290
     0
  0
SCALE
  5
54
102
{ACAD_REACTORS
330
47
102
}
330
47
100
AcDbScale
 70
     0
300
1:10
140
1.0
141
10.0
290
     0
  0
SCALE
  5
55
102
{ACAD_REACTORS
330
47
102
}
330
47
100
AcDbScale
 70
     0
300
1:16
140
1.0
141
16.0
290
     0
  0
SCALE
  5
56
102
{ACAD_REACTORS
330
47
102
}
330
47
100
AcDbScale
 70
     0
300
1:20
140
1.0
141
20.0
290
     0
  0
SCALE
  5
57
102
{ACAD_REACTORS
330
47
102
}
330
47
100
AcDbScale
 70
     0
300
1:30
140
1.0
141
30.0
290
     0
  0
SCALE
  5
58
102
{ACAD_REACTORS
330
47
102
}
330
47
100
AcDbScale
 70
     0
300
1:40
140
1.0
141
40.0
290
     0
  0
SCALE
  5
59
102
{ACAD_REACTORS
330
47
102
}
330
47
100
AcDbScale
 70
     0
300
1:50
140
1.0
141
50.0
290
     0
  0
SCALE
  5
5A
102
{ACAD_REACTORS
330
47
102
}
330
47
100
AcDbScale
 70
     0
300
1:100
140
1.0
141
100.0
290
     0
  0
SCALE
  5
5B
102
{ACAD_REACTORS
330
47
102
}
330
47
100
AcDbScale
 70
     0
300
2:1
140
2.0
141
1.0
290
     0
  0
SCALE
  5
5C
102
{ACAD_REACTORS
330
47
102
}
330
47
100
AcDbScale
 70
     0
300
4:1
140
4.0
141
1.0
290
     0
  0
SCALE
  5
5D
102
{ACAD_REACTORS
330
47
102
}
330
47
100
AcDbScale
 70
     0
300
8:1
140
8.0
141
1.0
290
     0
  0
SCALE
  5
5E
102
{ACAD_REACTORS
330
47
102
}
330
47
100
AcDbScale
 70
     0
300
10:1
140
10.0
141
1.0
290
     0
  0
SCALE
  5
5F
102
{ACAD_REACTORS
330
47
102
}
330
47
100
AcDbScale
 70
     0
300
100:1
140
100.0
141
1.0
290
     0
  0
TABLESTYLE
  5
4B
102
{ACAD_XDICTIONARY
360
4C
102
}
102
{ACAD_REACTORS
330
48
102
}
330
48
100
AcDbTableStyle
  3
Standard
 70
     0
 71
     0
 40
1.5
 41
1.5
280
     0
281
     0
  7
STANDARD
140
4.5
170
     2
 62
     0
 63
     7
283
     0
274
    -2
284
     1
 64
     0
275
    -2
285
     1
 65
     0
276
    -2
286
     1
 66
     0
277
    -2
287
     1
 67
     0
278
    -2
288
     1
 68
     0
279
    -2
289
     1
 69
     0
  7
STANDARD
140
6.0
170
     5
 62
     0
 63
     7
283
     0
274
    -2
284
     1
 64
     0
275
    -2
285
     1
 65
     0
276
    -2
286
     1
 66
     0
277
    -2
287
     1
 67
     0
278
    -2
288
     1
 68
     0
279
    -2
289
     1
 69
     0
  7
STANDARD
140
4.5
170
     5
 62
     0
 63
     7
283
     0
274
    -2
284
     1
 64
     0
275
    -2
285
     1
 65
     0
276
    -2
286
     1
 66
     0
277
    -2
287
     1
 67
     0
278
    -2
288
     1
 68
     0
279
    -2
289
     1
 69
     0
  0
VISUALSTYLE
  5
27
102
{ACAD_XDICTIONARY
360
299
102
}
102
{ACAD_REACTORS
330
28
102
}
330
28
100
AcDbVisualStyle
  2

 70
     2
 71
     2
 72
     2
 73
     1
 90
        2
 40
-0.6
 41
30.0
 62
     5
 63
     7
 74
     0
 91
        4
 64
     7
 65
   257
 75
     1
175
     1
 42
1.0
 92
        0
 66
     7
 43
1.0
 76
     1
 77
     6
 78
     2
 67
     7
 79
     5
170
     0
171
     0
290
     0
174
     0
 93
       13
 44
0.0
173
     0
291
     1
 45
0.0
1001
ACAD
1000
AcDbSavedByObjectVersion
1070
     0
  0
VISUALSTYLE
  5
4D
102
{ACAD_XDICTIONARY
360
29C
102
}
102
{ACAD_REACTORS
330
28
102
}
330
28
100
AcDbVisualStyle
  2

 70
     8
 71
     2
 72
     2
 73
     0
 90
        0
 40
-0.6
 41
-30.0
 62
     5
 63
     7
 74
     1
 91
        0
 64
     7
 65
   257
 75
     1
175
     1
 42
1.0
 92
        8
 66
     8
 43
1.0
 76
     1
 77
     6
 78
     2
 67
     7
 79
     5
170
     0
171
     0
290
     0
174
     0
 93
       13
 44
0.0
173
     0
291
     0
 45
0.0
1001
ACAD
1000
AcDbSavedByObjectVersion
1070
     0
  0
VISUALSTYLE
  5
4E
102
{ACAD_XDICTIONARY
360
29E
102
}
102
{ACAD_REACTORS
330
28
102
}
330
28
100
AcDbVisualStyle
  2

 70
     5
 71
     0
 72
     2
 73
     0
 90
        0
 40
-0.6
 41
-30.0
 62
     5
 63
     7
 74
     1
 91
        4
 64
     7
 65
   257
 75
     1
175
     1
 42
1.0
 92
        0
 66
   257
 43
1.0
 76
     1
 77
     6
 78
     2
 67
     7
 79
     3
170
     0
171
     0
290
     0
174
     0
 93
        1
 44
0.0
173
     0
291
     0
 45
0.0
1001
ACAD
1000
AcDbSavedByObjectVersion
1070
     0
  0
DICTIONARYVAR
  5
28C
102
{ACAD_REACTORS
330
289
102
}
330
289
100
DictionaryVariables
280
     0
  1
1:1
  0
DICTIONARYVAR
  5
28B
102
{ACAD_REACTORS
330
289
102
}
330
289
100
DictionaryVariables
280
     0
  1
STANDARD
  0
DICTIONARYVAR
  5
28A
102
{ACAD_REACTORS
330
289
102
}
330
289
100
DictionaryVariables
280
     0
  1
STANDARD
  0
DICTIONARYVAR
  5
290
102
{ACAD_REACTORS
330
289
102
}
330
289
100
DictionaryVariables
280
     0
  1
2
  0
DICTIONARYVAR
  5
28F
102
{ACAD_REACTORS
330
289
102
}
330
289
100
DictionaryVariables
280
     0
  1
1
  0
DICTIONARYVAR
  5
28E
102
{ACAD_REACTORS
330
289
102
}
330
289
100
DictionaryVariables
280
     0
  1
0
  0
DICTIONARYVAR
  5
291
102
{ACAD_REACTORS
330
289
102
}
330
289
100
DictionaryVariables
280
     0
  1
1
  0
DICTIONARYVAR
  5
28D
102
{ACAD_REACTORS
330
289
102
}
330
289
100
DictionaryVariables
280
     0
  1
127
  0
DICTIONARYVAR
  5
292
102
{ACAD_REACTORS
330
289
102
}
330
289
100
DictionaryVariables
280
     0
  1
2
  0
DICTIONARY
  5
295
330
13
100
AcDbDictionary
280
     1
281
     1
  3
ACAD_XREC_ROUNDTRIP
360
296
  0
DICTIONARY
  5
297
330
18
100
AcDbDictionary
280
     1
281
     1
  3
ACAD_XREC_ROUNDTRIP
360
298
  0
DICTIONARY
  5
44
330
43
100
AcDbDictionary
280
     1
281
     1
  3
ACAD_XREC_ROUNDTRIP
360
45
  0
DICTIONARY
  5
41
330
40
100
AcDbDictionary
280
     1
281
     1
  3
ACAD_XREC_ROUNDTRIP
360
42
  0
DICTIONARY
  5
E
330
C
100
AcDbDictionary
280
     1
281
     1
  3
ACAD_XREC_ROUNDTRIP
360
F
  3
FBXASSET
360
10
  0
DICTIONARY
  5
4C
330
4B
100
AcDbDictionary
280
     1
281
     1
  3
ACAD_ROUNDTRIP_2008_TABLESTYLE_CELLSTYLEMAP
360
293
  3
ACAD_XREC_ROUNDTRIP
360
29B
  0
DICTIONARY
  5
299
330
27
100
AcDbDictionary
280
     1
281
     1
  3
ACAD_XREC_ROUNDTRIP
360
29A
  0
DICTIONARY
  5
29C
330
4D
100
AcDbDictionary
280
     1
281
     1
  3
ACAD_XREC_ROUNDTRIP
360
29D
  0
DICTIONARY
  5
29E
330
4E
100
AcDbDictionary
280
     1
281
     1
  3
ACAD_XREC_ROUNDTRIP
360
29F
  0
XRECORD
  5
296
102
{ACAD_REACTORS
330
295
102
}
330
295
100
AcDbXrecord
280
     1
102
SHADEPLOT
 70
     0
102
SHADEPLOTRESLEVEL
 70
     2
102
SHADEPLOTCUSTOMDPI
 70
   300
  0
XRECORD
  5
298
102
{ACAD_REACTORS
330
297
102
}
330
297
100
AcDbXrecord
280
     1
102
SHADEPLOT
 70
     0
102
SHADEPLOTRESLEVEL
 70
     2
102
SHADEPLOTCUSTOMDPI
 70
   300
  0
XRECORD
  5
45
102
{ACAD_REACTORS
330
44
102
}
330
44
100
AcDbXrecord
280
     1
102
MATERIAL
148
0.0
149
0.0
149
0.0
 93
        0
 94
      127
282
     0
 72
     1
 77
     1
171
     1
175
     1
179
     1
273
     0
  0
XRECORD
  5
42
102
{ACAD_REACTORS
330
41
102
}
330
41
100
AcDbXrecord
280
     1
102
MATERIAL
148
0.0
149
0.0
149
0.0
 93
        0
 94
      127
282
     0
 72
     1
 77
     1
171
     1
175
     1
179
     1
273
     0
  0
XRECORD
  5
F
102
{ACAD_REACTORS
330
E
102
}
330
E
100
AcDbXrecord
280
     1
102
MATERIAL
148
0.0
149
0.0
149
0.0
 93
        0
 94
      127
282
     0
 72
     1
 77
     1
171
     1
175
     1
179
     1
273
     0
  0
XRECORD
  5
10
102
{ACAD_REACTORS
330
E
102
}
330
E
100
AcDbXrecord
280
     1
 70
     1
 90
-268833076
 71
     1
  1
4EFF43FA-4C4B-4317-9371-88558F553018
311
504B03040A0000080000DA7EDA423DEE336E79000000790000001B0000006175746F6465736B2D64657369676E2D7061636B6167652E786D6C3C3F786D6C2076657273696F6E3D22312E302220656E636F64696E673D227574662D3822203F3E3C666F726D6174733E3C666F726D61743E687474703A2F2F736368656D612E
311
6175746F6465736B2E636F6D2F64657369676E2D7061636B6167652F323030393C2F666F726D61743E3C2F666F726D6174733E504B0304140006080800DA7EDA42D486FD9CA0000000F4000000130000005B436F6E74656E745F54797065735D2E786D6C7D8EC10E82300C865F65E91D8A1E8C310C0EEA1BF002731658846E
311
D98AC1B77784ABF1D8FE5FBFBF75BBCE937A534CCEB38643598122B6FEE978D0B0485F9C41B54DDD7D022595594E1A469170414C76A4D9A4D207E29CF43ECE46F218070CC6BECC4078ACAA135ACF422C856C0E68EA1BF5669944DDD7BCDE7B1F8E415D77AECB980613C2E4AC91FC167A2B244592486606FC29C8FD7F045B9A
311
EF7053A7E60B504B0304140006080800DA7EDA4261DEC44DEB0000007C01000008000000636F72652E786D6C8D90518E83201445B742F89DA0A8C858833435A32B980D10A096B4821168BAFCC1D626337FF3F55E2EF7F06E2E3B3EE61BB8EBD51B673B586418026DA553C64E1D8CE18C1A088E9CADCE855F3608AC98750737
311
197236AD2E2EBB249D0DDA86A45AA7F42E0AEF758040DED2D2412F2F7A1699882139FC355B84BC8A4967C57B4B708C4681D711A3D27FE66CF40A79410742C6F184286DBE1019EB01353DA18854E5E1340C9F3D263DCB3798B360E6F77DB96A11B482BCC44585304525FD2EEAB6266D5D7DE0438B31CB37FB1F282EEA9F5034
311
3654E51EF785F9943505793E70966F5DA4F12C2ACDAD37FE03504B0304140006080800DA7EDA4255019EA25F0000007C00000007000000636E782E786D6C4DCB3B0E80201045D1AD90E915ED2CF8AC45050C11660C8261F98AB1B07AC9C97D42D718D865D3E909258CFD00CCE24AC6E326A164D74DC0B4128928FF32603847
311
2BA13128B1252AC747C6BAB984FC68F0B87FE8960A5C09FE86CFB69FBA01504B0304140006080800DA7EDA427D08E0C467010000020300000C0000006662782F636F72652E786D6C8D52ED8A8330107C9590BF478CDFD79698D272F609EE05524D3DA9261213E9E3DFFA51BC1EA5142186999DDDD951B6BFB50D1AA4E96BAD
311
321C783E465215BAAC559561672F6483D19E33A3B5FD53869112ADCCF00863CE2AA35DB7408556562A0BA8D2A55C40D1F7D262543470C9705FFCC85678C259A8E8AF5E278AABA8A4177840431D67BD356000CD43C613F3CBF9C6E88C73E65C5D2E6C5DC2B4FA524B837990E6717C3A1D489A6EBE487C4A72B239C62989A370
311
7BC8F3CFA31F1F191DC59CD9BABDBB2B8C14569698877E10113F2561FA1D24BB24DE25D187BFDDF93EA363F983C875E59B22572B1B858BDD59D68357303211FFB685882CEAC5007E2867740C115E53C28F41432010B215E7E6BEC715A04116569B189852BB951A44E3244CF5D1F4303AB3D0796A009B3DED13BEE8F3BA077C
311
40A12AB0262C5CCFCE8ED3D93C7589A293860CF6869436AD685673B3C5F55C073D9517BAD1E61D355D56A54B9874FC7BF92F504B0304140006080800DA7EDA4254F251797E0000009D0000000B0000006662782F636E782E786D6C4DCCD10A83201886E15B91FFDC9596F10B6A6CA3DD472C0B99E9703A76F9ABD1C18E3E78
311
F87855FF593D79DBF472316860A71A880DF738B9B0682879A608A4372AC598FF6E40C2B85A0D3B83514B8AE579D064E7B1F8BCA977E1712036F54D9C794B05671D6D91498A423674C0CB9531C907D921544655BFD2B67BD87C01504B0304140006080800DA7EDA425D22D5462C01000015020000310000006662782F383330
311
46354132342D353231362D343831392D383539332D4538424331313932453936382F636F72652E786D6C8D515B6EC32010BC8AC557AA0A9B876D990813B5557A825E801A92A2C460F1A872FC42ED48ED5F7E58343B333BDAE587DB7CADBEB50FC6D911E01A814ADBC92963CF2348F10407501D04F7CEC53F34505939EB1114
311
18087EF62E2D1B34391BB58D19B54EE90D9421E808AAE99A3F2308D3979E652D53CC8C70A917395DE459D7B8CEEDCC133C449F0354EB90F2023150F4DEBD90167604F7B01D308343C7283C0EAF6F18337264FDC09B5528784A466D72A3721C7332DA3F6A52C4824733DFE34F5ECBA8151004610A510F49FF81BB7DD7EE3BFA
311
8CD81E21DE14FA3F515AD483A2646CA4648BBBCA021098376B4370E5D2E7F51E46DF16E76355E6ED829E9E804035428C32425BC29B959B37904DFB76330DD1F9BCE1DDE533D371B73AF7ADE04D39522EBF17CCB51C54FC00504B0304140006080800DA7EDA42C1413F994F01000033030000300000006662782F3833304635
311
4132342D353231362D343831392D383539332D4538424331313932453936382F636E782E786D6CD593CD6E022114855F85B06DE64FC7496B184CBAE81374D12DC255A90C4CF869EADBF7A268DDB8E8B21B3239F770CECD17866DBE2743BEC007EDEC48BBBAA504AC744ADBFD4853DC55CF946C38F3CEC53B1B25564C30D22C
311
53CEF6DEA5B9480A76229988AAD1F658440FC1252F21A09C6F12E3A4301800B64A28C2B405A540919B11BF76E0711514B727120F40DE5E3F88DB7E828C81353985B326777096CFD27467A2441A11C248833CC0246A91A253108EB51251D45D7DED7AB0D36F12C917AE95C96B92CB479A4FCACB463572640D0E390BD123BD62
311
8AA7192817F36CB41411213767E3C5C359D2360E7DF16A04EFD1DD0DCBBEC7B0F38CB3A827280EE9414450942FDA6E59B543B518DEBBD57AD5AF57CBA7F665DDB6ACC976CEB6CE99720963C0BB99486723D84879C79A3C7E84AFF888D21E593B7FFA034804505A2F746E19FF994F737EDF88CBE35FC07F00504B0304140006
311
080800DA7EDA421D5AFFB59B0500007A100000340000006662782F38333046354132342D353231362D343831392D383539332D4538424331313932453936382F6F626A656374732E786D6CAD57DB6EDB3810FD1541FBEC8B7C699D85A222B1EBC228D216355AEC4300839228851B4A14482A75F6EBF750A264C9B113EFA22F
311
96450D873367CE5CE87FD867DC79A25231915FBBDE70EC3A348F44CCF2F4DA2D753258B8CE87C09742E88E98EBE424A3D7AE5976033F95A22CEC524C1352727DB4BABEFDCB5111CDA9EB449C2875EDAAE8816664484A2D62AA1E8731D1649826FBA137AC05FB6A53498A8723A5059134D7B014EB39B438B5515EFF75EC8E02
311
7F64BE07BEF9B552D3F352A3CA9FFEF92C579AE4D18BC38ED44CBDD9EAE3647E3598CF66D3C1ECDDC41BDCAE6F5703EFFD74BC7CB75C5EDD7CBCC2C14A4B68B296489AB8C127602359E48FEA4F815FB25C4F2756C4066824E9133391728389E3F9A35AA6F5CE3A79CAFC48E4398D2AAC8046E59F551DD382E63162CEA88265
311
1D84C6FD57CFE0D8F93C35EFF6C8EEF265087477741435B637CFAEA522FC1B2EA84B182415350CACB1B48ED65C1D1F100E85E0F61B534E4634958C7087B35012F9EC0610352281DF5363982C4D36180FDC0051A83FF7E982347A9BE7A7AC4C4ACE0D8DDDA0CA821D72856A5559C6FEA1F2607D1719D8845819362CAC43FAB9
311
A06E7055536471C4A61A4827E12445C8E1A6D9399D1C39BA3479BA59B9C1E775B8DF9ADC3D7D78214541A536F401B59AC0354F8392B5C9BB287266837B64CA0194EF40FE0B52FD600AE226D97EB69FD953B424B94A84CC101B67EC0CC6F8193B5EF56BFE77FEF9A376733F7AE7F044B00D54BF01CFBE0FDD5876E00CFC2710
311
5EC8A9756D1B118EB271C772006448E2708125D4E124DCBBC106550E5519BB080F3CB80C739FF0D71F59352814D5499D670E2C8FCAE205051AB0558C841935F9AD818738BD2867D5C156EC1CBCF3DF42D79BD5F6F3B6940989E89DCDE9154D58CE345ADC81375D837A98F73C7AA4CFBF848CE1E84BBCB75DBC337B9402DA06
311
73037CDAD474F37238B97740847DA930E5C67FE30438611A6B47FF1D5311E59CE45494CDB9AFF60FB48D1A6293EC86C96D8339341690A6FE72948368D291648501B1ED566DD11C9EF1EEC7E60B1809792E42C20F42E1A1F446820BB90B9F7775553A89F4CF3EB52D0423A3056CAF72A4497F8BF92E6649522AD4C013B0FEDC
311
2CBBA133550115A2D15A27CB0CEE23B788B49C6DF4A2594B82462AF21D43DB44DA9D3CA0AB1F885A02540ACF59AC284F768CF332DB258CA319ED32529C81E3FFDB1F9659B1239928737D4677CF743487BEED3DF2AA5F44470F6EB0AD9E835B94DE98C68730F7844D2B3981552FB4B38FEBF56CBABE19CC96B3DBC16CEABD1F
311
5C4DDF7B83C5623E5FACE7F3E9D85B3471AA95077ED369BA098D28A1B3F9A564367C3F36481F5B03DCE08E6875FFA9CECEE6F96333C428EC8FB007EDB2DD78133F61ECA3F1DB0A0E9227156DB282D38CE69A9814BA337FF8778231A3674CBDBEC9484A2FD0F2F5D3F6C819AC5CB0EF9B4977FAEB68AF5D5D9A843CA9443F94
311
599813C68F36A63592C3224F2D7E4D4CDA67DD679A57F3660383C15409CE6294C1D849A9C8A84631BCA007C98C2A50AF3BD2C7F6EA71C1EEA77A40D424E4B4B1E4816046E60A69016A9591EEAF3B7F60A63363D5B58B6E3B7CC48FAD14AE03CE5CBB98D1358BA81A86E8CF6612AA94834BDD411E733FC9538E51BBDED4BEB7
311
BB0C36BD8EDC8A5C323E59BFEA0A6E1D4019293036601E42742A6302BFB2CD7E8FFE93E38D390ED1F81B96BAF5E5B0D03A531D8314AD9DB29705CC308FF6E83D12F575B7BC6125D343E4A24BD6AB24A8B50E349169755130F659936E56DF4618509CCD57A7E0658A585EAE692029C85C9A04078BC00AABB3201A545DFE79FF
311
4D0A5C643367CD4081FBA5C83291DB971B7B1176B60FB8D6C6F7280BD4DC47D4FD64EC4DEEAB7B80BD9AEC42A2E890C4EA110B88A9642DC4BDC08391F565111DA8FED0CA8D4C108EB8B95939B6A5CDA0D412A55B550D2C983872EA207BCC5DD2E44A57A078F52A30AA446182C4101FFC0B504B0304140006080000DA7EDA42
311
000000000000000000000000350000006662782F38333046354132342D353231362D343831392D383539332D4538424331313932453936382F76657274696365732E62696E504B0304140006080800DA7EDA42F270F1330600000004000000360000006662782F38333046354132342D353231362D343831392D383539332D
311
4538424331313932453936382F747269616E676C65732E62696E636660600000504B0304140006080000DA7EDA42000000000000000000000000370000006662782F38333046354132342D353231362D343831392D383539332D4538424331313932453936382F617474726962757465732E62696E504B0304140006080800
311
DA7EDA42D5987DFC8F00000041010000360000006662782F38333046354132342D353231362D343831392D383539332D4538424331313932453936382F6469726563746F72792E786D6C858F410EC2201045AF4266AF15DDB800BA74E7C21B903225242D6328188F2FA5C4183471359997F9FF81E89FF3C41E1816475E02DF
311
1F80A11FC8386F25A438EECEC07A250251FC3803E6F58C12560C4AD840E95E91C151A72936F496F35732D860FE635F62C8F2DA16B505C545B74125BAA2FA9E05D7CC053D063734D5C7665FD55B6B8D15D5E9BFEAFD8490FFA45E504B0304140006080800DA7EDA42DC17A78CFE000000A00100003B0000006662782F383330
311
46354132342D353231362D343831392D383539332D4538424331313932453936382F7265736F75726365732F636F72652E786D6C8D50DB6A843010FD15C96B89468D562566A954BFA03F10E2AC1B764D2497D2CF6F5C2DB46F7D9919CE85391C76F95A1FC92758A78CEE519E1294809666567AE951F057DCA0E4C29935C6FF
311
92A1448B157AB4C388B3C59AB09D9034DA83F611D566861314CE8147897CC4A3474EDE6015A9083E2ADC3DDD84BC8B05D23C8D74D471E6BC8D0192E3C93E11B7E04CB0121CCB0E96B310D47C6AD41C7FAAAB028B785E8F944E538BEBBA79C774AA46DC0CB4C6B42CDAB7717C1D081D58B69B39F36AFDC9282D080F33E205C9
311
4B4C6A5CD41F79D555B4ABCA17D27684B06C97FF31856DFEA72928EDCBE28C7BD85CCC1A833C09CEB2BDAFB89E65C6BD77CBBF01504B010214000A0000080000DA7EDA423DEE336E79000000790000001B00000000000000000000000000000000006175746F6465736B2D64657369676E2D7061636B6167652E786D6C504B
311
01021400140006080800DA7EDA42D486FD9CA0000000F40000001300000000000000000000000000B20000005B436F6E74656E745F54797065735D2E786D6C504B01021400140006080800DA7EDA4261DEC44DEB0000007C010000080000000000000000000000000083010000636F72652E786D6C504B0102140014000608
311
0800DA7EDA4255019EA25F0000007C000000070000000000000000000000000094020000636E782E786D6C504B01021400140006080800DA7EDA427D08E0C467010000020300000C00000000000000000000000000180300006662782F636F72652E786D6C504B01021400140006080800DA7EDA4254F251797E0000009D00
311
00000B00000000000000000000000000A90400006662782F636E782E786D6C504B01021400140006080800DA7EDA425D22D5462C010000150200003100000000000000000000000000500500006662782F38333046354132342D353231362D343831392D383539332D4538424331313932453936382F636F72652E786D6C50
311
4B01021400140006080800DA7EDA42C1413F994F010000330300003000000000000000000000000000CB0600006662782F38333046354132342D353231362D343831392D383539332D4538424331313932453936382F636E782E786D6C504B01021400140006080800DA7EDA421D5AFFB59B0500007A100000340000000000
311
0000000000000000680800006662782F38333046354132342D353231362D343831392D383539332D4538424331313932453936382F6F626A656374732E786D6C504B01021400140006080000DA7EDA420000000000000000000000003500000000000000000000000000550E00006662782F38333046354132342D35323136
311
2D343831392D383539332D4538424331313932453936382F76657274696365732E62696E504B01021400140006080800DA7EDA42F270F13306000000040000003600000000000000000000000000A80E00006662782F38333046354132342D353231362D343831392D383539332D4538424331313932453936382F74726961
311
6E676C65732E62696E504B01021400140006080000DA7EDA420000000000000000000000003700000000000000000000000000020F00006662782F38333046354132342D353231362D343831392D383539332D4538424331313932453936382F617474726962757465732E62696E504B01021400140006080800DA7EDA42D5
311
987DFC8F000000410100003600000000000000000000000000570F00006662782F38333046354132342D353231362D343831392D383539332D4538424331313932453936382F6469726563746F72792E786D6C504B01021400140006080800DA7EDA42DC17A78CFE000000A00100003B000000000000000000000000003A10
311
00006662782F38333046354132342D353231362D343831392D383539332D4538424331313932453936382F7265736F75726365732F636F72652E786D6C504B0506000000000E000E0080040000911100000000
310
504B03040A0000080000DA7EDA423DEE336E79000000790000001B0000006175746F6465736B2D64657369676E2D7061636B6167652E786D6C3C3F786D6C2076657273696F6E3D22312E302220656E636F64696E673D227574662D3822203F3E3C666F726D6174733E3C666F726D61743E687474703A2F2F736368656D612E
310
6175746F6465736B2E636F6D2F64657369676E2D7061636B6167652F323030393C2F666F726D61743E3C2F666F726D6174733E504B0304140006080800DA7EDA42D486FD9CA0000000F4000000130000005B436F6E74656E745F54797065735D2E786D6C7D8EC10E82300C865F65E91D8A1E8C310C0EEA1BF002731658846E
310
D98AC1B77784ABF1D8FE5FBFBF75BBCE937A534CCEB38643598122B6FEE978D0B0485F9C41B54DDD7D022595594E1A469170414C76A4D9A4D207E29CF43ECE46F218070CC6BECC4078ACAA135ACF422C856C0E68EA1BF5669944DDD7BCDE7B1F8E415D77AECB980613C2E4AC91FC167A2B244592486606FC29C8FD7F045B9A
310
EF7053A7E60B504B0304140006080800DA7EDA42E3A392E4ED0000007C01000008000000636F72652E786D6C8D904D6EC3201085AF82665B61E33FE25898C8B59313F4020813172506CB40D5E317278ED4EEBA9AD19BF7CD8C1E3B7DCF77F4A556A7AD69214B082065A41DB5995A08FE8A6B4027CE566BFD2F1B202366D5C2
310
260367D36AC3B24BD21AAF8C8FAAB1A3DA45E19CF280E43D362D38F9A9669188E0A3C3DD9245C89B985492BDBA0887A047F43CA2C7B84F5FB55A8157FD79E80E178AFBBAC871F97E1C70DDD30E9F87A2BC1C4A9AD3AE66E90673E6F5FCBA2F5725BC1A81E7242B30A138A71F59D5546553156FE4D810C2D2CDFE070ACBF84F
310
2868E38B7C7FF78939E0597CE431E02CDDB288E51154AC5B6EFC07504B0304140006080800DA7EDA4255019EA25F0000007C00000007000000636E782E786D6C4DCB3B0E80201045D1AD90E915ED2CF8AC45050C11660C8261F98AB1B07AC9C97D42D718D865D3E909258CFD00CCE24AC6E326A164D74DC0B4128928FF3260
310
38472BA13128B1252AC747C6BAB984FC68F0B87FE8960A5C09FE86CFB69FBA01504B0304140006080800DA7EDA426589612769010000020300000C0000006662782F636F72652E786D6C8D525B6E833010BC8AE5DF0ACC3B24328ED23C4ED00B38E0502B602363A31CBFCB234A5345518564AC999DDDD901BABDB50D1A84E9
310
A556050EFD0023A14A5D495517D8D98B9763B465D4686D7F9561A4782B0A3CC298D1DA68D72D50A99515CA02AA74251690F7BDB018950D5C0ADC97DFA2E53E77162AFAABDFF1F2CA6BE1873ED050C7686F0D1840F390F1C4EC72BE5132E38C3A27AB8595154C9317290C66E9FE78D8AD4E99B7CFE3C84B3ED7072FDF673BEF
310
788893D32AC9A26C9753328A19B5B2BDBB2B8DE05654984541187B41E645D957986ED26493C61FC17A1304948CE54F22D755FF1439A96C1C2D7667598F59084626E2CFB61091453D1FC00F61948C21C26B4AF83968080442B6FCDCDCF7B8023488D26A93005369F7A006DE38015303343D94CC2C749E1AC0662FFB446FFABC
310
EF011F90AB1AAC710BD7B3B3E3743A4F5DA2E884F1067B434A9B96370F73B3C5C7F918F4525EEA469BFFA8C9B22A59C224E3DFCB7E00504B0304140006080800DA7EDA42DA462CCF7E0000009D0000000B0000006662782F636E782E786D6C4DCCD10E82201886E15B61FF399A51881BE08CE83E5CA263223484D6E5A7CD83
310
8EBEEDD9B797B79FC5A1B789AB0D5E40559C0019FF0C83F593809C46CC00B592C710D2DF0D90EF17236067907C8A21BF0E1ACCD867973675D6CF07EA5AABFB952A4C19A9F045698A3BAA1ADCDDCE84B2E6C1484DA094BCFC95B6DDC3F20B504B0304140006080800DA7EDA42FC0BD8762D0100001402000031000000666278
310
2F45374543443536432D363833312D344345362D413643392D4142323336383946383337332F636F72652E786D6C8D515B6EC32010BC0AE22B55651B8C4DEC0813A56E7A825EC00192A2C460F1A872FCE2DA91DABFFCB068766676B4CBF6F7F106BE95F3DA9A0EE21C41A08CB0529B4B076338670D047BCE9CB5E10F0D0233
310
8CAA83330C39BB381BA71512D6046542428D956A0507EF558040DCD2A7835E7CA971C8871812C35FF36910D7E1A2729CA776E271E6834B01C032647E213F6E8FFD7B4DFB8C360467557FA4D981F66D76782B096DDA8F866C092B162167316AB9CAB54C71F4592BF7ACC92CE62CE8F1115F38350425212F112619A259493F71
310
BDABAB5D4D5E51BB43881533FD9F284EF24951D42690728DBBC83CE498154B833369E3E9F608A3EE937501CCF3365E8917C8518E30AAAA7ADBB262A1A605244F5AAD9E3E589716BCB99E129BACC6B4E2AC986F94CAEF01539DEFC97F00504B0304140006080800DA7EDA42A7E6F08E5601000033030000300000006662782F
310
45374543443536432D363833312D344345362D413643392D4142323336383946383337332F636E782E786D6CBD93CD6EC23010845FC5F2B5CA1F0911458E917AE813F4D0ABB1177049ECC83F5579FBAEC1502E1C2A55BD58D1EC7866F5C9619BAF69249FE0BCB666A04D595302465AA5CD7EA031EC8A15251BCE9CB5E1CE46
310
8911130C34C994B3BDB371CE92829D88634075D4E6984507DE4627C1A39C6E92D14A3162009822A208D3169402456E46FCDA81C35550DC9E483800797D792776FB01327856A514CEAAD4C1593A73D39D8912390AEF07EAE50126518A18AC027F2C9508A26CCA6BD7839D7E9248BA70AD8C4E93543ED074529E372A9123AB70
310
C8990F0EE9655338CD40B998E7514B11107275365E3C9C456D42DF65AF46F00EDDEDA25FAD30EC3CE32CE809B2433A100114E58BBA698BBA2F16FD5BB35C2FBBF5B27DAA9FD775CDAA64E76C6BED982F610C383B13694D0013286F5895C68FF0651F51DA216BEB4EBF00890072EB85CE2DE32FF9347DDB75FFC8A73ABF6FC4
310
E5F02FE0DF504B0304140006080800DA7EDA4251DC972D57070000931B0000340000006662782F45374543443536432D363833312D344345362D413643392D4142323336383946383337332F6F626A656374732E786D6CED595B739B3814FE2B0CFB6C6C62BB4D76089DC4A93B9E9DB49D7ADBD907CF3032C8581B211849E4
310
B2BF7E8F2E602026C1DBEC5B1F6C404847E77CE7AA43F0E131A3CE3DE682E4ECD2F5BD89EB6016E70961E9A55BCADDE8DC753E8401CF73D998E63A0C65F8D255C36E18A43C2F0B3B94E01D2AA9EC8C2EAFFF72448C19769D9822212E5D11EF71863C54CA3CC1E2CE4B90445EBA7BF47CCF4C6C934D392AF61DA205E29849E0
310
14C61950710C537EFB71E28EC360ACDE8781FAB7B3A68366CDFA678DB5D46D2E091312B1F8194B1D32D3412C4DFDD9CDC7B3F9C5683E9B4D47B37767FEE87A797D33F2DF4F278B778BC5C5D5C70B606F9BE7D4CA94E002B304F4F7E4867E30566F6AD12D02C7B88E73C670AC8104A8B4585D82040BD8AA01DFA4FDE82B891A
310
AFB5848DE7997A6F59680C4FDB54FA660D03A2451704B1DB551257D7A67CF9F66F105C0C314A2EB0046E85E4A05D0B0F07AF70C3493036A361B03DE882082743127382A843C996230E4A81A96A4A189805968C720E0EA41C2581D69C79DDB62DF0CCD75DE71897BB9252E5196EA81D2B02F7C35268CEC83F981FB86F22033C
310
81B42561F2DC72299F0AEC8617C1580F8681BA4CCFEC4B03A4B3A328151A11F3B623E842B9FEEAC60DFF586E1FD72A1C1CDFBCE07981B95446A7F4A8F90243B6578592DDD61FA439B5008431A0DA950750BE01F29F217A1C5801BD71F2387B9CD9B99223267639CF4037CEC4194DE06FE2F8FA5FDD37EE8271BDB8ADBD3E3C
310
C14D1554E73F8F675B068D95E5BF016718DC83C1E77C6A5FAD6344C19E6F09038094913834872108EDBBEDA31BAE207042A0875588863E880CECDEC36D30B6640E5AA9DCCB7A1D0344ED1ED3214A02D8B445021B3D7AFA04D98393F8A0A6A6887DF0CEDFC45CAF6ED67FAC4BBE4331BEB53E7D837784110959F338432DCC5B
310
12DDE1A7879C2720E873BCD74DBC33BB9500B415E60AF8B402413D1C766E6D10C3BA3457E1267865071042E5EA06FD5B22624C2962382FAB7DEBE8A60CB5F6785B33B8E19981787AD631618EEF89AA2AC0690E335A8C42DE8F392914886EF8C94856074DAF47BAEFABCF6091F5FC9E592B06A19721FAA70E5A477068597685
310
B405A216787B08E7714E731E6D9F2213E95CA825808DB6B7FC681185586F94A4A8800769BFAB424A6AA48D12B2DB9502E2EA11167FAC164D739878537FEE34FF3BCE3883680BBE8BB8F5BBCE1E11C9508AA31D4AFAB66BEE56D3169A640F698E7714E422F7443E4548469304A7A7407312F18B37A59ED25C08C2B0807C7514
310
FC261A130F0289D166C5B2D26A076822A20C4B444F414091E90157A71D5DE3C6503ABCCE636DBD2F69AC49F47FB2088EA096CC5944A014851CF22AE3BE378718D246D7A0DCC117ACADA2ADC5A0259410F153F48049BA97A7A06EC8F7E01EC391A494515EA018CC7A00D967BEA294DAE17D8BE23B953FA2B8A46F652002D35D
310
44282DB3087E84C1C963886BD781E945141AC44DEC933883A20CC9920FD9E4DD7CF26C1F533374436063A31DA110B6A30C153DA8B702A2AE479C1A7C4BBD47A9DB322B2294E5251B6428DEB4EB4D967C57AD8AEC407E55A908656345D8120C03C2649D55AB980DA6AE032BB8910E544F91405941CD29EC95C4E3D7DEA429F7
310
6EC0AD9FBEED0619147E3DDA6B46D4590583E5B15518880724E3BD1BAEF575740DF577829343AAAF6ACD66050888A9485E726255F47D05E58DADD1DCF01649B1F964B26E75FDBEF2A0FB118C610DD42EF5C295023AC34C225599DCAA1BFA0D41086ED130E32B95534FA1729524BA6A447449FAD4D92A235A9B66C42BF698E5
310
19FCD886B0989609DEA044DC45B792466BA258B7527A19A9307E51C02F9FD61D78606480485F5581871F3A6BEDE842954B4789C87D996D192210045BA2A546375EC152AB914ACBF5559D29A0EE0203B32A9EFD3A5934DB11BF4E16A9358C9F3B59D07C8BE821DA34B279ACCCFAA453409D9E1495B73805E8AE434DB54E2226
310
975BF1AD2F451013AB203FB818AB628621D8C7F17F4EDA7D49D06CD7E1FFB4A4ED3F2B384E4A2AADC9AA4975A4705DB552D8C7E572365D5E8D668BD9F56836F5DF8F2EA6EFFDD1F9F97C7EBE9CCFA713FFBC4653FB6918D4B14CA72E783631AD1A564F160368CA8A9C92040EF389936208F9128EF403BAE73CC3027267B3D7
310
9DD89EFC80D5F7A6CD29D196E28A933D82FE301590D501A33296ED71E737E84C4A38675FBAD033F2EEE0CF5AA5EB40E2B974A15320498C85B7852E93EAE769E2907175EAB7C4001FC4529511CDA2FAB95EA5B06945FF7ACA902C60E56AB530A06E2BA0F9D56A5068DE2C4FF1498257EC3848C2EDB69450AC19590E03B5307A
310
9B83FA8D6C94B03BBBF523B8EECB62F99E9ED34264D01783178DC0501D49C453DDEE568C5996AE6EBE8EA1CDE6ACBE38052D53D0E5704A238EC1984B554F81158155589A059260AA8BDF375F790E5F78324717459B459E6539B30F57701C4BE00B91B3DEC3F79E64035503565D75B1399BF8671BDDCDB60DF6688B04F65439
310
04035515A144E8181B58E4B3CE94ED5B8E95123AD357378E0D9FD0053016F4ACB96BBE6E39E03DEA3B8AF215EDE1959C2F36B4C77A2A5803875674F82F504B0304140006080000DA7EDA42000000000000000000000000350000006662782F45374543443536432D363833312D344345362D413643392D4142323336383946
310
383337332F76657274696365732E62696E504B0304140006080800DA7EDA42F270F1330600000004000000360000006662782F45374543443536432D363833312D344345362D413643392D4142323336383946383337332F747269616E676C65732E62696E636660600000504B0304140006080000DA7EDA42000000000000
310
000000000000370000006662782F45374543443536432D363833312D344345362D413643392D4142323336383946383337332F617474726962757465732E62696E504B0304140006080800DA7EDA42D5987DFC8F00000041010000360000006662782F45374543443536432D363833312D344345362D413643392D41423233
310
36383946383337332F6469726563746F72792E786D6C858F410EC2201045AF4266AF15DDB800BA74E7C21B903225242D6328188F2FA5C4183471359997F9FF81E89FF3C41E1816475E02DF1F80A11FC8386F25A438EECEC07A250251FC3803E6F58C12560C4AD840E95E91C151A72936F496F35732D860FE635F62C8F2DA16
310
B505C545B74125BAA2FA9E05D7CC053D063734D5C7665FD55B6B8D15D5E9BFEAFD8490FFA45E504B0304140006080800DA7EDA428B49CFD5FE000000A00100003B0000006662782F45374543443536432D363833312D344345362D413643392D4142323336383946383337332F7265736F75726365732F636F72652E786D6C
310
8D50596E833010BD0A9ADFCAEC10828C230AC9097A01CB4C889560232F558F5F9350A9FDEBCFCCE82D9AA7474F5FCB23FA4463A5561D64710A112AA127A9E60EBCBB9206A213A3466BF74B0691E20B76B0C1C0E86CB45F774868E550B9802A3DE10E726BD141241EE1E8C08A1B2E3CE6DE0585BDC72B17773E639CC5810E3A
310
46AD332140F47AB24D6006ADF646A0A5C98B65D47B39ED1A39859FF22AD100AB86F3D81F2E15199A2227E5FB7124CD50F7E43C16E5E550D679DD3734D9CC8C3AB9FC641406B9C309589E6605496B92D71F59D556655B156FE9B14D539A6CF23F26BF4EFF3479A95C91EF715F360B2C0B419E04A3C9D65758CF32C3DEBA65DF
310
504B010214000A0000080000DA7EDA423DEE336E79000000790000001B00000000000000000000000000000000006175746F6465736B2D64657369676E2D7061636B6167652E786D6C504B01021400140006080800DA7EDA42D486FD9CA0000000F40000001300000000000000000000000000B20000005B436F6E74656E74
310
5F54797065735D2E786D6C504B01021400140006080800DA7EDA42E3A392E4ED0000007C010000080000000000000000000000000083010000636F72652E786D6C504B01021400140006080800DA7EDA4255019EA25F0000007C000000070000000000000000000000000096020000636E782E786D6C504B01021400140006
310
080800DA7EDA426589612769010000020300000C000000000000000000000000001A0300006662782F636F72652E786D6C504B01021400140006080800DA7EDA42DA462CCF7E0000009D0000000B00000000000000000000000000AD0400006662782F636E782E786D6C504B01021400140006080800DA7EDA42FC0BD8762D
310
010000140200003100000000000000000000000000540500006662782F45374543443536432D363833312D344345362D413643392D4142323336383946383337332F636F72652E786D6C504B01021400140006080800DA7EDA42A7E6F08E56010000330300003000000000000000000000000000D00600006662782F453745
310
43443536432D363833312D344345362D413643392D4142323336383946383337332F636E782E786D6C504B01021400140006080800DA7EDA4251DC972D57070000931B00003400000000000000000000000000740800006662782F45374543443536432D363833312D344345362D413643392D414232333638394638333733
310
2F6F626A656374732E786D6C504B01021400140006080000DA7EDA4200000000000000000000000035000000000000000000000000001D1000006662782F45374543443536432D363833312D344345362D413643392D4142323336383946383337332F76657274696365732E62696E504B01021400140006080800DA7EDA42
310
F270F13306000000040000003600000000000000000000000000701000006662782F45374543443536432D363833312D344345362D413643392D4142323336383946383337332F747269616E676C65732E62696E504B01021400140006080000DA7EDA420000000000000000000000003700000000000000000000000000CA
310
1000006662782F45374543443536432D363833312D344345362D413643392D4142323336383946383337332F617474726962757465732E62696E504B01021400140006080800DA7EDA42D5987DFC8F0000004101000036000000000000000000000000001F1100006662782F45374543443536432D363833312D344345362D
310
413643392D4142323336383946383337332F6469726563746F72792E786D6C504B01021400140006080800DA7EDA428B49CFD5FE000000A00100003B00000000000000000000000000021200006662782F45374543443536432D363833312D344345362D413643392D4142323336383946383337332F7265736F7572636573
310
2F636F72652E786D6C504B0506000000000E000E0080040000591300000000
  0
CELLSTYLEMAP
  5
293
102
{ACAD_REACTORS
330
4C
102
}
330
4C
100
AcDbCellStyleMap
 90
        3
300
CELLSTYLE
  1
TABLEFORMAT_BEGIN
 90
        5
170
     1
 91
        0
 92
    32768
 62
   257
 93
        1
300
CONTENTFORMAT
  1
CONTENTFORMAT_BEGIN
 90
        0
 91
        0
 92
      512
 93
        0
300

 40
0.0
140
1.0
 94
        5
 62
     0
340
1E
144
6.0
309
CONTENTFORMAT_END
171
     1
301
MARGIN
  1
CELLMARGIN_BEGIN
 40
1.5
 40
1.5
 40
1.5
 40
1.5
 40
0.18
 40
0.18
309
CELLMARGIN_END
 94
        6
 95
        1
302
GRIDFORMAT
  1
GRIDFORMAT_BEGIN
 90
        0
 91
        1
 62
     0
 92
       -2
340
0
 93
        0
 40
0.045
309
GRIDFORMAT_END
 95
        2
302
GRIDFORMAT
  1
GRIDFORMAT_BEGIN
 90
        0
 91
        1
 62
     0
 92
       -2
340
0
 93
        0
 40
0.045
309
GRIDFORMAT_END
 95
        4
302
GRIDFORMAT
  1
GRIDFORMAT_BEGIN
 90
        0
 91
        1
 62
     0
 92
       -2
340
0
 93
        0
 40
0.045
309
GRIDFORMAT_END
 95
        8
302
GRIDFORMAT
  1
GRIDFORMAT_BEGIN
 90
        0
 91
        1
 62
     0
 92
       -2
340
0
 93
        0
 40
0.045
309
GRIDFORMAT_END
 95
       16
302
GRIDFORMAT
  1
GRIDFORMAT_BEGIN
 90
        0
 91
        1
 62
     0
 92
       -2
340
0
 93
        0
 40
0.045
309
GRIDFORMAT_END
 95
       32
302
GRIDFORMAT
  1
GRIDFORMAT_BEGIN
 90
        0
 91
        1
 62
     0
 92
       -2
340
0
 93
        0
 40
0.045
309
GRIDFORMAT_END
309
TABLEFORMAT_END
  1
CELLSTYLE_BEGIN
 90
        1
 91
        1
300
_TITLE
309
CELLSTYLE_END
300
CELLSTYLE
  1
TABLEFORMAT_BEGIN
 90
        5
170
     1
 91
        0
 92
        0
 62
   257
 93
        1
300
CONTENTFORMAT
  1
CONTENTFORMAT_BEGIN
 90
        0
 91
        0
 92
      512
 93
        0
300

 40
0.0
140
1.0
 94
        5
 62
     0
340
1E
144
4.5
309
CONTENTFORMAT_END
171
     1
301
MARGIN
  1
CELLMARGIN_BEGIN
 40
1.5
 40
1.5
 40
1.5
 40
1.5
 40
0.18
 40
0.18
309
CELLMARGIN_END
 94
        6
 95
        1
302
GRIDFORMAT
  1
GRIDFORMAT_BEGIN
 90
        0
 91
        1
 62
     0
 92
       -2
340
0
 93
        0
 40
0.045
309
GRIDFORMAT_END
 95
        2
302
GRIDFORMAT
  1
GRIDFORMAT_BEGIN
 90
        0
 91
        1
 62
     0
 92
       -2
340
0
 93
        0
 40
0.045
309
GRIDFORMAT_END
 95
        4
302
GRIDFORMAT
  1
GRIDFORMAT_BEGIN
 90
        0
 91
        1
 62
     0
 92
       -2
340
0
 93
        0
 40
0.045
309
GRIDFORMAT_END
 95
        8
302
GRIDFORMAT
  1
GRIDFORMAT_BEGIN
 90
        0
 91
        1
 62
     0
 92
       -2
340
0
 93
        0
 40
0.045
309
GRIDFORMAT_END
 95
       16
302
GRIDFORMAT
  1
GRIDFORMAT_BEGIN
 90
        0
 91
        1
 62
     0
 92
       -2
340
0
 93
        0
 40
0.045
309
GRIDFORMAT_END
 95
       32
302
GRIDFORMAT
  1
GRIDFORMAT_BEGIN
 90
        0
 91
        1
 62
     0
 92
       -2
340
0
 93
        0
 40
0.045
309
GRIDFORMAT_END
309
TABLEFORMAT_END
  1
CELLSTYLE_BEGIN
 90
        2
 91
        1
300
_HEADER
309
CELLSTYLE_END
300
CELLSTYLE
  1
TABLEFORMAT_BEGIN
 90
        5
170
     1
 91
        0
 92
        0
 62
   257
 93
        1
300
CONTENTFORMAT
  1
CONTENTFORMAT_BEGIN
 90
        0
 91
        0
 92
      512
 93
        0
300

 40
0.0
140
1.0
 94
        2
 62
     0
340
1E
144
4.5
309
CONTENTFORMAT_END
171
     1
301
MARGIN
  1
CELLMARGIN_BEGIN
 40
1.5
 40
1.5
 40
1.5
 40
1.5
 40
0.18
 40
0.18
309
CELLMARGIN_END
 94
        6
 95
        1
302
GRIDFORMAT
  1
GRIDFORMAT_BEGIN
 90
        0
 91
        1
 62
     0
 92
       -2
340
0
 93
        0
 40
0.045
309
GRIDFORMAT_END
 95
        2
302
GRIDFORMAT
  1
GRIDFORMAT_BEGIN
 90
        0
 91
        1
 62
     0
 92
       -2
340
0
 93
        0
 40
0.045
309
GRIDFORMAT_END
 95
        4
302
GRIDFORMAT
  1
GRIDFORMAT_BEGIN
 90
        0
 91
        1
 62
     0
 92
       -2
340
0
 93
        0
 40
0.045
309
GRIDFORMAT_END
 95
        8
302
GRIDFORMAT
  1
GRIDFORMAT_BEGIN
 90
        0
 91
        1
 62
     0
 92
       -2
340
0
 93
        0
 40
0.045
309
GRIDFORMAT_END
 95
       16
302
GRIDFORMAT
  1
GRIDFORMAT_BEGIN
 90
        0
 91
        1
 62
     0
 92
       -2
340
0
 93
        0
 40
0.045
309
GRIDFORMAT_END
 95
       32
302
GRIDFORMAT
  1
GRIDFORMAT_BEGIN
 90
        0
 91
        1
 62
     0
 92
       -2
340
0
 93
        0
 40
0.045
309
GRIDFORMAT_END
309
TABLEFORMAT_END
  1
CELLSTYLE_BEGIN
 90
        3
 91
        2
300
_DATA
309
CELLSTYLE_END
  0
XRECORD
  5
29B
102
{ACAD_REACTORS
330
4C
102
}
330
4C
100
AcDbXrecord
280
     1
102
ACAD_ROUNDTRIP_PRE2007_TABLESTYLE
 90
      512
 91
        0
  1

 92
      512
 93
        0
  2

 94
      512
 95
        0
  3

  0
XRECORD
  5
29A
102
{ACAD_REACTORS
330
299
102
}
330
299
100
AcDbXrecord
280
     1
102
RTVSPropertyOp0
 70
     1
102
RTVSPropertyOp1
 70
     1
102
RTVSPropertyOp2
 70
     1
102
RTVSPropertyOp3
 70
     1
102
RTVSPropertyOp4
 70
     1
102
RTVSPropertyOp5
 70
     1
102
RTVSPropertyOp6
 70
     1
102
RTVSPropertyOp7
 70
     1
102
RTVSPropertyOp8
 70
     1
102
RTVSPropertyOp9
 70
     1
102
RTVSPropertyOp10
 70
     1
102
RTVSPropertyOp11
 70
     1
102
RTVSPropertyOp12
 70
     1
102
RTVSPropertyOp13
 70
     1
102
RTVSPropertyOp14
 70
     1
102
RTVSPropertyOp15
 70
     1
102
RTVSPropertyOp16
 70
     1
102
RTVSPropertyOp17
 70
     1
102
RTVSPropertyOp18
 70
     1
102
RTVSPropertyOp19
 70
     1
102
RTVSPropertyOp20
 70
     1
102
RTVSPropertyOp21
 70
     1
102
RTVSPropertyOp22
 70
     1
102
RTVSPropertyOp23
 70
     1
102
RTVSPropertyOp24
 70
     1
102
RTVSPropertyOp25
 70
     1
102
RTVSPropertyOp26
 70
     1
102
RTVSPropertyOp27
 70
     1
102
RTVSPropertyOp28
 70
     1
102
RTVSPropertyOp29
 70
     1
102
RTVSPropertyOp30
 70
     1
102
RTVSPropertyOp31
 70
     1
102
RTVSPropertyOp32
 70
     1
  0
XRECORD
  5
29D
102
{ACAD_REACTORS
330
29C
102
}
330
29C
100
AcDbXrecord
280
     1
102
RTVSPropertyOp0
 70
     1
102
RTVSPropertyOp1
 70
     1
102
RTVSPropertyOp2
 70
     1
102
RTVSPropertyOp3
 70
     1
102
RTVSPropertyOp4
 70
     1
102
RTVSPropertyOp5
 70
     1
102
RTVSPropertyOp6
 70
     1
102
RTVSPropertyOp7
 70
     1
102
RTVSPropertyOp8
 70
     1
102
RTVSPropertyOp9
 70
     1
102
RTVSPropertyOp10
 70
     1
102
RTVSPropertyOp11
 70
     1
102
RTVSPropertyOp12
 70
     1
102
RTVSPropertyOp13
 70
     1
102
RTVSPropertyOp14
 70
     1
102
RTVSPropertyOp15
 70
     1
102
RTVSPropertyOp16
 70
     1
102
RTVSPropertyOp17
 70
     1
102
RTVSPropertyOp18
 70
     1
102
RTVSPropertyOp19
 70
     1
102
RTVSPropertyOp20
 70
     1
102
RTVSPropertyOp21
 70
     1
102
RTVSPropertyOp22
 70
     1
102
RTVSPropertyOp23
 70
     1
102
RTVSPropertyOp24
 70
     1
102
RTVSPropertyOp25
 70
     1
102
RTVSPropertyOp26
 70
     1
102
RTVSPropertyOp27
 70
     1
102
RTVSPropertyOp28
 70
     1
102
RTVSPropertyOp29
 70
     1
102
RTVSPropertyOp30
 70
     1
102
RTVSPropertyOp31
 70
     1
102
RTVSPropertyOp32
 70
     1
  0
XRECORD
  5
29F
102
{ACAD_REACTORS
330
29E
102
}
330
29E
100
AcDbXrecord
280
     1
102
RTVSPropertyOp0
 70
     1
102
RTVSPropertyOp1
 70
     1
102
RTVSPropertyOp2
 70
     1
102
RTVSPropertyOp3
 70
     1
102
RTVSPropertyOp4
 70
     1
102
RTVSPropertyOp5
 70
     1
102
RTVSPropertyOp6
 70
     1
102
RTVSPropertyOp7
 70
     1
102
RTVSPropertyOp8
 70
     1
102
RTVSPropertyOp9
 70
     1
102
RTVSPropertyOp10
 70
     1
102
RTVSPropertyOp11
 70
     1
102
RTVSPropertyOp12
 70
     1
102
RTVSPropertyOp13
 70
     1
102
RTVSPropertyOp14
 70
     1
102
RTVSPropertyOp15
 70
     1
102
RTVSPropertyOp16
 70
     1
102
RTVSPropertyOp17
 70
     1
102
RTVSPropertyOp18
 70
     1
102
RTVSPropertyOp19
 70
     1
102
RTVSPropertyOp20
 70
     1
102
RTVSPropertyOp21
 70
     1
102
RTVSPropertyOp22
 70
     1
102
RTVSPropertyOp23
 70
     1
102
RTVSPropertyOp24
 70
     1
102
RTVSPropertyOp25
 70
     1
102
RTVSPropertyOp26
 70
     1
102
RTVSPropertyOp27
 70
     1
102
RTVSPropertyOp28
 70
     1
102
RTVSPropertyOp29
 70
     1
102
RTVSPropertyOp30
 70
     1
102
RTVSPropertyOp31
 70
     1
102
RTVSPropertyOp32
 70
     1
  0
ENDSEC
  0
EOF
