  0
SECTION
  2
HEADER
  9
$ACADVER
  1
AC1015
  9
$ACADMAINTVER
 70
    18
  9
$DWGCODEPAGE
  3
ANSI_932
  9
$INSBASE
 10
0.0
 20
0.0
 30
0.0
  9
$EXTMIN
 10
67.68173378016456
 20
26.59270766672285
 30
0.0
  9
$EXTMAX
 10
347.7630171532073
 20
246.5593019374039
 30
0.0
  9
$LIMMIN
 10
0.0
 20
0.0
  9
$LIMMAX
 10
420.0
 20
297.0
  9
$ORTHOMODE
 70
     0
  9
$REGENMODE
 70
     1
  9
$FILLMODE
 70
     1
  9
$QTEXTMODE
 70
     0
  9
$MIRRTEXT
 70
     0
  9
$LTSCALE
 40
5.0
  9
$ATTMODE
 70
     1
  9
$TEXTSIZE
 40
3.0
  9
$TRACEWID
 40
0.05
  9
$TEXTSTYLE
  7
STANDARD
  9
$CLAYER
  8
0
  9
$CELTYPE
  6
CONTINUOUS
  9
$CECOLOR
 62
   256
  9
$CELTSCALE
 40
1.0
  9
$DISPSILH
 70
     0
  9
$DIMSCALE
 40
1.0
  9
$DIMASZ
 40
2.0
  9
$DIMEXO
 40
1.0
  9
$DIMDLI
 40
6.0
  9
$DIMRND
 40
0.0
  9
$DIMDLE
 40
0.0
  9
$DIMEXE
 40
2.0
  9
$DIMTP
 40
495.0
  9
$DIMTM
 40
0.0
  9
$DIMTXT
 40
3.0
  9
$DIMCEN
 40
0.0
  9
$DIMTSZ
 40
0.0
  9
$DIMTOL
 70
     0
  9
$DIMLIM
 70
     0
  9
$DIMTIH
 70
     0
  9
$DIMTOH
 70
     0
  9
$DIMSE1
 70
     0
  9
$DIMSE2
 70
     0
  9
$DIMTAD
 70
     3
  9
$DIMZIN
 70
     8
  9
$DIMBLK
  1
ARROW
  9
$DIMASO
 70
     1
  9
$DIMSHO
 70
     0
  9
$DIMPOST
  1

  9
$DIMAPOST
  1

  9
$DIMALT
 70
     0
  9
$DIMALTD
 70
     2
  9
$DIMALTF
 40
25.4
  9
$DIMLFAC
 40
1.0
  9
$DIMTOFL
 70
     1
  9
$DIMTVP
 40
0.0
  9
$DIMTIX
 70
     1
  9
$DIMSOXD
 70
     0
  9
$DIMSAH
 70
     1
  9
$DIMBLK1
  1
OPEN
  9
$DIMBLK2
  1
OPEN
  9
$DIMSTYLE
  2
IMAO
  9
$DIMCLRD
 70
     0
  9
$DIMCLRE
 70
     0
  9
$DIMCLRT
 70
     0
  9
$DIMTFAC
 40
1.0
  9
$DIMGAP
 40
1.0
  9
$DIMJUST
 70
     0
  9
$DIMSD1
 70
     0
  9
$DIMSD2
 70
     0
  9
$DIMTOLJ
 70
     1
  9
$DIMTZIN
 70
     0
  9
$DIMALTZ
 70
     0
  9
$DIMALTTZ
 70
     0
  9
$DIMUPT
 70
     1
  9
$DIMDEC
 70
     4
  9
$DIMTDEC
 70
     4
  9
$DIMALTU
 70
     2
  9
$DIMALTTD
 70
     2
  9
$DIMTXSTY
  7
STANDARD
  9
$DIMAUNIT
 70
     0
  9
$DIMADEC
 70
     0
  9
$DIMALTRND
 40
0.0
  9
$DIMAZIN
 70
     0
  9
$DIMDSEP
 70
    46
  9
$DIMATFIT
 70
     3
  9
$DIMFRAC
 70
     0
  9
$DIMLDRBLK
  1
OPEN
  9
$DIMLUNIT
 70
     2
  9
$DIMLWD
 70
    -2
  9
$DIMLWE
 70
    -2
  9
$DIMTMOVE
 70
     0
  9
$LUNITS
 70
     2
  9
$LUPREC
 70
     2
  9
$SKETCHINC
 40
0.1
  9
$FILLETRAD
 40
0.0
  9
$AUNITS
 70
     0
  9
$AUPREC
 70
     2
  9
$MENU
  1
STDR12J
  9
$ELEVATION
 40
0.0
  9
$PELEVATION
 40
0.0
  9
$THICKNESS
 40
0.0
  9
$LIMCHECK
 70
     0
  9
$CHAMFERA
 40
0.0
  9
$CHAMFERB
 40
0.0
  9
$CHAMFERC
 40
0.0
  9
$CHAMFERD
 40
0.0
  9
$SKPOLY
 70
     0
  9
$TDCREATE
 40
2450690.700083218
  9
$TDUCREATE
 40
2450690.325083218
  9
$TDUPDATE
 40
2456478.488107465
  9
$TDUUPDATE
 40
2456478.113107465
  9
$TDINDWG
 40
0.2583474306
  9
$TDUSRTIMER
 40
0.2583474306
  9
$USRTIMER
 70
     1
  9
$ANGBASE
 50
0.0
  9
$ANGDIR
 70
     0
  9
$PDMODE
 70
     3
  9
$PDSIZE
 40
0.0
  9
$PLINEWID
 40
0.0
  9
$SPLFRAME
 70
     0
  9
$SPLINETYPE
 70
     6
  9
$SPLINESEGS
 70
     8
  9
$HANDSEED
  5
45F
  9
$SURFTAB1
 70
     6
  9
$SURFTAB2
 70
     6
  9
$SURFTYPE
 70
     6
  9
$SURFU
 70
     6
  9
$SURFV
 70
     6
  9
$UCSBASE
  2

  9
$UCSNAME
  2

  9
$UCSORG
 10
0.0
 20
0.0
 30
0.0
  9
$UCSXDIR
 10
1.0
 20
0.0
 30
0.0
  9
$UCSYDIR
 10
0.0
 20
1.0
 30
0.0
  9
$UCSORTHOREF
  2

  9
$UCSORTHOVIEW
 70
     0
  9
$UCSORGTOP
 10
0.0
 20
0.0
 30
0.0
  9
$UCSORGBOTTOM
 10
0.0
 20
0.0
 30
0.0
  9
$UCSORGLEFT
 10
0.0
 20
0.0
 30
0.0
  9
$UCSORGRIGHT
 10
0.0
 20
0.0
 30
0.0
  9
$UCSORGFRONT
 10
0.0
 20
0.0
 30
0.0
  9
$UCSORGBACK
 10
0.0
 20
0.0
 30
0.0
  9
$PUCSBASE
  2

  9
$PUCSNAME
  2

  9
$PUCSORG
 10
0.0
 20
0.0
 30
0.0
  9
$PUCSXDIR
 10
1.0
 20
0.0
 30
0.0
  9
$PUCSYDIR
 10
0.0
 20
1.0
 30
0.0
  9
$PUCSORTHOREF
  2

  9
$PUCSORTHOVIEW
 70
     0
  9
$PUCSORGTOP
 10
0.0
 20
0.0
 30
0.0
  9
$PUCSORGBOTTOM
 10
0.0
 20
0.0
 30
0.0
  9
$PUCSORGLEFT
 10
0.0
 20
0.0
 30
0.0
  9
$PUCSORGRIGHT
 10
0.0
 20
0.0
 30
0.0
  9
$PUCSORGFRONT
 10
0.0
 20
0.0
 30
0.0
  9
$PUCSORGBACK
 10
0.0
 20
0.0
 30
0.0
  9
$USERI1
 70
     3
  9
$USERI2
 70
     1
  9
$USERI3
 70
     1
  9
$USERI4
 70
     1
  9
$USERI5
 70
     1
  9
$USERR1
 40
1.0
  9
$USERR2
 40
3.0
  9
$USERR3
 40
3.0
  9
$USERR4
 40
1.5
  9
$USERR5
 40
10.0
  9
$WORLDVIEW
 70
     1
  9
$SHADEDGE
 70
     3
  9
$SHADEDIF
 70
    70
  9
$TILEMODE
 70
     1
  9
$MAXACTVP
 70
    16
  9
$PINSBASE
 10
0.0
 20
0.0
 30
0.0
  9
$PLIMCHECK
 70
     0
  9
$PEXTMIN
 10
1.000000000000000E+20
 20
1.000000000000000E+20
 30
1.000000000000000E+20
  9
$PEXTMAX
 10
-1.000000000000000E+20
 20
-1.000000000000000E+20
 30
-1.000000000000000E+20
  9
$PLIMMIN
 10
0.0
 20
0.0
  9
$PLIMMAX
 10
12.0
 20
9.0
  9
$UNITMODE
 70
     0
  9
$VISRETAIN
 70
     0
  9
$PLINEGEN
 70
     0
  9
$PSLTSCALE
 70
     0
  9
$TREEDEPTH
 70
     0
  9
$CMLSTYLE
  2
STANDARD
  9
$CMLJUST
 70
     0
  9
$CMLSCALE
 40
1.0
  9
$PROXYGRAPHICS
 70
     1
  9
$MEASUREMENT
 70
     0
  9
$CELWEIGHT
370
    -1
  9
$ENDCAPS
280
     0
  9
$JOINSTYLE
280
     0
  9
$LWDISPLAY
290
     0
  9
$INSUNITS
 70
     0
  9
$HYPERLINKBASE
  1

  9
$STYLESHEET
  1

  9
$XEDIT
290
     1
  9
$CEPSNTYPE
380
     0
  9
$PSTYLEMODE
290
     1
  9
$FINGERPRINTGUID
  2
{4E720E97-E006-407E-9486-F0A3C2BC8CDE}
  9
$VERSIONGUID
  2
{6D498833-4600-4C6F-9933-84EDA513A18D}
  9
$EXTNAMES
290
     1
  9
$PSVPSCALE
 40
0.0
  9
$OLESTARTUP
290
     0
  0
ENDSEC
  0
SECTION
  2
CLASSES
  0
CLASS
  1
ACDBDICTIONARYWDFLT
  2
AcDbDictionaryWithDefault
  3
ObjectDBX Classes
 90
        0
280
     0
281
     0
  0
CLASS
  1
ACDBPLACEHOLDER
  2
AcDbPlaceHolder
  3
ObjectDBX Classes
 90
        0
280
     0
281
     0
  0
CLASS
  1
LAYOUT
  2
AcDbLayout
  3
ObjectDBX Classes
 90
        0
280
     0
281
     0
  0
CLASS
  1
DIMASSOC
  2
AcDbDimAssoc
  3
"AcDbDimAssoc|Product Desc:     AcDim ARX App For Dimension|Company:          Autodesk, Inc.|WEB Address:      www.autodesk.com"
 90
    32768
280
     0
281
     0
  0
CLASS
  1
DICTIONARYVAR
  2
AcDbDictionaryVar
  3
ObjectDBX Classes
 90
        0
280
     0
281
     0
  0
CLASS
  1
MATERIAL
  2
AcDbMaterial
  3
ObjectDBX Classes
 90
     1153
280
     0
281
     0
  0
CLASS
  1
VISUALSTYLE
  2
AcDbVisualStyle
  3
ObjectDBX Classes
 90
     4095
280
     0
281
     0
  0
CLASS
  1
TABLESTYLE
  2
AcDbTableStyle
  3
ObjectDBX Classes
 90
     4095
280
     0
281
     0
  0
CLASS
  1
SCALE
  2
AcDbScale
  3
ObjectDBX Classes
 90
     1153
280
     0
281
     0
  0
CLASS
  1
MLEADERSTYLE
  2
AcDbMLeaderStyle
  3
ACDB_MLEADERSTYLE_CLASS
 90
    36863
280
     0
281
     0
  0
CLASS
  1
CELLSTYLEMAP
  2
AcDbCellStyleMap
  3
ObjectDBX Classes
 90
     1152
280
     0
281
     0
  0
ENDSEC
  0
SECTION
  2
TABLES
  0
TABLE
  2
VPORT
  5
29
330
0
100
AcDbSymbolTable
 70
     1
  0
VPORT
  5
2A
330
29
100
AcDbSymbolTableRecord
100
AcDbViewportTableRecord
  2
*Active
 70
     0
 10
0.0
 20
0.0
 11
1.0
 21
1.0
 12
663.7824803695162
 22
272.2035807391024
 13
0.0
 23
0.0
 14
1.0
 24
1.0
 15
10.0
 25
10.0
 16
0.0
 26
0.0
 36
1.0
 17
0.0
 27
0.0
 37
0.0
 40
687.5818018599813
 41
2.240398293029871
 42
50.0
 43
0.0
 44
0.0
 50
0.0
 51
0.0
 71
     0
 72
   500
 73
     1
 74
     0
 75
     0
 76
     1
 77
     0
 78
     0
281
     0
 65
     1
110
0.0
120
0.0
130
0.0
111
1.0
121
0.0
131
0.0
112
0.0
122
1.0
132
0.0
 79
     0
146
0.0
1001
ACAD_NAV_VCDISPLAY
1070
     3
  0
ENDTAB
  0
TABLE
  2
LTYPE
  5
24
330
0
100
AcDbSymbolTable
 70
     2
  0
LTYPE
  5
25
330
24
100
AcDbSymbolTableRecord
100
AcDbLinetypeTableRecord
  2
BYBLOCK
 70
     0
  3

 72
    65
 73
     0
 40
0.0
  0
LTYPE
  5
26
330
24
100
AcDbSymbolTableRecord
100
AcDbLinetypeTableRecord
  2
BYLAYER
 70
     0
  3

 72
    65
 73
     0
 40
0.0
  0
LTYPE
  5
E
330
24
100
AcDbSymbolTableRecord
100
AcDbLinetypeTableRecord
  2
CONTINUOUS
 70
     0
  3
実線
 72
    65
 73
     0
 40
0.0
  0
LTYPE
  5
133
330
24
100
AcDbSymbolTableRecord
100
AcDbLinetypeTableRecord
  2
CENTER
 70
     0
  3
____ _ ____ _ ____ _ ____ _ ____ _ ____ _ ____
 72
    65
 73
     4
 40
2.0
 49
1.25
 74
     0
 49
-0.25
 74
     0
 49
0.25
 74
     0
 49
-0.25
 74
     0
  0
ENDTAB
  0
TABLE
  2
LAYER
  5
1B
102
{ACAD_XDICTIONARY
360
1C
102
}
330
0
100
AcDbSymbolTable
 70
     1
  0
LAYER
  5
4
102
{ACAD_XDICTIONARY
360
5
102
}
330
1B
100
AcDbSymbolTableRecord
100
AcDbLayerTableRecord
  2
0
 70
     0
 62
     7
  6
CONTINUOUS
370
    -3
390
7
  0
ENDTAB
  0
TABLE
  2
STYLE
  5
21
330
0
100
AcDbSymbolTable
 70
     2
  0
STYLE
  5
22
330
21
100
AcDbSymbolTableRecord
100
AcDbTextStyleTableRecord
  2
STANDARD
 70
     0
 40
0.0
 41
1.0
 50
0.0
 71
     0
 42
3.0
  3
ROMANS.shx
  4
bigfont.shx
  0
STYLE
  5
31
330
21
100
AcDbSymbolTableRecord
100
AcDbTextStyleTableRecord
  2
K
 70
     0
 40
0.0
 41
1.0
 50
0.0
 71
     0
 42
1.0
  3
ROMANS
  4
EXTFONT
  0
ENDTAB
  0
TABLE
  2
VIEW
  5
27
330
0
100
AcDbSymbolTable
 70
     0
  0
ENDTAB
  0
TABLE
  2
UCS
  5
28
330
0
100
AcDbSymbolTable
 70
     0
  0
ENDTAB
  0
TABLE
  2
APPID
  5
2E
330
0
100
AcDbSymbolTable
 70
     2
  0
APPID
  5
20
330
2E
100
AcDbSymbolTableRecord
100
AcDbRegAppTableRecord
  2
ACAD
 70
     0
  0
APPID
  5
2D
330
2E
100
AcDbSymbolTableRecord
100
AcDbRegAppTableRecord
  2
ACAD_NAV_VCDISPLAY
 70
     0
  0
ENDTAB
  0
TABLE
  2
DIMSTYLE
  5
2F
330
0
100
AcDbSymbolTable
 70
     1
100
AcDbDimStyleTable
 71
     1
340
30
  0
DIMSTYLE
105
30
330
2F
100
AcDbSymbolTableRecord
100
AcDbDimStyleTableRecord
  2
IMAO
 70
     0
 41
1.5
 42
1.0
 43
6.0
 44
1.0
 47
495.0
 73
     0
 74
     0
 77
     1
 78
     8
140
3.0
141
0.0
172
     1
174
     1
271
     2
272
     2
279
     2
284
     8
285
     8
286
     8
340
31
341
32
342
32
  0
ENDTAB
  0
TABLE
  2
BLOCK_RECORD
  5
1
330
0
100
AcDbSymbolTable
 70
     2
  0
BLOCK_RECORD
  5
2
330
1
100
AcDbSymbolTableRecord
100
AcDbBlockTableRecord
  2
*MODEL_SPACE
340
13
  0
BLOCK_RECORD
  5
17
330
1
100
AcDbSymbolTableRecord
100
AcDbBlockTableRecord
  2
*PAPER_SPACE
340
1A
  0
BLOCK_RECORD
  5
32
330
1
100
AcDbSymbolTableRecord
100
AcDbBlockTableRecord
  2
ARROW
340
0
  0
BLOCK_RECORD
  5
43
330
1
100
AcDbSymbolTableRecord
100
AcDbBlockTableRecord
  2
_OPEN
340
0
  0
ENDTAB
  0
ENDSEC
  0
SECTION
  2
BLOCKS
  0
BLOCK
  5
3
330
2
100
AcDbEntity
  8
0
100
AcDbBlockBegin
  2
*MODEL_SPACE
 70
     0
 10
0.0
 20
0.0
 30
0.0
  3
*MODEL_SPACE
  1

  0
ENDBLK
  5
12
330
2
100
AcDbEntity
  8
0
100
AcDbBlockEnd
  0
BLOCK
  5
18
330
17
100
AcDbEntity
 67
     1
  8
0
100
AcDbBlockBegin
  2
*PAPER_SPACE
 70
     0
 10
0.0
 20
0.0
 30
0.0
  3
*PAPER_SPACE
  1

  0
ENDBLK
  5
19
330
17
100
AcDbEntity
 67
     1
  8
0
100
AcDbBlockEnd
  0
BLOCK
  5
33
330
32
100
AcDbEntity
  8
0
100
AcDbBlockBegin
  2
ARROW
 70
     0
 10
1.0
 20
0.5
 30
0.0
  3
ARROW
  1

  0
LINE
  5
34
330
32
100
AcDbEntity
  8
0
100
AcDbLine
 10
1.0
 20
0.5
 30
0.0
 11
-0.5000000000000214
 21
0.0980762113533018
 31
0.0
  0
LINE
  5
35
330
32
100
AcDbEntity
  8
0
100
AcDbLine
 10
0.0
 20
0.5
 30
0.0
 11
1.0
 21
0.5
 31
0.0
  0
LINE
  5
36
330
32
100
AcDbEntity
  8
0
100
AcDbLine
 10
1.0
 20
0.5
 30
0.0
 11
-0.4999999999999575
 21
0.9019237886467408
 31
0.0
  0
ENDBLK
  5
37
330
32
100
AcDbEntity
  8
0
100
AcDbBlockEnd
  0
BLOCK
  5
44
330
43
100
AcDbEntity
  8
0
100
AcDbBlockBegin
  2
_OPEN
 70
     0
 10
0.0
 20
0.0
 30
0.0
  3
_OPEN
  1

  0
LINE
  5
45
330
43
100
AcDbEntity
  8
0
  6
ByBlock
 62
     0
100
AcDbLine
 10
-1.0
 20
0.1666666666666666
 30
0.0
 11
0.0
 21
0.0
 31
0.0
  0
LINE
  5
46
330
43
100
AcDbEntity
  8
0
  6
ByBlock
 62
     0
100
AcDbLine
 10
0.0
 20
0.0
 30
0.0
 11
-1.0
 21
-0.1666666666666666
 31
0.0
  0
LINE
  5
47
330
43
100
AcDbEntity
  8
0
  6
ByBlock
 62
     0
100
AcDbLine
 10
0.0
 20
0.0
 30
0.0
 11
-1.0
 21
0.0
 31
0.0
  0
ENDBLK
  5
48
330
43
100
AcDbEntity
  8
0
100
AcDbBlockEnd
  0
ENDSEC
  0
SECTION
  2
ENTITIES
  0
LINE
  5
5F
330
2
100
AcDbEntity
  8
0
  6
Continuous
 62
     7
100
AcDbLine
 10
68.48173378016463
 20
43.85866914056128
 30
0.0
 11
206.8817337801645
 21
43.8586691405615
 31
0.0
  0
LINE
  5
60
330
2
100
AcDbEntity
  8
0
  6
Continuous
 62
     7
100
AcDbLine
 10
206.3817337801647
 20
43.85866914056146
 30
0.0
 11
68.98173378016469
 21
43.85866914056136
 31
0.0
  0
LINE
  5
61
330
2
100
AcDbEntity
  8
0
  6
Continuous
 62
     7
100
AcDbLine
 10
206.3817337801646
 20
38.85866914056146
 30
0.0
 11
68.98173378016463
 21
38.85866914056137
 31
0.0
  0
LINE
  5
62
330
2
100
AcDbEntity
  8
0
  6
Continuous
 62
     7
100
AcDbLine
 10
167.6817337801649
 20
162.6067878110907
 30
0.0
 11
167.6817337801649
 21
229.6067878110907
 31
0.0
  0
ARC
  5
63
330
2
100
AcDbEntity
  8
0
  6
Continuous
 62
     7
100
AcDbCircle
 10
79.1817337801649
 20
229.6067878110907
 30
0.0
 40
1.5
100
AcDbArc
 50
90.0
 51
180.0
  0
LINE
  5
64
330
2
100
AcDbEntity
  8
0
  6
Continuous
 62
     7
100
AcDbLine
 10
77.6817337801649
 20
162.6067878110907
 30
0.0
 11
77.6817337801649
 21
229.6067878110907
 31
0.0
  0
LINE
  5
65
330
2
100
AcDbEntity
  8
0
  6
Continuous
 62
     7
100
AcDbLine
 10
167.6817337801649
 20
168.6067878110906
 30
0.0
 11
77.6817337801649
 21
168.6067878110906
 31
0.0
  0
LINE
  5
66
330
2
100
AcDbEntity
  8
0
  6
Continuous
 62
     7
100
AcDbLine
 10
79.1817337801649
 20
231.1067878110907
 30
0.0
 11
166.1817337801649
 21
231.1067878110907
 31
0.0
  0
LINE
  5
67
330
2
100
AcDbEntity
  8
0
  6
Continuous
 62
     7
100
AcDbLine
 10
166.1817337801649
 20
161.1067878110906
 30
0.0
 11
79.1817337801649
 21
161.1067878110906
 31
0.0
  0
ARC
  5
68
330
2
100
AcDbEntity
  8
0
  6
Continuous
 62
     7
100
AcDbCircle
 10
79.1817337801649
 20
162.6067878110907
 30
0.0
 40
1.5
100
AcDbArc
 50
180.0
 51
270.0
  0
ARC
  5
69
330
2
100
AcDbEntity
  8
0
  6
Continuous
 62
     7
100
AcDbCircle
 10
166.1817337801649
 20
162.6067878110907
 30
0.0
 40
1.5
100
AcDbArc
 50
270.0
 51
0.0
  0
LINE
  5
6A
330
2
100
AcDbEntity
  8
0
  6
Continuous
 62
     7
100
AcDbLine
 10
121.1817337801647
 20
38.85866914056136
 30
0.0
 11
121.1817337801645
 21
30.85866914056135
 31
0.0
  0
LINE
  5
6B
330
2
100
AcDbEntity
  8
0
  6
Continuous
 62
     7
100
AcDbLine
 10
154.1817337801647
 20
38.85866914056136
 30
0.0
 11
154.1817337801647
 21
30.85866914056135
 31
0.0
  0
LINE
  5
6C
330
2
100
AcDbEntity
  8
0
  6
Continuous
 62
     7
100
AcDbLine
 10
121.1817337801647
 20
30.85866914056135
 30
0.0
 11
154.1817337801647
 21
30.85866914056135
 31
0.0
  0
ARC
  5
6D
330
2
100
AcDbEntity
  8
0
  6
Continuous
 62
     7
100
AcDbCircle
 10
166.6817337801647
 20
93.41276614166728
 30
0.0
 40
1.0
100
AcDbArc
 50
0.0
 51
88.31796100495544
  0
ARC
  5
6E
330
2
100
AcDbEntity
  8
0
  6
Continuous
 62
     7
100
AcDbCircle
 10
122.6817337801647
 20
-1404.941330859438
 30
0.0
 40
1500.0
100
AcDbArc
 50
88.31796100489844
 51
88.42063320570224
  0
LINE
  5
6F
330
2
100
AcDbEntity
  8
0
  6
Continuous
 62
     7
100
AcDbLine
 10
167.6817337801647
 20
85.35866914056128
 30
0.0
 11
167.6817337801647
 21
93.41276614166728
 31
0.0
  0
LINE
  5
70
330
2
100
AcDbEntity
  8
0
  6
Continuous
 62
     7
100
AcDbLine
 10
167.6817337801647
 20
93.41276614166728
 30
0.0
 11
167.6817337801646
 21
85.35866914056128
 31
0.0
  0
ARC
  5
71
330
2
100
AcDbEntity
  8
0
  6
Continuous
 62
     7
100
AcDbCircle
 10
122.6817337801647
 20
-1404.941330859438
 30
0.0
 40
1500.0
100
AcDbArc
 50
91.57936679429777
 51
91.68203899510157
  0
ARC
  5
72
330
2
100
AcDbEntity
  8
0
  6
Continuous
 62
     7
100
AcDbCircle
 10
78.68173378016471
 20
93.41276614166728
 30
0.0
 40
1.0
100
AcDbArc
 50
91.68203899507714
 51
180.0
  0
LINE
  5
73
330
2
100
AcDbEntity
  8
0
  6
Continuous
 62
     7
100
AcDbLine
 10
77.6817337801647
 20
85.3586691405612
 30
0.0
 11
77.6817337801647
 21
93.41276614166728
 31
0.0
  0
LINE
  5
74
330
2
100
AcDbEntity
  8
0
  6
Continuous
 62
     7
100
AcDbLine
 10
77.6817337801647
 20
93.41276614166728
 30
0.0
 11
77.68173378016459
 21
85.3586691405612
 31
0.0
  0
ARC
  5
75
330
2
100
AcDbEntity
  8
0
  6
Continuous
 62
     7
100
AcDbCircle
 10
122.6817337801647
 20
-1404.941330859438
 30
0.0
 40
1500.0
100
AcDbArc
 50
88.31796100489844
 51
91.68203899510157
  0
LINE
  5
76
330
2
100
AcDbEntity
  8
0
  6
Continuous
 62
     7
100
AcDbLine
 10
77.6817337801647
 20
85.35866914056128
 30
0.0
 11
167.6817337801647
 21
85.35866914056123
 31
0.0
  0
LINE
  5
77
330
2
100
AcDbEntity
  8
0
  6
Continuous
 62
     7
100
AcDbLine
 10
129.1817337801645
 20
36.35866914056136
 30
0.0
 11
146.1817337801645
 21
36.35866914056136
 31
0.0
  0
LINE
  5
78
330
2
100
AcDbEntity
  8
0
  6
Continuous
 62
     7
100
AcDbLine
 10
129.1817337801645
 20
32.35866914056135
 30
0.0
 11
146.1817337801645
 21
32.35866914056135
 31
0.0
  0
LINE
  5
79
330
2
100
AcDbEntity
  8
0
  6
Continuous
 62
     7
100
AcDbLine
 10
129.1817337801645
 20
36.35866914056136
 30
0.0
 11
129.1817337801645
 21
32.35866914056135
 31
0.0
  0
LINE
  5
7A
330
2
100
AcDbEntity
  8
0
  6
Continuous
 62
     7
100
AcDbLine
 10
146.1817337801645
 20
36.35866914056136
 30
0.0
 11
146.1817337801645
 21
32.35866914056135
 31
0.0
  0
LINE
  5
7B
330
2
100
AcDbEntity
  8
0
  6
Continuous
 62
     7
100
AcDbLine
 10
130.6817337801646
 20
38.85866914056136
 30
0.0
 11
130.6817337801646
 21
36.35866914056141
 31
0.0
  0
LINE
  5
7C
330
2
100
AcDbEntity
  8
0
  6
Continuous
 62
     7
100
AcDbLine
 10
144.6817337801645
 20
38.85866914056129
 30
0.0
 11
144.6817337801645
 21
36.35866914056136
 31
0.0
  0
LINE
  5
7D
330
2
100
AcDbEntity
  8
0
  6
Continuous
 62
     7
100
AcDbLine
 10
144.6817337801645
 20
37.85866914056136
 30
0.0
 11
130.6817337801646
 21
37.8586691405614
 31
0.0
  0
LINE
  5
7E
330
2
100
AcDbEntity
  8
0
  6
Continuous
 62
     7
100
AcDbLine
 10
134.6817337801647
 20
32.35866914056135
 30
0.0
 11
134.6817337801647
 21
31.35866914056141
 31
0.0
  0
LINE
  5
7F
330
2
100
AcDbEntity
  8
0
  6
Continuous
 62
     7
100
AcDbLine
 10
140.6817337801646
 20
32.35866914056135
 30
0.0
 11
140.6817337801647
 21
31.35866914056135
 31
0.0
  0
ARC
  5
80
330
2
100
AcDbEntity
  8
0
  6
Continuous
 62
     7
100
AcDbCircle
 10
135.1817337801646
 20
31.35866914056141
 30
0.0
 40
0.5
100
AcDbArc
 50
179.9999999999996
 51
270.0
  0
ARC
  5
81
330
2
100
AcDbEntity
  8
0
  6
Continuous
 62
     7
100
AcDbCircle
 10
140.1817337801646
 20
31.35866914056135
 30
0.0
 40
0.5
100
AcDbArc
 50
270.0
 51
359.9999999999996
  0
ARC
  5
82
330
2
100
AcDbEntity
  8
0
  6
Continuous
 62
     7
100
AcDbCircle
 10
282.6819270690608
 20
162.1367878110906
 30
0.0
 40
1.0
100
AcDbArc
 50
194.9314171781376
 51
270.0
  0
LINE
  5
83
330
2
100
AcDbEntity
  8
0
  6
Continuous
 62
     7
100
AcDbLine
 10
282.6819270690608
 20
161.1367878110906
 30
0.0
 11
289.6136487559768
 21
161.1367878110906
 31
0.0
  0
LINE
  5
84
330
2
100
AcDbEntity
  8
0
  6
Continuous
 62
     7
100
AcDbLine
 10
279.9136487559768
 20
230.1367878110907
 30
0.0
 11
279.9136487559768
 21
168.6367878110905
 31
0.0
  0
LINE
  5
85
330
2
100
AcDbEntity
  8
0
  6
Continuous
 62
     7
100
AcDbLine
 10
279.9136487559768
 20
168.63678781109
 30
0.0
 11
281.7156921294596
 21
161.8791251605304
 31
0.0
  0
LINE
  5
86
330
2
100
AcDbEntity
  8
0
  6
Continuous
 62
     7
100
AcDbLine
 10
289.6136487559768
 20
231.1367878110905
 30
0.0
 11
280.9136487559769
 21
231.1367878110907
 31
0.0
  0
LINE
  5
87
330
2
100
AcDbEntity
  8
0
  6
Continuous
 62
     7
100
AcDbLine
 10
279.9136487559768
 20
230.1367878110907
 30
0.0
 11
279.9136487559768
 21
228.3233044742168
 31
0.0
  0
ARC
  5
88
330
2
100
AcDbEntity
  8
0
  6
Continuous
 62
     7
100
AcDbCircle
 10
280.9136487559769
 20
230.1367878110907
 30
0.0
 40
1.0
100
AcDbArc
 50
90.0
 51
180.0
  0
LINE
  5
89
330
2
100
AcDbEntity
  8
0
  6
Continuous
 62
     7
100
AcDbLine
 10
335.1136487559772
 20
131.1367878110905
 30
0.0
 11
317.1136487559775
 21
131.1367878110905
 31
0.0
  0
LINE
  5
8A
330
2
100
AcDbEntity
  8
0
  6
Continuous
 62
     7
100
AcDbLine
 10
336.1136487559771
 20
150.8867878110907
 30
0.0
 11
336.1136487559771
 21
240.1367878110906
 31
0.0
  0
LINE
  5
8B
330
2
100
AcDbEntity
  8
0
  6
Continuous
 62
     7
100
AcDbLine
 10
344.113648755977
 20
150.8867878110907
 30
0.0
 11
344.113648755977
 21
168.3867878110905
 31
0.0
  0
LINE
  5
8C
330
2
100
AcDbEntity
  8
0
  6
Continuous
 62
     7
100
AcDbLine
 10
336.1136487559771
 20
150.8867878110907
 30
0.0
 11
344.113648755977
 21
150.8867878110907
 31
0.0
  0
LINE
  5
8D
330
2
100
AcDbEntity
  8
0
  6
Continuous
 62
     7
100
AcDbLine
 10
336.1136487559771
 20
227.8867878110906
 30
0.0
 11
344.113648755977
 21
227.8867878110906
 31
0.0
  0
LINE
  5
8E
330
2
100
AcDbEntity
  8
0
  6
Continuous
 62
     7
100
AcDbLine
 10
338.6136487559771
 20
168.3867878110905
 30
0.0
 11
338.6136487559771
 21
203.8867878110905
 31
0.0
  0
LINE
  5
8F
330
2
100
AcDbEntity
  8
0
  6
Continuous
 62
     7
100
AcDbLine
 10
338.6136487559771
 20
150.8867878110907
 30
0.0
 11
338.6136487559771
 21
145.3867878110906
 31
0.0
  0
LINE
  5
90
330
2
100
AcDbEntity
  8
0
  6
Continuous
 62
     7
100
AcDbLine
 10
338.6136487559771
 20
145.3867878110906
 30
0.0
 11
342.6136487559771
 21
145.3867878110906
 31
0.0
  0
LINE
  5
91
330
2
100
AcDbEntity
  8
0
  6
Continuous
 62
     7
100
AcDbLine
 10
342.6136487559771
 20
150.8867878110907
 30
0.0
 11
342.6136487559771
 21
145.3867878110906
 31
0.0
  0
LINE
  5
92
330
2
100
AcDbEntity
  8
0
  6
Continuous
 62
     7
100
AcDbLine
 10
344.113648755977
 20
203.8867878110905
 30
0.0
 11
344.113648755977
 21
227.8867878110906
 31
0.0
  0
LINE
  5
93
330
2
100
AcDbEntity
  8
0
  6
Continuous
 62
     7
100
AcDbLine
 10
340.6136487559771
 20
203.8867878110907
 30
0.0
 11
340.6136487559771
 21
201.8867878110905
 31
0.0
  0
LINE
  5
94
330
2
100
AcDbEntity
  8
0
  6
Continuous
 62
     7
100
AcDbLine
 10
342.6136487559771
 20
203.8867878110905
 30
0.0
 11
340.6136487559771
 21
201.8867878110905
 31
0.0
  0
LINE
  5
95
330
2
100
AcDbEntity
  8
0
  6
Continuous
 62
     7
100
AcDbLine
 10
338.6136487559771
 20
203.8867878110905
 30
0.0
 11
344.113648755977
 21
203.8867878110905
 31
0.0
  0
LINE
  5
96
330
2
100
AcDbEntity
  8
0
  6
Continuous
 62
     7
100
AcDbLine
 10
342.6136487559771
 20
168.3867878110905
 30
0.0
 11
340.6136487559771
 21
170.3867878110905
 31
0.0
  0
LINE
  5
97
330
2
100
AcDbEntity
  8
0
  6
Continuous
 62
     7
100
AcDbLine
 10
340.6136487559771
 20
168.3867878110905
 30
0.0
 11
340.6136487559771
 21
170.3867878110905
 31
0.0
  0
LINE
  5
98
330
2
100
AcDbEntity
  8
0
  6
Continuous
 62
     7
100
AcDbLine
 10
338.6136487559771
 20
168.3867878110905
 30
0.0
 11
344.113648755977
 21
168.3867878110905
 31
0.0
  0
LINE
  5
99
330
2
100
AcDbEntity
  8
0
  6
Continuous
 62
     7
100
AcDbLine
 10
337.1136487559772
 20
148.3867878110905
 30
0.0
 11
338.6136487559771
 21
148.3867878110905
 31
0.0
  0
LINE
  5
9A
330
2
100
AcDbEntity
  8
0
  6
Continuous
 62
     7
100
AcDbLine
 10
336.1136487559772
 20
131.1367878110905
 30
0.0
 11
336.1136487559772
 21
125.1367878110905
 31
0.0
  0
LINE
  5
9B
330
2
100
AcDbEntity
  8
0
  6
Continuous
 62
     7
100
AcDbLine
 10
337.6136487559772
 20
147.3867878110906
 30
0.0
 11
338.6136487559771
 21
147.3867878110906
 31
0.0
  0
LINE
  5
9C
330
2
100
AcDbEntity
  8
0
  6
Continuous
 62
     7
100
AcDbLine
 10
337.1136487559772
 20
146.8867878110906
 30
0.0
 11
337.1136487559772
 21
125.1367878110905
 31
0.0
  0
LINE
  5
9D
330
2
100
AcDbEntity
  8
0
  6
Continuous
 62
     7
100
AcDbLine
 10
344.1136487559772
 20
148.3867878110905
 30
0.0
 11
344.1136487559772
 21
147.3867878110906
 31
0.0
  0
ARC
  5
9E
330
2
100
AcDbEntity
  8
0
  6
Continuous
 62
     7
100
AcDbCircle
 10
337.6136487559772
 20
146.8867878110906
 30
0.0
 40
0.5
100
AcDbArc
 50
90.0
 51
180.0
  0
ARC
  5
9F
330
2
100
AcDbEntity
  8
0
  6
Continuous
 62
     7
100
AcDbCircle
 10
337.1136487559772
 20
147.3867878110905
 30
0.0
 40
1.0
100
AcDbArc
 50
90.0
 51
180.0
  0
LINE
  5
A0
330
2
100
AcDbEntity
  8
0
  6
Continuous
 62
     7
100
AcDbLine
 10
337.6136487559772
 20
140.0367878110906
 30
0.0
 11
337.6136487559772
 21
132.2367878110906
 31
0.0
  0
LINE
  5
A1
330
2
100
AcDbEntity
  8
0
  6
Continuous
 62
     7
100
AcDbLine
 10
338.1136487559774
 20
140.0367878110906
 30
0.0
 11
337.6136487559772
 21
140.0367878110906
 31
0.0
  0
LINE
  5
A2
330
2
100
AcDbEntity
  8
0
  6
Continuous
 62
     7
100
AcDbLine
 10
338.1136487559774
 20
132.2367878110906
 30
0.0
 11
337.6136487559772
 21
132.2367878110906
 31
0.0
  0
LINE
  5
A3
330
2
100
AcDbEntity
  8
0
  6
Continuous
 62
     7
100
AcDbLine
 10
338.1136487559772
 20
140.0367878110906
 30
0.0
 11
338.1136487559772
 21
132.2367878110906
 31
0.0
  0
LINE
  5
A4
330
2
100
AcDbEntity
  8
0
  6
Continuous
 62
     7
100
AcDbLine
 10
338.6136487559773
 20
139.0867878110906
 30
0.0
 11
338.1136487559772
 21
139.0867878110906
 31
0.0
  0
LINE
  5
A5
330
2
100
AcDbEntity
  8
0
  6
Continuous
 62
     7
100
AcDbLine
 10
338.6136487559771
 20
139.0867878110906
 30
0.0
 11
338.6136487559772
 21
133.1867878110905
 31
0.0
  0
LINE
  5
A6
330
2
100
AcDbEntity
  8
0
  6
Continuous
 62
     7
100
AcDbLine
 10
338.6136487559773
 20
133.1867878110905
 30
0.0
 11
338.1136487559772
 21
133.1867878110905
 31
0.0
  0
ARC
  5
A7
330
2
100
AcDbEntity
  8
0
  6
Continuous
 62
     7
100
AcDbCircle
 10
338.1803154226439
 20
136.1367878110905
 30
0.0
 40
2.833333333333321
100
AcDbArc
 50
278.7974107099904
 51
81.20258929000959
  0
LINE
  5
A8
330
2
100
AcDbEntity
  8
0
  6
Continuous
 62
     7
100
AcDbLine
 10
338.1136487559772
 20
135.8867878110906
 30
0.0
 11
338.6136487559772
 21
136.3867878110905
 31
0.0
  0
ARC
  5
A9
330
2
100
AcDbEntity
  8
0
  6
Continuous
 62
     7
100
AcDbCircle
 10
335.1136487559772
 20
132.1367878110905
 30
0.0
 40
1.0
100
AcDbArc
 50
270.0
 51
0.0
  0
LINE
  5
AA
330
2
100
AcDbEntity
  8
0
  6
Continuous
 62
     7
100
AcDbLine
 10
279.1136487559766
 20
182.3867878110853
 30
0.0
 11
279.1136487559766
 21
174.8867878110853
 31
0.0
  0
ARC
  5
AB
330
2
100
AcDbEntity
  8
0
  6
Continuous
 62
     7
100
AcDbCircle
 10
166.1817337801644
 20
229.6067878110907
 30
0.0
 40
1.5
100
AcDbArc
 50
0.0
 51
90.0
  0
LINE
  5
AC
330
2
100
AcDbEntity
  8
0
  6
Continuous
 62
     7
100
AcDbLine
 10
130.6817337801647
 20
131.1367878110906
 30
0.0
 11
130.6817337801646
 21
127.1067878110905
 31
0.0
  0
LINE
  5
AD
330
2
100
AcDbEntity
  8
0
  6
Continuous
 62
     7
100
AcDbLine
 10
144.6817337801645
 20
131.1367878110906
 30
0.0
 11
144.6817337801645
 21
127.1067878110906
 31
0.0
  0
LINE
  5
AE
330
2
100
AcDbEntity
  8
0
  6
Continuous
 62
     7
100
AcDbLine
 10
102.4317337801645
 20
94.92197541216929
 30
0.0
 11
102.4317337801645
 21
95.85866914056143
 31
0.0
  0
LINE
  5
AF
330
2
100
AcDbEntity
  8
0
  6
Continuous
 62
     7
100
AcDbLine
 10
95.9317337801645
 20
94.82012934014916
 30
0.0
 11
95.9317337801645
 21
95.85866914056143
 31
0.0
  0
LINE
  5
B0
330
2
100
AcDbEntity
  8
0
  6
Continuous
 62
     7
100
AcDbLine
 10
102.4317337801645
 20
95.85866914056143
 30
0.0
 11
95.9317337801645
 21
95.85866914056143
 31
0.0
  0
LINE
  5
B1
330
2
100
AcDbEntity
  8
0
  6
Continuous
 62
     7
100
AcDbLine
 10
279.9136487559768
 20
182.3867878110853
 30
0.0
 11
279.1136487559766
 21
182.3867878110853
 31
0.0
  0
LINE
  5
B2
330
2
100
AcDbEntity
  8
0
  6
Continuous
 62
     7
100
AcDbLine
 10
279.9136487559768
 20
174.8867878110853
 30
0.0
 11
279.1136487559766
 21
174.8867878110853
 31
0.0
  0
LINE
  5
B3
330
2
100
AcDbEntity
  8
0
  6
Continuous
 62
     7
100
AcDbLine
 10
112.4317337801645
 20
95.85866914056143
 30
0.0
 11
105.9317337801644
 21
95.85866914056143
 31
0.0
  0
LINE
  5
B4
330
2
100
AcDbEntity
  8
0
  6
Continuous
 62
     7
100
AcDbLine
 10
105.9317337801645
 20
94.96514539166424
 30
0.0
 11
105.9317337801644
 21
95.85866914056143
 31
0.0
  0
LINE
  5
B5
330
2
100
AcDbEntity
  8
0
  6
Continuous
 62
     7
100
AcDbLine
 10
112.4317337801645
 20
95.02364789839884
 30
0.0
 11
112.4317337801645
 21
95.85866914056143
 31
0.0
  0
LINE
  5
B6
330
2
100
AcDbEntity
  8
0
  6
Continuous
 62
     7
100
AcDbLine
 10
122.4317337801644
 20
95.85866914056143
 30
0.0
 11
115.9317337801645
 21
95.85866914056143
 31
0.0
  0
LINE
  5
B7
330
2
100
AcDbEntity
  8
0
  6
Continuous
 62
     7
100
AcDbLine
 10
115.9317337801645
 20
95.04348156367383
 30
0.0
 11
115.9317337801645
 21
95.85866914056143
 31
0.0
  0
LINE
  5
B8
330
2
100
AcDbEntity
  8
0
  6
Continuous
 62
     7
100
AcDbLine
 10
122.4317337801644
 20
95.05864830722794
 30
0.0
 11
122.4317337801644
 21
95.85866914056143
 31
0.0
  0
LINE
  5
B9
330
2
100
AcDbEntity
  8
0
  6
Continuous
 62
     7
100
AcDbLine
 10
132.4317337801645
 20
95.85866914056143
 30
0.0
 11
125.9317337801645
 21
95.85866914056143
 31
0.0
  0
LINE
  5
BA
330
2
100
AcDbEntity
  8
0
  6
Continuous
 62
     7
100
AcDbLine
 10
125.9317337801645
 20
95.05514830309584
 30
0.0
 11
125.9317337801645
 21
95.85866914056143
 31
0.0
  0
LINE
  5
BB
330
2
100
AcDbEntity
  8
0
  6
Continuous
 62
     7
100
AcDbLine
 10
132.4317337801645
 20
95.02698130585486
 30
0.0
 11
132.4317337801645
 21
95.85866914056143
 31
0.0
  0
LINE
  5
BC
330
2
100
AcDbEntity
  8
0
  6
Continuous
 62
     7
100
AcDbLine
 10
142.4317337801644
 20
95.85866914056143
 30
0.0
 11
135.9317337801644
 21
95.85866914056143
 31
0.0
  0
LINE
  5
BD
330
2
100
AcDbEntity
  8
0
  6
Continuous
 62
     7
100
AcDbLine
 10
135.9317337801645
 20
95.00014716562075
 30
0.0
 11
135.9317337801644
 21
95.85866914056143
 31
0.0
  0
LINE
  5
BE
330
2
100
AcDbEntity
  8
0
  6
Continuous
 62
     7
100
AcDbLine
 10
142.4317337801645
 20
94.92864267160051
 30
0.0
 11
142.4317337801644
 21
95.85866914056143
 31
0.0
  0
LINE
  5
BF
330
2
100
AcDbEntity
  8
0
  6
Continuous
 62
     7
100
AcDbLine
 10
207.6817337801646
 20
57.85866914056146
 30
0.0
 11
207.6817337801647
 21
38.85866914056157
 31
0.0
  0
LINE
  5
C0
330
2
100
AcDbEntity
  8
0
  6
Continuous
 62
     7
100
AcDbLine
 10
88.68173378016455
 20
142.1367878110902
 30
0.0
 11
88.68173378016455
 21
132.8367878110906
 31
0.0
  0
LINE
  5
C1
330
2
100
AcDbEntity
  8
0
  6
Continuous
 62
     7
100
AcDbLine
 10
93.68173378016455
 20
142.1367878110902
 30
0.0
 11
93.68173378016455
 21
132.8367878110906
 31
0.0
  0
LINE
  5
C2
330
2
100
AcDbEntity
  8
0
  6
Continuous
 62
     7
100
AcDbLine
 10
98.68173378016459
 20
142.1367878110902
 30
0.0
 11
98.68173378016457
 21
132.8367878110906
 31
0.0
  0
LINE
  5
C3
330
2
100
AcDbEntity
  8
0
  6
Continuous
 62
     7
100
AcDbLine
 10
103.6817337801646
 20
142.1367878110902
 30
0.0
 11
103.6817337801645
 21
132.8367878110906
 31
0.0
  0
LINE
  5
C4
330
2
100
AcDbEntity
  8
0
  6
Continuous
 62
     7
100
AcDbLine
 10
108.6817337801646
 20
142.1367878110903
 30
0.0
 11
108.6817337801645
 21
132.8367878110906
 31
0.0
  0
LINE
  5
C5
330
2
100
AcDbEntity
  8
0
  6
Continuous
 62
     7
100
AcDbLine
 10
113.6817337801646
 20
142.1367878110903
 30
0.0
 11
113.6817337801645
 21
132.8367878110906
 31
0.0
  0
LINE
  5
C6
330
2
100
AcDbEntity
  8
0
  6
Continuous
 62
     7
100
AcDbLine
 10
118.6817337801646
 20
142.1367878110903
 30
0.0
 11
118.6817337801645
 21
132.8367878110906
 31
0.0
  0
LINE
  5
C7
330
2
100
AcDbEntity
  8
0
  6
Continuous
 62
     7
100
AcDbLine
 10
123.6817337801645
 20
142.1367878110903
 30
0.0
 11
123.6817337801645
 21
132.8367878110906
 31
0.0
  0
LINE
  5
C8
330
2
100
AcDbEntity
  8
0
  6
Continuous
 62
     7
100
AcDbLine
 10
128.6817337801645
 20
142.1367878110903
 30
0.0
 11
128.6817337801645
 21
132.8367878110906
 31
0.0
  0
LINE
  5
C9
330
2
100
AcDbEntity
  8
0
  6
Continuous
 62
     7
100
AcDbLine
 10
133.6817337801645
 20
142.1367878110903
 30
0.0
 11
133.6817337801645
 21
132.8367878110906
 31
0.0
  0
LINE
  5
CA
330
2
100
AcDbEntity
  8
0
  6
Continuous
 62
     7
100
AcDbLine
 10
138.6817337801645
 20
142.1367878110903
 30
0.0
 11
138.6817337801645
 21
132.8367878110906
 31
0.0
  0
LINE
  5
CB
330
2
100
AcDbEntity
  8
0
  6
Continuous
 62
     7
100
AcDbLine
 10
77.68173378016456
 20
132.8367878110905
 30
0.0
 11
138.6817337801645
 21
132.8367878110906
 31
0.0
  0
LINE
  5
CC
330
2
100
AcDbEntity
  8
0
  6
Continuous
 62
     7
100
AcDbLine
 10
139.2817337801645
 20
140.3367878110906
 30
0.0
 11
139.2817337801645
 21
137.3367878110905
 31
0.0
  0
LINE
  5
CD
330
2
100
AcDbEntity
  8
0
  6
Continuous
 62
     7
100
AcDbLine
 10
138.6817337801645
 20
137.3367878110905
 30
0.0
 11
139.2817337801645
 21
137.3367878110905
 31
0.0
  0
LINE
  5
CE
330
2
100
AcDbEntity
  8
0
  6
Continuous
 62
     7
100
AcDbLine
 10
137.9817337801645
 20
138.8321173275516
 30
0.0
 11
134.3817337801644
 21
138.8321173275516
 31
0.0
  0
LINE
  5
CF
330
2
100
AcDbEntity
  8
0
  6
Continuous
 62
     7
100
AcDbLine
 10
137.9817337801645
 20
136.6435057151314
 30
0.0
 11
134.3817337801644
 21
136.6435057151314
 31
0.0
  0
LINE
  5
D0
330
2
100
AcDbEntity
  8
0
  6
Continuous
 62
     7
100
AcDbLine
 10
137.9817337801645
 20
133.5657706351654
 30
0.0
 11
134.3817337801644
 21
133.5657706351654
 31
0.0
  0
LINE
  5
D1
330
2
100
AcDbEntity
  8
0
  6
Continuous
 62
     7
100
AcDbLine
 10
137.9817337801645
 20
140.3367878110906
 30
0.0
 11
137.9817337801645
 21
138.8321173275516
 31
0.0
  0
LINE
  5
D2
330
2
100
AcDbEntity
  8
0
  6
Continuous
 62
     7
100
AcDbLine
 10
134.3817337801644
 20
140.3367878110906
 30
0.0
 11
134.3817337801644
 21
138.8321173275516
 31
0.0
  0
LINE
  5
D3
330
2
100
AcDbEntity
  8
0
  6
Continuous
 62
     7
100
AcDbLine
 10
137.9817337801645
 20
136.6435057151314
 30
0.0
 11
137.9817337801645
 21
133.5657706351654
 31
0.0
  0
LINE
  5
D4
330
2
100
AcDbEntity
  8
0
  6
Continuous
 62
     7
100
AcDbLine
 10
134.3817337801644
 20
136.6435057151314
 30
0.0
 11
134.3817337801644
 21
133.5657706351654
 31
0.0
  0
LINE
  5
D5
330
2
100
AcDbEntity
  8
0
  6
Continuous
 62
     7
100
AcDbLine
 10
129.3817337801643
 20
140.3367878110906
 30
0.0
 11
129.3817337801643
 21
138.8321173275516
 31
0.0
  0
LINE
  5
D6
330
2
100
AcDbEntity
  8
0
  6
Continuous
 62
     7
100
AcDbLine
 10
132.9817337801645
 20
140.3367878110906
 30
0.0
 11
132.9817337801645
 21
138.8321173275516
 31
0.0
  0
LINE
  5
D7
330
2
100
AcDbEntity
  8
0
  6
Continuous
 62
     7
100
AcDbLine
 10
132.9817337801645
 20
138.8321173275516
 30
0.0
 11
129.3817337801643
 21
138.8321173275516
 31
0.0
  0
LINE
  5
D8
330
2
100
AcDbEntity
  8
0
  6
Continuous
 62
     7
100
AcDbLine
 10
129.3817337801643
 20
136.6435057151314
 30
0.0
 11
129.3817337801643
 21
133.5657706351654
 31
0.0
  0
LINE
  5
D9
330
2
100
AcDbEntity
  8
0
  6
Continuous
 62
     7
100
AcDbLine
 10
132.9817337801645
 20
136.6435057151314
 30
0.0
 11
132.9817337801645
 21
133.5657706351654
 31
0.0
  0
LINE
  5
DA
330
2
100
AcDbEntity
  8
0
  6
Continuous
 62
     7
100
AcDbLine
 10
132.9817337801645
 20
133.5657706351654
 30
0.0
 11
129.3817337801643
 21
133.5657706351654
 31
0.0
  0
LINE
  5
DB
330
2
100
AcDbEntity
  8
0
  6
Continuous
 62
     7
100
AcDbLine
 10
132.9817337801645
 20
136.6435057151314
 30
0.0
 11
129.3817337801643
 21
136.6435057151314
 31
0.0
  0
LINE
  5
DC
330
2
100
AcDbEntity
  8
0
  6
Continuous
 62
     7
100
AcDbLine
 10
124.3817337801644
 20
140.3367878110906
 30
0.0
 11
124.3817337801644
 21
138.8321173275516
 31
0.0
  0
LINE
  5
DD
330
2
100
AcDbEntity
  8
0
  6
Continuous
 62
     7
100
AcDbLine
 10
127.9817337801645
 20
140.3367878110906
 30
0.0
 11
127.9817337801645
 21
138.8321173275516
 31
0.0
  0
LINE
  5
DE
330
2
100
AcDbEntity
  8
0
  6
Continuous
 62
     7
100
AcDbLine
 10
127.9817337801645
 20
138.8321173275516
 30
0.0
 11
124.3817337801644
 21
138.8321173275516
 31
0.0
  0
LINE
  5
DF
330
2
100
AcDbEntity
  8
0
  6
Continuous
 62
     7
100
AcDbLine
 10
124.3817337801644
 20
136.6435057151314
 30
0.0
 11
124.3817337801644
 21
133.5657706351654
 31
0.0
  0
LINE
  5
E0
330
2
100
AcDbEntity
  8
0
  6
Continuous
 62
     7
100
AcDbLine
 10
127.9817337801645
 20
136.6435057151314
 30
0.0
 11
127.9817337801645
 21
133.5657706351654
 31
0.0
  0
LINE
  5
E1
330
2
100
AcDbEntity
  8
0
  6
Continuous
 62
     7
100
AcDbLine
 10
127.9817337801645
 20
133.5657706351654
 30
0.0
 11
124.3817337801644
 21
133.5657706351654
 31
0.0
  0
LINE
  5
E2
330
2
100
AcDbEntity
  8
0
  6
Continuous
 62
     7
100
AcDbLine
 10
127.9817337801645
 20
136.6435057151314
 30
0.0
 11
124.3817337801644
 21
136.6435057151314
 31
0.0
  0
LINE
  5
E3
330
2
100
AcDbEntity
  8
0
  6
Continuous
 62
     7
100
AcDbLine
 10
119.3817337801644
 20
140.3367878110906
 30
0.0
 11
119.3817337801644
 21
138.8321173275516
 31
0.0
  0
LINE
  5
E4
330
2
100
AcDbEntity
  8
0
  6
Continuous
 62
     7
100
AcDbLine
 10
122.9817337801645
 20
140.3367878110906
 30
0.0
 11
122.9817337801645
 21
138.8321173275516
 31
0.0
  0
LINE
  5
E5
330
2
100
AcDbEntity
  8
0
  6
Continuous
 62
     7
100
AcDbLine
 10
122.9817337801645
 20
138.8321173275516
 30
0.0
 11
119.3817337801644
 21
138.8321173275516
 31
0.0
  0
LINE
  5
E6
330
2
100
AcDbEntity
  8
0
  6
Continuous
 62
     7
100
AcDbLine
 10
119.3817337801644
 20
136.6435057151314
 30
0.0
 11
119.3817337801644
 21
133.5657706351654
 31
0.0
  0
LINE
  5
E7
330
2
100
AcDbEntity
  8
0
  6
Continuous
 62
     7
100
AcDbLine
 10
122.9817337801645
 20
136.6435057151314
 30
0.0
 11
122.9817337801645
 21
133.5657706351654
 31
0.0
  0
LINE
  5
E8
330
2
100
AcDbEntity
  8
0
  6
Continuous
 62
     7
100
AcDbLine
 10
122.9817337801645
 20
133.5657706351654
 30
0.0
 11
119.3817337801644
 21
133.5657706351654
 31
0.0
  0
LINE
  5
E9
330
2
100
AcDbEntity
  8
0
  6
Continuous
 62
     7
100
AcDbLine
 10
122.9817337801645
 20
136.6435057151314
 30
0.0
 11
119.3817337801644
 21
136.6435057151314
 31
0.0
  0
LINE
  5
EA
330
2
100
AcDbEntity
  8
0
  6
Continuous
 62
     7
100
AcDbLine
 10
114.3817337801644
 20
140.3367878110906
 30
0.0
 11
114.3817337801644
 21
138.8321173275516
 31
0.0
  0
LINE
  5
EB
330
2
100
AcDbEntity
  8
0
  6
Continuous
 62
     7
100
AcDbLine
 10
117.9817337801645
 20
140.3367878110906
 30
0.0
 11
117.9817337801645
 21
138.8321173275516
 31
0.0
  0
LINE
  5
EC
330
2
100
AcDbEntity
  8
0
  6
Continuous
 62
     7
100
AcDbLine
 10
117.9817337801645
 20
138.8321173275516
 30
0.0
 11
114.3817337801644
 21
138.8321173275516
 31
0.0
  0
LINE
  5
ED
330
2
100
AcDbEntity
  8
0
  6
Continuous
 62
     7
100
AcDbLine
 10
114.3817337801644
 20
136.6435057151314
 30
0.0
 11
114.3817337801644
 21
133.5657706351654
 31
0.0
  0
LINE
  5
EE
330
2
100
AcDbEntity
  8
0
  6
Continuous
 62
     7
100
AcDbLine
 10
117.9817337801645
 20
136.6435057151314
 30
0.0
 11
117.9817337801645
 21
133.5657706351654
 31
0.0
  0
LINE
  5
EF
330
2
100
AcDbEntity
  8
0
  6
Continuous
 62
     7
100
AcDbLine
 10
117.9817337801645
 20
133.5657706351654
 30
0.0
 11
114.3817337801644
 21
133.5657706351654
 31
0.0
  0
LINE
  5
F0
330
2
100
AcDbEntity
  8
0
  6
Continuous
 62
     7
100
AcDbLine
 10
117.9817337801645
 20
136.6435057151314
 30
0.0
 11
114.3817337801644
 21
136.6435057151314
 31
0.0
  0
LINE
  5
F1
330
2
100
AcDbEntity
  8
0
  6
Continuous
 62
     7
100
AcDbLine
 10
109.3817337801644
 20
140.3367878110906
 30
0.0
 11
109.3817337801644
 21
138.8321173275516
 31
0.0
  0
LINE
  5
F2
330
2
100
AcDbEntity
  8
0
  6
Continuous
 62
     7
100
AcDbLine
 10
112.9817337801645
 20
140.3367878110906
 30
0.0
 11
112.9817337801645
 21
138.8321173275516
 31
0.0
  0
LINE
  5
F3
330
2
100
AcDbEntity
  8
0
  6
Continuous
 62
     7
100
AcDbLine
 10
112.9817337801645
 20
138.8321173275516
 30
0.0
 11
109.3817337801644
 21
138.8321173275516
 31
0.0
  0
LINE
  5
F4
330
2
100
AcDbEntity
  8
0
  6
Continuous
 62
     7
100
AcDbLine
 10
109.3817337801644
 20
136.6435057151314
 30
0.0
 11
109.3817337801644
 21
133.5657706351654
 31
0.0
  0
LINE
  5
F5
330
2
100
AcDbEntity
  8
0
  6
Continuous
 62
     7
100
AcDbLine
 10
112.9817337801645
 20
136.6435057151314
 30
0.0
 11
112.9817337801645
 21
133.5657706351654
 31
0.0
  0
LINE
  5
F6
330
2
100
AcDbEntity
  8
0
  6
Continuous
 62
     7
100
AcDbLine
 10
112.9817337801645
 20
133.5657706351654
 30
0.0
 11
109.3817337801644
 21
133.5657706351654
 31
0.0
  0
LINE
  5
F7
330
2
100
AcDbEntity
  8
0
  6
Continuous
 62
     7
100
AcDbLine
 10
112.9817337801645
 20
136.6435057151314
 30
0.0
 11
109.3817337801644
 21
136.6435057151314
 31
0.0
  0
LINE
  5
F8
330
2
100
AcDbEntity
  8
0
  6
Continuous
 62
     7
100
AcDbLine
 10
104.3817337801643
 20
140.3367878110906
 30
0.0
 11
104.3817337801643
 21
138.8321173275516
 31
0.0
  0
LINE
  5
F9
330
2
100
AcDbEntity
  8
0
  6
Continuous
 62
     7
100
AcDbLine
 10
107.9817337801645
 20
140.3367878110906
 30
0.0
 11
107.9817337801645
 21
138.8321173275516
 31
0.0
  0
LINE
  5
FA
330
2
100
AcDbEntity
  8
0
  6
Continuous
 62
     7
100
AcDbLine
 10
107.9817337801645
 20
138.8321173275516
 30
0.0
 11
104.3817337801643
 21
138.8321173275516
 31
0.0
  0
LINE
  5
FB
330
2
100
AcDbEntity
  8
0
  6
Continuous
 62
     7
100
AcDbLine
 10
104.3817337801643
 20
136.6435057151314
 30
0.0
 11
104.3817337801643
 21
133.5657706351654
 31
0.0
  0
LINE
  5
FC
330
2
100
AcDbEntity
  8
0
  6
Continuous
 62
     7
100
AcDbLine
 10
107.9817337801645
 20
136.6435057151314
 30
0.0
 11
107.9817337801645
 21
133.5657706351654
 31
0.0
  0
LINE
  5
FD
330
2
100
AcDbEntity
  8
0
  6
Continuous
 62
     7
100
AcDbLine
 10
107.9817337801645
 20
133.5657706351654
 30
0.0
 11
104.3817337801645
 21
133.5657706351654
 31
0.0
  0
LINE
  5
FE
330
2
100
AcDbEntity
  8
0
  6
Continuous
 62
     7
100
AcDbLine
 10
107.9817337801645
 20
136.6435057151314
 30
0.0
 11
104.3817337801643
 21
136.6435057151314
 31
0.0
  0
LINE
  5
FF
330
2
100
AcDbEntity
  8
0
  6
Continuous
 62
     7
100
AcDbLine
 10
99.38173378016438
 20
140.3367878110906
 30
0.0
 11
99.38173378016438
 21
138.8321173275516
 31
0.0
  0
LINE
  5
100
330
2
100
AcDbEntity
  8
0
  6
Continuous
 62
     7
100
AcDbLine
 10
102.9817337801645
 20
140.3367878110906
 30
0.0
 11
102.9817337801645
 21
138.8321173275516
 31
0.0
  0
LINE
  5
101
330
2
100
AcDbEntity
  8
0
  6
Continuous
 62
     7
100
AcDbLine
 10
102.9817337801645
 20
138.8321173275516
 30
0.0
 11
99.38173378016438
 21
138.8321173275516
 31
0.0
  0
LINE
  5
102
330
2
100
AcDbEntity
  8
0
  6
Continuous
 62
     7
100
AcDbLine
 10
99.38173378016438
 20
136.6435057151314
 30
0.0
 11
99.38173378016438
 21
133.5657706351654
 31
0.0
  0
LINE
  5
103
330
2
100
AcDbEntity
  8
0
  6
Continuous
 62
     7
100
AcDbLine
 10
102.9817337801645
 20
136.6435057151314
 30
0.0
 11
102.9817337801645
 21
133.5657706351654
 31
0.0
  0
LINE
  5
104
330
2
100
AcDbEntity
  8
0
  6
Continuous
 62
     7
100
AcDbLine
 10
102.9817337801645
 20
133.5657706351654
 30
0.0
 11
99.38173378016458
 21
133.5657706351654
 31
0.0
  0
LINE
  5
105
330
2
100
AcDbEntity
  8
0
  6
Continuous
 62
     7
100
AcDbLine
 10
102.9817337801645
 20
136.6435057151314
 30
0.0
 11
99.38173378016438
 21
136.6435057151314
 31
0.0
  0
LINE
  5
106
330
2
100
AcDbEntity
  8
0
  6
Continuous
 62
     7
100
AcDbLine
 10
94.38173378016438
 20
140.3367878110906
 30
0.0
 11
94.38173378016438
 21
138.8321173275516
 31
0.0
  0
LINE
  5
107
330
2
100
AcDbEntity
  8
0
  6
Continuous
 62
     7
100
AcDbLine
 10
97.9817337801645
 20
140.3367878110906
 30
0.0
 11
97.9817337801645
 21
138.8321173275516
 31
0.0
  0
LINE
  5
108
330
2
100
AcDbEntity
  8
0
  6
Continuous
 62
     7
100
AcDbLine
 10
97.9817337801645
 20
138.8321173275516
 30
0.0
 11
94.38173378016438
 21
138.8321173275516
 31
0.0
  0
LINE
  5
109
330
2
100
AcDbEntity
  8
0
  6
Continuous
 62
     7
100
AcDbLine
 10
94.38173378016438
 20
136.6435057151314
 30
0.0
 11
94.38173378016438
 21
133.5657706351654
 31
0.0
  0
LINE
  5
10A
330
2
100
AcDbEntity
  8
0
  6
Continuous
 62
     7
100
AcDbLine
 10
97.9817337801645
 20
136.6435057151314
 30
0.0
 11
97.9817337801645
 21
133.5657706351654
 31
0.0
  0
LINE
  5
10B
330
2
100
AcDbEntity
  8
0
  6
Continuous
 62
     7
100
AcDbLine
 10
97.9817337801645
 20
133.5657706351654
 30
0.0
 11
94.38173378016458
 21
133.5657706351654
 31
0.0
  0
LINE
  5
10C
330
2
100
AcDbEntity
  8
0
  6
Continuous
 62
     7
100
AcDbLine
 10
97.9817337801645
 20
136.6435057151314
 30
0.0
 11
94.38173378016438
 21
136.6435057151314
 31
0.0
  0
LINE
  5
10D
330
2
100
AcDbEntity
  8
0
  6
Continuous
 62
     7
100
AcDbLine
 10
89.38173378016438
 20
140.3367878110906
 30
0.0
 11
89.38173378016438
 21
138.8321173275516
 31
0.0
  0
LINE
  5
10E
330
2
100
AcDbEntity
  8
0
  6
Continuous
 62
     7
100
AcDbLine
 10
92.9817337801645
 20
140.3367878110906
 30
0.0
 11
92.9817337801645
 21
138.8321173275516
 31
0.0
  0
LINE
  5
10F
330
2
100
AcDbEntity
  8
0
  6
Continuous
 62
     7
100
AcDbLine
 10
92.9817337801645
 20
138.8321173275516
 30
0.0
 11
89.38173378016438
 21
138.8321173275516
 31
0.0
  0
LINE
  5
110
330
2
100
AcDbEntity
  8
0
  6
Continuous
 62
     7
100
AcDbLine
 10
89.38173378016438
 20
136.6435057151314
 30
0.0
 11
89.38173378016438
 21
133.5657706351654
 31
0.0
  0
LINE
  5
111
330
2
100
AcDbEntity
  8
0
  6
Continuous
 62
     7
100
AcDbLine
 10
92.9817337801645
 20
136.6435057151314
 30
0.0
 11
92.9817337801645
 21
133.5657706351654
 31
0.0
  0
LINE
  5
112
330
2
100
AcDbEntity
  8
0
  6
Continuous
 62
     7
100
AcDbLine
 10
92.9817337801645
 20
133.5657706351654
 30
0.0
 11
89.38173378016461
 21
133.5657706351654
 31
0.0
  0
LINE
  5
113
330
2
100
AcDbEntity
  8
0
  6
Continuous
 62
     7
100
AcDbLine
 10
92.9817337801645
 20
136.6435057151314
 30
0.0
 11
89.38173378016438
 21
136.6435057151314
 31
0.0
  0
LINE
  5
114
330
2
100
AcDbEntity
  8
0
  6
Continuous
 62
     7
100
AcDbLine
 10
92.9817337801645
 20
140.3367878110906
 30
0.0
 11
89.38173378016438
 21
140.3367878110906
 31
0.0
  0
LINE
  5
115
330
2
100
AcDbEntity
  8
0
  6
Continuous
 62
     7
100
AcDbLine
 10
97.9817337801645
 20
140.3367878110906
 30
0.0
 11
94.38173378016438
 21
140.3367878110906
 31
0.0
  0
LINE
  5
116
330
2
100
AcDbEntity
  8
0
  6
Continuous
 62
     7
100
AcDbLine
 10
102.9817337801645
 20
140.3367878110906
 30
0.0
 11
99.38173378016438
 21
140.3367878110906
 31
0.0
  0
LINE
  5
117
330
2
100
AcDbEntity
  8
0
  6
Continuous
 62
     7
100
AcDbLine
 10
107.9817337801645
 20
140.3367878110906
 30
0.0
 11
104.3817337801643
 21
140.3367878110906
 31
0.0
  0
LINE
  5
118
330
2
100
AcDbEntity
  8
0
  6
Continuous
 62
     7
100
AcDbLine
 10
112.9817337801645
 20
140.3367878110906
 30
0.0
 11
109.3817337801644
 21
140.3367878110906
 31
0.0
  0
LINE
  5
119
330
2
100
AcDbEntity
  8
0
  6
Continuous
 62
     7
100
AcDbLine
 10
117.9817337801645
 20
140.3367878110906
 30
0.0
 11
114.3817337801644
 21
140.3367878110906
 31
0.0
  0
LINE
  5
11A
330
2
100
AcDbEntity
  8
0
  6
Continuous
 62
     7
100
AcDbLine
 10
122.9817337801645
 20
140.3367878110906
 30
0.0
 11
119.3817337801644
 21
140.3367878110906
 31
0.0
  0
LINE
  5
11B
330
2
100
AcDbEntity
  8
0
  6
Continuous
 62
     7
100
AcDbLine
 10
127.9817337801645
 20
140.3367878110906
 30
0.0
 11
124.3817337801644
 21
140.3367878110906
 31
0.0
  0
LINE
  5
11C
330
2
100
AcDbEntity
  8
0
  6
Continuous
 62
     7
100
AcDbLine
 10
132.9817337801645
 20
140.3367878110906
 30
0.0
 11
129.3817337801643
 21
140.3367878110906
 31
0.0
  0
LINE
  5
11D
330
2
100
AcDbEntity
  8
0
  6
Continuous
 62
     7
100
AcDbLine
 10
137.9817337801645
 20
140.3367878110906
 30
0.0
 11
134.3817337801644
 21
140.3367878110906
 31
0.0
  0
LINE
  5
11E
330
2
100
AcDbEntity
  8
0
  6
Continuous
 62
     7
100
AcDbLine
 10
77.68173378016465
 20
141.8367878110905
 30
0.0
 11
138.6817337801645
 21
141.8367878110905
 31
0.0
  0
LINE
  5
11F
330
2
100
AcDbEntity
  8
0
  6
Continuous
 62
     7
100
AcDbLine
 10
138.6817337801645
 20
140.3367878110906
 30
0.0
 11
139.2817337801645
 21
140.3367878110906
 31
0.0
  0
LINE
  5
120
330
2
100
AcDbEntity
  8
0
  6
Continuous
 62
     7
100
AcDbLine
 10
177.3067337801645
 20
141.1367878110906
 30
0.0
 11
170.0567337801645
 21
141.1367878110906
 31
0.0
  0
LINE
  5
121
330
2
100
AcDbEntity
  8
0
  6
Continuous
 62
     7
100
AcDbLine
 10
177.6817337801644
 20
141.5117878110906
 30
0.0
 11
177.6817337801644
 21
142.1367878110903
 31
0.0
  0
LINE
  5
122
330
2
100
AcDbEntity
  8
0
  6
Continuous
 62
     7
100
AcDbLine
 10
169.6817337801645
 20
141.5117878110906
 30
0.0
 11
169.6817337801645
 21
142.1367878110903
 31
0.0
  0
LINE
  5
123
330
2
100
AcDbEntity
  8
0
  6
Continuous
 62
     7
100
AcDbLine
 10
170.0567337801645
 20
141.1367878110906
 30
0.0
 11
170.0567337801645
 21
142.1367878110903
 31
0.0
  0
LINE
  5
124
330
2
100
AcDbEntity
  8
0
  6
Continuous
 62
     7
100
AcDbLine
 10
177.6817337801644
 20
141.5117878110906
 30
0.0
 11
177.3067337801645
 21
141.1367878110906
 31
0.0
  0
LINE
  5
125
330
2
100
AcDbEntity
  8
0
  6
Continuous
 62
     7
100
AcDbLine
 10
169.6817337801645
 20
141.5117878110906
 30
0.0
 11
170.0567337801645
 21
141.1367878110906
 31
0.0
  0
LINE
  5
126
330
2
100
AcDbEntity
  8
0
  6
Continuous
 62
     7
100
AcDbLine
 10
177.3067337801646
 20
142.1367878110903
 30
0.0
 11
177.3067337801645
 21
141.1367878110906
 31
0.0
  0
LINE
  5
127
330
2
100
AcDbEntity
  8
0
  6
Continuous
 62
     7
100
AcDbLine
 10
176.6817337801644
 20
141.1367878110906
 30
0.0
 11
177.1817337801645
 21
141.1367878110906
 31
0.0
  0
LINE
  5
128
330
2
100
AcDbEntity
  8
0
  6
Continuous
 62
     7
100
AcDbLine
 10
170.1817337801645
 20
141.1367878110906
 30
0.0
 11
170.6817337801645
 21
141.1367878110906
 31
0.0
  0
LINE
  5
129
330
2
100
AcDbEntity
  8
0
  6
Continuous
 62
     7
100
AcDbLine
 10
311.238648755977
 20
141.1367878110905
 30
0.0
 11
303.9886487559769
 21
141.1367878110905
 31
0.0
  0
LINE
  5
12A
330
2
100
AcDbEntity
  8
0
  6
Continuous
 62
     7
100
AcDbLine
 10
311.6136487559769
 20
141.5117878110905
 30
0.0
 11
311.6136487559769
 21
142.1367878110904
 31
0.0
  0
LINE
  5
12B
330
2
100
AcDbEntity
  8
0
  6
Continuous
 62
     7
100
AcDbLine
 10
303.6136487559768
 20
141.5117878110905
 30
0.0
 11
303.6136487559768
 21
142.1367878110903
 31
0.0
  0
LINE
  5
12C
330
2
100
AcDbEntity
  8
0
  6
Continuous
 62
     7
100
AcDbLine
 10
311.2386487559768
 20
142.1367878110904
 30
0.0
 11
311.238648755977
 21
141.1367878110905
 31
0.0
  0
LINE
  5
12D
330
2
100
AcDbEntity
  8
0
  6
Continuous
 62
     7
100
AcDbLine
 10
303.9886487559769
 20
141.1367878110905
 30
0.0
 11
303.9886487559769
 21
142.1367878110903
 31
0.0
  0
LINE
  5
12E
330
2
100
AcDbEntity
  8
0
  6
Continuous
 62
     7
100
AcDbLine
 10
311.6136487559769
 20
141.5117878110905
 30
0.0
 11
311.238648755977
 21
141.1367878110905
 31
0.0
  0
LINE
  5
12F
330
2
100
AcDbEntity
  8
0
  6
Continuous
 62
     7
100
AcDbLine
 10
303.6136487559768
 20
141.5117878110905
 30
0.0
 11
303.9886487559769
 21
141.1367878110905
 31
0.0
  0
LINE
  5
130
330
2
100
AcDbEntity
  8
0
  6
Continuous
 62
     7
100
AcDbLine
 10
316.1136487559775
 20
133.21178781109
 30
0.0
 11
308.5136487559771
 21
140.3367878110905
 31
0.0
  0
LINE
  5
131
330
2
100
AcDbEntity
  8
0
  6
Continuous
 62
     7
100
AcDbLine
 10
308.5136487559771
 20
141.1367878110905
 30
0.0
 11
308.5136487559771
 21
140.3367878110905
 31
0.0
  0
LINE
  5
132
330
2
100
AcDbEntity
  8
0
  6
CENTER
 62
     4
100
AcDbLine
 10
327.6586769291456
 20
186.1367878110906
 30
0.0
 11
347.7630171532073
 21
186.1367878110905
 31
0.0
  0
LINE
  5
134
330
2
100
AcDbEntity
  8
0
  6
Continuous
 62
     7
100
AcDbLine
 10
94.38173378016438
 20
59.23866914056126
 30
0.0
 11
97.9817337801645
 21
59.23866914056126
 31
0.0
  0
CIRCLE
  5
135
330
2
100
AcDbEntity
  8
0
  6
Continuous
 62
     7
100
AcDbCircle
 10
173.6817337801646
 20
67.35866914056146
 30
0.0
 40
3.0
  0
CIRCLE
  5
136
330
2
100
AcDbEntity
  8
0
  6
Continuous
 62
     7
100
AcDbCircle
 10
173.6817337801646
 20
67.35866914056146
 30
0.0
 40
2.0
  0
CIRCLE
  5
137
330
2
100
AcDbEntity
  8
0
  6
Continuous
 62
     7
100
AcDbCircle
 10
173.6817337801646
 20
67.35866914056146
 30
0.0
 40
2.549999999999998
  0
LINE
  5
138
330
2
100
AcDbEntity
  8
0
  6
Continuous
 62
     7
100
AcDbLine
 10
167.8507818853193
 20
59.85866914056142
 30
0.0
 11
179.5126856750098
 21
59.85866914056142
 31
0.0
  0
ARC
  5
139
330
2
100
AcDbEntity
  8
0
  6
Continuous
 62
     7
100
AcDbCircle
 10
173.6817337801644
 20
67.35866914056142
 30
0.0
 40
9.5
100
AcDbArc
 50
307.8636463617298
 51
322.1363536382693
  0
ARC
  5
13A
330
2
100
AcDbEntity
  8
0
  6
Continuous
 62
     7
100
AcDbCircle
 10
173.6817337801644
 20
67.35866914056142
 30
0.0
 40
9.5
100
AcDbArc
 50
217.8636463617307
 51
232.1363536382692
  0
CIRCLE
  5
13B
330
2
100
AcDbEntity
  8
0
  6
Continuous
 62
     7
100
AcDbCircle
 10
173.6817337801644
 20
67.35866914056142
 30
0.0
 40
4.5
  0
CIRCLE
  5
13C
330
2
100
AcDbEntity
  8
0
  6
Continuous
 62
     7
100
AcDbCircle
 10
173.6817337801644
 20
67.35866914056142
 30
0.0
 40
4.0
  0
CIRCLE
  5
13D
330
2
100
AcDbEntity
  8
0
  6
Continuous
 62
     7
100
AcDbCircle
 10
173.6817337801644
 20
67.35866914056142
 30
0.0
 40
3.0
  0
LINE
  5
13E
330
2
100
AcDbEntity
  8
0
  6
Continuous
 62
     7
100
AcDbLine
 10
172.6817337801645
 20
71.23165248676885
 30
0.0
 11
172.6817337801645
 21
70.18709626530757
 31
0.0
  0
LINE
  5
13F
330
2
100
AcDbEntity
  8
0
  6
Continuous
 62
     7
100
AcDbLine
 10
174.6817337801644
 20
71.23165248676885
 30
0.0
 11
174.6817337801644
 21
70.18709626530757
 31
0.0
  0
LINE
  5
140
330
2
100
AcDbEntity
  8
0
  6
Continuous
 62
     7
100
AcDbLine
 10
89.38173378016461
 20
64.85866914056126
 30
0.0
 11
92.9817337801645
 21
64.85866914056126
 31
0.0
  0
LINE
  5
141
330
2
100
AcDbEntity
  8
0
  6
Continuous
 62
     7
100
AcDbLine
 10
92.9817337801645
 20
64.85866914056126
 30
0.0
 11
92.9817337801645
 21
66.45866914056128
 31
0.0
  0
LINE
  5
142
330
2
100
AcDbEntity
  8
0
  6
Continuous
 62
     7
100
AcDbLine
 10
89.38173378016461
 20
64.85866914056126
 30
0.0
 11
89.38173378016438
 21
66.45866914056128
 31
0.0
  0
LINE
  5
143
330
2
100
AcDbEntity
  8
0
  6
Continuous
 62
     7
100
AcDbLine
 10
89.38173378016438
 20
59.23866914056126
 30
0.0
 11
92.9817337801645
 21
59.23866914056126
 31
0.0
  0
LINE
  5
144
330
2
100
AcDbEntity
  8
0
  6
Continuous
 62
     7
100
AcDbLine
 10
89.38173378016461
 20
62.51866914056122
 30
0.0
 11
92.9817337801645
 21
62.51866914056122
 31
0.0
  0
LINE
  5
145
330
2
100
AcDbEntity
  8
0
  6
Continuous
 62
     7
100
AcDbLine
 10
89.38173378016461
 20
62.51866914056122
 30
0.0
 11
89.38173378016438
 21
59.23866914056126
 31
0.0
  0
LINE
  5
146
330
2
100
AcDbEntity
  8
0
  6
Continuous
 62
     7
100
AcDbLine
 10
92.9817337801645
 20
62.51866914056122
 30
0.0
 11
92.9817337801645
 21
59.23866914056126
 31
0.0
  0
LINE
  5
147
330
2
100
AcDbEntity
  8
0
  6
Continuous
 62
     7
100
AcDbLine
 10
94.38173378016458
 20
64.85866914056126
 30
0.0
 11
97.9817337801645
 21
64.85866914056126
 31
0.0
  0
LINE
  5
148
330
2
100
AcDbEntity
  8
0
  6
Continuous
 62
     7
100
AcDbLine
 10
97.9817337801645
 20
64.85866914056126
 30
0.0
 11
97.9817337801645
 21
66.45866914056128
 31
0.0
  0
LINE
  5
149
330
2
100
AcDbEntity
  8
0
  6
Continuous
 62
     7
100
AcDbLine
 10
94.38173378016458
 20
64.85866914056126
 30
0.0
 11
94.38173378016438
 21
66.45866914056128
 31
0.0
  0
LINE
  5
14A
330
2
100
AcDbEntity
  8
0
  6
Continuous
 62
     7
100
AcDbLine
 10
94.38173378016458
 20
62.51866914056122
 30
0.0
 11
97.9817337801645
 21
62.51866914056122
 31
0.0
  0
LINE
  5
14B
330
2
100
AcDbEntity
  8
0
  6
Continuous
 62
     7
100
AcDbLine
 10
94.38173378016458
 20
62.51866914056122
 30
0.0
 11
94.38173378016438
 21
59.23866914056126
 31
0.0
  0
LINE
  5
14C
330
2
100
AcDbEntity
  8
0
  6
Continuous
 62
     7
100
AcDbLine
 10
97.9817337801645
 20
62.51866914056122
 30
0.0
 11
97.9817337801645
 21
59.23866914056126
 31
0.0
  0
LINE
  5
14D
330
2
100
AcDbEntity
  8
0
  6
Continuous
 62
     7
100
AcDbLine
 10
99.38173378016458
 20
64.85866914056126
 30
0.0
 11
102.9817337801645
 21
64.85866914056126
 31
0.0
  0
LINE
  5
14E
330
2
100
AcDbEntity
  8
0
  6
Continuous
 62
     7
100
AcDbLine
 10
102.9817337801645
 20
64.85866914056126
 30
0.0
 11
102.9817337801645
 21
66.45866914056128
 31
0.0
  0
LINE
  5
14F
330
2
100
AcDbEntity
  8
0
  6
Continuous
 62
     7
100
AcDbLine
 10
99.38173378016458
 20
64.85866914056126
 30
0.0
 11
99.38173378016438
 21
66.45866914056128
 31
0.0
  0
LINE
  5
150
330
2
100
AcDbEntity
  8
0
  6
Continuous
 62
     7
100
AcDbLine
 10
99.38173378016438
 20
59.23866914056126
 30
0.0
 11
102.9817337801645
 21
59.23866914056126
 31
0.0
  0
LINE
  5
151
330
2
100
AcDbEntity
  8
0
  6
Continuous
 62
     7
100
AcDbLine
 10
99.38173378016458
 20
62.51866914056122
 30
0.0
 11
102.9817337801645
 21
62.51866914056122
 31
0.0
  0
LINE
  5
152
330
2
100
AcDbEntity
  8
0
  6
Continuous
 62
     7
100
AcDbLine
 10
99.38173378016458
 20
62.51866914056122
 30
0.0
 11
99.38173378016438
 21
59.23866914056126
 31
0.0
  0
LINE
  5
153
330
2
100
AcDbEntity
  8
0
  6
Continuous
 62
     7
100
AcDbLine
 10
102.9817337801645
 20
62.51866914056122
 30
0.0
 11
102.9817337801645
 21
59.23866914056126
 31
0.0
  0
LINE
  5
154
330
2
100
AcDbEntity
  8
0
  6
Continuous
 62
     7
100
AcDbLine
 10
104.3817337801645
 20
64.85866914056126
 30
0.0
 11
107.9817337801645
 21
64.85866914056126
 31
0.0
  0
LINE
  5
155
330
2
100
AcDbEntity
  8
0
  6
Continuous
 62
     7
100
AcDbLine
 10
107.9817337801645
 20
64.85866914056126
 30
0.0
 11
107.9817337801645
 21
66.45866914056128
 31
0.0
  0
LINE
  5
156
330
2
100
AcDbEntity
  8
0
  6
Continuous
 62
     7
100
AcDbLine
 10
104.3817337801645
 20
64.85866914056126
 30
0.0
 11
104.3817337801643
 21
66.45866914056128
 31
0.0
  0
LINE
  5
157
330
2
100
AcDbEntity
  8
0
  6
Continuous
 62
     7
100
AcDbLine
 10
104.3817337801643
 20
59.23866914056126
 30
0.0
 11
107.9817337801645
 21
59.23866914056126
 31
0.0
  0
LINE
  5
158
330
2
100
AcDbEntity
  8
0
  6
Continuous
 62
     7
100
AcDbLine
 10
104.3817337801645
 20
62.51866914056122
 30
0.0
 11
107.9817337801645
 21
62.51866914056122
 31
0.0
  0
LINE
  5
159
330
2
100
AcDbEntity
  8
0
  6
Continuous
 62
     7
100
AcDbLine
 10
104.3817337801645
 20
62.51866914056122
 30
0.0
 11
104.3817337801643
 21
59.23866914056126
 31
0.0
  0
LINE
  5
15A
330
2
100
AcDbEntity
  8
0
  6
Continuous
 62
     7
100
AcDbLine
 10
107.9817337801645
 20
62.51866914056122
 30
0.0
 11
107.9817337801645
 21
59.23866914056126
 31
0.0
  0
LINE
  5
15B
330
2
100
AcDbEntity
  8
0
  6
Continuous
 62
     7
100
AcDbLine
 10
109.3817337801646
 20
64.85866914056126
 30
0.0
 11
112.9817337801645
 21
64.85866914056126
 31
0.0
  0
LINE
  5
15C
330
2
100
AcDbEntity
  8
0
  6
Continuous
 62
     7
100
AcDbLine
 10
112.9817337801645
 20
64.85866914056126
 30
0.0
 11
112.9817337801645
 21
66.45866914056128
 31
0.0
  0
LINE
  5
15D
330
2
100
AcDbEntity
  8
0
  6
Continuous
 62
     7
100
AcDbLine
 10
109.3817337801646
 20
64.85866914056126
 30
0.0
 11
109.3817337801644
 21
66.45866914056128
 31
0.0
  0
LINE
  5
15E
330
2
100
AcDbEntity
  8
0
  6
Continuous
 62
     7
100
AcDbLine
 10
109.3817337801644
 20
59.23866914056126
 30
0.0
 11
112.9817337801645
 21
59.23866914056126
 31
0.0
  0
LINE
  5
15F
330
2
100
AcDbEntity
  8
0
  6
Continuous
 62
     7
100
AcDbLine
 10
109.3817337801646
 20
62.51866914056122
 30
0.0
 11
112.9817337801645
 21
62.51866914056122
 31
0.0
  0
LINE
  5
160
330
2
100
AcDbEntity
  8
0
  6
Continuous
 62
     7
100
AcDbLine
 10
109.3817337801646
 20
62.51866914056122
 30
0.0
 11
109.3817337801644
 21
59.23866914056126
 31
0.0
  0
LINE
  5
161
330
2
100
AcDbEntity
  8
0
  6
Continuous
 62
     7
100
AcDbLine
 10
112.9817337801645
 20
62.51866914056122
 30
0.0
 11
112.9817337801645
 21
59.23866914056126
 31
0.0
  0
LINE
  5
162
330
2
100
AcDbEntity
  8
0
  6
Continuous
 62
     7
100
AcDbLine
 10
114.3817337801646
 20
64.85866914056126
 30
0.0
 11
117.9817337801645
 21
64.85866914056126
 31
0.0
  0
LINE
  5
163
330
2
100
AcDbEntity
  8
0
  6
Continuous
 62
     7
100
AcDbLine
 10
117.9817337801645
 20
64.85866914056126
 30
0.0
 11
117.9817337801645
 21
66.45866914056128
 31
0.0
  0
LINE
  5
164
330
2
100
AcDbEntity
  8
0
  6
Continuous
 62
     7
100
AcDbLine
 10
114.3817337801646
 20
64.85866914056126
 30
0.0
 11
114.3817337801644
 21
66.45866914056128
 31
0.0
  0
LINE
  5
165
330
2
100
AcDbEntity
  8
0
  6
Continuous
 62
     7
100
AcDbLine
 10
114.3817337801644
 20
59.23866914056126
 30
0.0
 11
117.9817337801645
 21
59.23866914056126
 31
0.0
  0
LINE
  5
166
330
2
100
AcDbEntity
  8
0
  6
Continuous
 62
     7
100
AcDbLine
 10
114.3817337801646
 20
62.51866914056122
 30
0.0
 11
117.9817337801645
 21
62.51866914056122
 31
0.0
  0
LINE
  5
167
330
2
100
AcDbEntity
  8
0
  6
Continuous
 62
     7
100
AcDbLine
 10
114.3817337801646
 20
62.51866914056122
 30
0.0
 11
114.3817337801644
 21
59.23866914056126
 31
0.0
  0
LINE
  5
168
330
2
100
AcDbEntity
  8
0
  6
Continuous
 62
     7
100
AcDbLine
 10
117.9817337801645
 20
62.51866914056122
 30
0.0
 11
117.9817337801645
 21
59.23866914056126
 31
0.0
  0
LINE
  5
169
330
2
100
AcDbEntity
  8
0
  6
Continuous
 62
     7
100
AcDbLine
 10
119.3817337801646
 20
64.85866914056126
 30
0.0
 11
122.9817337801645
 21
64.85866914056126
 31
0.0
  0
LINE
  5
16A
330
2
100
AcDbEntity
  8
0
  6
Continuous
 62
     7
100
AcDbLine
 10
122.9817337801645
 20
64.85866914056126
 30
0.0
 11
122.9817337801645
 21
66.45866914056128
 31
0.0
  0
LINE
  5
16B
330
2
100
AcDbEntity
  8
0
  6
Continuous
 62
     7
100
AcDbLine
 10
119.3817337801646
 20
64.85866914056126
 30
0.0
 11
119.3817337801644
 21
66.45866914056128
 31
0.0
  0
LINE
  5
16C
330
2
100
AcDbEntity
  8
0
  6
Continuous
 62
     7
100
AcDbLine
 10
119.3817337801644
 20
59.23866914056126
 30
0.0
 11
122.9817337801645
 21
59.23866914056126
 31
0.0
  0
LINE
  5
16D
330
2
100
AcDbEntity
  8
0
  6
Continuous
 62
     7
100
AcDbLine
 10
119.3817337801646
 20
62.51866914056122
 30
0.0
 11
122.9817337801645
 21
62.51866914056122
 31
0.0
  0
LINE
  5
16E
330
2
100
AcDbEntity
  8
0
  6
Continuous
 62
     7
100
AcDbLine
 10
119.3817337801646
 20
62.51866914056122
 30
0.0
 11
119.3817337801644
 21
59.23866914056126
 31
0.0
  0
LINE
  5
16F
330
2
100
AcDbEntity
  8
0
  6
Continuous
 62
     7
100
AcDbLine
 10
122.9817337801645
 20
62.51866914056122
 30
0.0
 11
122.9817337801645
 21
59.23866914056126
 31
0.0
  0
LINE
  5
170
330
2
100
AcDbEntity
  8
0
  6
Continuous
 62
     7
100
AcDbLine
 10
124.3817337801646
 20
64.85866914056126
 30
0.0
 11
127.9817337801645
 21
64.85866914056126
 31
0.0
  0
LINE
  5
171
330
2
100
AcDbEntity
  8
0
  6
Continuous
 62
     7
100
AcDbLine
 10
127.9817337801645
 20
64.85866914056126
 30
0.0
 11
127.9817337801645
 21
66.45866914056128
 31
0.0
  0
LINE
  5
172
330
2
100
AcDbEntity
  8
0
  6
Continuous
 62
     7
100
AcDbLine
 10
124.3817337801646
 20
64.85866914056126
 30
0.0
 11
124.3817337801644
 21
66.45866914056128
 31
0.0
  0
LINE
  5
173
330
2
100
AcDbEntity
  8
0
  6
Continuous
 62
     7
100
AcDbLine
 10
124.3817337801644
 20
59.23866914056126
 30
0.0
 11
127.9817337801645
 21
59.23866914056126
 31
0.0
  0
LINE
  5
174
330
2
100
AcDbEntity
  8
0
  6
Continuous
 62
     7
100
AcDbLine
 10
124.3817337801646
 20
62.51866914056122
 30
0.0
 11
127.9817337801645
 21
62.51866914056122
 31
0.0
  0
LINE
  5
175
330
2
100
AcDbEntity
  8
0
  6
Continuous
 62
     7
100
AcDbLine
 10
124.3817337801646
 20
62.51866914056122
 30
0.0
 11
124.3817337801644
 21
59.23866914056126
 31
0.0
  0
LINE
  5
176
330
2
100
AcDbEntity
  8
0
  6
Continuous
 62
     7
100
AcDbLine
 10
127.9817337801645
 20
62.51866914056122
 30
0.0
 11
127.9817337801645
 21
59.23866914056126
 31
0.0
  0
LINE
  5
177
330
2
100
AcDbEntity
  8
0
  6
Continuous
 62
     7
100
AcDbLine
 10
129.3817337801645
 20
64.85866914056126
 30
0.0
 11
132.9817337801645
 21
64.85866914056126
 31
0.0
  0
LINE
  5
178
330
2
100
AcDbEntity
  8
0
  6
Continuous
 62
     7
100
AcDbLine
 10
132.9817337801645
 20
64.85866914056126
 30
0.0
 11
132.9817337801645
 21
66.45866914056128
 31
0.0
  0
LINE
  5
179
330
2
100
AcDbEntity
  8
0
  6
Continuous
 62
     7
100
AcDbLine
 10
129.3817337801645
 20
64.85866914056126
 30
0.0
 11
129.3817337801643
 21
66.45866914056128
 31
0.0
  0
LINE
  5
17A
330
2
100
AcDbEntity
  8
0
  6
Continuous
 62
     7
100
AcDbLine
 10
129.3817337801643
 20
59.23866914056126
 30
0.0
 11
132.9817337801645
 21
59.23866914056126
 31
0.0
  0
LINE
  5
17B
330
2
100
AcDbEntity
  8
0
  6
Continuous
 62
     7
100
AcDbLine
 10
129.3817337801645
 20
62.51866914056122
 30
0.0
 11
132.9817337801645
 21
62.51866914056122
 31
0.0
  0
LINE
  5
17C
330
2
100
AcDbEntity
  8
0
  6
Continuous
 62
     7
100
AcDbLine
 10
129.3817337801645
 20
62.51866914056122
 30
0.0
 11
129.3817337801643
 21
59.23866914056126
 31
0.0
  0
LINE
  5
17D
330
2
100
AcDbEntity
  8
0
  6
Continuous
 62
     7
100
AcDbLine
 10
132.9817337801645
 20
62.51866914056122
 30
0.0
 11
132.9817337801645
 21
59.23866914056126
 31
0.0
  0
LINE
  5
17E
330
2
100
AcDbEntity
  8
0
  6
Continuous
 62
     7
100
AcDbLine
 10
137.9817337801645
 20
62.51866914056122
 30
0.0
 11
137.9817337801645
 21
59.23866914056126
 31
0.0
  0
LINE
  5
17F
330
2
100
AcDbEntity
  8
0
  6
Continuous
 62
     7
100
AcDbLine
 10
134.3817337801646
 20
62.51866914056122
 30
0.0
 11
134.3817337801644
 21
59.23866914056126
 31
0.0
  0
LINE
  5
180
330
2
100
AcDbEntity
  8
0
  6
Continuous
 62
     7
100
AcDbLine
 10
134.3817337801646
 20
62.51866914056122
 30
0.0
 11
137.9817337801645
 21
62.51866914056122
 31
0.0
  0
LINE
  5
181
330
2
100
AcDbEntity
  8
0
  6
Continuous
 62
     7
100
AcDbLine
 10
134.3817337801644
 20
59.23866914056126
 30
0.0
 11
137.9817337801645
 21
59.23866914056126
 31
0.0
  0
LINE
  5
182
330
2
100
AcDbEntity
  8
0
  6
Continuous
 62
     7
100
AcDbLine
 10
134.3817337801646
 20
64.85866914056126
 30
0.0
 11
134.3817337801644
 21
66.45866914056128
 31
0.0
  0
LINE
  5
183
330
2
100
AcDbEntity
  8
0
  6
Continuous
 62
     7
100
AcDbLine
 10
137.9817337801645
 20
64.85866914056126
 30
0.0
 11
137.9817337801645
 21
66.45866914056128
 31
0.0
  0
LINE
  5
184
330
2
100
AcDbEntity
  8
0
  6
Continuous
 62
     7
100
AcDbLine
 10
134.3817337801646
 20
64.85866914056126
 30
0.0
 11
137.9817337801645
 21
64.85866914056126
 31
0.0
  0
LINE
  5
185
330
2
100
AcDbEntity
  8
0
  6
Continuous
 62
     7
100
AcDbLine
 10
138.6817337801645
 20
57.8586691405612
 30
0.0
 11
139.2817337801645
 21
57.8586691405612
 31
0.0
  0
LINE
  5
186
330
2
100
AcDbEntity
  8
0
  6
Continuous
 62
     7
100
AcDbLine
 10
133.6817337801645
 20
57.85866914056136
 30
0.0
 11
133.6817337801645
 21
66.45866914056128
 31
0.0
  0
LINE
  5
187
330
2
100
AcDbEntity
  8
0
  6
Continuous
 62
     7
100
AcDbLine
 10
138.6817337801645
 20
57.85866914056136
 30
0.0
 11
138.6817337801645
 21
66.45866914056128
 31
0.0
  0
LINE
  5
188
330
2
100
AcDbEntity
  8
0
  6
Continuous
 62
     7
100
AcDbLine
 10
133.6817337801645
 20
66.45866914056128
 30
0.0
 11
138.6817337801645
 21
66.45866914056128
 31
0.0
  0
LINE
  5
189
330
2
100
AcDbEntity
  8
0
  6
Continuous
 62
     7
100
AcDbLine
 10
133.6817337801645
 20
58.45866914056128
 30
0.0
 11
138.6817337801645
 21
58.45866914056128
 31
0.0
  0
LINE
  5
18A
330
2
100
AcDbEntity
  8
0
  6
Continuous
 62
     7
100
AcDbLine
 10
128.6817337801645
 20
57.85866914056132
 30
0.0
 11
128.6817337801645
 21
66.45866914056128
 31
0.0
  0
LINE
  5
18B
330
2
100
AcDbEntity
  8
0
  6
Continuous
 62
     7
100
AcDbLine
 10
133.6817337801645
 20
57.85866914056136
 30
0.0
 11
133.6817337801645
 21
66.45866914056128
 31
0.0
  0
LINE
  5
18C
330
2
100
AcDbEntity
  8
0
  6
Continuous
 62
     7
100
AcDbLine
 10
128.6817337801645
 20
66.45866914056128
 30
0.0
 11
133.6817337801645
 21
66.45866914056128
 31
0.0
  0
LINE
  5
18D
330
2
100
AcDbEntity
  8
0
  6
Continuous
 62
     7
100
AcDbLine
 10
128.6817337801645
 20
58.45866914056128
 30
0.0
 11
133.6817337801645
 21
58.45866914056128
 31
0.0
  0
LINE
  5
18E
330
2
100
AcDbEntity
  8
0
  6
Continuous
 62
     7
100
AcDbLine
 10
123.6817337801645
 20
57.85866914056132
 30
0.0
 11
123.6817337801645
 21
66.45866914056128
 31
0.0
  0
LINE
  5
18F
330
2
100
AcDbEntity
  8
0
  6
Continuous
 62
     7
100
AcDbLine
 10
128.6817337801645
 20
57.85866914056132
 30
0.0
 11
128.6817337801645
 21
66.45866914056128
 31
0.0
  0
LINE
  5
190
330
2
100
AcDbEntity
  8
0
  6
Continuous
 62
     7
100
AcDbLine
 10
123.6817337801645
 20
66.45866914056128
 30
0.0
 11
128.6817337801645
 21
66.45866914056128
 31
0.0
  0
LINE
  5
191
330
2
100
AcDbEntity
  8
0
  6
Continuous
 62
     7
100
AcDbLine
 10
123.6817337801645
 20
58.45866914056128
 30
0.0
 11
128.6817337801645
 21
58.45866914056128
 31
0.0
  0
LINE
  5
192
330
2
100
AcDbEntity
  8
0
  6
Continuous
 62
     7
100
AcDbLine
 10
118.6817337801646
 20
57.85866914056128
 30
0.0
 11
118.6817337801645
 21
66.45866914056128
 31
0.0
  0
LINE
  5
193
330
2
100
AcDbEntity
  8
0
  6
Continuous
 62
     7
100
AcDbLine
 10
123.6817337801645
 20
57.85866914056132
 30
0.0
 11
123.6817337801645
 21
66.45866914056128
 31
0.0
  0
LINE
  5
194
330
2
100
AcDbEntity
  8
0
  6
Continuous
 62
     7
100
AcDbLine
 10
118.6817337801645
 20
66.45866914056128
 30
0.0
 11
123.6817337801645
 21
66.45866914056128
 31
0.0
  0
LINE
  5
195
330
2
100
AcDbEntity
  8
0
  6
Continuous
 62
     7
100
AcDbLine
 10
118.6817337801645
 20
58.45866914056128
 30
0.0
 11
123.6817337801645
 21
58.45866914056128
 31
0.0
  0
LINE
  5
196
330
2
100
AcDbEntity
  8
0
  6
Continuous
 62
     7
100
AcDbLine
 10
113.6817337801645
 20
57.85866914056128
 30
0.0
 11
113.6817337801645
 21
66.45866914056128
 31
0.0
  0
LINE
  5
197
330
2
100
AcDbEntity
  8
0
  6
Continuous
 62
     7
100
AcDbLine
 10
118.6817337801645
 20
57.85866914056128
 30
0.0
 11
118.6817337801645
 21
66.45866914056128
 31
0.0
  0
LINE
  5
198
330
2
100
AcDbEntity
  8
0
  6
Continuous
 62
     7
100
AcDbLine
 10
113.6817337801645
 20
66.45866914056128
 30
0.0
 11
118.6817337801645
 21
66.45866914056128
 31
0.0
  0
LINE
  5
199
330
2
100
AcDbEntity
  8
0
  6
Continuous
 62
     7
100
AcDbLine
 10
113.6817337801645
 20
58.45866914056128
 30
0.0
 11
118.6817337801645
 21
58.45866914056128
 31
0.0
  0
LINE
  5
19A
330
2
100
AcDbEntity
  8
0
  6
Continuous
 62
     7
100
AcDbLine
 10
108.6817337801645
 20
57.85866914056128
 30
0.0
 11
108.6817337801645
 21
66.45866914056128
 31
0.0
  0
LINE
  5
19B
330
2
100
AcDbEntity
  8
0
  6
Continuous
 62
     7
100
AcDbLine
 10
113.6817337801645
 20
57.85866914056128
 30
0.0
 11
113.6817337801645
 21
66.45866914056128
 31
0.0
  0
LINE
  5
19C
330
2
100
AcDbEntity
  8
0
  6
Continuous
 62
     7
100
AcDbLine
 10
108.6817337801645
 20
66.45866914056128
 30
0.0
 11
113.6817337801645
 21
66.45866914056128
 31
0.0
  0
LINE
  5
19D
330
2
100
AcDbEntity
  8
0
  6
Continuous
 62
     7
100
AcDbLine
 10
108.6817337801645
 20
58.45866914056128
 30
0.0
 11
113.6817337801645
 21
58.45866914056128
 31
0.0
  0
LINE
  5
19E
330
2
100
AcDbEntity
  8
0
  6
Continuous
 62
     7
100
AcDbLine
 10
103.6817337801645
 20
57.85866914056128
 30
0.0
 11
103.6817337801645
 21
66.45866914056128
 31
0.0
  0
LINE
  5
19F
330
2
100
AcDbEntity
  8
0
  6
Continuous
 62
     7
100
AcDbLine
 10
108.6817337801645
 20
57.85866914056128
 30
0.0
 11
108.6817337801645
 21
66.45866914056128
 31
0.0
  0
LINE
  5
1A0
330
2
100
AcDbEntity
  8
0
  6
Continuous
 62
     7
100
AcDbLine
 10
103.6817337801645
 20
66.45866914056128
 30
0.0
 11
108.6817337801645
 21
66.45866914056128
 31
0.0
  0
LINE
  5
1A1
330
2
100
AcDbEntity
  8
0
  6
Continuous
 62
     7
100
AcDbLine
 10
103.6817337801645
 20
58.45866914056128
 30
0.0
 11
108.6817337801645
 21
58.45866914056128
 31
0.0
  0
LINE
  5
1A2
330
2
100
AcDbEntity
  8
0
  6
Continuous
 62
     7
100
AcDbLine
 10
98.68173378016457
 20
57.85866914056128
 30
0.0
 11
98.68173378016457
 21
66.45866914056128
 31
0.0
  0
LINE
  5
1A3
330
2
100
AcDbEntity
  8
0
  6
Continuous
 62
     7
100
AcDbLine
 10
103.6817337801645
 20
57.85866914056128
 30
0.0
 11
103.6817337801645
 21
66.45866914056128
 31
0.0
  0
LINE
  5
1A4
330
2
100
AcDbEntity
  8
0
  6
Continuous
 62
     7
100
AcDbLine
 10
98.68173378016457
 20
66.45866914056128
 30
0.0
 11
103.6817337801645
 21
66.45866914056128
 31
0.0
  0
LINE
  5
1A5
330
2
100
AcDbEntity
  8
0
  6
Continuous
 62
     7
100
AcDbLine
 10
98.68173378016457
 20
58.45866914056128
 30
0.0
 11
103.6817337801645
 21
58.45866914056128
 31
0.0
  0
LINE
  5
1A6
330
2
100
AcDbEntity
  8
0
  6
Continuous
 62
     7
100
AcDbLine
 10
93.68173378016455
 20
57.85866914056125
 30
0.0
 11
93.68173378016455
 21
66.45866914056128
 31
0.0
  0
LINE
  5
1A7
330
2
100
AcDbEntity
  8
0
  6
Continuous
 62
     7
100
AcDbLine
 10
98.68173378016457
 20
57.85866914056128
 30
0.0
 11
98.68173378016457
 21
66.45866914056128
 31
0.0
  0
LINE
  5
1A8
330
2
100
AcDbEntity
  8
0
  6
Continuous
 62
     7
100
AcDbLine
 10
93.68173378016455
 20
66.45866914056128
 30
0.0
 11
98.68173378016457
 21
66.45866914056128
 31
0.0
  0
LINE
  5
1A9
330
2
100
AcDbEntity
  8
0
  6
Continuous
 62
     7
100
AcDbLine
 10
93.68173378016455
 20
58.45866914056128
 30
0.0
 11
98.68173378016457
 21
58.45866914056128
 31
0.0
  0
LINE
  5
1AA
330
2
100
AcDbEntity
  8
0
  6
Continuous
 62
     7
100
AcDbLine
 10
77.68173378016456
 20
66.45866914056128
 30
0.0
 11
88.68173378016455
 21
66.45866914056128
 31
0.0
  0
LINE
  5
1AB
330
2
100
AcDbEntity
  8
0
  6
Continuous
 62
     7
100
AcDbLine
 10
88.68173378016455
 20
58.45866914056128
 30
0.0
 11
93.68173378016455
 21
58.45866914056128
 31
0.0
  0
LINE
  5
1AC
330
2
100
AcDbEntity
  8
0
  6
Continuous
 62
     7
100
AcDbLine
 10
88.68173378016455
 20
58.45866914056128
 30
0.0
 11
77.68173378016456
 21
58.45866914056128
 31
0.0
  0
LINE
  5
1AD
330
2
100
AcDbEntity
  8
0
  6
Continuous
 62
     7
100
AcDbLine
 10
88.68173378016455
 20
66.45866914056128
 30
0.0
 11
93.68173378016455
 21
66.45866914056128
 31
0.0
  0
LINE
  5
1AE
330
2
100
AcDbEntity
  8
0
  6
Continuous
 62
     7
100
AcDbLine
 10
93.68173378016455
 20
57.85866914056125
 30
0.0
 11
93.68173378016455
 21
66.45866914056128
 31
0.0
  0
LINE
  5
1AF
330
2
100
AcDbEntity
  8
0
  6
Continuous
 62
     7
100
AcDbLine
 10
88.68173378016455
 20
57.85866914056121
 30
0.0
 11
88.68173378016455
 21
66.45866914056128
 31
0.0
  0
LINE
  5
1B0
330
2
100
AcDbEntity
  8
0
  6
CENTER
 62
     4
100
AcDbLine
 10
173.6817337801646
 20
78.95229035952933
 30
0.0
 11
173.6817337801644
 21
55.48795464216841
 31
0.0
  0
LINE
  5
1B1
330
2
100
AcDbEntity
  8
0
  6
Continuous
 62
     7
100
AcDbLine
 10
206.8817337801645
 20
38.85866914056149
 30
0.0
 11
207.6817337801647
 21
38.85866914056157
 31
0.0
  0
LINE
  5
1B2
330
2
100
AcDbEntity
  8
0
  6
Continuous
 62
     7
100
AcDbLine
 10
76.98173378016452
 20
133.7367878110905
 30
0.0
 11
77.68173378016456
 21
133.7367878110905
 31
0.0
  0
LINE
  5
1B3
330
2
100
AcDbEntity
  8
0
  6
Continuous
 62
     7
100
AcDbLine
 10
76.98173378016452
 20
134.9367878110906
 30
0.0
 11
77.68173378016456
 21
134.9367878110905
 31
0.0
  0
LINE
  5
1B4
330
2
100
AcDbEntity
  8
0
  6
Continuous
 62
     7
100
AcDbLine
 10
76.98173378016452
 20
134.9367878110906
 30
0.0
 11
76.98173378016452
 21
133.7367878110905
 31
0.0
  0
LINE
  5
1B5
330
2
100
AcDbEntity
  8
0
  6
Continuous
 62
     7
100
AcDbLine
 10
76.98173378016452
 20
139.1367878110906
 30
0.0
 11
76.98173378016452
 21
137.5367878110906
 31
0.0
  0
LINE
  5
1B6
330
2
100
AcDbEntity
  8
0
  6
Continuous
 62
     7
100
AcDbLine
 10
76.98173378016452
 20
137.5367878110906
 30
0.0
 11
77.68173378016456
 21
137.5367878110905
 31
0.0
  0
LINE
  5
1B7
330
2
100
AcDbEntity
  8
0
  6
Continuous
 62
     7
100
AcDbLine
 10
76.98173378016452
 20
139.1367878110906
 30
0.0
 11
77.68173378016456
 21
139.1367878110906
 31
0.0
  0
LINE
  5
1B8
330
2
100
AcDbEntity
  8
0
  6
Continuous
 62
     7
100
AcDbLine
 10
77.68173378016462
 20
142.1367878110902
 30
0.0
 11
77.68173378016456
 21
132.8367878110906
 31
0.0
  0
LINE
  5
1B9
330
2
100
AcDbEntity
  8
0
  6
Continuous
 62
     7
100
AcDbLine
 10
87.9817337801645
 20
140.3367878110906
 30
0.0
 11
84.38173378016438
 21
140.3367878110906
 31
0.0
  0
LINE
  5
1BA
330
2
100
AcDbEntity
  8
0
  6
Continuous
 62
     7
100
AcDbLine
 10
82.98173378016452
 20
140.3367878110906
 30
0.0
 11
79.38173378016438
 21
140.3367878110906
 31
0.0
  0
LINE
  5
1BB
330
2
100
AcDbEntity
  8
0
  6
Continuous
 62
     7
100
AcDbLine
 10
82.98173378016452
 20
136.6435057151314
 30
0.0
 11
79.38173378016438
 21
136.6435057151314
 31
0.0
  0
LINE
  5
1BC
330
2
100
AcDbEntity
  8
0
  6
Continuous
 62
     7
100
AcDbLine
 10
82.98173378016452
 20
133.5657706351654
 30
0.0
 11
79.38173378016461
 21
133.5657706351654
 31
0.0
  0
LINE
  5
1BD
330
2
100
AcDbEntity
  8
0
  6
Continuous
 62
     7
100
AcDbLine
 10
82.98173378016452
 20
136.6435057151314
 30
0.0
 11
82.98173378016452
 21
133.5657706351654
 31
0.0
  0
LINE
  5
1BE
330
2
100
AcDbEntity
  8
0
  6
Continuous
 62
     7
100
AcDbLine
 10
79.38173378016438
 20
136.6435057151314
 30
0.0
 11
79.38173378016438
 21
133.5657706351654
 31
0.0
  0
LINE
  5
1BF
330
2
100
AcDbEntity
  8
0
  6
Continuous
 62
     7
100
AcDbLine
 10
82.98173378016452
 20
138.8321173275516
 30
0.0
 11
79.38173378016438
 21
138.8321173275516
 31
0.0
  0
LINE
  5
1C0
330
2
100
AcDbEntity
  8
0
  6
Continuous
 62
     7
100
AcDbLine
 10
82.98173378016452
 20
140.3367878110906
 30
0.0
 11
82.98173378016452
 21
138.8321173275516
 31
0.0
  0
LINE
  5
1C1
330
2
100
AcDbEntity
  8
0
  6
Continuous
 62
     7
100
AcDbLine
 10
79.38173378016438
 20
140.3367878110906
 30
0.0
 11
79.38173378016438
 21
138.8321173275516
 31
0.0
  0
LINE
  5
1C2
330
2
100
AcDbEntity
  8
0
  6
Continuous
 62
     7
100
AcDbLine
 10
87.9817337801645
 20
136.6435057151314
 30
0.0
 11
84.38173378016438
 21
136.6435057151314
 31
0.0
  0
LINE
  5
1C3
330
2
100
AcDbEntity
  8
0
  6
Continuous
 62
     7
100
AcDbLine
 10
87.9817337801645
 20
133.5657706351654
 30
0.0
 11
84.38173378016461
 21
133.5657706351654
 31
0.0
  0
LINE
  5
1C4
330
2
100
AcDbEntity
  8
0
  6
Continuous
 62
     7
100
AcDbLine
 10
87.9817337801645
 20
136.6435057151314
 30
0.0
 11
87.9817337801645
 21
133.5657706351654
 31
0.0
  0
LINE
  5
1C5
330
2
100
AcDbEntity
  8
0
  6
Continuous
 62
     7
100
AcDbLine
 10
84.38173378016438
 20
136.6435057151314
 30
0.0
 11
84.38173378016438
 21
133.5657706351654
 31
0.0
  0
LINE
  5
1C6
330
2
100
AcDbEntity
  8
0
  6
Continuous
 62
     7
100
AcDbLine
 10
87.9817337801645
 20
138.8321173275516
 30
0.0
 11
84.38173378016438
 21
138.8321173275516
 31
0.0
  0
LINE
  5
1C7
330
2
100
AcDbEntity
  8
0
  6
Continuous
 62
     7
100
AcDbLine
 10
87.9817337801645
 20
140.3367878110906
 30
0.0
 11
87.9817337801645
 21
138.8321173275516
 31
0.0
  0
LINE
  5
1C8
330
2
100
AcDbEntity
  8
0
  6
Continuous
 62
     7
100
AcDbLine
 10
84.38173378016438
 20
140.3367878110906
 30
0.0
 11
84.38173378016438
 21
138.8321173275516
 31
0.0
  0
LINE
  5
1C9
330
2
100
AcDbEntity
  8
0
  6
Continuous
 62
     7
100
AcDbLine
 10
83.68173378016455
 20
142.1367878110902
 30
0.0
 11
83.68173378016455
 21
132.8367878110906
 31
0.0
  0
LINE
  5
1CA
330
2
100
AcDbEntity
  8
0
  6
Continuous
 62
     7
100
AcDbLine
 10
78.68173378016456
 20
142.1367878110902
 30
0.0
 11
78.68173378016456
 21
132.8367878110906
 31
0.0
  0
LINE
  5
1CB
330
2
100
AcDbEntity
  8
0
  6
Continuous
 62
     7
100
AcDbLine
 10
206.3817337801649
 20
241.1367878110906
 30
0.0
 11
68.98173378016491
 21
241.1367878110906
 31
0.0
  0
ARC
  5
1CC
330
2
100
AcDbEntity
  8
0
  6
Continuous
 62
     7
100
AcDbCircle
 10
335.1136487559772
 20
240.1367878110906
 30
0.0
 40
1.0
100
AcDbArc
 50
0.0
 51
90.0
  0
LINE
  5
1CD
330
2
100
AcDbEntity
  8
0
  6
Continuous
 62
     7
100
AcDbLine
 10
335.1136487559772
 20
241.1367878110906
 30
0.0
 11
290.6136487559768
 21
241.1367878110906
 31
0.0
  0
LINE
  5
1CE
330
2
100
AcDbEntity
  8
0
  6
Continuous
 62
     7
100
AcDbLine
 10
77.68173378016456
 20
57.85866914056121
 30
0.0
 11
77.68173378016456
 21
66.45866914056128
 31
0.0
  0
LINE
  5
1CF
330
2
100
AcDbEntity
  8
0
  6
Continuous
 62
     7
100
AcDbLine
 10
76.98173378016452
 20
62.75866914056122
 30
0.0
 11
77.68173378016456
 21
62.75866914056122
 31
0.0
  0
LINE
  5
1D0
330
2
100
AcDbEntity
  8
0
  6
Continuous
 62
     7
100
AcDbLine
 10
76.98173378016452
 20
61.15866914056121
 30
0.0
 11
77.68173378016456
 21
61.15866914056121
 31
0.0
  0
LINE
  5
1D1
330
2
100
AcDbEntity
  8
0
  6
Continuous
 62
     7
100
AcDbLine
 10
76.98173378016452
 20
62.75866914056122
 30
0.0
 11
76.98173378016452
 21
61.15866914056121
 31
0.0
  0
LINE
  5
1D2
330
2
100
AcDbEntity
  8
0
  6
Continuous
 62
     7
100
AcDbLine
 10
84.38173378016438
 20
59.23866914056126
 30
0.0
 11
87.9817337801645
 21
59.23866914056126
 31
0.0
  0
LINE
  5
1D3
330
2
100
AcDbEntity
  8
0
  6
Continuous
 62
     7
100
AcDbLine
 10
78.68173378016456
 20
57.85866914056121
 30
0.0
 11
78.68173378016456
 21
66.45866914056128
 31
0.0
  0
LINE
  5
1D4
330
2
100
AcDbEntity
  8
0
  6
Continuous
 62
     7
100
AcDbLine
 10
83.68173378016455
 20
57.85866914056121
 30
0.0
 11
83.68173378016455
 21
66.45866914056128
 31
0.0
  0
LINE
  5
1D5
330
2
100
AcDbEntity
  8
0
  6
Continuous
 62
     7
100
AcDbLine
 10
78.68173378016456
 20
66.45866914056128
 30
0.0
 11
83.68173378016455
 21
66.45866914056128
 31
0.0
  0
LINE
  5
1D6
330
2
100
AcDbEntity
  8
0
  6
Continuous
 62
     7
100
AcDbLine
 10
78.68173378016456
 20
58.45866914056128
 30
0.0
 11
83.68173378016455
 21
58.45866914056128
 31
0.0
  0
LINE
  5
1D7
330
2
100
AcDbEntity
  8
0
  6
Continuous
 62
     7
100
AcDbLine
 10
83.68173378016459
 20
57.85866914056121
 30
0.0
 11
83.68173378016455
 21
66.45866914056128
 31
0.0
  0
LINE
  5
1D8
330
2
100
AcDbEntity
  8
0
  6
Continuous
 62
     7
100
AcDbLine
 10
87.9817337801645
 20
62.51866914056122
 30
0.0
 11
87.9817337801645
 21
59.23866914056126
 31
0.0
  0
LINE
  5
1D9
330
2
100
AcDbEntity
  8
0
  6
Continuous
 62
     7
100
AcDbLine
 10
84.38173378016461
 20
62.51866914056122
 30
0.0
 11
84.38173378016438
 21
59.23866914056126
 31
0.0
  0
LINE
  5
1DA
330
2
100
AcDbEntity
  8
0
  6
Continuous
 62
     7
100
AcDbLine
 10
84.38173378016461
 20
62.51866914056122
 30
0.0
 11
87.9817337801645
 21
62.51866914056122
 31
0.0
  0
LINE
  5
1DB
330
2
100
AcDbEntity
  8
0
  6
Continuous
 62
     7
100
AcDbLine
 10
84.38173378016461
 20
64.85866914056126
 30
0.0
 11
84.38173378016438
 21
66.45866914056128
 31
0.0
  0
LINE
  5
1DC
330
2
100
AcDbEntity
  8
0
  6
Continuous
 62
     7
100
AcDbLine
 10
87.9817337801645
 20
64.85866914056126
 30
0.0
 11
87.9817337801645
 21
66.45866914056128
 31
0.0
  0
LINE
  5
1DD
330
2
100
AcDbEntity
  8
0
  6
Continuous
 62
     7
100
AcDbLine
 10
84.38173378016461
 20
64.85866914056126
 30
0.0
 11
87.9817337801645
 21
64.85866914056126
 31
0.0
  0
LINE
  5
1DE
330
2
100
AcDbEntity
  8
0
  6
Continuous
 62
     7
100
AcDbLine
 10
82.98173378016452
 20
62.51866914056122
 30
0.0
 11
82.98173378016452
 21
59.23866914056126
 31
0.0
  0
LINE
  5
1DF
330
2
100
AcDbEntity
  8
0
  6
Continuous
 62
     7
100
AcDbLine
 10
79.38173378016461
 20
62.51866914056122
 30
0.0
 11
79.38173378016438
 21
59.23866914056126
 31
0.0
  0
LINE
  5
1E0
330
2
100
AcDbEntity
  8
0
  6
Continuous
 62
     7
100
AcDbLine
 10
79.38173378016461
 20
62.51866914056122
 30
0.0
 11
82.98173378016452
 21
62.51866914056122
 31
0.0
  0
LINE
  5
1E1
330
2
100
AcDbEntity
  8
0
  6
Continuous
 62
     7
100
AcDbLine
 10
79.38173378016438
 20
59.23866914056126
 30
0.0
 11
82.98173378016452
 21
59.23866914056126
 31
0.0
  0
LINE
  5
1E2
330
2
100
AcDbEntity
  8
0
  6
Continuous
 62
     7
100
AcDbLine
 10
79.38173378016461
 20
64.85866914056126
 30
0.0
 11
79.38173378016438
 21
66.45866914056128
 31
0.0
  0
LINE
  5
1E3
330
2
100
AcDbEntity
  8
0
  6
Continuous
 62
     7
100
AcDbLine
 10
82.98173378016452
 20
64.85866914056126
 30
0.0
 11
82.98173378016452
 21
66.45866914056128
 31
0.0
  0
LINE
  5
1E4
330
2
100
AcDbEntity
  8
0
  6
Continuous
 62
     7
100
AcDbLine
 10
79.38173378016461
 20
64.85866914056126
 30
0.0
 11
82.98173378016452
 21
64.85866914056126
 31
0.0
  0
LINE
  5
1E5
330
2
100
AcDbEntity
  8
0
  6
Continuous
 62
     7
100
AcDbLine
 10
289.6136487559768
 20
240.1367878110906
 30
0.0
 11
289.6136487559774
 21
143.1367878110903
 31
0.0
  0
LINE
  5
1E6
330
2
100
AcDbEntity
  8
0
  6
Continuous
 62
     7
100
AcDbLine
 10
132.6817337801645
 20
125.1067878110906
 30
0.0
 11
142.6817337801645
 21
125.1067878110906
 31
0.0
  0
LINE
  5
1E7
330
2
100
AcDbEntity
  8
0
  6
Continuous
 62
     7
100
AcDbLine
 10
133.6817337801644
 20
129.1067878110906
 30
0.0
 11
135.6817337801645
 21
129.1067878110906
 31
0.0
  0
LINE
  5
1E8
330
2
100
AcDbEntity
  8
0
  6
Continuous
 62
     7
100
AcDbLine
 10
133.6817337801645
 20
131.1067878110906
 30
0.0
 11
133.6817337801644
 21
129.1067878110906
 31
0.0
  0
LINE
  5
1E9
330
2
100
AcDbEntity
  8
0
  6
Continuous
 62
     7
100
AcDbLine
 10
141.6817337801646
 20
131.1067878110906
 30
0.0
 11
141.6817337801644
 21
129.1067878110906
 31
0.0
  0
ARC
  5
1EA
330
2
100
AcDbEntity
  8
0
  6
Continuous
 62
     7
100
AcDbCircle
 10
137.6817337801645
 20
128.6067878110906
 30
0.0
 40
2.0
100
AcDbArc
 50
180.0
 51
0.0
  0
LINE
  5
1EB
330
2
100
AcDbEntity
  8
0
  6
Continuous
 62
     7
100
AcDbLine
 10
135.6817337801645
 20
128.6067878110906
 30
0.0
 11
135.6817337801645
 21
129.1067878110906
 31
0.0
  0
LINE
  5
1EC
330
2
100
AcDbEntity
  8
0
  6
Continuous
 62
     7
100
AcDbLine
 10
139.6817337801645
 20
128.6067878110906
 30
0.0
 11
139.6817337801644
 21
129.1067878110906
 31
0.0
  0
LINE
  5
1ED
330
2
100
AcDbEntity
  8
0
  6
Continuous
 62
     7
100
AcDbLine
 10
139.6817337801644
 20
129.1067878110906
 30
0.0
 11
141.6817337801644
 21
129.1067878110906
 31
0.0
  0
LINE
  5
1EE
330
2
100
AcDbEntity
  8
0
  6
Continuous
 62
     7
100
AcDbLine
 10
130.6817337801645
 20
127.1067878110906
 30
0.0
 11
132.6817337801645
 21
125.1067878110906
 31
0.0
  0
LINE
  5
1EF
330
2
100
AcDbEntity
  8
0
  6
Continuous
 62
     7
100
AcDbLine
 10
142.6817337801645
 20
125.1067878110906
 30
0.0
 11
144.6817337801645
 21
127.1067878110906
 31
0.0
  0
LINE
  5
1F0
330
2
100
AcDbEntity
  8
0
  6
Continuous
 62
     7
100
AcDbLine
 10
133.6817337801645
 20
131.1067878110906
 30
0.0
 11
141.6817337801646
 21
131.1067878110906
 31
0.0
  0
LINE
  5
1F1
330
2
100
AcDbEntity
  8
0
  6
Continuous
 62
     7
100
AcDbLine
 10
337.6136487559772
 20
133.1367878110906
 30
0.0
 11
337.1136487559772
 21
133.1367878110906
 31
0.0
  0
LINE
  5
1F2
330
2
100
AcDbEntity
  8
0
  6
Continuous
 62
     7
100
AcDbLine
 10
337.6136487559772
 20
139.1367878110906
 30
0.0
 11
337.1136487559772
 21
139.1367878110906
 31
0.0
  0
LINE
  5
1F3
330
2
100
AcDbEntity
  8
0
  6
Continuous
 62
     7
100
AcDbLine
 10
336.1136487559772
 20
127.1367878110905
 30
0.0
 11
337.1136487559772
 21
127.1367878110905
 31
0.0
  0
LINE
  5
1F4
330
2
100
AcDbEntity
  8
0
  6
Continuous
 62
     7
100
AcDbLine
 10
337.1136487559772
 20
125.1367878110905
 30
0.0
 11
336.1136487559772
 21
125.1367878110905
 31
0.0
  0
LINE
  5
1F5
330
2
100
AcDbEntity
  8
0
  6
CENTER
 62
     4
100
AcDbLine
 10
137.6817337801647
 20
246.5593019374039
 30
0.0
 11
137.6817337801647
 21
122.5137765788725
 31
0.0
  0
LINE
  5
1F6
330
2
100
AcDbEntity
  8
0
  6
Continuous
 62
     7
100
AcDbLine
 10
67.68173378016462
 20
57.85866914056118
 30
0.0
 11
67.68173378016456
 21
38.85866914056141
 31
0.0
  0
LINE
  5
1F7
330
2
100
AcDbEntity
  8
0
  6
Continuous
 62
     7
100
AcDbLine
 10
68.48173378016465
 20
43.8586691405614
 30
0.0
 11
68.48173378016465
 21
38.85866914056163
 31
0.0
  0
LINE
  5
1F8
330
2
100
AcDbEntity
  8
0
  6
Continuous
 62
     7
100
AcDbLine
 10
67.68173378016456
 20
38.85866914056141
 30
0.0
 11
68.48173378016465
 21
38.85866914056141
 31
0.0
  0
LINE
  5
1F9
330
2
100
AcDbEntity
  8
0
  6
Continuous
 62
     7
100
AcDbLine
 10
67.6817337801649
 20
240.1367878110906
 30
0.0
 11
67.6817337801649
 21
143.6367878110902
 31
0.0
  0
LINE
  5
1FA
330
2
100
AcDbEntity
  8
0
  6
Continuous
 62
     7
100
AcDbLine
 10
207.6817337801649
 20
240.1367878110906
 30
0.0
 11
207.6817337801649
 21
143.6367878110904
 31
0.0
  0
LINE
  5
1FB
330
2
100
AcDbEntity
  8
0
  6
Continuous
 62
     7
100
AcDbLine
 10
68.6817337801649
 20
241.1367878110906
 30
0.0
 11
206.6817337801649
 21
241.1367878110906
 31
0.0
  0
LINE
  5
1FC
330
2
100
AcDbEntity
  8
0
  6
Continuous
 62
     7
100
AcDbLine
 10
68.6817337801649
 20
131.1367878110906
 30
0.0
 11
206.6817337801648
 21
131.1367878110906
 31
0.0
  0
ARC
  5
1FD
330
2
100
AcDbEntity
  8
0
  6
Continuous
 62
     7
100
AcDbCircle
 10
68.6817337801649
 20
240.1367878110906
 30
0.0
 40
1.0
100
AcDbArc
 50
90.0
 51
180.0
  0
ARC
  5
1FE
330
2
100
AcDbEntity
  8
0
  6
Continuous
 62
     7
100
AcDbCircle
 10
206.6817337801649
 20
240.1367878110906
 30
0.0
 40
1.0
100
AcDbArc
 50
0.0
 51
90.0
  0
ARC
  5
1FF
330
2
100
AcDbEntity
  8
0
  6
Continuous
 62
     7
100
AcDbCircle
 10
206.6817337801648
 20
132.1367878110906
 30
0.0
 40
1.0
100
AcDbArc
 50
270.0
 51
0.0
  0
ARC
  5
200
330
2
100
AcDbEntity
  8
0
  6
Continuous
 62
     7
100
AcDbCircle
 10
68.6817337801649
 20
132.1367878110906
 30
0.0
 40
1.0
100
AcDbArc
 50
180.0
 51
270.0
  0
ARC
  5
201
330
2
100
AcDbEntity
  8
0
  6
Continuous
 62
     7
100
AcDbCircle
 10
173.6817337801644
 20
67.35866914056142
 30
0.0
 40
7.5
100
AcDbArc
 50
0.0
 51
180.0
  0
LINE
  5
202
330
2
100
AcDbEntity
  8
0
  6
Continuous
 62
     7
100
AcDbLine
 10
134.6817337801646
 20
37.85866914056138
 30
0.0
 11
134.6817337801647
 21
37.35866914056135
 31
0.0
  0
LINE
  5
203
330
2
100
AcDbEntity
  8
0
  6
Continuous
 62
     7
100
AcDbLine
 10
140.6817337801647
 20
37.85866914056136
 30
0.0
 11
140.6817337801647
 21
37.35866914056135
 31
0.0
  0
LINE
  5
204
330
2
100
AcDbEntity
  8
0
  6
Continuous
 62
     7
100
AcDbLine
 10
134.6817337801647
 20
37.35866914056135
 30
0.0
 11
140.6817337801647
 21
37.35866914056135
 31
0.0
  0
LINE
  5
205
330
2
100
AcDbEntity
  8
0
  6
Continuous
 62
     7
100
AcDbLine
 10
316.1136487559775
 20
141.1367878110904
 30
0.0
 11
316.1136487559775
 21
132.1367878110905
 31
0.0
  0
LINE
  5
206
330
2
100
AcDbEntity
  8
0
  6
Continuous
 62
     7
100
AcDbLine
 10
76.48173378016437
 20
142.1367878110902
 30
0.0
 11
76.48173378016441
 21
131.1367878110905
 31
0.0
  0
LINE
  5
207
330
2
100
AcDbEntity
  8
0
  6
Continuous
 62
     7
100
AcDbLine
 10
139.7817337801644
 20
142.1367878110903
 30
0.0
 11
139.7817337801644
 21
131.1367878110906
 31
0.0
  0
LINE
  5
208
330
2
100
AcDbEntity
  8
0
  6
Continuous
 62
     7
100
AcDbLine
 10
76.48173378016441
 20
67.45866914056121
 30
0.0
 11
76.48173378016441
 21
57.85866914056121
 31
0.0
  0
LINE
  5
209
330
2
100
AcDbEntity
  8
0
  6
Continuous
 62
     7
100
AcDbLine
 10
139.7817337801644
 20
67.45866914056136
 30
0.0
 11
139.7817337801644
 21
57.85866914056136
 31
0.0
  0
LINE
  5
20A
330
2
100
AcDbEntity
  8
0
  6
Continuous
 62
     7
100
AcDbLine
 10
68.68173378016473
 20
85.35866914056123
 30
0.0
 11
206.6817337801646
 21
85.35866914056152
 31
0.0
  0
LINE
  5
20B
330
2
100
AcDbEntity
  8
0
  6
Continuous
 62
     7
100
AcDbLine
 10
68.6817337801649
 20
142.1367878110902
 30
0.0
 11
206.6817337801648
 21
142.1367878110904
 31
0.0
  0
LINE
  5
20C
330
2
100
AcDbEntity
  8
0
  6
Continuous
 62
     7
100
AcDbLine
 10
290.6136487559773
 20
142.1367878110903
 30
0.0
 11
315.1136487559775
 21
142.1367878110904
 31
0.0
  0
LINE
  5
20D
330
2
100
AcDbEntity
  8
0
  6
CENTER
 62
     4
100
AcDbLine
 10
307.6136487559771
 20
146.2150574893714
 30
0.0
 11
307.6136487559768
 21
135.2073977996134
 31
0.0
  0
LINE
  5
20E
330
2
100
AcDbEntity
  8
0
  6
CENTER
 62
     4
100
AcDbLine
 10
137.6817337801647
 20
101.0146699259128
 30
0.0
 11
137.6817337801647
 21
26.59270766672285
 31
0.0
  0
LINE
  5
20F
330
2
100
AcDbEntity
  8
0
  6
Continuous
 62
     7
100
AcDbLine
 10
68.98173378016469
 20
43.8586691405614
 30
0.0
 11
68.98173378016463
 21
38.85866914056141
 31
0.0
  0
LINE
  5
210
330
2
100
AcDbEntity
  8
0
  6
Continuous
 62
     7
100
AcDbLine
 10
206.3817337801647
 20
43.8586691405614
 30
0.0
 11
206.3817337801646
 21
38.85866914056141
 31
0.0
  0
LINE
  5
211
330
2
100
AcDbEntity
  8
0
  6
Continuous
 62
     7
100
AcDbLine
 10
76.48173378016444
 20
131.9367878110906
 30
0.0
 11
139.7817337801644
 21
131.9367878110906
 31
0.0
  0
ARC
  5
212
330
2
100
AcDbEntity
  8
0
  6
Continuous
 62
     7
100
AcDbCircle
 10
290.6136487559773
 20
143.1367878110903
 30
0.0
 40
1.0
100
AcDbArc
 50
180.0
 51
270.0
  0
ARC
  5
213
330
2
100
AcDbEntity
  8
0
  6
Continuous
 62
     7
100
AcDbCircle
 10
315.1136487559775
 20
141.1367878110904
 30
0.0
 40
1.0
100
AcDbArc
 50
0.0000000000004071
 51
90.0
  0
ARC
  5
214
330
2
100
AcDbEntity
  8
0
  6
Continuous
 62
     7
100
AcDbCircle
 10
317.1136487559775
 20
132.1367878110905
 30
0.0
 40
1.0
100
AcDbArc
 50
180.0000000000004
 51
270.0
  0
ARC
  5
215
330
2
100
AcDbEntity
  8
0
  6
Continuous
 62
     7
100
AcDbCircle
 10
206.6817337801648
 20
143.1367878110904
 30
0.0
 40
1.0
100
AcDbArc
 50
270.0
 51
0.0
  0
LINE
  5
216
330
2
100
AcDbEntity
  8
0
  6
Continuous
 62
     7
100
AcDbLine
 10
207.6817337801649
 20
143.6367878110904
 30
0.0
 11
207.6817337801648
 21
132.1367878110906
 31
0.0
  0
ARC
  5
217
330
2
100
AcDbEntity
  8
0
  6
Continuous
 62
     7
100
AcDbCircle
 10
68.6817337801649
 20
143.1367878110902
 30
0.0
 40
1.0
100
AcDbArc
 50
180.0
 51
270.0
  0
LINE
  5
218
330
2
100
AcDbEntity
  8
0
  6
Continuous
 62
     7
100
AcDbLine
 10
67.6817337801649
 20
143.6367878110902
 30
0.0
 11
67.6817337801649
 21
132.1367878110906
 31
0.0
  0
ARC
  5
219
330
2
100
AcDbEntity
  8
0
  6
Continuous
 62
     7
100
AcDbCircle
 10
68.68173378016473
 20
84.35866914056123
 30
0.0
 40
1.0
100
AcDbArc
 50
90.0
 51
179.9999999999996
  0
ARC
  5
21A
330
2
100
AcDbEntity
  8
0
  6
Continuous
 62
     7
100
AcDbCircle
 10
206.6817337801646
 20
84.35866914056152
 30
0.0
 40
1.0
100
AcDbArc
 50
0.0
 51
90.0
  0
LINE
  5
21B
330
2
100
AcDbEntity
  8
0
  6
Continuous
 62
     7
100
AcDbLine
 10
67.68173378016462
 20
57.85866914056118
 30
0.0
 11
67.68173378016474
 21
84.35866914056123
 31
0.0
  0
LINE
  5
21C
330
2
100
AcDbEntity
  8
0
  6
Continuous
 62
     7
100
AcDbLine
 10
207.6817337801646
 20
57.85866914056146
 30
0.0
 11
207.6817337801645
 21
84.35866914056152
 31
0.0
  0
LINE
  5
21D
330
2
100
AcDbEntity
  8
0
  6
Continuous
 62
     7
100
AcDbLine
 10
169.0317337801646
 20
72.00866914056139
 30
0.0
 11
169.9067337801646
 21
72.00866914056139
 31
0.0
  0
LINE
  5
21E
330
2
100
AcDbEntity
  8
0
  6
Continuous
 62
     7
100
AcDbLine
 10
169.0317337801646
 20
72.70866914056139
 30
0.0
 11
169.9067337801646
 21
72.70866914056139
 31
0.0
  0
LINE
  5
21F
330
2
100
AcDbEntity
  8
0
  6
Continuous
 62
     7
100
AcDbLine
 10
169.0317337801646
 20
72.70866914056139
 30
0.0
 11
169.0317337801646
 21
73.24318271434136
 31
0.0
  0
LINE
  5
220
330
2
100
AcDbEntity
  8
0
  6
Continuous
 62
     7
100
AcDbLine
 10
169.0317337801646
 20
71.13366914056141
 30
0.0
 11
169.0317337801646
 21
72.00866914056139
 31
0.0
  0
LINE
  5
221
330
2
100
AcDbEntity
  8
0
  6
Continuous
 62
     7
100
AcDbLine
 10
168.3317337801646
 20
71.13366914056141
 30
0.0
 11
168.3317337801646
 21
72.00866914056139
 31
0.0
  0
LINE
  5
222
330
2
100
AcDbEntity
  8
0
  6
Continuous
 62
     7
100
AcDbLine
 10
167.7972202063846
 20
72.00866914056139
 30
0.0
 11
168.3317337801646
 21
72.00866914056139
 31
0.0
  0
LINE
  5
223
330
2
100
AcDbEntity
  8
0
  6
Continuous
 62
     7
100
AcDbLine
 10
169.9067337801646
 20
72.70866914056139
 30
0.0
 11
169.9067337801646
 21
72.00866914056139
 31
0.0
  0
LINE
  5
224
330
2
100
AcDbEntity
  8
0
  6
Continuous
 62
     7
100
AcDbLine
 10
168.3317337801646
 20
71.13366914056141
 30
0.0
 11
169.0317337801646
 21
71.13366914056141
 31
0.0
  0
ARC
  5
225
330
2
100
AcDbEntity
  8
0
  6
Continuous
 62
     7
100
AcDbCircle
 10
168.6817337801645
 20
72.35866914056142
 30
0.0
 40
2.0
100
AcDbArc
 50
220.4373277998286
 51
49.56267220017075
  0
LINE
  5
226
330
2
100
AcDbEntity
  8
0
  6
Continuous
 62
     7
100
AcDbLine
 10
168.3317337801646
 20
61.1336691405614
 30
0.0
 11
169.0317337801646
 21
61.1336691405614
 31
0.0
  0
LINE
  5
227
330
2
100
AcDbEntity
  8
0
  6
Continuous
 62
     7
100
AcDbLine
 10
168.3317337801646
 20
63.58366914056138
 30
0.0
 11
169.0317337801646
 21
63.58366914056138
 31
0.0
  0
LINE
  5
228
330
2
100
AcDbEntity
  8
0
  6
Continuous
 62
     7
100
AcDbLine
 10
168.3317337801646
 20
61.1336691405614
 30
0.0
 11
168.3317337801646
 21
62.00866914056138
 31
0.0
  0
LINE
  5
229
330
2
100
AcDbEntity
  8
0
  6
Continuous
 62
     7
100
AcDbLine
 10
169.0317337801646
 20
61.1336691405614
 30
0.0
 11
169.0317337801646
 21
62.00866914056138
 31
0.0
  0
LINE
  5
22A
330
2
100
AcDbEntity
  8
0
  6
Continuous
 62
     7
100
AcDbLine
 10
168.3317337801646
 20
62.70866914056139
 30
0.0
 11
168.3317337801646
 21
63.58366914056138
 31
0.0
  0
LINE
  5
22B
330
2
100
AcDbEntity
  8
0
  6
Continuous
 62
     7
100
AcDbLine
 10
169.0317337801646
 20
62.70866914056139
 30
0.0
 11
169.0317337801646
 21
63.58366914056138
 31
0.0
  0
LINE
  5
22C
330
2
100
AcDbEntity
  8
0
  6
Continuous
 62
     7
100
AcDbLine
 10
167.4567337801646
 20
62.70866914056139
 30
0.0
 11
167.4567337801646
 21
62.00866914056138
 31
0.0
  0
LINE
  5
22D
330
2
100
AcDbEntity
  8
0
  6
Continuous
 62
     7
100
AcDbLine
 10
169.9067337801646
 20
62.70866914056139
 30
0.0
 11
169.9067337801646
 21
62.00866914056138
 31
0.0
  0
LINE
  5
22E
330
2
100
AcDbEntity
  8
0
  6
Continuous
 62
     7
100
AcDbLine
 10
167.4567337801646
 20
62.00866914056138
 30
0.0
 11
168.3317337801646
 21
62.00866914056138
 31
0.0
  0
LINE
  5
22F
330
2
100
AcDbEntity
  8
0
  6
Continuous
 62
     7
100
AcDbLine
 10
167.4567337801646
 20
62.70866914056139
 30
0.0
 11
168.3317337801646
 21
62.70866914056139
 31
0.0
  0
LINE
  5
230
330
2
100
AcDbEntity
  8
0
  6
Continuous
 62
     7
100
AcDbLine
 10
169.0317337801646
 20
62.70866914056139
 30
0.0
 11
169.9067337801646
 21
62.70866914056139
 31
0.0
  0
LINE
  5
231
330
2
100
AcDbEntity
  8
0
  6
Continuous
 62
     7
100
AcDbLine
 10
169.0317337801646
 20
62.00866914056138
 30
0.0
 11
169.9067337801646
 21
62.00866914056138
 31
0.0
  0
CIRCLE
  5
232
330
2
100
AcDbEntity
  8
0
  6
Continuous
 62
     7
100
AcDbCircle
 10
168.6817337801645
 20
62.35866914056142
 30
0.0
 40
2.0
  0
LINE
  5
233
330
2
100
AcDbEntity
  8
0
  6
Continuous
 62
     7
100
AcDbLine
 10
178.3317337801646
 20
71.13366914056141
 30
0.0
 11
179.0317337801646
 21
71.13366914056141
 31
0.0
  0
LINE
  5
234
330
2
100
AcDbEntity
  8
0
  6
Continuous
 62
     7
100
AcDbLine
 10
178.3317337801646
 20
71.13366914056141
 30
0.0
 11
178.3317337801646
 21
72.00866914056139
 31
0.0
  0
LINE
  5
235
330
2
100
AcDbEntity
  8
0
  6
Continuous
 62
     7
100
AcDbLine
 10
179.0317337801646
 20
71.13366914056141
 30
0.0
 11
179.0317337801646
 21
72.00866914056139
 31
0.0
  0
LINE
  5
236
330
2
100
AcDbEntity
  8
0
  6
Continuous
 62
     7
100
AcDbLine
 10
178.3317337801646
 20
72.70866914056139
 30
0.0
 11
178.3317337801646
 21
73.2431827143413
 31
0.0
  0
LINE
  5
237
330
2
100
AcDbEntity
  8
0
  6
Continuous
 62
     7
100
AcDbLine
 10
177.4567337801646
 20
72.70866914056139
 30
0.0
 11
177.4567337801646
 21
72.00866914056139
 31
0.0
  0
LINE
  5
238
330
2
100
AcDbEntity
  8
0
  6
Continuous
 62
     7
100
AcDbLine
 10
177.4567337801646
 20
72.00866914056139
 30
0.0
 11
178.3317337801646
 21
72.00866914056139
 31
0.0
  0
LINE
  5
239
330
2
100
AcDbEntity
  8
0
  6
Continuous
 62
     7
100
AcDbLine
 10
177.4567337801646
 20
72.70866914056139
 30
0.0
 11
178.3317337801646
 21
72.70866914056139
 31
0.0
  0
LINE
  5
23A
330
2
100
AcDbEntity
  8
0
  6
Continuous
 62
     7
100
AcDbLine
 10
179.0317337801646
 20
72.00866914056139
 30
0.0
 11
179.5662473539445
 21
72.00866914056139
 31
0.0
  0
ARC
  5
23B
330
2
100
AcDbEntity
  8
0
  6
Continuous
 62
     7
100
AcDbCircle
 10
178.6817337801644
 20
72.35866914056142
 30
0.0
 40
2.0
100
AcDbArc
 50
130.4373277998292
 51
319.5626722001703
  0
LINE
  5
23C
330
2
100
AcDbEntity
  8
0
  6
Continuous
 62
     7
100
AcDbLine
 10
178.3317337801646
 20
61.1336691405614
 30
0.0
 11
179.0317337801646
 21
61.1336691405614
 31
0.0
  0
LINE
  5
23D
330
2
100
AcDbEntity
  8
0
  6
Continuous
 62
     7
100
AcDbLine
 10
178.3317337801646
 20
63.58366914056138
 30
0.0
 11
179.0317337801646
 21
63.58366914056138
 31
0.0
  0
LINE
  5
23E
330
2
100
AcDbEntity
  8
0
  6
Continuous
 62
     7
100
AcDbLine
 10
178.3317337801646
 20
61.1336691405614
 30
0.0
 11
178.3317337801646
 21
62.00866914056138
 31
0.0
  0
LINE
  5
23F
330
2
100
AcDbEntity
  8
0
  6
Continuous
 62
     7
100
AcDbLine
 10
179.0317337801646
 20
61.1336691405614
 30
0.0
 11
179.0317337801646
 21
62.00866914056138
 31
0.0
  0
LINE
  5
240
330
2
100
AcDbEntity
  8
0
  6
Continuous
 62
     7
100
AcDbLine
 10
178.3317337801646
 20
62.70866914056139
 30
0.0
 11
178.3317337801646
 21
63.58366914056138
 31
0.0
  0
LINE
  5
241
330
2
100
AcDbEntity
  8
0
  6
Continuous
 62
     7
100
AcDbLine
 10
179.0317337801646
 20
62.70866914056139
 30
0.0
 11
179.0317337801646
 21
63.58366914056138
 31
0.0
  0
LINE
  5
242
330
2
100
AcDbEntity
  8
0
  6
Continuous
 62
     7
100
AcDbLine
 10
177.4567337801646
 20
62.70866914056139
 30
0.0
 11
177.4567337801646
 21
62.00866914056138
 31
0.0
  0
LINE
  5
243
330
2
100
AcDbEntity
  8
0
  6
Continuous
 62
     7
100
AcDbLine
 10
179.9067337801646
 20
62.70866914056139
 30
0.0
 11
179.9067337801646
 21
62.00866914056138
 31
0.0
  0
LINE
  5
244
330
2
100
AcDbEntity
  8
0
  6
Continuous
 62
     7
100
AcDbLine
 10
177.4567337801646
 20
62.00866914056138
 30
0.0
 11
178.3317337801646
 21
62.00866914056138
 31
0.0
  0
LINE
  5
245
330
2
100
AcDbEntity
  8
0
  6
Continuous
 62
     7
100
AcDbLine
 10
177.4567337801646
 20
62.70866914056139
 30
0.0
 11
178.3317337801646
 21
62.70866914056139
 31
0.0
  0
LINE
  5
246
330
2
100
AcDbEntity
  8
0
  6
Continuous
 62
     7
100
AcDbLine
 10
179.0317337801646
 20
62.70866914056139
 30
0.0
 11
179.9067337801646
 21
62.70866914056139
 31
0.0
  0
LINE
  5
247
330
2
100
AcDbEntity
  8
0
  6
Continuous
 62
     7
100
AcDbLine
 10
179.0317337801646
 20
62.00866914056138
 30
0.0
 11
179.9067337801646
 21
62.00866914056138
 31
0.0
  0
CIRCLE
  5
248
330
2
100
AcDbEntity
  8
0
  6
Continuous
 62
     7
100
AcDbCircle
 10
178.6817337801644
 20
62.35866914056142
 30
0.0
 40
2.0
  0
LINE
  5
249
330
2
100
AcDbEntity
  8
0
  6
Continuous
 62
     7
100
AcDbLine
 10
76.48173378016441
 20
67.45866914056121
 30
0.0
 11
139.7817337801644
 21
67.45866914056136
 31
0.0
  0
ARC
  5
24A
330
2
100
AcDbEntity
  8
0
  6
Continuous
 62
     7
100
AcDbCircle
 10
290.6136487559768
 20
240.1367878110906
 30
0.0
 40
1.0
100
AcDbArc
 50
90.0
 51
180.0000000000004
  0
ARC
  5
24B
330
2
100
AcDbEntity
  8
0
  6
Continuous
 62
     7
100
AcDbCircle
 10
173.6817337801644
 20
67.35866914056142
 30
0.0
 40
7.5
100
AcDbArc
 50
0.0
 51
180.0
  0
LINE
  5
24C
330
2
100
AcDbEntity
  8
0
  6
Continuous
 62
     7
100
AcDbLine
 10
181.1817337801645
 20
67.35866914056142
 30
0.0
 11
181.1817337801645
 21
58.85866914056141
 31
0.0
  0
LINE
  5
24D
330
2
100
AcDbEntity
  8
0
  6
Continuous
 62
     7
100
AcDbLine
 10
166.1817337801645
 20
67.35866914056142
 30
0.0
 11
166.1817337801645
 21
58.85866914056139
 31
0.0
  0
LINE
  5
24E
330
2
100
AcDbEntity
  8
0
  6
Continuous
 62
     7
100
AcDbLine
 10
316.1136487559775
 20
141.1367878110904
 30
0.0
 11
316.1136487559775
 21
132.1367878110905
 31
0.0
  0
LINE
  5
24F
330
2
100
AcDbEntity
  8
0
  6
Continuous
 62
     7
100
AcDbLine
 10
139.7817337801643
 20
58.85866914056133
 30
0.0
 11
206.6817337801646
 21
58.85866914056146
 31
0.0
  0
LINE
  5
250
330
2
100
AcDbEntity
  8
0
  6
Continuous
 62
     7
100
AcDbLine
 10
76.48173378016441
 20
57.85866914056121
 30
0.0
 11
139.7817337801644
 21
57.85866914056136
 31
0.0
  0
ARC
  5
251
330
2
100
AcDbEntity
  8
0
  6
Continuous
 62
     7
100
AcDbCircle
 10
206.6817337801646
 20
57.85866914056146
 30
0.0
 40
1.0
100
AcDbArc
 50
0.0
 51
90.0
  0
ARC
  5
252
330
2
100
AcDbEntity
  8
0
  6
Continuous
 62
     7
100
AcDbCircle
 10
68.68173378016462
 20
57.85866914056118
 30
0.0
 40
1.0
100
AcDbArc
 50
90.0
 51
179.9999999999996
  0
LINE
  5
253
330
2
100
AcDbEntity
  8
0
  6
Continuous
 62
     7
100
AcDbLine
 10
68.68173378016462
 20
58.85866914056117
 30
0.0
 11
76.48173378016441
 21
58.85866914056123
 31
0.0
  0
LINE
  5
254
330
2
100
AcDbEntity
  8
0
  6
Continuous
 62
     7
100
AcDbLine
 10
206.8817337801645
 20
43.8586691405615
 30
0.0
 11
206.8817337801645
 21
38.85866914056157
 31
0.0
  0
LINE
  5
255
330
2
100
AcDbEntity
  8
0
  6
CENTER
 62
     4
100
AcDbLine
 10
173.6817337801646
 20
148.1272000811816
 30
0.0
 11
173.6817337801646
 21
135.4317479426679
 31
0.0
  0
LINE
  5
256
330
2
100
AcDbEntity
  8
0
  6
Continuous
 62
     7
100
AcDbLine
 10
342.6136487559771
 20
148.3867878110905
 30
0.0
 11
344.1136487559772
 21
148.3867878110906
 31
0.0
  0
LINE
  5
257
330
2
100
AcDbEntity
  8
0
  6
Continuous
 62
     7
100
AcDbLine
 10
342.6136487559771
 20
147.3867878110906
 30
0.0
 11
344.1136487559772
 21
147.3867878110906
 31
0.0
  0
LINE
  5
258
330
2
100
AcDbEntity
  8
0
  6
Continuous
 62
     7
100
AcDbLine
 10
141.5817337801646
 20
37.35866914056135
 30
0.0
 11
133.7817337801647
 21
37.35866914056135
 31
0.0
  0
LINE
  5
259
330
2
100
AcDbEntity
  8
0
  6
Continuous
 62
     7
100
AcDbLine
 10
133.7817337801647
 20
36.85866914056123
 30
0.0
 11
133.7817337801647
 21
37.35866914056135
 31
0.0
  0
LINE
  5
25A
330
2
100
AcDbEntity
  8
0
  6
Continuous
 62
     7
100
AcDbLine
 10
141.5817337801646
 20
36.85866914056135
 30
0.0
 11
133.7817337801647
 21
36.85866914056135
 31
0.0
  0
LINE
  5
25B
330
2
100
AcDbEntity
  8
0
  6
Continuous
 62
     7
100
AcDbLine
 10
141.5817337801646
 20
36.85866914056123
 30
0.0
 11
141.5817337801646
 21
37.35866914056135
 31
0.0
  0
LINE
  5
25C
330
2
100
AcDbEntity
  8
0
  6
Continuous
 62
     7
100
AcDbLine
 10
140.6317337801647
 20
36.35866914056123
 30
0.0
 11
140.6317337801647
 21
36.85866914056135
 31
0.0
  0
LINE
  5
25D
330
2
100
AcDbEntity
  8
0
  6
Continuous
 62
     7
100
AcDbLine
 10
134.7317337801647
 20
36.35866914056123
 30
0.0
 11
134.7317337801647
 21
36.85866914056135
 31
0.0
  0
ARC
  5
25E
330
2
100
AcDbEntity
  8
0
  6
Continuous
 62
     7
100
AcDbCircle
 10
137.6817337801647
 20
36.79200247389463
 30
0.0
 40
2.833333333333321
100
AcDbArc
 50
188.79741070999
 51
351.20258929001
  0
LINE
  5
25F
330
2
100
AcDbEntity
  8
0
  6
Continuous
 62
     7
100
AcDbLine
 10
137.4317337801647
 20
36.85866914056135
 30
0.0
 11
137.9317337801647
 21
36.35866914056136
 31
0.0
  0
ARC
  5
260
330
2
100
AcDbEntity
  8
0
  6
Continuous
 62
     7
100
AcDbCircle
 10
162.1817337801649
 20
225.6067878110907
 30
0.0
 40
1.0
100
AcDbArc
 50
0.0
 51
90.0
  0
ARC
  5
261
330
2
100
AcDbEntity
  8
0
  6
Continuous
 62
     7
100
AcDbCircle
 10
162.1817337801649
 20
171.1067878110906
 30
0.0
 40
1.0
100
AcDbArc
 50
270.0
 51
0.0
  0
ARC
  5
262
330
2
100
AcDbEntity
  8
0
  6
Continuous
 62
     7
100
AcDbCircle
 10
163.6817337801649
 20
169.6067878110906
 30
0.0
 40
1.0
100
AcDbArc
 50
270.0
 51
0.0
  0
LINE
  5
263
330
2
100
AcDbEntity
  8
0
  6
Continuous
 62
     7
100
AcDbLine
 10
163.1817337801649
 20
171.1067878110906
 30
0.0
 11
163.1817337801649
 21
225.6067878110907
 31
0.0
  0
LINE
  5
264
330
2
100
AcDbEntity
  8
0
  6
Continuous
 62
     7
100
AcDbLine
 10
164.6817337801649
 20
169.6067878110906
 30
0.0
 11
164.6817337801649
 21
227.1067878110907
 31
0.0
  0
ARC
  5
265
330
2
100
AcDbEntity
  8
0
  6
Continuous
 62
     7
100
AcDbCircle
 10
83.1817337801649
 20
225.6067878110907
 30
0.0
 40
1.0
100
AcDbArc
 50
90.0
 51
180.0
  0
ARC
  5
266
330
2
100
AcDbEntity
  8
0
  6
Continuous
 62
     7
100
AcDbCircle
 10
83.1817337801649
 20
171.1067878110906
 30
0.0
 40
1.0
100
AcDbArc
 50
180.0
 51
270.0
  0
LINE
  5
267
330
2
100
AcDbEntity
  8
0
  6
Continuous
 62
     7
100
AcDbLine
 10
82.18173378016491
 20
171.1067878110906
 30
0.0
 11
82.18173378016491
 21
225.6067878110907
 31
0.0
  0
LINE
  5
268
330
2
100
AcDbEntity
  8
0
  6
Continuous
 62
     7
100
AcDbLine
 10
80.6817337801649
 20
169.6067878110906
 30
0.0
 11
80.6817337801649
 21
227.1067878110907
 31
0.0
  0
ARC
  5
269
330
2
100
AcDbEntity
  8
0
  6
Continuous
 62
     7
100
AcDbCircle
 10
81.6817337801649
 20
169.6067878110906
 30
0.0
 40
1.0
100
AcDbArc
 50
180.0
 51
270.0
  0
ARC
  5
26A
330
2
100
AcDbEntity
  8
0
  6
Continuous
 62
     7
100
AcDbCircle
 10
81.6817337801649
 20
227.1067878110907
 30
0.0
 40
1.0
100
AcDbArc
 50
90.0
 51
180.0
  0
LINE
  5
26B
330
2
100
AcDbEntity
  8
0
  6
Continuous
 62
     7
100
AcDbLine
 10
162.1817337801649
 20
170.1067878110906
 30
0.0
 11
83.1817337801649
 21
170.1067878110906
 31
0.0
  0
LINE
  5
26C
330
2
100
AcDbEntity
  8
0
  6
Continuous
 62
     7
100
AcDbLine
 10
83.1817337801649
 20
226.6067878110907
 30
0.0
 11
162.1817337801649
 21
226.6067878110907
 31
0.0
  0
LINE
  5
26D
330
2
100
AcDbEntity
  8
0
  6
Continuous
 62
     7
100
AcDbLine
 10
163.6817337801649
 20
228.1067878110907
 30
0.0
 11
81.6817337801649
 21
228.1067878110907
 31
0.0
  0
ARC
  5
26E
330
2
100
AcDbEntity
  8
0
  6
Continuous
 62
     7
100
AcDbCircle
 10
163.6817337801644
 20
227.1067878110907
 30
0.0
 40
1.0
100
AcDbArc
 50
0.0
 51
90.0
  0
LINE
  5
26F
330
2
100
AcDbEntity
  8
0
  6
Continuous
 62
     7
 48
2.0
100
AcDbLine
 10
102.681733780166
 20
213.6067878110858
 30
0.0
 11
102.681733780166
 21
194.6067878110858
 31
0.0
  0
LINE
  5
270
330
2
100
AcDbEntity
  8
0
  6
Continuous
 62
     7
 48
2.0
100
AcDbLine
 10
103.681733780166
 20
214.6067878110859
 30
0.0
 11
128.681733780166
 21
214.6067878110859
 31
0.0
  0
LINE
  5
271
330
2
100
AcDbEntity
  8
0
  6
Continuous
 62
     7
 48
2.0
100
AcDbLine
 10
103.681733780166
 20
193.6067878110858
 30
0.0
 11
128.681733780166
 21
193.6067878110858
 31
0.0
  0
LINE
  5
272
330
2
100
AcDbEntity
  8
0
  6
Continuous
 62
     7
 48
2.0
100
AcDbLine
 10
129.681733780166
 20
213.606787811086
 30
0.0
 11
129.681733780166
 21
194.6067878110858
 31
0.0
  0
ARC
  5
273
330
2
100
AcDbEntity
  8
0
  6
Continuous
 62
     7
 48
2.0
100
AcDbCircle
 10
128.681733780166
 20
213.606787811086
 30
0.0
 40
1.0
100
AcDbArc
 50
0.0
 51
90.0
  0
ARC
  5
274
330
2
100
AcDbEntity
  8
0
  6
Continuous
 62
     7
 48
2.0
100
AcDbCircle
 10
103.681733780166
 20
213.6067878110858
 30
0.0
 40
1.0
100
AcDbArc
 50
90.0
 51
180.0
  0
ARC
  5
275
330
2
100
AcDbEntity
  8
0
  6
Continuous
 62
     7
 48
2.0
100
AcDbCircle
 10
103.681733780166
 20
194.6067878110858
 30
0.0
 40
1.0
100
AcDbArc
 50
180.0
 51
270.0
  0
ARC
  5
276
330
2
100
AcDbEntity
  8
0
  6
Continuous
 62
     7
 48
2.0
100
AcDbCircle
 10
128.681733780166
 20
194.6067878110858
 30
0.0
 40
1.0
100
AcDbArc
 50
270.0
 51
0.0
  0
LINE
  5
277
330
2
100
AcDbEntity
  8
0
  6
Continuous
 62
     7
100
AcDbLine
 10
121.0737288582122
 20
200.1067878110907
 30
0.0
 11
123.769738798893
 21
200.1067878110907
 31
0.0
  0
LINE
  5
278
330
2
100
AcDbEntity
  8
0
  6
Continuous
 62
     7
100
AcDbLine
 10
122.0174608549127
 20
204.2317878110907
 30
0.0
 11
121.4654538111046
 21
203.8493283406678
 31
0.0
  0
LINE
  5
279
330
2
100
AcDbEntity
  8
0
  6
Continuous
 62
     7
100
AcDbLine
 10
121.4654538111046
 20
203.8493283406678
 30
0.0
 11
121.9224200244096
 21
203.4817878110907
 31
0.0
  0
LINE
  5
27A
330
2
100
AcDbEntity
  8
0
  6
Continuous
 62
     7
100
AcDbLine
 10
121.5814513089162
 20
207.5723910577121
 30
0.0
 11
122.2290632685622
 21
206.8567878110907
 31
0.0
  0
LINE
  5
27B
330
2
100
AcDbEntity
  8
0
  6
Continuous
 62
     7
100
AcDbLine
 10
121.396088165482
 20
207.4046397386227
 30
0.0
 11
122.0437001251282
 21
206.6890364920013
 31
0.0
  0
LINE
  5
27C
330
2
100
AcDbEntity
  8
0
  6
Continuous
 62
     7
100
AcDbLine
 10
121.6467622073608
 20
200.8567878110907
 30
0.0
 11
123.2844051990485
 21
200.8567878110907
 31
0.0
  0
LINE
  5
27D
330
2
100
AcDbEntity
  8
0
  6
Continuous
 62
     7
100
AcDbLine
 10
121.8143141822047
 20
204.3951798376674
 30
0.0
 11
122.0437001251282
 21
206.6890364920013
 31
0.0
  0
LINE
  5
27E
330
2
100
AcDbEntity
  8
0
  6
Continuous
 62
     7
100
AcDbLine
 10
121.7437296687178
 20
207.6067878110907
 30
0.0
 11
124.4397396093984
 21
207.6067878110907
 31
0.0
  0
LINE
  5
27F
330
2
100
AcDbEntity
  8
0
  6
Continuous
 62
     7
100
AcDbLine
 10
120.1817337801642
 20
210.6067878110907
 30
0.0
 11
122.6817337801642
 21
210.6067878110907
 31
0.0
  0
LINE
  5
280
330
2
100
AcDbEntity
  8
0
  6
Continuous
 62
     7
100
AcDbLine
 10
120.1817337801642
 20
211.6067878110907
 30
0.0
 11
122.6817337801642
 21
211.6067878110907
 31
0.0
  0
LINE
  5
281
330
2
100
AcDbEntity
  8
0
  6
Continuous
 62
     7
100
AcDbLine
 10
118.2317337801642
 20
194.6067878110907
 30
0.0
 11
118.2767338346011
 21
195.0567878110907
 31
0.0
  0
LINE
  5
282
330
2
100
AcDbEntity
  8
0
  6
Continuous
 62
     7
100
AcDbLine
 10
118.6817337801642
 20
194.6067878110907
 30
0.0
 11
118.7267338346012
 21
195.0567878110907
 31
0.0
  0
ARC
  5
283
330
2
100
AcDbEntity
  8
0
  6
Continuous
 62
     7
100
AcDbCircle
 10
119.2469308269931
 20
194.8467878110907
 30
0.0
 40
0.24
100
AcDbArc
 50
174.2893999999998
 51
203.9347431357171
  0
LINE
  5
284
330
2
100
AcDbEntity
  8
0
  6
Continuous
 62
     7
100
AcDbLine
 10
119.1282196704739
 20
194.6382029091494
 30
0.0
 11
119.5907508364821
 21
195.0567878110907
 31
0.0
  0
LINE
  5
285
330
2
100
AcDbEntity
  8
0
  6
Continuous
 62
     7
100
AcDbLine
 10
119.0275688790202
 20
194.7494207952097
 30
0.0
 11
119.4901000450284
 21
195.1680056971511
 31
0.0
  0
LINE
  5
286
330
2
100
AcDbEntity
  8
0
  6
Continuous
 62
     7
100
AcDbLine
 10
121.0731216933427
 20
194.7280766545715
 30
0.0
 11
120.6845545175551
 21
195.1574386025444
 31
0.0
  0
LINE
  5
287
330
2
100
AcDbEntity
  8
0
  6
Continuous
 62
     7
100
AcDbLine
 10
120.9619038072824
 20
194.6274258631179
 30
0.0
 11
120.5733366314948
 21
195.0567878110907
 31
0.0
  0
ARC
  5
288
330
2
100
AcDbEntity
  8
0
  6
Continuous
 62
     7
100
AcDbCircle
 10
120.8645367914014
 20
194.8467878110907
 30
0.0
 40
0.24
100
AcDbArc
 50
330.3546568642826
 51
354.2893999999998
  0
ARC
  5
289
330
2
100
AcDbEntity
  8
0
  6
Continuous
 62
     7
100
AcDbCircle
 10
117.7145367914015
 20
194.8467878110907
 30
0.0
 40
0.24
100
AcDbArc
 50
330.3546568642826
 51
354.2893999999998
  0
LINE
  5
28A
330
2
100
AcDbEntity
  8
0
  6
Continuous
 62
     7
100
AcDbLine
 10
115.8775688790201
 20
194.7494207952097
 30
0.0
 11
116.3401000450285
 21
195.1680056971511
 31
0.0
  0
LINE
  5
28B
330
2
100
AcDbEntity
  8
0
  6
Continuous
 62
     7
100
AcDbLine
 10
115.9782196704739
 20
194.6382029091494
 30
0.0
 11
116.4407508364822
 21
195.0567878110907
 31
0.0
  0
ARC
  5
28C
330
2
100
AcDbEntity
  8
0
  6
Continuous
 62
     7
100
AcDbCircle
 10
116.096930826993
 20
194.8467878110907
 30
0.0
 40
0.24
100
AcDbArc
 50
174.2893999999998
 51
203.9347431357171
  0
LINE
  5
28D
330
2
100
AcDbEntity
  8
0
  6
Continuous
 62
     7
100
AcDbLine
 10
117.8119038072823
 20
194.6274258631179
 30
0.0
 11
117.4233366314947
 21
195.0567878110907
 31
0.0
  0
LINE
  5
28E
330
2
100
AcDbEntity
  8
0
  6
Continuous
 62
     7
100
AcDbLine
 10
117.9231216933428
 20
194.7280766545715
 30
0.0
 11
117.5345545175553
 21
195.1574386025444
 31
0.0
  0
LINE
  5
28F
330
2
100
AcDbEntity
  8
0
  6
Continuous
 62
     7
100
AcDbLine
 10
119.2469308269931
 20
194.6067878110907
 30
0.0
 11
120.8645367914014
 21
194.6067878110907
 31
0.0
  0
LINE
  5
290
330
2
100
AcDbEntity
  8
0
  6
Continuous
 62
     7
100
AcDbLine
 10
118.2317337801642
 20
194.6067878110907
 30
0.0
 11
118.6817337801642
 21
194.6067878110907
 31
0.0
  0
ARC
  5
291
330
2
100
AcDbEntity
  8
0
  6
Continuous
 62
     7
100
AcDbCircle
 10
119.2469308269931
 20
194.8467878110907
 30
0.0
 40
0.24
100
AcDbArc
 50
240.3546568642835
 51
270.0
  0
ARC
  5
292
330
2
100
AcDbEntity
  8
0
  6
Continuous
 62
     7
100
AcDbCircle
 10
120.8645367914014
 20
194.8467878110907
 30
0.0
 40
0.24
100
AcDbArc
 50
270.0
 51
293.9347431357165
  0
ARC
  5
293
330
2
100
AcDbEntity
  8
0
  6
Continuous
 62
     7
100
AcDbCircle
 10
116.096930826993
 20
194.8467878110907
 30
0.0
 40
0.24
100
AcDbArc
 50
240.3546568642835
 51
270.0
  0
LINE
  5
294
330
2
100
AcDbEntity
  8
0
  6
Continuous
 62
     7
100
AcDbLine
 10
116.096930826993
 20
194.6067878110907
 30
0.0
 11
117.7145367914015
 21
194.6067878110907
 31
0.0
  0
ARC
  5
295
330
2
100
AcDbEntity
  8
0
  6
Continuous
 62
     7
100
AcDbCircle
 10
117.7145367914015
 20
194.8467878110907
 30
0.0
 40
0.24
100
AcDbArc
 50
270.0
 51
293.9347431357165
  0
LINE
  5
296
330
2
100
AcDbEntity
  8
0
  6
Continuous
 62
     7
100
AcDbLine
 10
119.6489313132963
 20
199.1067878110907
 30
0.0
 11
121.2665372777048
 21
199.1067878110907
 31
0.0
  0
LINE
  5
297
330
2
100
AcDbEntity
  8
0
  6
Continuous
 62
     7
100
AcDbLine
 10
119.9401314732029
 20
198.6567878110907
 30
0.0
 11
120.9227172682156
 21
198.6567878110907
 31
0.0
  0
LINE
  5
298
330
2
100
AcDbEntity
  8
0
  6
Continuous
 62
     7
100
AcDbLine
 10
119.5907508364821
 20
195.0567878110907
 30
0.0
 11
120.5733366314948
 21
195.0567878110907
 31
0.0
  0
LINE
  5
299
330
2
100
AcDbEntity
  8
0
  6
Continuous
 62
     7
100
AcDbLine
 10
119.7561455267114
 20
196.6317878110907
 30
0.0
 11
120.7002980796844
 21
196.6317878110907
 31
0.0
  0
LINE
  5
29A
330
2
100
AcDbEntity
  8
0
  6
Continuous
 62
     7
100
AcDbLine
 10
119.8131700250133
 20
197.0817878110907
 30
0.0
 11
120.7573225779863
 21
197.0817878110907
 31
0.0
  0
LINE
  5
29B
330
2
100
AcDbEntity
  8
0
  6
Continuous
 62
     7
100
AcDbLine
 10
118.2767338346011
 20
195.0567878110907
 30
0.0
 11
118.7267338346012
 21
195.0567878110907
 31
0.0
  0
LINE
  5
29C
330
2
100
AcDbEntity
  8
0
  6
Continuous
 62
     7
100
AcDbLine
 10
118.1777040589925
 20
197.066487623852
 30
0.0
 11
118.3553462004947
 21
198.8429068899228
 31
0.0
  0
ARC
  5
29D
330
2
100
AcDbEntity
  8
0
  6
Continuous
 62
     7
100
AcDbCircle
 10
118.1165372777047
 20
198.8667878110907
 30
0.0
 40
0.24
100
AcDbArc
 50
60.35465686428254
 51
90.0
  0
ARC
  5
29E
330
2
100
AcDbEntity
  8
0
  6
Continuous
 62
     7
100
AcDbCircle
 10
118.1165372777047
 20
198.8667878110907
 30
0.0
 40
0.24
100
AcDbArc
 50
354.2893999999998
 51
23.93474313571708
  0
LINE
  5
29F
330
2
100
AcDbEntity
  8
0
  6
Continuous
 62
     7
100
AcDbLine
 10
119.5515642974153
 20
199.0861497590636
 30
0.0
 11
119.9401314732029
 21
198.6567878110907
 31
0.0
  0
LINE
  5
2A0
330
2
100
AcDbEntity
  8
0
  6
Continuous
 62
     7
100
AcDbLine
 10
119.440346411355
 20
198.9854989676098
 30
0.0
 11
119.8289135871425
 21
198.556137019637
 31
0.0
  0
ARC
  5
2A1
330
2
100
AcDbEntity
  8
0
  6
Continuous
 62
     7
100
AcDbCircle
 10
119.6489313132963
 20
198.8667878110907
 30
0.0
 40
0.24
100
AcDbArc
 50
90.0
 51
113.9347431357165
  0
LINE
  5
2A2
330
2
100
AcDbEntity
  8
0
  6
Continuous
 62
     7
100
AcDbLine
 10
119.4901000450284
 20
195.1680056971511
 30
0.0
 11
119.627570037577
 21
196.5427039596521
 31
0.0
  0
LINE
  5
2A3
330
2
100
AcDbEntity
  8
0
  6
Continuous
 62
     7
100
AcDbLine
 10
119.8131700250133
 20
197.0817878110907
 30
0.0
 11
119.4819657987284
 21
196.8523121288369
 31
0.0
  0
LINE
  5
2A4
330
2
100
AcDbEntity
  8
0
  6
Continuous
 62
     7
100
AcDbLine
 10
119.6912820213886
 20
197.1798230270367
 30
0.0
 11
119.3600777951035
 21
196.950347344783
 31
0.0
  0
LINE
  5
2A5
330
2
100
AcDbEntity
  8
0
  6
Continuous
 62
     7
100
AcDbLine
 10
119.3533903095942
 20
196.7632282773984
 30
0.0
 11
119.627570037577
 21
196.5427039596521
 31
0.0
  0
LINE
  5
2A6
330
2
100
AcDbEntity
  8
0
  6
Continuous
 62
     7
100
AcDbLine
 10
119.4819657987284
 20
196.8523121288369
 30
0.0
 11
119.7561455267114
 21
196.6317878110907
 31
0.0
  0
ARC
  5
2A7
330
2
100
AcDbEntity
  8
0
  6
Continuous
 62
     7
100
AcDbCircle
 10
119.6489313132963
 20
198.8667878110907
 30
0.0
 40
0.24
100
AcDbArc
 50
150.3546568642826
 51
174.2893999999998
  0
LINE
  5
2A8
330
2
100
AcDbEntity
  8
0
  6
Continuous
 62
     7
100
AcDbLine
 10
119.226808921459
 20
197.0575362593446
 30
0.0
 11
119.3600777951035
 21
196.950347344783
 31
0.0
  0
LINE
  5
2A9
330
2
100
AcDbEntity
  8
0
  6
Continuous
 62
     7
100
AcDbLine
 10
119.226808921459
 20
197.0575362593446
 30
0.0
 11
119.4101223905061
 21
198.8906687322586
 31
0.0
  0
LINE
  5
2AA
330
2
100
AcDbEntity
  8
0
  6
Continuous
 62
     7
100
AcDbLine
 10
119.6912820213886
 20
197.1798230270367
 30
0.0
 11
119.8289135871425
 21
198.556137019637
 31
0.0
  0
LINE
  5
2AB
330
2
100
AcDbEntity
  8
0
  6
Continuous
 62
     7
100
AcDbLine
 10
119.0081219042029
 20
194.8706687322586
 30
0.0
 11
119.1857640457051
 21
196.6470879983294
 31
0.0
  0
LINE
  5
2AC
330
2
100
AcDbEntity
  8
0
  6
Continuous
 62
     7
100
AcDbLine
 10
119.3533903095942
 20
196.7632282773984
 30
0.0
 11
119.1857640457051
 21
196.6470879983294
 31
0.0
  0
LINE
  5
2AD
330
2
100
AcDbEntity
  8
0
  6
Continuous
 62
     7
100
AcDbLine
 10
121.385248434224
 20
199.075372713032
 30
0.0
 11
120.9227172682156
 21
198.6567878110907
 31
0.0
  0
LINE
  5
2AE
330
2
100
AcDbEntity
  8
0
  6
Continuous
 62
     7
100
AcDbLine
 10
121.4858992256775
 20
198.9641548269717
 30
0.0
 11
121.0233680596693
 21
198.5455699250303
 31
0.0
  0
ARC
  5
2AF
330
2
100
AcDbEntity
  8
0
  6
Continuous
 62
     7
100
AcDbCircle
 10
121.2665372777048
 20
198.8667878110907
 30
0.0
 40
0.24
100
AcDbArc
 50
354.2893999999998
 51
23.93474313571708
  0
ARC
  5
2B0
330
2
100
AcDbEntity
  8
0
  6
Continuous
 62
     7
100
AcDbCircle
 10
121.2665372777048
 20
198.8667878110907
 30
0.0
 40
0.24
100
AcDbArc
 50
60.35465686428254
 51
90.0
  0
LINE
  5
2B1
330
2
100
AcDbEntity
  8
0
  6
Continuous
 62
     7
100
AcDbLine
 10
121.1033457141916
 20
194.8229068899227
 30
0.0
 11
121.2866591832387
 21
196.6560393628368
 31
0.0
  0
LINE
  5
2B2
330
2
100
AcDbEntity
  8
0
  6
Continuous
 62
     7
100
AcDbLine
 10
120.6845545175551
 20
195.1574386025444
 30
0.0
 11
120.8221860833093
 21
196.5337525951447
 31
0.0
  0
LINE
  5
2B3
330
2
100
AcDbEntity
  8
0
  6
Continuous
 62
     7
100
AcDbLine
 10
121.0315023059693
 20
196.8612634933445
 30
0.0
 11
120.7573225779863
 21
197.0817878110907
 31
0.0
  0
LINE
  5
2B4
330
2
100
AcDbEntity
  8
0
  6
Continuous
 62
     7
100
AcDbLine
 10
121.1600777951037
 20
196.950347344783
 30
0.0
 11
120.8858980671207
 21
197.1708716625293
 31
0.0
  0
LINE
  5
2B5
330
2
100
AcDbEntity
  8
0
  6
Continuous
 62
     7
100
AcDbLine
 10
121.1600777951037
 20
196.950347344783
 30
0.0
 11
121.3277040589926
 21
197.066487623852
 31
0.0
  0
LINE
  5
2B6
330
2
100
AcDbEntity
  8
0
  6
Continuous
 62
     7
100
AcDbLine
 10
120.7002980796844
 20
196.6317878110907
 30
0.0
 11
121.0315023059693
 21
196.8612634933445
 31
0.0
  0
LINE
  5
2B7
330
2
100
AcDbEntity
  8
0
  6
Continuous
 62
     7
100
AcDbLine
 10
120.8221860833093
 20
196.5337525951447
 30
0.0
 11
121.1533903095942
 21
196.7632282773984
 31
0.0
  0
LINE
  5
2B8
330
2
100
AcDbEntity
  8
0
  6
Continuous
 62
     7
100
AcDbLine
 10
121.2866591832387
 20
196.6560393628368
 30
0.0
 11
121.1533903095942
 21
196.7632282773984
 31
0.0
  0
LINE
  5
2B9
330
2
100
AcDbEntity
  8
0
  6
Continuous
 62
     7
100
AcDbLine
 10
120.8858980671207
 20
197.1708716625293
 30
0.0
 11
121.0233680596693
 21
198.5455699250303
 31
0.0
  0
LINE
  5
2BA
330
2
100
AcDbEntity
  8
0
  6
Continuous
 62
     7
100
AcDbLine
 10
121.3277040589926
 20
197.066487623852
 30
0.0
 11
121.5053462004948
 21
198.8429068899228
 31
0.0
  0
LINE
  5
2BB
330
2
100
AcDbEntity
  8
0
  6
Continuous
 62
     7
100
AcDbLine
 10
118.1366591832386
 20
196.6560393628368
 30
0.0
 11
118.0033903095941
 21
196.7632282773984
 31
0.0
  0
LINE
  5
2BC
330
2
100
AcDbEntity
  8
0
  6
Continuous
 62
     7
100
AcDbLine
 10
118.0100777951036
 20
196.950347344783
 30
0.0
 11
118.1777040589925
 21
197.066487623852
 31
0.0
  0
LINE
  5
2BD
330
2
100
AcDbEntity
  8
0
  6
Continuous
 62
     7
100
AcDbLine
 10
117.9533457141915
 20
194.8229068899227
 30
0.0
 11
118.1366591832386
 21
196.6560393628368
 31
0.0
  0
LINE
  5
2BE
330
2
100
AcDbEntity
  8
0
  6
Continuous
 62
     7
100
AcDbLine
 10
118.3358992256775
 20
198.9641548269717
 30
0.0
 11
117.8733680596692
 21
198.5455699250303
 31
0.0
  0
LINE
  5
2BF
330
2
100
AcDbEntity
  8
0
  6
Continuous
 62
     7
100
AcDbLine
 10
118.2352484342239
 20
199.075372713032
 30
0.0
 11
117.7727172682155
 21
198.6567878110907
 31
0.0
  0
LINE
  5
2C0
330
2
100
AcDbEntity
  8
0
  6
Continuous
 62
     7
100
AcDbLine
 10
116.2033903095941
 20
196.7632282773984
 30
0.0
 11
116.0357640457052
 21
196.6470879983294
 31
0.0
  0
LINE
  5
2C1
330
2
100
AcDbEntity
  8
0
  6
Continuous
 62
     7
100
AcDbLine
 10
115.858121904203
 20
194.8706687322586
 30
0.0
 11
116.0357640457052
 21
196.6470879983294
 31
0.0
  0
LINE
  5
2C2
330
2
100
AcDbEntity
  8
0
  6
Continuous
 62
     7
100
AcDbLine
 10
116.5412820213885
 20
197.1798230270367
 30
0.0
 11
116.6789135871424
 21
198.556137019637
 31
0.0
  0
LINE
  5
2C3
330
2
100
AcDbEntity
  8
0
  6
Continuous
 62
     7
100
AcDbLine
 10
116.6631700250134
 20
197.0817878110907
 30
0.0
 11
117.6073225779864
 21
197.0817878110907
 31
0.0
  0
LINE
  5
2C4
330
2
100
AcDbEntity
  8
0
  6
Continuous
 62
     7
100
AcDbLine
 10
116.6061455267113
 20
196.6317878110907
 30
0.0
 11
117.5502980796843
 21
196.6317878110907
 31
0.0
  0
LINE
  5
2C5
330
2
100
AcDbEntity
  8
0
  6
Continuous
 62
     7
100
AcDbLine
 10
116.4407508364822
 20
195.0567878110907
 30
0.0
 11
117.4233366314947
 21
195.0567878110907
 31
0.0
  0
LINE
  5
2C6
330
2
100
AcDbEntity
  8
0
  6
Continuous
 62
     7
100
AcDbLine
 10
117.5345545175553
 20
195.1574386025444
 30
0.0
 11
117.6721860833092
 21
196.5337525951447
 31
0.0
  0
LINE
  5
2C7
330
2
100
AcDbEntity
  8
0
  6
Continuous
 62
     7
100
AcDbLine
 10
116.0768089214591
 20
197.0575362593446
 30
0.0
 11
116.2601223905062
 21
198.8906687322586
 31
0.0
  0
LINE
  5
2C8
330
2
100
AcDbEntity
  8
0
  6
Continuous
 62
     7
100
AcDbLine
 10
116.0768089214591
 20
197.0575362593446
 30
0.0
 11
116.2100777951036
 21
196.950347344783
 31
0.0
  0
ARC
  5
2C9
330
2
100
AcDbEntity
  8
0
  6
Continuous
 62
     7
100
AcDbCircle
 10
116.4989313132962
 20
198.8667878110907
 30
0.0
 40
0.24
100
AcDbArc
 50
150.3546568642826
 51
174.2893999999998
  0
LINE
  5
2CA
330
2
100
AcDbEntity
  8
0
  6
Continuous
 62
     7
100
AcDbLine
 10
116.3319657987283
 20
196.8523121288369
 30
0.0
 11
116.6061455267113
 21
196.6317878110907
 31
0.0
  0
LINE
  5
2CB
330
2
100
AcDbEntity
  8
0
  6
Continuous
 62
     7
100
AcDbLine
 10
116.2033903095941
 20
196.7632282773984
 30
0.0
 11
116.4775700375771
 21
196.5427039596521
 31
0.0
  0
LINE
  5
2CC
330
2
100
AcDbEntity
  8
0
  6
Continuous
 62
     7
100
AcDbLine
 10
116.5412820213885
 20
197.1798230270367
 30
0.0
 11
116.2100777951036
 21
196.950347344783
 31
0.0
  0
LINE
  5
2CD
330
2
100
AcDbEntity
  8
0
  6
Continuous
 62
     7
100
AcDbLine
 10
116.6631700250134
 20
197.0817878110907
 30
0.0
 11
116.3319657987283
 21
196.8523121288369
 31
0.0
  0
LINE
  5
2CE
330
2
100
AcDbEntity
  8
0
  6
Continuous
 62
     7
100
AcDbLine
 10
116.3401000450285
 20
195.1680056971511
 30
0.0
 11
116.4775700375771
 21
196.5427039596521
 31
0.0
  0
ARC
  5
2CF
330
2
100
AcDbEntity
  8
0
  6
Continuous
 62
     7
100
AcDbCircle
 10
116.4989313132962
 20
198.8667878110907
 30
0.0
 40
0.24
100
AcDbArc
 50
90.0
 51
113.9347431357165
  0
LINE
  5
2D0
330
2
100
AcDbEntity
  8
0
  6
Continuous
 62
     7
100
AcDbLine
 10
116.2903464113549
 20
198.9854989676098
 30
0.0
 11
116.6789135871424
 21
198.556137019637
 31
0.0
  0
LINE
  5
2D1
330
2
100
AcDbEntity
  8
0
  6
Continuous
 62
     7
100
AcDbLine
 10
116.4015642974154
 20
199.0861497590636
 30
0.0
 11
116.790131473203
 21
198.6567878110907
 31
0.0
  0
LINE
  5
2D2
330
2
100
AcDbEntity
  8
0
  6
Continuous
 62
     7
100
AcDbLine
 10
117.7358980671206
 20
197.1708716625293
 30
0.0
 11
117.8733680596692
 21
198.5455699250303
 31
0.0
  0
LINE
  5
2D3
330
2
100
AcDbEntity
  8
0
  6
Continuous
 62
     7
100
AcDbLine
 10
117.6721860833092
 20
196.5337525951447
 30
0.0
 11
118.0033903095941
 21
196.7632282773984
 31
0.0
  0
LINE
  5
2D4
330
2
100
AcDbEntity
  8
0
  6
Continuous
 62
     7
100
AcDbLine
 10
117.5502980796843
 20
196.6317878110907
 30
0.0
 11
117.8815023059694
 21
196.8612634933445
 31
0.0
  0
LINE
  5
2D5
330
2
100
AcDbEntity
  8
0
  6
Continuous
 62
     7
100
AcDbLine
 10
118.0100777951036
 20
196.950347344783
 30
0.0
 11
117.7358980671206
 21
197.1708716625293
 31
0.0
  0
LINE
  5
2D6
330
2
100
AcDbEntity
  8
0
  6
Continuous
 62
     7
100
AcDbLine
 10
117.8815023059694
 20
196.8612634933445
 30
0.0
 11
117.6073225779864
 21
197.0817878110907
 31
0.0
  0
LINE
  5
2D7
330
2
100
AcDbEntity
  8
0
  6
Continuous
 62
     7
100
AcDbLine
 10
116.790131473203
 20
198.6567878110907
 30
0.0
 11
117.7727172682155
 21
198.6567878110907
 31
0.0
  0
LINE
  5
2D8
330
2
100
AcDbEntity
  8
0
  6
Continuous
 62
     7
100
AcDbLine
 10
116.4989313132962
 20
199.1067878110907
 30
0.0
 11
118.1165372777047
 21
199.1067878110907
 31
0.0
  0
LINE
  5
2D9
330
2
100
AcDbEntity
  8
0
  6
Continuous
 62
     7
100
AcDbLine
 10
113.1817337801642
 20
211.1067878110907
 30
0.0
 11
113.1817337801642
 21
211.1067878110907
 31
0.0
  0
LINE
  5
2DA
330
2
100
AcDbEntity
  8
0
  6
Continuous
 62
     7
100
AcDbLine
 10
118.1817337801642
 20
211.1067878110907
 30
0.0
 11
118.1817337801642
 21
211.1067878110907
 31
0.0
  0
ARC
  5
2DB
330
2
100
AcDbEntity
  8
0
  6
Continuous
 62
     7
100
AcDbCircle
 10
120.1817337801642
 20
211.1067878110907
 30
0.0
 40
0.5
100
AcDbArc
 50
180.0
 51
270.0
  0
LINE
  5
2DC
330
2
100
AcDbEntity
  8
0
  6
Continuous
 62
     7
100
AcDbLine
 10
119.6817337801642
 20
211.1067878110907
 30
0.0
 11
119.6817337801642
 21
211.1067878110907
 31
0.0
  0
ARC
  5
2DD
330
2
100
AcDbEntity
  8
0
  6
Continuous
 62
     7
100
AcDbCircle
 10
120.1817337801642
 20
211.1067878110907
 30
0.0
 40
0.5
100
AcDbArc
 50
90.0
 51
180.0
  0
ARC
  5
2DE
330
2
100
AcDbEntity
  8
0
  6
Continuous
 62
     7
100
AcDbCircle
 10
115.1817337801642
 20
211.1067878110907
 30
0.0
 40
0.5
100
AcDbArc
 50
180.0
 51
270.0
  0
LINE
  5
2DF
330
2
100
AcDbEntity
  8
0
  6
Continuous
 62
     7
100
AcDbLine
 10
114.6817337801642
 20
211.1067878110907
 30
0.0
 11
114.6817337801642
 21
211.1067878110907
 31
0.0
  0
ARC
  5
2E0
330
2
100
AcDbEntity
  8
0
  6
Continuous
 62
     7
100
AcDbCircle
 10
115.1817337801642
 20
211.1067878110907
 30
0.0
 40
0.5
100
AcDbArc
 50
90.0
 51
180.0
  0
LINE
  5
2E1
330
2
100
AcDbEntity
  8
0
  6
Continuous
 62
     7
100
AcDbLine
 10
115.1817337801642
 20
210.6067878110907
 30
0.0
 11
117.6817337801642
 21
210.6067878110907
 31
0.0
  0
LINE
  5
2E2
330
2
100
AcDbEntity
  8
0
  6
Continuous
 62
     7
100
AcDbLine
 10
115.1817337801642
 20
211.6067878110907
 30
0.0
 11
117.6817337801642
 21
211.6067878110907
 31
0.0
  0
ARC
  5
2E3
330
2
100
AcDbEntity
  8
0
  6
Continuous
 62
     7
100
AcDbCircle
 10
117.6817337801642
 20
211.1067878110907
 30
0.0
 40
0.5
100
AcDbArc
 50
270.0
 51
0.0
  0
ARC
  5
2E4
330
2
100
AcDbEntity
  8
0
  6
Continuous
 62
     7
100
AcDbCircle
 10
117.6817337801642
 20
211.1067878110907
 30
0.0
 40
0.5
100
AcDbArc
 50
0.0
 51
90.0
  0
LINE
  5
2E5
330
2
100
AcDbEntity
  8
0
  6
Continuous
 62
     7
100
AcDbLine
 10
113.6677536702098
 20
200.4669862758108
 30
0.0
 11
113.9732761186217
 21
203.5222070640009
 31
0.0
  0
LINE
  5
2E6
330
2
100
AcDbEntity
  8
0
  6
Continuous
 62
     7
100
AcDbLine
 10
113.9732761186217
 20
203.5222070640009
 30
0.0
 11
113.7511613292142
 21
203.7008552549369
 31
0.0
  0
LINE
  5
2E7
330
2
100
AcDbEntity
  8
0
  6
Continuous
 62
     7
100
AcDbLine
 10
113.7623071383964
 20
204.0127203672446
 30
0.0
 11
114.0416842448783
 21
204.2062874990263
 31
0.0
  0
LINE
  5
2E8
330
2
100
AcDbEntity
  8
0
  6
Continuous
 62
     7
100
AcDbLine
 10
114.3053428560199
 20
207.3690661708922
 30
0.0
 11
113.5344575793394
 21
206.6714246676566
 31
0.0
  0
LINE
  5
2E9
330
2
100
AcDbEntity
  8
0
  6
Continuous
 62
     7
100
AcDbLine
 10
114.1375915369303
 20
207.5544293143263
 30
0.0
 11
113.3667062602499
 21
206.8567878110907
 31
0.0
  0
LINE
  5
2EA
330
2
100
AcDbEntity
  8
0
  6
Continuous
 62
     7
100
AcDbLine
 10
113.6173803021286
 20
200.3089358835588
 30
0.0
 11
112.9697683424826
 21
201.0245391301802
 31
0.0
  0
ARC
  5
2EB
330
2
100
AcDbEntity
  8
0
  6
Continuous
 62
     7
100
AcDbCircle
 10
113.269738798893
 20
200.5067878110907
 30
0.0
 40
0.4
100
AcDbArc
 50
330.3546568642826
 51
354.2893999999998
  0
ARC
  5
2EC
330
2
100
AcDbEntity
  8
0
  6
Continuous
 62
     7
100
AcDbCircle
 10
113.269738798893
 20
200.5067878110907
 30
0.0
 40
0.4
100
AcDbArc
 50
270.0
 51
293.9347431357165
  0
LINE
  5
2ED
330
2
100
AcDbEntity
  8
0
  6
Continuous
 62
     7
100
AcDbLine
 10
113.7623071383964
 20
204.0127203672446
 30
0.0
 11
113.3053409250917
 21
204.3802608968217
 31
0.0
  0
LINE
  5
2EE
330
2
100
AcDbEntity
  8
0
  6
Continuous
 62
     7
100
AcDbLine
 10
113.548014656506
 20
203.8642472815136
 30
0.0
 11
113.0910484432013
 21
204.2317878110907
 31
0.0
  0
LINE
  5
2EF
330
2
100
AcDbEntity
  8
0
  6
Continuous
 62
     7
100
AcDbLine
 10
113.1991542854059
 20
203.318395784514
 30
0.0
 11
113.7511613292142
 21
203.7008552549369
 31
0.0
  0
LINE
  5
2F0
330
2
100
AcDbEntity
  8
0
  6
Continuous
 62
     7
100
AcDbLine
 10
112.9960076126979
 20
203.4817878110907
 30
0.0
 11
113.548014656506
 21
203.8642472815136
 31
0.0
  0
LINE
  5
2F1
330
2
100
AcDbEntity
  8
0
  6
Continuous
 62
     7
100
AcDbLine
 10
112.9697683424826
 20
201.0245391301802
 30
0.0
 11
113.1991542854059
 21
203.318395784514
 31
0.0
  0
LINE
  5
2F2
330
2
100
AcDbEntity
  8
0
  6
Continuous
 62
     7
100
AcDbLine
 10
113.3053409250917
 20
204.3802608968217
 30
0.0
 11
113.5344575793394
 21
206.6714246676566
 31
0.0
  0
LINE
  5
2F3
330
2
100
AcDbEntity
  8
0
  6
Continuous
 62
     7
100
AcDbLine
 10
120.7081256115909
 20
200.3445094512892
 30
0.0
 11
121.4790108882712
 21
201.0421509545247
 31
0.0
  0
LINE
  5
2F4
330
2
100
AcDbEntity
  8
0
  6
Continuous
 62
     7
100
AcDbLine
 10
120.8758769306803
 20
200.1591463078552
 30
0.0
 11
121.6467622073608
 21
200.8567878110907
 31
0.0
  0
LINE
  5
2F5
330
2
100
AcDbEntity
  8
0
  6
Continuous
 62
     7
100
AcDbLine
 10
120.6757139868955
 20
200.5465893463707
 30
0.0
 11
120.9717842227326
 21
203.5072881231552
 31
0.0
  0
LINE
  5
2F6
330
2
100
AcDbEntity
  8
0
  6
Continuous
 62
     7
100
AcDbLine
 10
120.1317337801642
 20
200.1067878110907
 30
0.0
 11
120.2067338708925
 21
200.8567878110907
 31
0.0
  0
LINE
  5
2F7
330
2
100
AcDbEntity
  8
0
  6
Continuous
 62
     7
100
AcDbLine
 10
119.3817337801642
 20
200.1067878110907
 30
0.0
 11
119.4567338708925
 21
200.8567878110907
 31
0.0
  0
LINE
  5
2F8
330
2
100
AcDbEntity
  8
0
  6
Continuous
 62
     7
100
AcDbLine
 10
118.6820171586944
 20
200.1411845644693
 30
0.0
 11
118.0344051990485
 21
200.8567878110907
 31
0.0
  0
LINE
  5
2F9
330
2
100
AcDbEntity
  8
0
  6
Continuous
 62
     7
100
AcDbLine
 10
118.8673803021286
 20
200.3089358835588
 30
0.0
 11
118.2197683424826
 21
201.0245391301802
 31
0.0
  0
LINE
  5
2FA
330
2
100
AcDbEntity
  8
0
  6
Continuous
 62
     7
100
AcDbLine
 10
118.9177536702098
 20
200.4669862758108
 30
0.0
 11
119.2232761186217
 21
203.5222070640009
 31
0.0
  0
LINE
  5
2FB
330
2
100
AcDbEntity
  8
0
  6
Continuous
 62
     7
100
AcDbLine
 10
115.6258769306803
 20
200.1591463078552
 30
0.0
 11
116.3967622073608
 21
200.8567878110907
 31
0.0
  0
LINE
  5
2FC
330
2
100
AcDbEntity
  8
0
  6
Continuous
 62
     7
100
AcDbLine
 10
115.4581256115909
 20
200.3445094512892
 30
0.0
 11
116.2290108882712
 21
201.0421509545247
 31
0.0
  0
LINE
  5
2FD
330
2
100
AcDbEntity
  8
0
  6
Continuous
 62
     7
100
AcDbLine
 10
115.4257139868955
 20
200.5465893463707
 30
0.0
 11
115.7217842227326
 21
203.5072881231552
 31
0.0
  0
ARC
  5
2FE
330
2
100
AcDbEntity
  8
0
  6
Continuous
 62
     7
100
AcDbCircle
 10
121.0737288582122
 20
200.5067878110907
 30
0.0
 40
0.4
100
AcDbArc
 50
240.3546568642835
 51
270.0
  0
ARC
  5
2FF
330
2
100
AcDbEntity
  8
0
  6
Continuous
 62
     7
100
AcDbCircle
 10
121.0737288582122
 20
200.5067878110907
 30
0.0
 40
0.4
100
AcDbArc
 50
174.2893999999998
 51
203.9347431357171
  0
LINE
  5
300
330
2
100
AcDbEntity
  8
0
  6
Continuous
 62
     7
100
AcDbLine
 10
119.3817337801642
 20
200.1067878110907
 30
0.0
 11
120.1317337801642
 21
200.1067878110907
 31
0.0
  0
ARC
  5
301
330
2
100
AcDbEntity
  8
0
  6
Continuous
 62
     7
100
AcDbCircle
 10
118.519738798893
 20
200.5067878110907
 30
0.0
 40
0.4
100
AcDbArc
 50
330.3546568642826
 51
354.2893999999998
  0
ARC
  5
302
330
2
100
AcDbEntity
  8
0
  6
Continuous
 62
     7
100
AcDbCircle
 10
118.519738798893
 20
200.5067878110907
 30
0.0
 40
0.4
100
AcDbArc
 50
270.0
 51
293.9347431357165
  0
ARC
  5
303
330
2
100
AcDbEntity
  8
0
  6
Continuous
 62
     7
100
AcDbCircle
 10
115.8237288582122
 20
200.5067878110907
 30
0.0
 40
0.4
100
AcDbArc
 50
240.3546568642835
 51
270.0
  0
ARC
  5
304
330
2
100
AcDbEntity
  8
0
  6
Continuous
 62
     7
100
AcDbCircle
 10
115.8237288582122
 20
200.5067878110907
 30
0.0
 40
0.4
100
AcDbArc
 50
174.2893999999998
 51
203.9347431357171
  0
LINE
  5
305
330
2
100
AcDbEntity
  8
0
  6
Continuous
 62
     7
100
AcDbLine
 10
115.8237288582122
 20
200.1067878110907
 30
0.0
 11
118.519738798893
 21
200.1067878110907
 31
0.0
  0
LINE
  5
306
330
2
100
AcDbEntity
  8
0
  6
Continuous
 62
     7
100
AcDbLine
 10
121.8143141822047
 20
204.3951798376674
 30
0.0
 11
121.2623071383964
 21
204.0127203672446
 31
0.0
  0
LINE
  5
307
330
2
100
AcDbEntity
  8
0
  6
Continuous
 62
     7
100
AcDbLine
 10
121.2511613292142
 20
203.7008552549369
 30
0.0
 11
121.7081275425191
 21
203.3333147253598
 31
0.0
  0
LINE
  5
308
330
2
100
AcDbEntity
  8
0
  6
Continuous
 62
     7
100
AcDbLine
 10
121.4790108882712
 20
201.0421509545247
 30
0.0
 11
121.7081275425191
 21
203.3333147253598
 31
0.0
  0
ARC
  5
309
330
2
100
AcDbEntity
  8
0
  6
Continuous
 62
     7
100
AcDbCircle
 10
121.7437296687178
 20
207.2067878110908
 30
0.0
 40
0.4
100
AcDbArc
 50
90.0
 51
113.9347431357165
  0
LINE
  5
30A
330
2
100
AcDbEntity
  8
0
  6
Continuous
 62
     7
100
AcDbLine
 10
119.0123071383964
 20
204.0127203672446
 30
0.0
 11
118.5553409250917
 21
204.3802608968217
 31
0.0
  0
LINE
  5
30B
330
2
100
AcDbEntity
  8
0
  6
Continuous
 62
     7
100
AcDbLine
 10
118.798014656506
 20
203.8642472815136
 30
0.0
 11
118.3410484432013
 21
204.2317878110907
 31
0.0
  0
LINE
  5
30C
330
2
100
AcDbEntity
  8
0
  6
Continuous
 62
     7
100
AcDbLine
 10
119.2916842448783
 20
204.2062874990263
 30
0.0
 11
119.5877544807151
 21
207.1669862758108
 31
0.0
  0
LINE
  5
30D
330
2
100
AcDbEntity
  8
0
  6
Continuous
 62
     7
100
AcDbLine
 10
121.0401923489889
 20
204.1913685581806
 30
0.0
 11
121.3457147974009
 21
207.2465893463707
 31
0.0
  0
LINE
  5
30E
330
2
100
AcDbEntity
  8
0
  6
Continuous
 62
     7
100
AcDbLine
 10
121.2511613292142
 20
203.7008552549369
 30
0.0
 11
120.9717842227326
 21
203.5072881231552
 31
0.0
  0
LINE
  5
30F
330
2
100
AcDbEntity
  8
0
  6
Continuous
 62
     7
100
AcDbLine
 10
119.2232761186217
 20
203.5222070640009
 30
0.0
 11
119.0011613292142
 21
203.7008552549369
 31
0.0
  0
LINE
  5
310
330
2
100
AcDbEntity
  8
0
  6
Continuous
 62
     7
100
AcDbLine
 10
118.4491542854059
 20
203.318395784514
 30
0.0
 11
119.0011613292142
 21
203.7008552549369
 31
0.0
  0
LINE
  5
311
330
2
100
AcDbEntity
  8
0
  6
Continuous
 62
     7
100
AcDbLine
 10
118.2460076126979
 20
203.4817878110907
 30
0.0
 11
118.798014656506
 21
203.8642472815136
 31
0.0
  0
LINE
  5
312
330
2
100
AcDbEntity
  8
0
  6
Continuous
 62
     7
100
AcDbLine
 10
119.4567338708925
 20
200.8567878110907
 30
0.0
 11
120.2067338708925
 21
200.8567878110907
 31
0.0
  0
LINE
  5
313
330
2
100
AcDbEntity
  8
0
  6
Continuous
 62
     7
100
AcDbLine
 10
118.2197683424826
 20
201.0245391301802
 30
0.0
 11
118.4491542854059
 21
203.318395784514
 31
0.0
  0
LINE
  5
314
330
2
100
AcDbEntity
  8
0
  6
Continuous
 62
     7
100
AcDbLine
 10
119.0123071383964
 20
204.0127203672446
 30
0.0
 11
119.2916842448783
 21
204.2062874990263
 31
0.0
  0
LINE
  5
315
330
2
100
AcDbEntity
  8
0
  6
Continuous
 62
     7
100
AcDbLine
 10
121.0401923489889
 20
204.1913685581806
 30
0.0
 11
121.2623071383964
 21
204.0127203672446
 31
0.0
  0
ARC
  5
316
330
2
100
AcDbEntity
  8
0
  6
Continuous
 62
     7
100
AcDbCircle
 10
119.1897396093984
 20
207.2067878110908
 30
0.0
 40
0.4
100
AcDbArc
 50
60.35465686428254
 51
90.0
  0
ARC
  5
317
330
2
100
AcDbEntity
  8
0
  6
Continuous
 62
     7
100
AcDbCircle
 10
119.1897396093984
 20
207.2067878110908
 30
0.0
 40
0.4
100
AcDbArc
 50
354.2893999999998
 51
23.93474313571708
  0
LINE
  5
318
330
2
100
AcDbEntity
  8
0
  6
Continuous
 62
     7
100
AcDbLine
 10
119.5553428560199
 20
207.3690661708922
 30
0.0
 11
118.7844575793394
 21
206.6714246676566
 31
0.0
  0
LINE
  5
319
330
2
100
AcDbEntity
  8
0
  6
Continuous
 62
     7
100
AcDbLine
 10
119.3875915369303
 20
207.5544293143263
 30
0.0
 11
118.6167062602499
 21
206.8567878110907
 31
0.0
  0
ARC
  5
31A
330
2
100
AcDbEntity
  8
0
  6
Continuous
 62
     7
100
AcDbCircle
 10
121.7437296687178
 20
207.2067878110908
 30
0.0
 40
0.4
100
AcDbArc
 50
150.3546568642826
 51
174.2893999999998
  0
LINE
  5
31B
330
2
100
AcDbEntity
  8
0
  6
Continuous
 62
     7
100
AcDbLine
 10
118.5553409250917
 20
204.3802608968217
 30
0.0
 11
118.7844575793394
 21
206.6714246676566
 31
0.0
  0
LINE
  5
31C
330
2
100
AcDbEntity
  8
0
  6
Continuous
 62
     7
100
AcDbLine
 10
116.5643141822047
 20
204.3951798376674
 30
0.0
 11
116.0123071383964
 21
204.0127203672446
 31
0.0
  0
LINE
  5
31D
330
2
100
AcDbEntity
  8
0
  6
Continuous
 62
     7
100
AcDbLine
 10
116.7674608549127
 20
204.2317878110907
 30
0.0
 11
116.2154538111046
 21
203.8493283406678
 31
0.0
  0
LINE
  5
31E
330
2
100
AcDbEntity
  8
0
  6
Continuous
 62
     7
100
AcDbLine
 10
114.0416842448783
 20
204.2062874990263
 30
0.0
 11
114.3377544807151
 21
207.1669862758108
 31
0.0
  0
LINE
  5
31F
330
2
100
AcDbEntity
  8
0
  6
Continuous
 62
     7
100
AcDbLine
 10
115.7901923489887
 20
204.1913685581806
 30
0.0
 11
116.0957147974009
 21
207.2465893463707
 31
0.0
  0
LINE
  5
320
330
2
100
AcDbEntity
  8
0
  6
Continuous
 62
     7
100
AcDbLine
 10
116.0011613292142
 20
203.7008552549369
 30
0.0
 11
116.4581275425191
 21
203.3333147253598
 31
0.0
  0
LINE
  5
321
330
2
100
AcDbEntity
  8
0
  6
Continuous
 62
     7
100
AcDbLine
 10
116.0011613292142
 20
203.7008552549369
 30
0.0
 11
115.7217842227326
 21
203.5072881231552
 31
0.0
  0
LINE
  5
322
330
2
100
AcDbEntity
  8
0
  6
Continuous
 62
     7
100
AcDbLine
 10
116.2290108882712
 20
201.0421509545247
 30
0.0
 11
116.4581275425191
 21
203.3333147253598
 31
0.0
  0
LINE
  5
323
330
2
100
AcDbEntity
  8
0
  6
Continuous
 62
     7
100
AcDbLine
 10
115.7901923489887
 20
204.1913685581806
 30
0.0
 11
116.0123071383964
 21
204.0127203672446
 31
0.0
  0
LINE
  5
324
330
2
100
AcDbEntity
  8
0
  6
Continuous
 62
     7
100
AcDbLine
 10
116.2154538111046
 20
203.8493283406678
 30
0.0
 11
116.6724200244096
 21
203.4817878110907
 31
0.0
  0
ARC
  5
325
330
2
100
AcDbEntity
  8
0
  6
Continuous
 62
     7
100
AcDbCircle
 10
113.9397396093984
 20
207.2067878110908
 30
0.0
 40
0.4
100
AcDbArc
 50
60.35465686428254
 51
90.0
  0
ARC
  5
326
330
2
100
AcDbEntity
  8
0
  6
Continuous
 62
     7
100
AcDbCircle
 10
113.9397396093984
 20
207.2067878110908
 30
0.0
 40
0.4
100
AcDbArc
 50
354.2893999999998
 51
23.93474313571708
  0
ARC
  5
327
330
2
100
AcDbEntity
  8
0
  6
Continuous
 62
     7
100
AcDbCircle
 10
116.4937296687178
 20
207.2067878110908
 30
0.0
 40
0.4
100
AcDbArc
 50
150.3546568642826
 51
174.2893999999998
  0
ARC
  5
328
330
2
100
AcDbEntity
  8
0
  6
Continuous
 62
     7
100
AcDbCircle
 10
116.4937296687178
 20
207.2067878110908
 30
0.0
 40
0.4
100
AcDbArc
 50
90.0
 51
113.9347431357165
  0
LINE
  5
329
330
2
100
AcDbEntity
  8
0
  6
Continuous
 62
     7
100
AcDbLine
 10
116.146088165482
 20
207.4046397386227
 30
0.0
 11
116.7937001251282
 21
206.6890364920013
 31
0.0
  0
LINE
  5
32A
330
2
100
AcDbEntity
  8
0
  6
Continuous
 62
     7
100
AcDbLine
 10
116.331451308916
 20
207.5723910577121
 30
0.0
 11
116.9790632685622
 21
206.8567878110907
 31
0.0
  0
LINE
  5
32B
330
2
100
AcDbEntity
  8
0
  6
Continuous
 62
     7
100
AcDbLine
 10
116.5643141822047
 20
204.3951798376674
 30
0.0
 11
116.7937001251282
 21
206.6890364920013
 31
0.0
  0
LINE
  5
32C
330
2
100
AcDbEntity
  8
0
  6
Continuous
 62
     7
100
AcDbLine
 10
116.6724200244096
 20
203.4817878110907
 30
0.0
 11
118.2460076126979
 21
203.4817878110907
 31
0.0
  0
LINE
  5
32D
330
2
100
AcDbEntity
  8
0
  6
Continuous
 62
     7
100
AcDbLine
 10
116.3967622073608
 20
200.8567878110907
 30
0.0
 11
118.0344051990485
 21
200.8567878110907
 31
0.0
  0
LINE
  5
32E
330
2
100
AcDbEntity
  8
0
  6
Continuous
 62
     7
100
AcDbLine
 10
116.9790632685622
 20
206.8567878110907
 30
0.0
 11
118.6167062602499
 21
206.8567878110907
 31
0.0
  0
LINE
  5
32F
330
2
100
AcDbEntity
  8
0
  6
Continuous
 62
     7
100
AcDbLine
 10
116.4937296687178
 20
207.6067878110907
 30
0.0
 11
119.1897396093984
 21
207.6067878110907
 31
0.0
  0
LINE
  5
330
330
2
100
AcDbEntity
  8
0
  6
Continuous
 62
     7
100
AcDbLine
 10
116.7674608549127
 20
204.2317878110907
 30
0.0
 11
118.3410484432013
 21
204.2317878110907
 31
0.0
  0
LINE
  5
331
330
2
100
AcDbEntity
  8
0
  6
Continuous
 62
     7
100
AcDbLine
 10
127.3731216933427
 20
194.7280766545715
 30
0.0
 11
126.9845545175551
 21
195.1574386025444
 31
0.0
  0
LINE
  5
332
330
2
100
AcDbEntity
  8
0
  6
Continuous
 62
     7
100
AcDbLine
 10
127.2619038072823
 20
194.6274258631179
 30
0.0
 11
126.8733366314948
 21
195.0567878110907
 31
0.0
  0
LINE
  5
333
330
2
100
AcDbEntity
  8
0
  6
Continuous
 62
     7
100
AcDbLine
 10
124.5317337801641
 20
194.6067878110907
 30
0.0
 11
124.5767338346011
 21
195.0567878110907
 31
0.0
  0
LINE
  5
334
330
2
100
AcDbEntity
  8
0
  6
Continuous
 62
     7
100
AcDbLine
 10
124.9817337801641
 20
194.6067878110907
 30
0.0
 11
125.0267338346011
 21
195.0567878110907
 31
0.0
  0
ARC
  5
335
330
2
100
AcDbEntity
  8
0
  6
Continuous
 62
     7
100
AcDbCircle
 10
125.546930826993
 20
194.8467878110907
 30
0.0
 40
0.24
100
AcDbArc
 50
174.2893999999998
 51
203.9347431357171
  0
LINE
  5
336
330
2
100
AcDbEntity
  8
0
  6
Continuous
 62
     7
100
AcDbLine
 10
125.4282196704739
 20
194.6382029091494
 30
0.0
 11
125.8907508364821
 21
195.0567878110907
 31
0.0
  0
LINE
  5
337
330
2
100
AcDbEntity
  8
0
  6
Continuous
 62
     7
100
AcDbLine
 10
125.3275688790202
 20
194.7494207952097
 30
0.0
 11
125.7901000450285
 21
195.1680056971511
 31
0.0
  0
ARC
  5
338
330
2
100
AcDbEntity
  8
0
  6
Continuous
 62
     7
100
AcDbCircle
 10
124.0145367914015
 20
194.8467878110907
 30
0.0
 40
0.24
100
AcDbArc
 50
330.3546568642826
 51
354.2893999999998
  0
ARC
  5
339
330
2
100
AcDbEntity
  8
0
  6
Continuous
 62
     7
100
AcDbCircle
 10
122.3969308269932
 20
194.8467878110907
 30
0.0
 40
0.24
100
AcDbArc
 50
174.2893999999998
 51
203.9347431357171
  0
LINE
  5
33A
330
2
100
AcDbEntity
  8
0
  6
Continuous
 62
     7
100
AcDbLine
 10
122.2782196704738
 20
194.6382029091494
 30
0.0
 11
122.7407508364822
 21
195.0567878110907
 31
0.0
  0
LINE
  5
33B
330
2
100
AcDbEntity
  8
0
  6
Continuous
 62
     7
100
AcDbLine
 10
122.1775688790201
 20
194.7494207952097
 30
0.0
 11
122.6401000450284
 21
195.1680056971511
 31
0.0
  0
LINE
  5
33C
330
2
100
AcDbEntity
  8
0
  6
Continuous
 62
     7
100
AcDbLine
 10
124.2231216933428
 20
194.7280766545715
 30
0.0
 11
123.8345545175552
 21
195.1574386025444
 31
0.0
  0
LINE
  5
33D
330
2
100
AcDbEntity
  8
0
  6
Continuous
 62
     7
100
AcDbLine
 10
124.1119038072822
 20
194.6274258631179
 30
0.0
 11
123.7233366314947
 21
195.0567878110907
 31
0.0
  0
ARC
  5
33E
330
2
100
AcDbEntity
  8
0
  6
Continuous
 62
     7
100
AcDbCircle
 10
127.1645367914013
 20
194.8467878110907
 30
0.0
 40
0.24
100
AcDbArc
 50
330.3546568642826
 51
354.2893999999998
  0
LINE
  5
33F
330
2
100
AcDbEntity
  8
0
  6
Continuous
 62
     7
100
AcDbLine
 10
125.546930826993
 20
194.6067878110907
 30
0.0
 11
127.1645367914013
 21
194.6067878110907
 31
0.0
  0
LINE
  5
340
330
2
100
AcDbEntity
  8
0
  6
Continuous
 62
     7
100
AcDbLine
 10
124.5317337801641
 20
194.6067878110907
 30
0.0
 11
124.9817337801641
 21
194.6067878110907
 31
0.0
  0
ARC
  5
341
330
2
100
AcDbEntity
  8
0
  6
Continuous
 62
     7
100
AcDbCircle
 10
125.546930826993
 20
194.8467878110907
 30
0.0
 40
0.24
100
AcDbArc
 50
240.3546568642835
 51
270.0
  0
ARC
  5
342
330
2
100
AcDbEntity
  8
0
  6
Continuous
 62
     7
100
AcDbCircle
 10
124.0145367914015
 20
194.8467878110907
 30
0.0
 40
0.24
100
AcDbArc
 50
270.0
 51
293.9347431357165
  0
ARC
  5
343
330
2
100
AcDbEntity
  8
0
  6
Continuous
 62
     7
100
AcDbCircle
 10
122.3969308269932
 20
194.8467878110907
 30
0.0
 40
0.24
100
AcDbArc
 50
240.3546568642835
 51
270.0
  0
LINE
  5
344
330
2
100
AcDbEntity
  8
0
  6
Continuous
 62
     7
100
AcDbLine
 10
122.3969308269932
 20
194.6067878110907
 30
0.0
 11
124.0145367914015
 21
194.6067878110907
 31
0.0
  0
ARC
  5
345
330
2
100
AcDbEntity
  8
0
  6
Continuous
 62
     7
100
AcDbCircle
 10
127.1645367914013
 20
194.8467878110907
 30
0.0
 40
0.24
100
AcDbArc
 50
270.0
 51
293.9347431357165
  0
LINE
  5
346
330
2
100
AcDbEntity
  8
0
  6
Continuous
 62
     7
100
AcDbLine
 10
126.240131473203
 20
198.6567878110907
 30
0.0
 11
127.2227172682157
 21
198.6567878110907
 31
0.0
  0
LINE
  5
347
330
2
100
AcDbEntity
  8
0
  6
Continuous
 62
     7
100
AcDbLine
 10
125.9489313132962
 20
199.1067878110907
 30
0.0
 11
127.5665372777048
 21
199.1067878110907
 31
0.0
  0
LINE
  5
348
330
2
100
AcDbEntity
  8
0
  6
Continuous
 62
     7
100
AcDbLine
 10
127.3315023059692
 20
196.8612634933445
 30
0.0
 11
127.0573225779865
 21
197.0817878110907
 31
0.0
  0
LINE
  5
349
330
2
100
AcDbEntity
  8
0
  6
Continuous
 62
     7
100
AcDbLine
 10
127.1221860833093
 20
196.5337525951447
 30
0.0
 11
127.4533903095941
 21
196.7632282773984
 31
0.0
  0
LINE
  5
34A
330
2
100
AcDbEntity
  8
0
  6
Continuous
 62
     7
100
AcDbLine
 10
127.0002980796844
 20
196.6317878110907
 30
0.0
 11
127.3315023059692
 21
196.8612634933445
 31
0.0
  0
LINE
  5
34B
330
2
100
AcDbEntity
  8
0
  6
Continuous
 62
     7
100
AcDbLine
 10
125.8907508364821
 20
195.0567878110907
 30
0.0
 11
126.8733366314948
 21
195.0567878110907
 31
0.0
  0
LINE
  5
34C
330
2
100
AcDbEntity
  8
0
  6
Continuous
 62
     7
100
AcDbLine
 10
126.1131700250132
 20
197.0817878110907
 30
0.0
 11
127.0573225779865
 21
197.0817878110907
 31
0.0
  0
LINE
  5
34D
330
2
100
AcDbEntity
  8
0
  6
Continuous
 62
     7
100
AcDbLine
 10
126.0561455267113
 20
196.6317878110907
 30
0.0
 11
127.0002980796844
 21
196.6317878110907
 31
0.0
  0
LINE
  5
34E
330
2
100
AcDbEntity
  8
0
  6
Continuous
 62
     7
100
AcDbLine
 10
124.5767338346011
 20
195.0567878110907
 30
0.0
 11
125.0267338346011
 21
195.0567878110907
 31
0.0
  0
ARC
  5
34F
330
2
100
AcDbEntity
  8
0
  6
Continuous
 62
     7
100
AcDbCircle
 10
125.9489313132962
 20
198.8667878110907
 30
0.0
 40
0.24
100
AcDbArc
 50
150.3546568642826
 51
174.2893999999998
  0
ARC
  5
350
330
2
100
AcDbEntity
  8
0
  6
Continuous
 62
     7
100
AcDbCircle
 10
125.9489313132962
 20
198.8667878110907
 30
0.0
 40
0.24
100
AcDbArc
 50
90.0
 51
113.9347431357165
  0
LINE
  5
351
330
2
100
AcDbEntity
  8
0
  6
Continuous
 62
     7
100
AcDbLine
 10
125.7403464113549
 20
198.9854989676098
 30
0.0
 11
126.1289135871425
 21
198.556137019637
 31
0.0
  0
ARC
  5
352
330
2
100
AcDbEntity
  8
0
  6
Continuous
 62
     7
100
AcDbCircle
 10
124.4165372777047
 20
198.8667878110907
 30
0.0
 40
0.24
100
AcDbArc
 50
354.2893999999998
 51
23.93474313571708
  0
ARC
  5
353
330
2
100
AcDbEntity
  8
0
  6
Continuous
 62
     7
100
AcDbCircle
 10
124.4165372777047
 20
198.8667878110907
 30
0.0
 40
0.24
100
AcDbArc
 50
60.35465686428254
 51
90.0
  0
LINE
  5
354
330
2
100
AcDbEntity
  8
0
  6
Continuous
 62
     7
100
AcDbLine
 10
125.7901000450285
 20
195.1680056971511
 30
0.0
 11
125.9275700375772
 21
196.5427039596521
 31
0.0
  0
LINE
  5
355
330
2
100
AcDbEntity
  8
0
  6
Continuous
 62
     7
100
AcDbLine
 10
124.2533457141915
 20
194.8229068899227
 30
0.0
 11
124.4366591832388
 21
196.6560393628368
 31
0.0
  0
LINE
  5
356
330
2
100
AcDbEntity
  8
0
  6
Continuous
 62
     7
100
AcDbLine
 10
125.308121904203
 20
194.8706687322586
 30
0.0
 11
125.4857640457051
 21
196.6470879983294
 31
0.0
  0
LINE
  5
357
330
2
100
AcDbEntity
  8
0
  6
Continuous
 62
     7
100
AcDbLine
 10
125.9912820213885
 20
197.1798230270367
 30
0.0
 11
125.6600777951037
 21
196.950347344783
 31
0.0
  0
LINE
  5
358
330
2
100
AcDbEntity
  8
0
  6
Continuous
 62
     7
100
AcDbLine
 10
125.5268089214589
 20
197.0575362593446
 30
0.0
 11
125.6600777951037
 21
196.950347344783
 31
0.0
  0
LINE
  5
359
330
2
100
AcDbEntity
  8
0
  6
Continuous
 62
     7
100
AcDbLine
 10
126.1131700250132
 20
197.0817878110907
 30
0.0
 11
125.7819657987284
 21
196.8523121288369
 31
0.0
  0
LINE
  5
35A
330
2
100
AcDbEntity
  8
0
  6
Continuous
 62
     7
100
AcDbLine
 10
124.3100777951035
 20
196.950347344783
 30
0.0
 11
124.4777040589926
 21
197.066487623852
 31
0.0
  0
LINE
  5
35B
330
2
100
AcDbEntity
  8
0
  6
Continuous
 62
     7
100
AcDbLine
 10
125.7819657987284
 20
196.8523121288369
 30
0.0
 11
126.0561455267113
 21
196.6317878110907
 31
0.0
  0
LINE
  5
35C
330
2
100
AcDbEntity
  8
0
  6
Continuous
 62
     7
100
AcDbLine
 10
125.6533903095942
 20
196.7632282773984
 30
0.0
 11
125.9275700375772
 21
196.5427039596521
 31
0.0
  0
LINE
  5
35D
330
2
100
AcDbEntity
  8
0
  6
Continuous
 62
     7
100
AcDbLine
 10
124.4366591832388
 20
196.6560393628368
 30
0.0
 11
124.303390309594
 21
196.7632282773984
 31
0.0
  0
LINE
  5
35E
330
2
100
AcDbEntity
  8
0
  6
Continuous
 62
     7
100
AcDbLine
 10
125.6533903095942
 20
196.7632282773984
 30
0.0
 11
125.4857640457051
 21
196.6470879983294
 31
0.0
  0
LINE
  5
35F
330
2
100
AcDbEntity
  8
0
  6
Continuous
 62
     7
100
AcDbLine
 10
125.5268089214589
 20
197.0575362593446
 30
0.0
 11
125.7101223905063
 21
198.8906687322586
 31
0.0
  0
LINE
  5
360
330
2
100
AcDbEntity
  8
0
  6
Continuous
 62
     7
100
AcDbLine
 10
125.9912820213885
 20
197.1798230270367
 30
0.0
 11
126.1289135871425
 21
198.556137019637
 31
0.0
  0
LINE
  5
361
330
2
100
AcDbEntity
  8
0
  6
Continuous
 62
     7
100
AcDbLine
 10
124.4777040589926
 20
197.066487623852
 30
0.0
 11
124.6553462004947
 21
198.8429068899228
 31
0.0
  0
LINE
  5
362
330
2
100
AcDbEntity
  8
0
  6
Continuous
 62
     7
100
AcDbLine
 10
125.8515642974155
 20
199.0861497590636
 30
0.0
 11
126.240131473203
 21
198.6567878110907
 31
0.0
  0
LINE
  5
363
330
2
100
AcDbEntity
  8
0
  6
Continuous
 62
     7
100
AcDbLine
 10
126.9845545175551
 20
195.1574386025444
 30
0.0
 11
127.1221860833093
 21
196.5337525951447
 31
0.0
  0
LINE
  5
364
330
2
100
AcDbEntity
  8
0
  6
Continuous
 62
     7
100
AcDbLine
 10
124.0358980671205
 20
197.1708716625293
 30
0.0
 11
124.1733680596692
 21
198.5455699250303
 31
0.0
  0
LINE
  5
365
330
2
100
AcDbEntity
  8
0
  6
Continuous
 62
     7
100
AcDbLine
 10
124.5352484342238
 20
199.075372713032
 30
0.0
 11
124.0727172682157
 21
198.6567878110907
 31
0.0
  0
LINE
  5
366
330
2
100
AcDbEntity
  8
0
  6
Continuous
 62
     7
100
AcDbLine
 10
124.6358992256775
 20
198.9641548269717
 30
0.0
 11
124.1733680596692
 21
198.5455699250303
 31
0.0
  0
LINE
  5
367
330
2
100
AcDbEntity
  8
0
  6
Continuous
 62
     7
100
AcDbLine
 10
124.3100777951035
 20
196.950347344783
 30
0.0
 11
124.0358980671205
 21
197.1708716625293
 31
0.0
  0
LINE
  5
368
330
2
100
AcDbEntity
  8
0
  6
Continuous
 62
     7
100
AcDbLine
 10
123.9721860833092
 20
196.5337525951447
 30
0.0
 11
124.303390309594
 21
196.7632282773984
 31
0.0
  0
LINE
  5
369
330
2
100
AcDbEntity
  8
0
  6
Continuous
 62
     7
100
AcDbLine
 10
122.7015642974154
 20
199.0861497590636
 30
0.0
 11
123.090131473203
 21
198.6567878110907
 31
0.0
  0
LINE
  5
36A
330
2
100
AcDbEntity
  8
0
  6
Continuous
 62
     7
100
AcDbLine
 10
122.5903464113551
 20
198.9854989676098
 30
0.0
 11
122.9789135871426
 21
198.556137019637
 31
0.0
  0
ARC
  5
36B
330
2
100
AcDbEntity
  8
0
  6
Continuous
 62
     7
100
AcDbCircle
 10
122.7989313132964
 20
198.8667878110907
 30
0.0
 40
0.24
100
AcDbArc
 50
90.0
 51
113.9347431357165
  0
LINE
  5
36C
330
2
100
AcDbEntity
  8
0
  6
Continuous
 62
     7
100
AcDbLine
 10
122.6401000450284
 20
195.1680056971511
 30
0.0
 11
122.7775700375771
 21
196.5427039596521
 31
0.0
  0
LINE
  5
36D
330
2
100
AcDbEntity
  8
0
  6
Continuous
 62
     7
100
AcDbLine
 10
122.9631700250134
 20
197.0817878110907
 30
0.0
 11
122.6319657987285
 21
196.8523121288369
 31
0.0
  0
LINE
  5
36E
330
2
100
AcDbEntity
  8
0
  6
Continuous
 62
     7
100
AcDbLine
 10
122.8412820213884
 20
197.1798230270367
 30
0.0
 11
122.5100777951036
 21
196.950347344783
 31
0.0
  0
LINE
  5
36F
330
2
100
AcDbEntity
  8
0
  6
Continuous
 62
     7
100
AcDbLine
 10
122.5033903095941
 20
196.7632282773984
 30
0.0
 11
122.7775700375771
 21
196.5427039596521
 31
0.0
  0
LINE
  5
370
330
2
100
AcDbEntity
  8
0
  6
Continuous
 62
     7
100
AcDbLine
 10
122.6319657987285
 20
196.8523121288369
 30
0.0
 11
122.9061455267112
 21
196.6317878110907
 31
0.0
  0
ARC
  5
371
330
2
100
AcDbEntity
  8
0
  6
Continuous
 62
     7
100
AcDbCircle
 10
122.7989313132964
 20
198.8667878110907
 30
0.0
 40
0.24
100
AcDbArc
 50
150.3546568642826
 51
174.2893999999998
  0
LINE
  5
372
330
2
100
AcDbEntity
  8
0
  6
Continuous
 62
     7
100
AcDbLine
 10
122.3768089214591
 20
197.0575362593446
 30
0.0
 11
122.5100777951036
 21
196.950347344783
 31
0.0
  0
LINE
  5
373
330
2
100
AcDbEntity
  8
0
  6
Continuous
 62
     7
100
AcDbLine
 10
122.3768089214591
 20
197.0575362593446
 30
0.0
 11
122.5601223905062
 21
198.8906687322586
 31
0.0
  0
LINE
  5
374
330
2
100
AcDbEntity
  8
0
  6
Continuous
 62
     7
100
AcDbLine
 10
122.7407508364822
 20
195.0567878110907
 30
0.0
 11
123.7233366314947
 21
195.0567878110907
 31
0.0
  0
LINE
  5
375
330
2
100
AcDbEntity
  8
0
  6
Continuous
 62
     7
100
AcDbLine
 10
122.9061455267112
 20
196.6317878110907
 30
0.0
 11
123.8502980796845
 21
196.6317878110907
 31
0.0
  0
LINE
  5
376
330
2
100
AcDbEntity
  8
0
  6
Continuous
 62
     7
100
AcDbLine
 10
122.9631700250134
 20
197.0817878110907
 30
0.0
 11
123.9073225779864
 21
197.0817878110907
 31
0.0
  0
LINE
  5
377
330
2
100
AcDbEntity
  8
0
  6
Continuous
 62
     7
100
AcDbLine
 10
122.8412820213884
 20
197.1798230270367
 30
0.0
 11
122.9789135871426
 21
198.556137019637
 31
0.0
  0
LINE
  5
378
330
2
100
AcDbEntity
  8
0
  6
Continuous
 62
     7
100
AcDbLine
 10
122.1581219042029
 20
194.8706687322586
 30
0.0
 11
122.3357640457052
 21
196.6470879983294
 31
0.0
  0
LINE
  5
379
330
2
100
AcDbEntity
  8
0
  6
Continuous
 62
     7
100
AcDbLine
 10
122.5033903095941
 20
196.7632282773984
 30
0.0
 11
122.3357640457052
 21
196.6470879983294
 31
0.0
  0
LINE
  5
37A
330
2
100
AcDbEntity
  8
0
  6
Continuous
 62
     7
100
AcDbLine
 10
123.090131473203
 20
198.6567878110907
 30
0.0
 11
124.0727172682157
 21
198.6567878110907
 31
0.0
  0
LINE
  5
37B
330
2
100
AcDbEntity
  8
0
  6
Continuous
 62
     7
100
AcDbLine
 10
123.8345545175552
 20
195.1574386025444
 30
0.0
 11
123.9721860833092
 21
196.5337525951447
 31
0.0
  0
LINE
  5
37C
330
2
100
AcDbEntity
  8
0
  6
Continuous
 62
     7
100
AcDbLine
 10
124.1815023059694
 20
196.8612634933445
 30
0.0
 11
123.9073225779864
 21
197.0817878110907
 31
0.0
  0
LINE
  5
37D
330
2
100
AcDbEntity
  8
0
  6
Continuous
 62
     7
100
AcDbLine
 10
123.8502980796845
 20
196.6317878110907
 30
0.0
 11
124.1815023059694
 21
196.8612634933445
 31
0.0
  0
LINE
  5
37E
330
2
100
AcDbEntity
  8
0
  6
Continuous
 62
     7
100
AcDbLine
 10
122.7989313132964
 20
199.1067878110907
 30
0.0
 11
124.4165372777047
 21
199.1067878110907
 31
0.0
  0
ARC
  5
37F
330
2
100
AcDbEntity
  8
0
  6
Continuous
 62
     7
100
AcDbCircle
 10
127.5665372777048
 20
198.8667878110907
 30
0.0
 40
0.24
100
AcDbArc
 50
60.35465686428254
 51
90.0
  0
LINE
  5
380
330
2
100
AcDbEntity
  8
0
  6
Continuous
 62
     7
100
AcDbLine
 10
127.7858992256776
 20
198.9641548269717
 30
0.0
 11
127.3233680596693
 21
198.5455699250303
 31
0.0
  0
LINE
  5
381
330
2
100
AcDbEntity
  8
0
  6
Continuous
 62
     7
100
AcDbLine
 10
127.6852484342239
 20
199.075372713032
 30
0.0
 11
127.2227172682157
 21
198.6567878110907
 31
0.0
  0
LINE
  5
382
330
2
100
AcDbEntity
  8
0
  6
Continuous
 62
     7
100
AcDbLine
 10
127.4600777951036
 20
196.950347344783
 30
0.0
 11
127.6277040589925
 21
197.066487623852
 31
0.0
  0
LINE
  5
383
330
2
100
AcDbEntity
  8
0
  6
Continuous
 62
     7
100
AcDbLine
 10
127.4033457141916
 20
194.8229068899227
 30
0.0
 11
127.5866591832389
 21
196.6560393628368
 31
0.0
  0
LINE
  5
384
330
2
100
AcDbEntity
  8
0
  6
Continuous
 62
     7
100
AcDbLine
 10
127.4600777951036
 20
196.950347344783
 30
0.0
 11
127.1858980671206
 21
197.1708716625293
 31
0.0
  0
LINE
  5
385
330
2
100
AcDbEntity
  8
0
  6
Continuous
 62
     7
100
AcDbLine
 10
127.5866591832389
 20
196.6560393628368
 30
0.0
 11
127.4533903095941
 21
196.7632282773984
 31
0.0
  0
LINE
  5
386
330
2
100
AcDbEntity
  8
0
  6
Continuous
 62
     7
100
AcDbLine
 10
127.1858980671206
 20
197.1708716625293
 30
0.0
 11
127.3233680596693
 21
198.5455699250303
 31
0.0
  0
ARC
  5
387
330
2
100
AcDbEntity
  8
0
  6
Continuous
 62
     7
100
AcDbCircle
 10
127.5665372777048
 20
198.8667878110907
 30
0.0
 40
0.24
100
AcDbArc
 50
354.2893999999998
 51
23.93474313571708
  0
LINE
  5
388
330
2
100
AcDbEntity
  8
0
  6
Continuous
 62
     7
100
AcDbLine
 10
127.6277040589925
 20
197.066487623852
 30
0.0
 11
127.8053462004948
 21
198.8429068899228
 31
0.0
  0
ARC
  5
389
330
2
100
AcDbEntity
  8
0
  6
Continuous
 62
     7
100
AcDbCircle
 10
122.6817337801642
 20
211.1067878110907
 30
0.0
 40
0.5
100
AcDbArc
 50
270.0
 51
0.0
  0
LINE
  5
38A
330
2
100
AcDbEntity
  8
0
  6
Continuous
 62
     7
100
AcDbLine
 10
123.1817337801642
 20
211.1067878110907
 30
0.0
 11
123.1817337801642
 21
211.1067878110907
 31
0.0
  0
ARC
  5
38B
330
2
100
AcDbEntity
  8
0
  6
Continuous
 62
     7
100
AcDbCircle
 10
122.6817337801642
 20
211.1067878110907
 30
0.0
 40
0.5
100
AcDbArc
 50
0.0
 51
90.0
  0
LINE
  5
38C
330
2
100
AcDbEntity
  8
0
  6
Continuous
 62
     7
100
AcDbLine
 10
124.1677536702098
 20
200.4669862758108
 30
0.0
 11
124.4732761186217
 21
203.5222070640009
 31
0.0
  0
LINE
  5
38D
330
2
100
AcDbEntity
  8
0
  6
Continuous
 62
     7
100
AcDbLine
 10
124.1173803021286
 20
200.3089358835588
 30
0.0
 11
123.4697683424825
 21
201.0245391301802
 31
0.0
  0
LINE
  5
38E
330
2
100
AcDbEntity
  8
0
  6
Continuous
 62
     7
100
AcDbLine
 10
123.9320171586944
 20
200.1411845644693
 30
0.0
 11
123.2844051990485
 21
200.8567878110907
 31
0.0
  0
ARC
  5
38F
330
2
100
AcDbEntity
  8
0
  6
Continuous
 62
     7
100
AcDbCircle
 10
123.769738798893
 20
200.5067878110907
 30
0.0
 40
0.4
100
AcDbArc
 50
330.3546568642826
 51
354.2893999999998
  0
ARC
  5
390
330
2
100
AcDbEntity
  8
0
  6
Continuous
 62
     7
100
AcDbCircle
 10
123.769738798893
 20
200.5067878110907
 30
0.0
 40
0.4
100
AcDbArc
 50
270.0
 51
293.9347431357165
  0
LINE
  5
391
330
2
100
AcDbEntity
  8
0
  6
Continuous
 62
     7
100
AcDbLine
 10
124.5416842448783
 20
204.2062874990263
 30
0.0
 11
124.8377544807151
 21
207.1669862758108
 31
0.0
  0
LINE
  5
392
330
2
100
AcDbEntity
  8
0
  6
Continuous
 62
     7
100
AcDbLine
 10
124.4732761186217
 20
203.5222070640009
 30
0.0
 11
124.2511613292142
 21
203.7008552549369
 31
0.0
  0
LINE
  5
393
330
2
100
AcDbEntity
  8
0
  6
Continuous
 62
     7
100
AcDbLine
 10
124.2623071383964
 20
204.0127203672446
 30
0.0
 11
124.5416842448783
 21
204.2062874990263
 31
0.0
  0
LINE
  5
394
330
2
100
AcDbEntity
  8
0
  6
Continuous
 62
     7
100
AcDbLine
 10
124.8053428560199
 20
207.3690661708922
 30
0.0
 11
124.0344575793394
 21
206.6714246676566
 31
0.0
  0
ARC
  5
395
330
2
100
AcDbEntity
  8
0
  6
Continuous
 62
     7
100
AcDbCircle
 10
124.4397396093984
 20
207.2067878110908
 30
0.0
 40
0.4
100
AcDbArc
 50
354.2893999999998
 51
23.93474313571708
  0
ARC
  5
396
330
2
100
AcDbEntity
  8
0
  6
Continuous
 62
     7
100
AcDbCircle
 10
124.4397396093984
 20
207.2067878110908
 30
0.0
 40
0.4
100
AcDbArc
 50
60.35465686428254
 51
90.0
  0
LINE
  5
397
330
2
100
AcDbEntity
  8
0
  6
Continuous
 62
     7
100
AcDbLine
 10
123.4697683424825
 20
201.0245391301802
 30
0.0
 11
123.6991542854059
 21
203.318395784514
 31
0.0
  0
LINE
  5
398
330
2
100
AcDbEntity
  8
0
  6
Continuous
 62
     7
100
AcDbLine
 10
121.9224200244096
 20
203.4817878110907
 30
0.0
 11
123.4960076126979
 21
203.4817878110907
 31
0.0
  0
LINE
  5
399
330
2
100
AcDbEntity
  8
0
  6
Continuous
 62
     7
100
AcDbLine
 10
122.2290632685622
 20
206.8567878110907
 30
0.0
 11
123.8667062602499
 21
206.8567878110907
 31
0.0
  0
LINE
  5
39A
330
2
100
AcDbEntity
  8
0
  6
Continuous
 62
     7
100
AcDbLine
 10
122.0174608549127
 20
204.2317878110907
 30
0.0
 11
123.5910484432013
 21
204.2317878110907
 31
0.0
  0
LINE
  5
39B
330
2
100
AcDbEntity
  8
0
  6
Continuous
 62
     7
100
AcDbLine
 10
124.048014656506
 20
203.8642472815136
 30
0.0
 11
123.5910484432013
 21
204.2317878110907
 31
0.0
  0
LINE
  5
39C
330
2
100
AcDbEntity
  8
0
  6
Continuous
 62
     7
100
AcDbLine
 10
124.2623071383964
 20
204.0127203672446
 30
0.0
 11
123.8053409250915
 21
204.3802608968217
 31
0.0
  0
LINE
  5
39D
330
2
100
AcDbEntity
  8
0
  6
Continuous
 62
     7
100
AcDbLine
 10
123.4960076126979
 20
203.4817878110907
 30
0.0
 11
124.048014656506
 21
203.8642472815136
 31
0.0
  0
LINE
  5
39E
330
2
100
AcDbEntity
  8
0
  6
Continuous
 62
     7
100
AcDbLine
 10
123.6991542854059
 20
203.318395784514
 30
0.0
 11
124.2511613292142
 21
203.7008552549369
 31
0.0
  0
LINE
  5
39F
330
2
100
AcDbEntity
  8
0
  6
Continuous
 62
     7
100
AcDbLine
 10
124.6375915369303
 20
207.5544293143263
 30
0.0
 11
123.8667062602499
 21
206.8567878110907
 31
0.0
  0
LINE
  5
3A0
330
2
100
AcDbEntity
  8
0
  6
Continuous
 62
     7
100
AcDbLine
 10
123.8053409250915
 20
204.3802608968217
 30
0.0
 11
124.0344575793394
 21
206.6714246676566
 31
0.0
  0
ARC
  5
3A1
330
2
100
AcDbEntity
  8
0
  6
Continuous
 62
     7
 48
2.0
100
AcDbCircle
 10
103.6817337801662
 20
194.6067878110859
 30
0.0
 40
1.0
100
AcDbArc
 50
180.0
 51
270.0
  0
ARC
  5
3A2
330
2
100
AcDbEntity
  8
0
  6
Continuous
 62
     7
100
AcDbCircle
 10
107.6817337801642
 20
211.1067878110907
 30
0.0
 40
0.5
100
AcDbArc
 50
0.0
 51
90.0
  0
LINE
  5
3A3
330
2
100
AcDbEntity
  8
0
  6
Continuous
 62
     7
100
AcDbLine
 10
108.1817337801642
 20
211.1067878110907
 30
0.0
 11
108.1817337801642
 21
211.1067878110907
 31
0.0
  0
ARC
  5
3A4
330
2
100
AcDbEntity
  8
0
  6
Continuous
 62
     7
100
AcDbCircle
 10
107.6817337801642
 20
211.1067878110907
 30
0.0
 40
0.5
100
AcDbArc
 50
270.0
 51
0.0
  0
ARC
  5
3A5
330
2
100
AcDbEntity
  8
0
  6
Continuous
 62
     7
100
AcDbCircle
 10
110.1817337801642
 20
211.1067878110907
 30
0.0
 40
0.5
100
AcDbArc
 50
180.0
 51
270.0
  0
LINE
  5
3A6
330
2
100
AcDbEntity
  8
0
  6
Continuous
 62
     7
100
AcDbLine
 10
109.6817337801642
 20
211.1067878110907
 30
0.0
 11
109.6817337801642
 21
211.1067878110907
 31
0.0
  0
ARC
  5
3A7
330
2
100
AcDbEntity
  8
0
  6
Continuous
 62
     7
100
AcDbCircle
 10
110.1817337801642
 20
211.1067878110907
 30
0.0
 40
0.5
100
AcDbArc
 50
90.0
 51
180.0
  0
LINE
  5
3A8
330
2
100
AcDbEntity
  8
0
  6
Continuous
 62
     7
100
AcDbLine
 10
105.1817337801642
 20
211.6067878110907
 30
0.0
 11
107.6817337801642
 21
211.6067878110907
 31
0.0
  0
LINE
  5
3A9
330
2
100
AcDbEntity
  8
0
  6
Continuous
 62
     7
100
AcDbLine
 10
105.1817337801642
 20
210.6067878110907
 30
0.0
 11
107.6817337801642
 21
210.6067878110907
 31
0.0
  0
LINE
  5
3AA
330
2
100
AcDbEntity
  8
0
  6
Continuous
 62
     7
100
AcDbLine
 10
110.1817337801642
 20
210.6067878110907
 30
0.0
 11
112.6817337801642
 21
210.6067878110907
 31
0.0
  0
LINE
  5
3AB
330
2
100
AcDbEntity
  8
0
  6
Continuous
 62
     7
100
AcDbLine
 10
110.1817337801642
 20
211.6067878110907
 30
0.0
 11
112.6817337801642
 21
211.6067878110907
 31
0.0
  0
LINE
  5
3AC
330
2
100
AcDbEntity
  8
0
  6
Continuous
 62
     7
100
AcDbLine
 10
104.6817337801642
 20
211.1067878110907
 30
0.0
 11
104.6817337801642
 21
211.1067878110907
 31
0.0
  0
ARC
  5
3AD
330
2
100
AcDbEntity
  8
0
  6
Continuous
 62
     7
100
AcDbCircle
 10
105.1817337801642
 20
211.1067878110907
 30
0.0
 40
0.5
100
AcDbArc
 50
90.0
 51
180.0
  0
ARC
  5
3AE
330
2
100
AcDbEntity
  8
0
  6
Continuous
 62
     7
100
AcDbCircle
 10
105.1817337801642
 20
211.1067878110907
 30
0.0
 40
0.5
100
AcDbArc
 50
180.0
 51
270.0
  0
LINE
  5
3AF
330
2
100
AcDbEntity
  8
0
  6
Continuous
 62
     7
100
AcDbLine
 10
108.4177536702098
 20
200.4669862758108
 30
0.0
 11
108.7232761186217
 21
203.5222070640009
 31
0.0
  0
LINE
  5
3B0
330
2
100
AcDbEntity
  8
0
  6
Continuous
 62
     7
100
AcDbLine
 10
108.3673803021286
 20
200.3089358835588
 30
0.0
 11
107.7197683424826
 21
201.0245391301802
 31
0.0
  0
LINE
  5
3B1
330
2
100
AcDbEntity
  8
0
  6
Continuous
 62
     7
100
AcDbLine
 10
108.1820171586944
 20
200.1411845644693
 30
0.0
 11
107.5344051990485
 21
200.8567878110907
 31
0.0
  0
LINE
  5
3B2
330
2
100
AcDbEntity
  8
0
  6
Continuous
 62
     7
100
AcDbLine
 10
108.8817337801643
 20
200.1067878110907
 30
0.0
 11
108.9567338708923
 21
200.8567878110907
 31
0.0
  0
LINE
  5
3B3
330
2
100
AcDbEntity
  8
0
  6
Continuous
 62
     7
100
AcDbLine
 10
109.6317337801642
 20
200.1067878110907
 30
0.0
 11
109.7067338708925
 21
200.8567878110907
 31
0.0
  0
LINE
  5
3B4
330
2
100
AcDbEntity
  8
0
  6
Continuous
 62
     7
100
AcDbLine
 10
110.1757139868955
 20
200.5465893463707
 30
0.0
 11
110.4717842227326
 21
203.5072881231552
 31
0.0
  0
LINE
  5
3B5
330
2
100
AcDbEntity
  8
0
  6
Continuous
 62
     7
100
AcDbLine
 10
110.3758769306803
 20
200.1591463078552
 30
0.0
 11
111.1467622073607
 21
200.8567878110907
 31
0.0
  0
LINE
  5
3B6
330
2
100
AcDbEntity
  8
0
  6
Continuous
 62
     7
100
AcDbLine
 10
110.2081256115909
 20
200.3445094512892
 30
0.0
 11
110.9790108882712
 21
201.0421509545247
 31
0.0
  0
LINE
  5
3B7
330
2
100
AcDbEntity
  8
0
  6
Continuous
 62
     7
100
AcDbLine
 10
104.9257139868955
 20
200.5465893463707
 30
0.0
 11
105.2217842227326
 21
203.5072881231552
 31
0.0
  0
LINE
  5
3B8
330
2
100
AcDbEntity
  8
0
  6
Continuous
 62
     7
100
AcDbLine
 10
104.9581256115909
 20
200.3445094512892
 30
0.0
 11
105.7290108882712
 21
201.0421509545247
 31
0.0
  0
LINE
  5
3B9
330
2
100
AcDbEntity
  8
0
  6
Continuous
 62
     7
100
AcDbLine
 10
105.1258769306803
 20
200.1591463078552
 30
0.0
 11
105.8967622073607
 21
200.8567878110907
 31
0.0
  0
ARC
  5
3BA
330
2
100
AcDbEntity
  8
0
  6
Continuous
 62
     7
100
AcDbCircle
 10
108.019738798893
 20
200.5067878110907
 30
0.0
 40
0.4
100
AcDbArc
 50
270.0
 51
293.9347431357165
  0
ARC
  5
3BB
330
2
100
AcDbEntity
  8
0
  6
Continuous
 62
     7
100
AcDbCircle
 10
108.019738798893
 20
200.5067878110907
 30
0.0
 40
0.4
100
AcDbArc
 50
330.3546568642826
 51
354.2893999999998
  0
LINE
  5
3BC
330
2
100
AcDbEntity
  8
0
  6
Continuous
 62
     7
100
AcDbLine
 10
108.8817337801643
 20
200.1067878110907
 30
0.0
 11
109.6317337801642
 21
200.1067878110907
 31
0.0
  0
ARC
  5
3BD
330
2
100
AcDbEntity
  8
0
  6
Continuous
 62
     7
100
AcDbCircle
 10
110.5737288582122
 20
200.5067878110907
 30
0.0
 40
0.4
100
AcDbArc
 50
174.2893999999998
 51
203.9347431357171
  0
ARC
  5
3BE
330
2
100
AcDbEntity
  8
0
  6
Continuous
 62
     7
100
AcDbCircle
 10
110.5737288582122
 20
200.5067878110907
 30
0.0
 40
0.4
100
AcDbArc
 50
240.3546568642835
 51
270.0
  0
ARC
  5
3BF
330
2
100
AcDbEntity
  8
0
  6
Continuous
 62
     7
100
AcDbCircle
 10
105.3237288582122
 20
200.5067878110907
 30
0.0
 40
0.4
100
AcDbArc
 50
174.2893999999998
 51
203.9347431357171
  0
ARC
  5
3C0
330
2
100
AcDbEntity
  8
0
  6
Continuous
 62
     7
100
AcDbCircle
 10
105.3237288582122
 20
200.5067878110907
 30
0.0
 40
0.4
100
AcDbArc
 50
240.3546568642835
 51
270.0
  0
LINE
  5
3C1
330
2
100
AcDbEntity
  8
0
  6
Continuous
 62
     7
100
AcDbLine
 10
105.3237288582122
 20
200.1067878110907
 30
0.0
 11
108.019738798893
 21
200.1067878110907
 31
0.0
  0
LINE
  5
3C2
330
2
100
AcDbEntity
  8
0
  6
Continuous
 62
     7
100
AcDbLine
 10
111.3143141822047
 20
204.3951798376674
 30
0.0
 11
110.7623071383964
 21
204.0127203672446
 31
0.0
  0
LINE
  5
3C3
330
2
100
AcDbEntity
  8
0
  6
Continuous
 62
     7
100
AcDbLine
 10
111.5174608549127
 20
204.2317878110907
 30
0.0
 11
110.9654538111046
 21
203.8493283406678
 31
0.0
  0
LINE
  5
3C4
330
2
100
AcDbEntity
  8
0
  6
Continuous
 62
     7
100
AcDbLine
 10
110.5401923489887
 20
204.1913685581806
 30
0.0
 11
110.8457147974009
 21
207.2465893463707
 31
0.0
  0
LINE
  5
3C5
330
2
100
AcDbEntity
  8
0
  6
Continuous
 62
     7
100
AcDbLine
 10
106.2674608549127
 20
204.2317878110907
 30
0.0
 11
105.7154538111046
 21
203.8493283406678
 31
0.0
  0
LINE
  5
3C6
330
2
100
AcDbEntity
  8
0
  6
Continuous
 62
     7
100
AcDbLine
 10
108.298014656506
 20
203.8642472815136
 30
0.0
 11
107.8410484432013
 21
204.2317878110907
 31
0.0
  0
LINE
  5
3C7
330
2
100
AcDbEntity
  8
0
  6
Continuous
 62
     7
100
AcDbLine
 10
106.0643141822047
 20
204.3951798376674
 30
0.0
 11
105.5123071383964
 21
204.0127203672446
 31
0.0
  0
LINE
  5
3C8
330
2
100
AcDbEntity
  8
0
  6
Continuous
 62
     7
100
AcDbLine
 10
108.5123071383964
 20
204.0127203672446
 30
0.0
 11
108.0553409250917
 21
204.3802608968217
 31
0.0
  0
LINE
  5
3C9
330
2
100
AcDbEntity
  8
0
  6
Continuous
 62
     7
100
AcDbLine
 10
108.7916842448783
 20
204.2062874990263
 30
0.0
 11
109.0877544807151
 21
207.1669862758108
 31
0.0
  0
LINE
  5
3CA
330
2
100
AcDbEntity
  8
0
  6
Continuous
 62
     7
100
AcDbLine
 10
110.9654538111046
 20
203.8493283406678
 30
0.0
 11
111.4224200244096
 21
203.4817878110907
 31
0.0
  0
LINE
  5
3CB
330
2
100
AcDbEntity
  8
0
  6
Continuous
 62
     7
100
AcDbLine
 10
110.7511613292142
 20
203.7008552549369
 30
0.0
 11
111.2081275425191
 21
203.3333147253598
 31
0.0
  0
LINE
  5
3CC
330
2
100
AcDbEntity
  8
0
  6
Continuous
 62
     7
100
AcDbLine
 10
110.9790108882712
 20
201.0421509545247
 30
0.0
 11
111.2081275425191
 21
203.3333147253598
 31
0.0
  0
LINE
  5
3CD
330
2
100
AcDbEntity
  8
0
  6
Continuous
 62
     7
100
AcDbLine
 10
110.5401923489887
 20
204.1913685581806
 30
0.0
 11
110.7623071383964
 21
204.0127203672446
 31
0.0
  0
LINE
  5
3CE
330
2
100
AcDbEntity
  8
0
  6
Continuous
 62
     7
100
AcDbLine
 10
105.5011613292142
 20
203.7008552549369
 30
0.0
 11
105.9581275425191
 21
203.3333147253598
 31
0.0
  0
LINE
  5
3CF
330
2
100
AcDbEntity
  8
0
  6
Continuous
 62
     7
100
AcDbLine
 10
105.7154538111046
 20
203.8493283406678
 30
0.0
 11
106.1724200244096
 21
203.4817878110907
 31
0.0
  0
LINE
  5
3D0
330
2
100
AcDbEntity
  8
0
  6
Continuous
 62
     7
100
AcDbLine
 10
107.7460076126979
 20
203.4817878110907
 30
0.0
 11
108.298014656506
 21
203.8642472815136
 31
0.0
  0
LINE
  5
3D1
330
2
100
AcDbEntity
  8
0
  6
Continuous
 62
     7
100
AcDbLine
 10
107.9491542854059
 20
203.318395784514
 30
0.0
 11
108.5011613292142
 21
203.7008552549369
 31
0.0
  0
LINE
  5
3D2
330
2
100
AcDbEntity
  8
0
  6
Continuous
 62
     7
100
AcDbLine
 10
108.7232761186217
 20
203.5222070640009
 30
0.0
 11
108.5011613292142
 21
203.7008552549369
 31
0.0
  0
LINE
  5
3D3
330
2
100
AcDbEntity
  8
0
  6
Continuous
 62
     7
100
AcDbLine
 10
106.1724200244096
 20
203.4817878110907
 30
0.0
 11
107.7460076126979
 21
203.4817878110907
 31
0.0
  0
LINE
  5
3D4
330
2
100
AcDbEntity
  8
0
  6
Continuous
 62
     7
100
AcDbLine
 10
107.7197683424826
 20
201.0245391301802
 30
0.0
 11
107.9491542854059
 21
203.318395784514
 31
0.0
  0
LINE
  5
3D5
330
2
100
AcDbEntity
  8
0
  6
Continuous
 62
     7
100
AcDbLine
 10
105.8967622073607
 20
200.8567878110907
 30
0.0
 11
107.5344051990485
 21
200.8567878110907
 31
0.0
  0
LINE
  5
3D6
330
2
100
AcDbEntity
  8
0
  6
Continuous
 62
     7
100
AcDbLine
 10
105.7290108882712
 20
201.0421509545247
 30
0.0
 11
105.9581275425191
 21
203.3333147253598
 31
0.0
  0
LINE
  5
3D7
330
2
100
AcDbEntity
  8
0
  6
Continuous
 62
     7
100
AcDbLine
 10
108.9567338708923
 20
200.8567878110907
 30
0.0
 11
109.7067338708925
 21
200.8567878110907
 31
0.0
  0
LINE
  5
3D8
330
2
100
AcDbEntity
  8
0
  6
Continuous
 62
     7
100
AcDbLine
 10
108.5123071383964
 20
204.0127203672446
 30
0.0
 11
108.7916842448783
 21
204.2062874990263
 31
0.0
  0
LINE
  5
3D9
330
2
100
AcDbEntity
  8
0
  6
Continuous
 62
     7
100
AcDbLine
 10
110.7511613292142
 20
203.7008552549369
 30
0.0
 11
110.4717842227326
 21
203.5072881231552
 31
0.0
  0
ARC
  5
3DA
330
2
100
AcDbEntity
  8
0
  6
Continuous
 62
     7
100
AcDbCircle
 10
111.2437296687178
 20
207.2067878110908
 30
0.0
 40
0.4
100
AcDbArc
 50
150.3546568642826
 51
174.2893999999998
  0
ARC
  5
3DB
330
2
100
AcDbEntity
  8
0
  6
Continuous
 62
     7
100
AcDbCircle
 10
111.2437296687178
 20
207.2067878110908
 30
0.0
 40
0.4
100
AcDbArc
 50
90.0
 51
113.9347431357165
  0
LINE
  5
3DC
330
2
100
AcDbEntity
  8
0
  6
Continuous
 62
     7
100
AcDbLine
 10
110.896088165482
 20
207.4046397386227
 30
0.0
 11
111.5437001251282
 21
206.6890364920013
 31
0.0
  0
LINE
  5
3DD
330
2
100
AcDbEntity
  8
0
  6
Continuous
 62
     7
100
AcDbLine
 10
111.3143141822047
 20
204.3951798376674
 30
0.0
 11
111.5437001251282
 21
206.6890364920013
 31
0.0
  0
LINE
  5
3DE
330
2
100
AcDbEntity
  8
0
  6
Continuous
 62
     7
100
AcDbLine
 10
105.9937296687178
 20
207.6067878110907
 30
0.0
 11
108.6897396093984
 21
207.6067878110907
 31
0.0
  0
LINE
  5
3DF
330
2
100
AcDbEntity
  8
0
  6
Continuous
 62
     7
100
AcDbLine
 10
106.4790632685622
 20
206.8567878110907
 30
0.0
 11
108.1167062602499
 21
206.8567878110907
 31
0.0
  0
LINE
  5
3E0
330
2
100
AcDbEntity
  8
0
  6
Continuous
 62
     7
100
AcDbLine
 10
105.831451308916
 20
207.5723910577121
 30
0.0
 11
106.4790632685622
 21
206.8567878110907
 31
0.0
  0
LINE
  5
3E1
330
2
100
AcDbEntity
  8
0
  6
Continuous
 62
     7
100
AcDbLine
 10
105.646088165482
 20
207.4046397386227
 30
0.0
 11
106.2937001251282
 21
206.6890364920013
 31
0.0
  0
ARC
  5
3E2
330
2
100
AcDbEntity
  8
0
  6
Continuous
 62
     7
100
AcDbCircle
 10
105.9937296687178
 20
207.2067878110908
 30
0.0
 40
0.4
100
AcDbArc
 50
90.0
 51
113.9347431357165
  0
ARC
  5
3E3
330
2
100
AcDbEntity
  8
0
  6
Continuous
 62
     7
100
AcDbCircle
 10
105.9937296687178
 20
207.2067878110908
 30
0.0
 40
0.4
100
AcDbArc
 50
150.3546568642826
 51
174.2893999999998
  0
LINE
  5
3E4
330
2
100
AcDbEntity
  8
0
  6
Continuous
 62
     7
100
AcDbLine
 10
108.8875915369303
 20
207.5544293143263
 30
0.0
 11
108.1167062602499
 21
206.8567878110907
 31
0.0
  0
LINE
  5
3E5
330
2
100
AcDbEntity
  8
0
  6
Continuous
 62
     7
100
AcDbLine
 10
109.0553428560199
 20
207.3690661708922
 30
0.0
 11
108.2844575793394
 21
206.6714246676566
 31
0.0
  0
ARC
  5
3E6
330
2
100
AcDbEntity
  8
0
  6
Continuous
 62
     7
100
AcDbCircle
 10
108.6897396093984
 20
207.2067878110908
 30
0.0
 40
0.4
100
AcDbArc
 50
354.2893999999998
 51
23.93474313571708
  0
ARC
  5
3E7
330
2
100
AcDbEntity
  8
0
  6
Continuous
 62
     7
100
AcDbCircle
 10
108.6897396093984
 20
207.2067878110908
 30
0.0
 40
0.4
100
AcDbArc
 50
60.35465686428254
 51
90.0
  0
LINE
  5
3E8
330
2
100
AcDbEntity
  8
0
  6
Continuous
 62
     7
100
AcDbLine
 10
106.2674608549127
 20
204.2317878110907
 30
0.0
 11
107.8410484432013
 21
204.2317878110907
 31
0.0
  0
LINE
  5
3E9
330
2
100
AcDbEntity
  8
0
  6
Continuous
 62
     7
100
AcDbLine
 10
106.0643141822047
 20
204.3951798376674
 30
0.0
 11
106.2937001251282
 21
206.6890364920013
 31
0.0
  0
LINE
  5
3EA
330
2
100
AcDbEntity
  8
0
  6
Continuous
 62
     7
100
AcDbLine
 10
108.0553409250917
 20
204.3802608968217
 30
0.0
 11
108.2844575793394
 21
206.6714246676566
 31
0.0
  0
LINE
  5
3EB
330
2
100
AcDbEntity
  8
0
  6
Continuous
 62
     7
100
AcDbLine
 10
105.2901923489887
 20
204.1913685581806
 30
0.0
 11
105.5957147974009
 21
207.2465893463707
 31
0.0
  0
LINE
  5
3EC
330
2
100
AcDbEntity
  8
0
  6
Continuous
 62
     7
100
AcDbLine
 10
105.5011613292142
 20
203.7008552549369
 30
0.0
 11
105.2217842227326
 21
203.5072881231552
 31
0.0
  0
LINE
  5
3ED
330
2
100
AcDbEntity
  8
0
  6
Continuous
 62
     7
100
AcDbLine
 10
105.2901923489887
 20
204.1913685581806
 30
0.0
 11
105.5123071383964
 21
204.0127203672446
 31
0.0
  0
LINE
  5
3EE
330
2
100
AcDbEntity
  8
0
  6
Continuous
 62
     7
100
AcDbLine
 10
111.081451308916
 20
207.5723910577121
 30
0.0
 11
111.7290632685622
 21
206.8567878110907
 31
0.0
  0
LINE
  5
3EF
330
2
100
AcDbEntity
  8
0
  6
Continuous
 62
     7
100
AcDbLine
 10
111.1467622073607
 20
200.8567878110907
 30
0.0
 11
112.7844051990485
 21
200.8567878110907
 31
0.0
  0
ARC
  5
3F0
330
2
100
AcDbEntity
  8
0
  6
Continuous
 62
     7
100
AcDbCircle
 10
112.6817337801642
 20
211.1067878110907
 30
0.0
 40
0.5
100
AcDbArc
 50
270.0
 51
0.0
  0
ARC
  5
3F1
330
2
100
AcDbEntity
  8
0
  6
Continuous
 62
     7
100
AcDbCircle
 10
112.6817337801642
 20
211.1067878110907
 30
0.0
 40
0.5
100
AcDbArc
 50
0.0
 51
90.0
  0
LINE
  5
3F2
330
2
100
AcDbEntity
  8
0
  6
Continuous
 62
     7
100
AcDbLine
 10
111.2437296687178
 20
207.6067878110907
 30
0.0
 11
113.9397396093984
 21
207.6067878110907
 31
0.0
  0
LINE
  5
3F3
330
2
100
AcDbEntity
  8
0
  6
Continuous
 62
     7
100
AcDbLine
 10
113.4320171586944
 20
200.1411845644693
 30
0.0
 11
112.7844051990485
 21
200.8567878110907
 31
0.0
  0
LINE
  5
3F4
330
2
100
AcDbEntity
  8
0
  6
Continuous
 62
     7
100
AcDbLine
 10
110.5737288582122
 20
200.1067878110907
 30
0.0
 11
113.269738798893
 21
200.1067878110907
 31
0.0
  0
LINE
  5
3F5
330
2
100
AcDbEntity
  8
0
  6
Continuous
 62
     7
100
AcDbLine
 10
111.7290632685622
 20
206.8567878110907
 30
0.0
 11
113.3667062602499
 21
206.8567878110907
 31
0.0
  0
LINE
  5
3F6
330
2
100
AcDbEntity
  8
0
  6
Continuous
 62
     7
100
AcDbLine
 10
111.4224200244096
 20
203.4817878110907
 30
0.0
 11
112.9960076126979
 21
203.4817878110907
 31
0.0
  0
LINE
  5
3F7
330
2
100
AcDbEntity
  8
0
  6
Continuous
 62
     7
100
AcDbLine
 10
111.5174608549127
 20
204.2317878110907
 30
0.0
 11
113.0910484432013
 21
204.2317878110907
 31
0.0
  0
LINE
  5
3F8
330
2
100
AcDbEntity
  8
0
  6
Continuous
 62
     7
 48
5.0
100
AcDbLine
 10
129.1817337801658
 20
177.1067878110855
 30
0.0
 11
127.681733780166
 21
180.1067878110855
 31
0.0
  0
LINE
  5
3F9
330
2
100
AcDbEntity
  8
0
  6
Continuous
 62
     7
 48
5.0
100
AcDbLine
 10
130.681733780166
 20
180.1067878110855
 30
0.0
 11
129.1817337801658
 21
177.1067878110855
 31
0.0
  0
LINE
  5
3FA
330
2
100
AcDbEntity
  8
0
  6
Continuous
 62
     7
 48
5.0
100
AcDbLine
 10
127.681733780166
 20
180.1067878110855
 30
0.0
 11
130.681733780166
 21
180.1067878110855
 31
0.0
  0
LINE
  5
3FB
330
2
100
AcDbEntity
  8
0
  6
Continuous
 62
     7
 48
5.0
100
AcDbLine
 10
119.1817337801658
 20
180.1067878110855
 30
0.0
 11
117.681733780166
 21
177.1067878110855
 31
0.0
  0
LINE
  5
3FC
330
2
100
AcDbEntity
  8
0
  6
Continuous
 62
     7
 48
5.0
100
AcDbLine
 10
120.6817337801658
 20
177.1067878110855
 30
0.0
 11
119.1817337801658
 21
180.1067878110855
 31
0.0
  0
LINE
  5
3FD
330
2
100
AcDbEntity
  8
0
  6
Continuous
 62
     7
 48
5.0
100
AcDbLine
 10
117.681733780166
 20
177.1067878110855
 30
0.0
 11
120.6817337801658
 21
177.1067878110855
 31
0.0
  0
LINE
  5
3FE
330
2
100
AcDbEntity
  8
0
  6
Continuous
 62
     7
 48
5.0
100
AcDbLine
 10
107.6817337801658
 20
177.1067878110858
 30
0.0
 11
110.6817337801658
 21
178.6067878110858
 31
0.0
  0
LINE
  5
3FF
330
2
100
AcDbEntity
  8
0
  6
Continuous
 62
     7
 48
5.0
100
AcDbLine
 10
110.6817337801658
 20
178.6067878110858
 30
0.0
 11
107.6817337801658
 21
180.1067878110855
 31
0.0
  0
LINE
  5
400
330
2
100
AcDbEntity
  8
0
  6
Continuous
 62
     7
 48
5.0
100
AcDbLine
 10
107.6817337801658
 20
180.1067878110855
 30
0.0
 11
107.6817337801658
 21
177.1067878110858
 31
0.0
  0
ARC
  5
401
330
2
100
AcDbEntity
  8
0
  6
Continuous
 62
     7
 48
5.0
100
AcDbCircle
 10
156.9317337801649
 20
174.8567878110851
 30
0.0
 40
1.0
100
AcDbArc
 50
269.9999999999976
 51
0.0000000000004071
  0
ARC
  5
402
330
2
100
AcDbEntity
  8
0
  6
Continuous
 62
     7
 48
5.0
100
AcDbCircle
 10
88.43173378016491
 20
174.8567878110879
 30
0.0
 40
1.0
100
AcDbArc
 50
180.0
 51
269.9999999999976
  0
ARC
  5
403
330
2
100
AcDbEntity
  8
0
  6
Continuous
 62
     7
100
AcDbCircle
 10
88.43173378016491
 20
182.3567878110852
 30
0.0
 40
1.0
100
AcDbArc
 50
90.0
 51
180.0
  0
ARC
  5
404
330
2
100
AcDbEntity
  8
0
  6
Continuous
 62
     7
 48
5.0
100
AcDbCircle
 10
88.43173378016491
 20
182.3567878110852
 30
0.0
 40
1.5
100
AcDbArc
 50
90.0
 51
180.0
  0
ARC
  5
405
330
2
100
AcDbEntity
  8
0
  6
Continuous
 62
     7
100
AcDbCircle
 10
88.43173378016491
 20
174.8567878110879
 30
0.0
 40
1.5
100
AcDbArc
 50
180.0
 51
269.9999999999976
  0
ARC
  5
406
330
2
100
AcDbEntity
  8
0
  6
Continuous
 62
     7
 48
5.0
100
AcDbCircle
 10
156.9317337801649
 20
174.8567878110851
 30
0.0
 40
1.5
100
AcDbArc
 50
269.9999999999976
 51
0.0000000000004071
  0
ARC
  5
407
330
2
100
AcDbEntity
  8
0
  6
Continuous
 62
     7
100
AcDbCircle
 10
156.9317337801649
 20
182.3567878110852
 30
0.0
 40
1.5
100
AcDbArc
 50
0.0
 51
90.0
  0
ARC
  5
408
330
2
100
AcDbEntity
  8
0
  6
Continuous
 62
     7
100
AcDbCircle
 10
156.9317337801649
 20
182.3567878110854
 30
0.0
 40
1.0
100
AcDbArc
 50
0.0
 51
90.0
  0
LINE
  5
409
330
2
100
AcDbEntity
  8
0
  6
Continuous
 62
     7
100
AcDbLine
 10
86.9317337801649
 20
174.8567878110879
 30
0.0
 11
86.9317337801649
 21
182.3567878110852
 31
0.0
  0
LINE
  5
40A
330
2
100
AcDbEntity
  8
0
  6
Continuous
 62
     7
100
AcDbLine
 10
87.43173378016491
 20
174.8567878110879
 30
0.0
 11
87.43173378016491
 21
182.3567878110852
 31
0.0
  0
LINE
  5
40B
330
2
100
AcDbEntity
  8
0
  6
Continuous
 62
     7
100
AcDbLine
 10
157.9317337801649
 20
174.8567878110851
 30
0.0
 11
157.9317337801649
 21
182.3567878110854
 31
0.0
  0
LINE
  5
40C
330
2
100
AcDbEntity
  8
0
  6
Continuous
 62
     7
100
AcDbLine
 10
158.4317337801649
 20
174.8567878110851
 30
0.0
 11
158.4317337801649
 21
182.3567878110852
 31
0.0
  0
LINE
  5
40D
330
2
100
AcDbEntity
  8
0
  6
Continuous
 62
     7
 48
5.0
100
AcDbLine
 10
88.43173378016491
 20
173.3567878110879
 30
0.0
 11
156.9317337801646
 21
173.3567878110851
 31
0.0
  0
LINE
  5
40E
330
2
100
AcDbEntity
  8
0
  6
Continuous
 62
     7
 48
5.0
100
AcDbLine
 10
88.43173378016491
 20
173.8567878110879
 30
0.0
 11
156.9317337801646
 21
173.8567878110851
 31
0.0
  0
LINE
  5
40F
330
2
100
AcDbEntity
  8
0
  6
Continuous
 62
     7
 48
5.0
100
AcDbLine
 10
88.43173378016491
 20
183.3567878110852
 30
0.0
 11
156.9317337801649
 21
183.3567878110853
 31
0.0
  0
LINE
  5
410
330
2
100
AcDbEntity
  8
0
  6
Continuous
 62
     7
 48
5.0
100
AcDbLine
 10
88.43173378016491
 20
183.8567878110852
 30
0.0
 11
156.9317337801649
 21
183.8567878110852
 31
0.0
  0
ARC
  5
411
330
2
100
AcDbEntity
  8
0
  6
Continuous
 62
     7
 48
5.0
100
AcDbCircle
 10
101.6317337801661
 20
181.5567878110855
 30
0.0
 40
1.0
100
AcDbArc
 50
0.0000000000004071
 51
89.9999999999992
  0
ARC
  5
412
330
2
100
AcDbEntity
  8
0
  6
Continuous
 62
     7
 48
5.0
100
AcDbCircle
 10
96.73173378016599
 20
181.5567878110855
 30
0.0
 40
1.0
100
AcDbArc
 50
89.9999999999992
 51
179.9999999999992
  0
LINE
  5
413
330
2
100
AcDbEntity
  8
0
  6
Continuous
 62
     7
 48
5.0
100
AcDbLine
 10
96.73173378016599
 20
182.5567878110855
 30
0.0
 11
101.6317337801661
 21
182.5567878110855
 31
0.0
  0
ARC
  5
414
330
2
100
AcDbEntity
  8
0
  6
Continuous
 62
     7
 48
5.0
100
AcDbCircle
 10
101.6317337801658
 20
175.6567878110859
 30
0.0
 40
1.0
100
AcDbArc
 50
269.9999999999992
 51
359.9999999999996
  0
ARC
  5
415
330
2
100
AcDbEntity
  8
0
  6
Continuous
 62
     7
 48
5.0
100
AcDbCircle
 10
96.7317337801635
 20
175.6567878110859
 30
0.0
 40
1.0
100
AcDbArc
 50
180.0000000000004
 51
270.0000000000008
  0
LINE
  5
416
330
2
100
AcDbEntity
  8
0
  6
Continuous
 62
     7
 48
5.0
100
AcDbLine
 10
96.73173378016599
 20
174.6567878110861
 30
0.0
 11
101.6317337801658
 21
174.6567878110859
 31
0.0
  0
LINE
  5
417
330
2
100
AcDbEntity
  8
0
  6
Continuous
 62
     7
 48
5.0
100
AcDbLine
 10
95.73173378016576
 20
181.5567878110855
 30
0.0
 11
95.73173378016599
 21
175.6567878110861
 31
0.0
  0
LINE
  5
418
330
2
100
AcDbEntity
  8
0
  6
Continuous
 62
     7
 48
5.0
100
AcDbLine
 10
102.6317337801661
 20
181.5567878110855
 30
0.0
 11
102.6317337801658
 21
175.6567878110859
 31
0.0
  0
LINE
  5
419
330
2
100
AcDbEntity
  8
0
  6
Continuous
 62
     7
 48
5.0
100
AcDbLine
 10
126.731733780166
 20
174.6567878110859
 30
0.0
 11
131.6317337801661
 21
174.6567878110857
 31
0.0
  0
LINE
  5
41A
330
2
100
AcDbEntity
  8
0
  6
Continuous
 62
     7
 48
5.0
100
AcDbLine
 10
126.731733780166
 20
182.5567878110853
 30
0.0
 11
131.6317337801661
 21
182.5567878110853
 31
0.0
  0
LINE
  5
41B
330
2
100
AcDbEntity
  8
0
  6
Continuous
 62
     7
 48
5.0
100
AcDbLine
 10
122.6317337801661
 20
181.5567878110855
 30
0.0
 11
122.6317337801658
 21
175.6567878110859
 31
0.0
  0
LINE
  5
41C
330
2
100
AcDbEntity
  8
0
  6
Continuous
 62
     7
 48
5.0
100
AcDbLine
 10
112.6317337801661
 20
181.5567878110855
 30
0.0
 11
112.6317337801658
 21
175.6567878110859
 31
0.0
  0
LINE
  5
41D
330
2
100
AcDbEntity
  8
0
  6
Continuous
 62
     7
 48
5.0
100
AcDbLine
 10
115.731733780166
 20
181.5567878110855
 30
0.0
 11
115.7317337801657
 21
175.6567878110859
 31
0.0
  0
LINE
  5
41E
330
2
100
AcDbEntity
  8
0
  6
Continuous
 62
     7
 48
5.0
100
AcDbLine
 10
125.731733780166
 20
181.5567878110853
 30
0.0
 11
125.7317337801657
 21
175.6567878110859
 31
0.0
  0
LINE
  5
41F
330
2
100
AcDbEntity
  8
0
  6
Continuous
 62
     7
 48
5.0
100
AcDbLine
 10
105.7317337801657
 20
181.5567878110855
 30
0.0
 11
105.731733780166
 21
175.6567878110861
 31
0.0
  0
LINE
  5
420
330
2
100
AcDbEntity
  8
0
  6
Continuous
 62
     7
 48
5.0
100
AcDbLine
 10
106.731733780166
 20
174.6567878110861
 30
0.0
 11
111.6317337801658
 21
174.6567878110859
 31
0.0
  0
ARC
  5
421
330
2
100
AcDbEntity
  8
0
  6
Continuous
 62
     7
 48
5.0
100
AcDbCircle
 10
106.7317337801635
 20
175.6567878110859
 30
0.0
 40
1.0
100
AcDbArc
 50
180.0000000000004
 51
270.0000000000008
  0
LINE
  5
422
330
2
100
AcDbEntity
  8
0
  6
Continuous
 62
     7
 48
5.0
100
AcDbLine
 10
116.731733780166
 20
174.6567878110859
 30
0.0
 11
121.6317337801658
 21
174.6567878110859
 31
0.0
  0
ARC
  5
423
330
2
100
AcDbEntity
  8
0
  6
Continuous
 62
     7
 48
5.0
100
AcDbCircle
 10
111.6317337801658
 20
175.6567878110859
 30
0.0
 40
1.0
100
AcDbArc
 50
269.9999999999992
 51
359.9999999999996
  0
ARC
  5
424
330
2
100
AcDbEntity
  8
0
  6
Continuous
 62
     7
 48
5.0
100
AcDbCircle
 10
116.731733780166
 20
175.6567878110859
 30
0.0
 40
1.0
100
AcDbArc
 50
179.9999999999992
 51
269.9999999999992
  0
ARC
  5
425
330
2
100
AcDbEntity
  8
0
  6
Continuous
 62
     7
 48
5.0
100
AcDbCircle
 10
121.6317337801658
 20
175.6567878110859
 30
0.0
 40
1.0
100
AcDbArc
 50
269.9999999999992
 51
359.9999999999996
  0
ARC
  5
426
330
2
100
AcDbEntity
  8
0
  6
Continuous
 62
     7
 48
5.0
100
AcDbCircle
 10
126.731733780166
 20
175.6567878110859
 30
0.0
 40
1.0
100
AcDbArc
 50
179.9999999999992
 51
269.9999999999992
  0
LINE
  5
427
330
2
100
AcDbEntity
  8
0
  6
Continuous
 62
     7
 48
5.0
100
AcDbLine
 10
106.731733780166
 20
182.5567878110855
 30
0.0
 11
111.6317337801661
 21
182.5567878110855
 31
0.0
  0
ARC
  5
428
330
2
100
AcDbEntity
  8
0
  6
Continuous
 62
     7
 48
5.0
100
AcDbCircle
 10
106.731733780166
 20
181.5567878110855
 30
0.0
 40
1.0
100
AcDbArc
 50
89.9999999999992
 51
179.9999999999992
  0
LINE
  5
429
330
2
100
AcDbEntity
  8
0
  6
Continuous
 62
     7
 48
5.0
100
AcDbLine
 10
116.731733780166
 20
182.5567878110855
 30
0.0
 11
121.6317337801661
 21
182.5567878110855
 31
0.0
  0
ARC
  5
42A
330
2
100
AcDbEntity
  8
0
  6
Continuous
 62
     7
 48
5.0
100
AcDbCircle
 10
111.6317337801661
 20
181.5567878110855
 30
0.0
 40
1.0
100
AcDbArc
 50
0.0000000000004071
 51
89.9999999999992
  0
ARC
  5
42B
330
2
100
AcDbEntity
  8
0
  6
Continuous
 62
     7
 48
5.0
100
AcDbCircle
 10
116.731733780166
 20
181.5567878110855
 30
0.0
 40
1.0
100
AcDbArc
 50
89.9999999999992
 51
179.9999999999992
  0
ARC
  5
42C
330
2
100
AcDbEntity
  8
0
  6
Continuous
 62
     7
 48
5.0
100
AcDbCircle
 10
121.6317337801661
 20
181.5567878110855
 30
0.0
 40
1.0
100
AcDbArc
 50
0.0000000000004071
 51
89.9999999999992
  0
ARC
  5
42D
330
2
100
AcDbEntity
  8
0
  6
Continuous
 62
     7
 48
5.0
100
AcDbCircle
 10
126.731733780166
 20
181.5567878110853
 30
0.0
 40
1.0
100
AcDbArc
 50
89.9999999999992
 51
179.9999999999992
  0
LINE
  5
42E
330
2
100
AcDbEntity
  8
0
  6
Continuous
 62
     7
 48
5.0
100
AcDbLine
 10
135.731733780166
 20
181.5567878110853
 30
0.0
 11
135.7317337801657
 21
175.6567878110859
 31
0.0
  0
LINE
  5
42F
330
2
100
AcDbEntity
  8
0
  6
Continuous
 62
     7
 48
5.0
100
AcDbLine
 10
132.6317337801658
 20
181.5567878110851
 30
0.0
 11
132.6317337801658
 21
175.6567878110859
 31
0.0
  0
LINE
  5
430
330
2
100
AcDbEntity
  8
0
  6
Continuous
 62
     7
 48
5.0
100
AcDbLine
 10
142.6317337801658
 20
181.5567878110851
 30
0.0
 11
142.6317337801658
 21
175.6567878110859
 31
0.0
  0
ARC
  5
431
330
2
100
AcDbEntity
  8
0
  6
Continuous
 62
     7
 48
5.0
100
AcDbCircle
 10
141.6317337801658
 20
175.6567878110859
 30
0.0
 40
1.0
100
AcDbArc
 50
269.9999999999992
 51
359.9999999999996
  0
ARC
  5
432
330
2
100
AcDbEntity
  8
0
  6
Continuous
 62
     7
 48
5.0
100
AcDbCircle
 10
136.731733780166
 20
175.6567878110859
 30
0.0
 40
1.0
100
AcDbArc
 50
179.9999999999992
 51
269.9999999999992
  0
ARC
  5
433
330
2
100
AcDbEntity
  8
0
  6
Continuous
 62
     7
 48
5.0
100
AcDbCircle
 10
131.6317337801658
 20
175.6567878110859
 30
0.0
 40
1.0
100
AcDbArc
 50
269.9999999999992
 51
359.9999999999996
  0
LINE
  5
434
330
2
100
AcDbEntity
  8
0
  6
Continuous
 62
     7
 48
5.0
100
AcDbLine
 10
136.731733780166
 20
174.6567878110859
 30
0.0
 11
141.6317337801661
 21
174.6567878110857
 31
0.0
  0
ARC
  5
435
330
2
100
AcDbEntity
  8
0
  6
Continuous
 62
     7
 48
5.0
100
AcDbCircle
 10
141.6317337801661
 20
181.5567878110851
 30
0.0
 40
1.0
100
AcDbArc
 50
0.0000000000004071
 51
89.9999999999992
  0
ARC
  5
436
330
2
100
AcDbEntity
  8
0
  6
Continuous
 62
     7
 48
5.0
100
AcDbCircle
 10
136.731733780166
 20
181.5567878110853
 30
0.0
 40
1.0
100
AcDbArc
 50
89.9999999999992
 51
179.9999999999992
  0
ARC
  5
437
330
2
100
AcDbEntity
  8
0
  6
Continuous
 62
     7
 48
5.0
100
AcDbCircle
 10
131.6317337801661
 20
181.5567878110851
 30
0.0
 40
1.0
100
AcDbArc
 50
0.0000000000004071
 51
89.9999999999992
  0
LINE
  5
438
330
2
100
AcDbEntity
  8
0
  6
Continuous
 62
     7
 48
5.0
100
AcDbLine
 10
136.731733780166
 20
182.5567878110853
 30
0.0
 11
141.6317337801661
 21
182.5567878110853
 31
0.0
  0
LINE
  5
439
330
2
100
AcDbEntity
  8
0
  6
Continuous
 62
     7
 48
2.0
100
AcDbLine
 10
102.681733780166
 20
213.6067878110858
 30
0.0
 11
102.681733780166
 21
194.6067878110858
 31
0.0
  0
LINE
  5
43A
330
2
100
AcDbEntity
  8
0
  6
Continuous
 62
     7
 48
2.0
100
AcDbLine
 10
103.681733780166
 20
214.6067878110859
 30
0.0
 11
128.681733780166
 21
214.6067878110859
 31
0.0
  0
LINE
  5
43B
330
2
100
AcDbEntity
  8
0
  6
Continuous
 62
     7
 48
2.0
100
AcDbLine
 10
103.681733780166
 20
193.6067878110858
 30
0.0
 11
128.681733780166
 21
193.6067878110858
 31
0.0
  0
LINE
  5
43C
330
2
100
AcDbEntity
  8
0
  6
Continuous
 62
     7
 48
2.0
100
AcDbLine
 10
129.681733780166
 20
213.606787811086
 30
0.0
 11
129.681733780166
 21
194.6067878110858
 31
0.0
  0
ARC
  5
43D
330
2
100
AcDbEntity
  8
0
  6
Continuous
 62
     7
 48
2.0
100
AcDbCircle
 10
128.681733780166
 20
213.606787811086
 30
0.0
 40
1.0
100
AcDbArc
 50
0.0
 51
90.0
  0
ARC
  5
43E
330
2
100
AcDbEntity
  8
0
  6
Continuous
 62
     7
 48
2.0
100
AcDbCircle
 10
103.681733780166
 20
213.6067878110858
 30
0.0
 40
1.0
100
AcDbArc
 50
90.0
 51
180.0
  0
ARC
  5
43F
330
2
100
AcDbEntity
  8
0
  6
Continuous
 62
     7
 48
2.0
100
AcDbCircle
 10
103.681733780166
 20
194.6067878110858
 30
0.0
 40
1.0
100
AcDbArc
 50
180.0
 51
270.0
  0
ARC
  5
440
330
2
100
AcDbEntity
  8
0
  6
Continuous
 62
     7
 48
2.0
100
AcDbCircle
 10
128.681733780166
 20
194.6067878110858
 30
0.0
 40
1.0
100
AcDbArc
 50
270.0
 51
0.0
  0
ARC
  5
441
330
2
100
AcDbEntity
  8
0
  6
Continuous
 62
     7
 48
5.0
100
AcDbCircle
 10
103.6817337801662
 20
194.6067878110859
 30
0.0
 40
1.0
100
AcDbArc
 50
180.0
 51
270.0
  0
LINE
  5
442
330
2
100
AcDbEntity
  8
0
  6
Continuous
 62
     7
100
AcDbLine
 10
163.1817337801649
 20
187.1067878110907
 30
0.0
 11
82.18173378016491
 21
187.1067878110907
 31
0.0
  0
LINE
  5
443
330
2
100
AcDbEntity
  8
0
  6
Continuous
 62
     7
100
AcDbLine
 10
140.1317337801644
 20
150.4367878110903
 30
0.0
 11
140.1317337801644
 21
142.9367878110903
 31
0.0
  0
LINE
  5
444
330
2
100
AcDbEntity
  8
0
  6
Continuous
 62
     7
100
AcDbLine
 10
76.13173378016444
 20
150.4367878110903
 30
0.0
 11
76.13173378016444
 21
142.9367878110903
 31
0.0
  0
LINE
  5
445
330
2
100
AcDbEntity
  8
0
  6
Continuous
 62
     7
100
AcDbLine
 10
76.13173378016444
 20
142.9367878110903
 30
0.0
 11
140.1317337801644
 21
142.9367878110903
 31
0.0
  0
LINE
  5
446
330
2
100
AcDbEntity
  8
0
  6
Continuous
 62
     7
100
AcDbLine
 10
76.13173378016444
 20
150.4367878110903
 30
0.0
 11
140.1317337801644
 21
150.4367878110903
 31
0.0
  0
LINE
  5
447
330
2
100
AcDbEntity
  8
0
  6
CENTER
 62
     4
100
AcDbLine
 10
161.0495659214841
 20
67.3586691405615
 30
0.0
 11
186.313901638845
 21
67.35866914056133
 31
0.0
  0
LINE
  5
448
330
2
100
AcDbEntity
  8
0
  6
Continuous
 62
     7
100
AcDbLine
 10
336.1136487559771
 20
150.8867878110907
 30
0.0
 11
336.1136487559772
 21
131.1367878110905
 31
0.0
  0
ENDSEC
  0
SECTION
  2
OBJECTS
  0
DICTIONARY
  5
9
330
0
100
AcDbDictionary
281
     1
  3
ACAD_COLOR
350
3F
  3
ACAD_GROUP
350
39
  3
ACAD_LAYOUT
350
14
  3
ACAD_MATERIAL
350
B
  3
ACAD_MLEADERSTYLE
350
42
  3
ACAD_MLINESTYLE
350
3A
  3
ACAD_PLOTSETTINGS
350
3B
  3
ACAD_PLOTSTYLENAME
350
8
  3
ACAD_SCALELIST
350
40
  3
ACAD_TABLESTYLE
350
41
  3
ACAD_VISUALSTYLE
350
2C
  3
ACDB_RECOMPOSE_DATA
350
454
  3
AcDbVariableDictionary
350
449
  0
DICTIONARY
  5
1C
330
1B
100
AcDbDictionary
280
     1
281
     1
  3
ACAD_LAYERFILTERS
360
1D
  3
ACAD_LAYERSTATES
360
1E
  3
ACLYDICTIONARY
360
1F
  0
DICTIONARY
  5
5
330
4
100
AcDbDictionary
280
     1
281
     1
  3
ADSK_XREC_LAYER_RECONCILED
360
6
  0
DICTIONARY
  5
3F
102
{ACAD_REACTORS
330
9
102
}
330
9
100
AcDbDictionary
281
     1
  0
DICTIONARY
  5
39
102
{ACAD_REACTORS
330
9
102
}
330
9
100
AcDbDictionary
281
     1
  0
DICTIONARY
  5
14
102
{ACAD_REACTORS
330
9
102
}
330
9
100
AcDbDictionary
281
     1
  3
Model
350
13
  3
ﾚｲｱｳﾄ1
350
1A
  0
DICTIONARY
  5
B
102
{ACAD_REACTORS
330
9
102
}
330
9
100
AcDbDictionary
281
     1
  3
ByBlock
350
3C
  3
ByLayer
350
F
  3
Global
350
A
  0
DICTIONARY
  5
42
102
{ACAD_REACTORS
330
9
102
}
330
9
100
AcDbDictionary
281
     1
  0
DICTIONARY
  5
3A
102
{ACAD_REACTORS
330
9
102
}
330
9
100
AcDbDictionary
281
     1
  3
STANDARD
350
49
  0
DICTIONARY
  5
3B
102
{ACAD_REACTORS
330
9
102
}
330
9
100
AcDbDictionary
281
     1
  0
ACDBDICTIONARYWDFLT
  5
8
102
{ACAD_REACTORS
330
9
102
}
330
9
100
AcDbDictionary
281
     1
  3
Normal
350
7
100
AcDbDictionaryWithDefault
340
7
  0
DICTIONARY
  5
40
102
{ACAD_REACTORS
330
9
102
}
330
9
100
AcDbDictionary
281
     1
  3
A0
350
4E
  3
A1
350
4F
  3
A2
350
50
  3
A3
350
51
  3
A4
350
52
  3
A5
350
53
  3
A6
350
54
  3
A7
350
55
  3
A8
350
56
  3
A9
350
57
  3
B0
350
58
  3
B1
350
59
  3
B2
350
5A
  3
B3
350
5B
  3
B4
350
5C
  3
B5
350
5D
  3
B6
350
5E
  0
DICTIONARY
  5
41
102
{ACAD_REACTORS
330
9
102
}
330
9
100
AcDbDictionary
281
     1
  3
Standard
350
4A
  0
DICTIONARY
  5
2C
102
{ACAD_REACTORS
330
9
102
}
330
9
100
AcDbDictionary
281
     1
  3
2dWireframe
350
2B
  3
Realistic
350
4C
  3
Wireframe
350
4D
  0
XRECORD
  5
454
102
{ACAD_REACTORS
330
9
102
}
330
9
100
AcDbXrecord
280
     1
 90
        1
330
4A
  0
DICTIONARY
  5
449
102
{ACAD_REACTORS
330
9
102
}
330
9
100
AcDbDictionary
281
     1
  3
CANNOSCALE
350
44C
  3
CMLEADERSTYLE
350
44B
  3
CTABLESTYLE
350
44A
  3
DIMASSOC
350
450
  3
HIDETEXT
350
44F
  3
INDEXCTL
350
44E
  3
SOLIDHIST
350
451
  3
SORTENTS
350
44D
  3
XCLIPFRAME
350
452
  0
DICTIONARY
  5
1D
102
{ACAD_REACTORS
330
1C
102
}
330
1C
100
AcDbDictionary
281
     1
  0
DICTIONARY
  5
1E
102
{ACAD_REACTORS
330
1C
102
}
330
1C
100
AcDbDictionary
281
     1
  0
DICTIONARY
  5
1F
102
{ACAD_REACTORS
330
1C
102
}
330
1C
100
AcDbDictionary
281
     1
1001
ACAD
1000
<All
  0
XRECORD
  5
6
102
{ACAD_REACTORS
330
5
102
}
330
5
100
AcDbXrecord
280
     1
290
     1
  0
LAYOUT
  5
13
102
{ACAD_XDICTIONARY
360
15
102
}
102
{ACAD_REACTORS
330
14
102
}
330
14
100
AcDbPlotSettings
  1

  2
\\DEVSVR02\LP-8700
  4
A3
  6

 40
5.873749732971191
 41
5.873747825622557
 42
5.873748779296875
 43
5.873748779296875
 44
297.0106506347656
 45
419.9466552734373
 46
0.0
 47
0.0
 48
0.0
 49
0.0
140
0.0
141
0.0
142
1.0
143
1.0
 70
 11952
 72
     1
 73
     1
 74
     2
  7
ﾍﾟﾝ設定.ctb
 75
    16
147
1.0
148
0.0
149
0.0
100
AcDbLayout
  1
Model
 70
     1
 71
     0
 10
0.0
 20
0.0
 11
12.0
 21
9.0
 12
0.0
 22
0.0
 32
0.0
 14
0.0
 24
0.0
 34
0.0
 15
0.0
 25
0.0
 35
0.0
146
0.0
 13
0.0
 23
0.0
 33
0.0
 16
1.0
 26
0.0
 36
0.0
 17
0.0
 27
1.0
 37
0.0
 76
     0
330
2
331
2A
  0
LAYOUT
  5
1A
102
{ACAD_XDICTIONARY
360
456
102
}
102
{ACAD_REACTORS
330
14
102
}
330
14
100
AcDbPlotSettings
  1

  2
なし
  4

  6

 40
0.0
 41
0.0
 42
0.0
 43
0.0
 44
0.0
 45
0.0
 46
0.0
 47
0.0
 48
0.0
 49
0.0
140
0.0
141
0.0
142
1.0
143
1.0
 70
   688
 72
     0
 73
     0
 74
     5
  7
ﾍﾟﾝ設定.ctb
 75
    16
147
1.0
148
0.0
149
0.0
100
AcDbLayout
  1
ﾚｲｱｳﾄ1
 70
     0
 71
     1
 10
0.0
 20
0.0
 11
12.0
 21
9.0
 12
0.0
 22
0.0
 32
0.0
 14
1.000000000000000E+20
 24
1.000000000000000E+20
 34
1.000000000000000E+20
 15
-1.000000000000000E+20
 25
-1.000000000000000E+20
 35
-1.000000000000000E+20
146
0.0
 13
0.0
 23
0.0
 33
0.0
 16
1.0
 26
0.0
 36
0.0
 17
0.0
 27
1.0
 37
0.0
 76
     0
330
17
  0
MATERIAL
  5
3C
102
{ACAD_XDICTIONARY
360
3D
102
}
102
{ACAD_REACTORS
330
B
102
}
330
B
100
AcDbMaterial
  1
ByBlock
 73
     1
 78
     1
172
     1
176
     1
270
     1
274
     1
  0
MATERIAL
  5
F
102
{ACAD_XDICTIONARY
360
10
102
}
102
{ACAD_REACTORS
330
B
102
}
330
B
100
AcDbMaterial
  1
ByLayer
 73
     1
 78
     1
172
     1
176
     1
270
     1
274
     1
  0
MATERIAL
  5
A
102
{ACAD_XDICTIONARY
360
C
102
}
102
{ACAD_REACTORS
330
B
102
}
330
B
100
AcDbMaterial
  1
Global
 73
     1
 78
     1
172
     1
176
     1
270
     1
274
     1
  0
MLINESTYLE
  5
49
102
{ACAD_REACTORS
330
3A
102
}
330
3A
100
AcDbMlineStyle
  2
STANDARD
 70
     0
  3

 62
     0
 51
90.0
 52
90.0
 71
     2
 49
0.5
 62
   256
  6
BYLAYER
 49
-0.5
 62
   256
  6
BYLAYER
  0
ACDBPLACEHOLDER
  5
7
102
{ACAD_REACTORS
330
8
102
}
330
8
  0
SCALE
  5
4E
102
{ACAD_REACTORS
330
40
102
}
330
40
100
AcDbScale
 70
     0
300
1:1
140
1.0
141
1.0
290
     1
  0
SCALE
  5
4F
102
{ACAD_REACTORS
330
40
102
}
330
40
100
AcDbScale
 70
     0
300
1/128" = 1'-0"
140
0.0078125
141
12.0
290
     0
  0
SCALE
  5
50
102
{ACAD_REACTORS
330
40
102
}
330
40
100
AcDbScale
 70
     0
300
1/64" = 1'-0"
140
0.015625
141
12.0
290
     0
  0
SCALE
  5
51
102
{ACAD_REACTORS
330
40
102
}
330
40
100
AcDbScale
 70
     0
300
1/32" = 1'-0"
140
0.03125
141
12.0
290
     0
  0
SCALE
  5
52
102
{ACAD_REACTORS
330
40
102
}
330
40
100
AcDbScale
 70
     0
300
1/16" = 1'-0"
140
0.0625
141
12.0
290
     0
  0
SCALE
  5
53
102
{ACAD_REACTORS
330
40
102
}
330
40
100
AcDbScale
 70
     0
300
3/32" = 1'-0"
140
0.09375
141
12.0
290
     0
  0
SCALE
  5
54
102
{ACAD_REACTORS
330
40
102
}
330
40
100
AcDbScale
 70
     0
300
1/8" = 1'-0"
140
0.125
141
12.0
290
     0
  0
SCALE
  5
55
102
{ACAD_REACTORS
330
40
102
}
330
40
100
AcDbScale
 70
     0
300
3/16" = 1'-0"
140
0.1875
141
12.0
290
     0
  0
SCALE
  5
56
102
{ACAD_REACTORS
330
40
102
}
330
40
100
AcDbScale
 70
     0
300
1/4" = 1'-0"
140
0.25
141
12.0
290
     0
  0
SCALE
  5
57
102
{ACAD_REACTORS
330
40
102
}
330
40
100
AcDbScale
 70
     0
300
3/8" = 1'-0"
140
0.375
141
12.0
290
     0
  0
SCALE
  5
58
102
{ACAD_REACTORS
330
40
102
}
330
40
100
AcDbScale
 70
     0
300
1/2" = 1'-0"
140
0.5
141
12.0
290
     0
  0
SCALE
  5
59
102
{ACAD_REACTORS
330
40
102
}
330
40
100
AcDbScale
 70
     0
300
3/4" = 1'-0"
140
0.75
141
12.0
290
     0
  0
SCALE
  5
5A
102
{ACAD_REACTORS
330
40
102
}
330
40
100
AcDbScale
 70
     0
300
1" = 1'-0"
140
1.0
141
12.0
290
     0
  0
SCALE
  5
5B
102
{ACAD_REACTORS
330
40
102
}
330
40
100
AcDbScale
 70
     0
300
1-1/2" = 1'-0"
140
1.5
141
12.0
290
     0
  0
SCALE
  5
5C
102
{ACAD_REACTORS
330
40
102
}
330
40
100
AcDbScale
 70
     0
300
3" = 1'-0"
140
3.0
141
12.0
290
     0
  0
SCALE
  5
5D
102
{ACAD_REACTORS
330
40
102
}
330
40
100
AcDbScale
 70
     0
300
6" = 1'-0"
140
6.0
141
12.0
290
     0
  0
SCALE
  5
5E
102
{ACAD_REACTORS
330
40
102
}
330
40
100
AcDbScale
 70
     0
300
1'-0" = 1'-0"
140
12.0
141
12.0
290
     0
  0
TABLESTYLE
  5
4A
102
{ACAD_XDICTIONARY
360
4B
102
}
102
{ACAD_REACTORS
330
41
102
}
330
41
100
AcDbTableStyle
  3
Standard
 70
     0
 71
     0
 40
0.06
 41
0.06
280
     0
281
     0
  7
STANDARD
140
0.18
170
     2
 62
     0
 63
     7
283
     0
274
    -2
284
     1
 64
     0
275
    -2
285
     1
 65
     0
276
    -2
286
     1
 66
     0
277
    -2
287
     1
 67
     0
278
    -2
288
     1
 68
     0
279
    -2
289
     1
 69
     0
  7
STANDARD
140
0.25
170
     5
 62
     0
 63
     7
283
     0
274
    -2
284
     1
 64
     0
275
    -2
285
     1
 65
     0
276
    -2
286
     1
 66
     0
277
    -2
287
     1
 67
     0
278
    -2
288
     1
 68
     0
279
    -2
289
     1
 69
     0
  7
STANDARD
140
0.18
170
     5
 62
     0
 63
     7
283
     0
274
    -2
284
     1
 64
     0
275
    -2
285
     1
 65
     0
276
    -2
286
     1
 66
     0
277
    -2
287
     1
 67
     0
278
    -2
288
     1
 68
     0
279
    -2
289
     1
 69
     0
  0
VISUALSTYLE
  5
2B
102
{ACAD_XDICTIONARY
360
458
102
}
102
{ACAD_REACTORS
330
2C
102
}
330
2C
100
AcDbVisualStyle
  2

 70
     4
 71
     0
 72
     2
 73
     0
 90
        0
 40
-0.6
 41
-30.0
 62
     5
 63
     7
 74
     1
 91
        4
 64
     7
 65
   257
 75
     1
175
     1
 42
1.0
 92
        0
 66
   257
 43
1.0
 76
     1
 77
     6
 78
     2
 67
     7
 79
     5
170
     0
171
     0
290
     0
174
     0
 93
        1
 44
0.0
173
     0
291
     0
 45
0.0
1001
ACAD
1000
AcDbSavedByObjectVersion
1070
     0
  0
VISUALSTYLE
  5
4C
102
{ACAD_XDICTIONARY
360
45B
102
}
102
{ACAD_REACTORS
330
2C
102
}
330
2C
100
AcDbVisualStyle
  2

 70
     8
 71
     2
 72
     2
 73
     0
 90
        0
 40
-0.6
 41
-30.0
 62
     5
 63
     7
 74
     1
 91
        0
 64
     7
 65
   257
 75
     1
175
     1
 42
1.0
 92
        8
 66
     8
 43
1.0
 76
     1
 77
     6
 78
     2
 67
     7
 79
     5
170
     0
171
     0
290
     0
174
     0
 93
       13
 44
0.0
173
     0
291
     0
 45
0.0
1001
ACAD
1000
AcDbSavedByObjectVersion
1070
     0
  0
VISUALSTYLE
  5
4D
102
{ACAD_XDICTIONARY
360
45D
102
}
102
{ACAD_REACTORS
330
2C
102
}
330
2C
100
AcDbVisualStyle
  2

 70
     5
 71
     0
 72
     2
 73
     0
 90
        0
 40
-0.6
 41
-30.0
 62
     5
 63
     7
 74
     1
 91
        4
 64
     7
 65
   257
 75
     1
175
     1
 42
1.0
 92
        0
 66
   257
 43
1.0
 76
     1
 77
     6
 78
     2
 67
     7
 79
     3
170
     0
171
     0
290
     0
174
     0
 93
        1
 44
0.0
173
     0
291
     0
 45
0.0
1001
ACAD
1000
AcDbSavedByObjectVersion
1070
     0
  0
DICTIONARYVAR
  5
44C
102
{ACAD_REACTORS
330
449
102
}
330
449
100
DictionaryVariables
280
     0
  1
1:1
  0
DICTIONARYVAR
  5
44B
102
{ACAD_REACTORS
330
449
102
}
330
449
100
DictionaryVariables
280
     0
  1
STANDARD
  0
DICTIONARYVAR
  5
44A
102
{ACAD_REACTORS
330
449
102
}
330
449
100
DictionaryVariables
280
     0
  1
STANDARD
  0
DICTIONARYVAR
  5
450
102
{ACAD_REACTORS
330
449
102
}
330
449
100
DictionaryVariables
280
     0
  1
1
  0
DICTIONARYVAR
  5
44F
102
{ACAD_REACTORS
330
449
102
}
330
449
100
DictionaryVariables
280
     0
  1
1
  0
DICTIONARYVAR
  5
44E
102
{ACAD_REACTORS
330
449
102
}
330
449
100
DictionaryVariables
280
     0
  1
0
  0
DICTIONARYVAR
  5
451
102
{ACAD_REACTORS
330
449
102
}
330
449
100
DictionaryVariables
280
     0
  1
1
  0
DICTIONARYVAR
  5
44D
102
{ACAD_REACTORS
330
449
102
}
330
449
100
DictionaryVariables
280
     0
  1
127
  0
DICTIONARYVAR
  5
452
102
{ACAD_REACTORS
330
449
102
}
330
449
100
DictionaryVariables
280
     0
  1
2
  0
DICTIONARY
  5
15
330
13
100
AcDbDictionary
280
     1
281
     1
  3
ACAD_XREC_ROUNDTRIP
360
455
  3
ADSK_XREC_LAYOUTTHUMBNAIL
360
16
  0
DICTIONARY
  5
456
330
1A
100
AcDbDictionary
280
     1
281
     1
  3
ACAD_XREC_ROUNDTRIP
360
457
  0
DICTIONARY
  5
3D
330
3C
100
AcDbDictionary
280
     1
281
     1
  3
ACAD_XREC_ROUNDTRIP
360
3E
  0
DICTIONARY
  5
10
330
F
100
AcDbDictionary
280
     1
281
     1
  3
ACAD_XREC_ROUNDTRIP
360
11
  0
DICTIONARY
  5
C
330
A
100
AcDbDictionary
280
     1
281
     1
  3
ACAD_XREC_ROUNDTRIP
360
D
  0
DICTIONARY
  5
4B
330
4A
100
AcDbDictionary
280
     1
281
     1
  3
ACAD_ROUNDTRIP_2008_TABLESTYLE_CELLSTYLEMAP
360
453
  3
ACAD_XREC_ROUNDTRIP
360
45A
  0
DICTIONARY
  5
458
330
2B
100
AcDbDictionary
280
     1
281
     1
  3
ACAD_XREC_ROUNDTRIP
360
459
  0
DICTIONARY
  5
45B
330
4C
100
AcDbDictionary
280
     1
281
     1
  3
ACAD_XREC_ROUNDTRIP
360
45C
  0
DICTIONARY
  5
45D
330
4D
100
AcDbDictionary
280
     1
281
     1
  3
ACAD_XREC_ROUNDTRIP
360
45E
  0
XRECORD
  5
455
102
{ACAD_REACTORS
330
15
102
}
330
15
100
AcDbXrecord
280
     1
102
SHADEPLOT
 70
     0
102
SHADEPLOTRESLEVEL
 70
     2
102
SHADEPLOTCUSTOMDPI
 70
   300
  0
XRECORD
  5
16
102
{ACAD_REACTORS
330
15
102
}
330
15
100
AcDbXrecord
280
     1
310
280000000001000072000000010008000000000000720000000000000000000000010000000000000000000000000000C8C8C8000000000000000000000000000000000000000000000000000000000000000000330000006600000099000000CC000000FF00000000330000333300006633000099330000CC330000FF3300
310
0000660000336600006666000099660000CC660000FF66000000990000339900006699000099990000CC990000FF99000000CC000033CC000066CC000099CC0000CCCC0000FFCC000000FF000033FF000066FF000099FF0000CCFF0000FFFF000000003300330033006600330099003300CC003300FF003300003333003333
310
33006633330099333300CC333300FF33330000663300336633006666330099663300CC663300FF66330000993300339933006699330099993300CC993300FF99330000CC330033CC330066CC330099CC3300CCCC3300FFCC330000FF330033FF330066FF330099FF3300CCFF3300FFFF330000006600330066006600660099
310
006600CC006600FF00660000336600333366006633660099336600CC336600FF33660000666600336666006666660099666600CC666600FF66660000996600339966006699660099996600CC996600FF99660000CC660033CC660066CC660099CC6600CCCC6600FFCC660000FF660033FF660066FF660099FF6600CCFF6600
310
FFFF660000009900330099006600990099009900CC009900FF00990000339900333399006633990099339900CC339900FF33990000669900336699006666990099669900CC669900FF66990000999900339999006699990099999900CC999900FF99990000CC990033CC990066CC990099CC9900CCCC9900FFCC990000FF99
310
0033FF990066FF990099FF9900CCFF9900FFFF99000000CC003300CC006600CC009900CC00CC00CC00FF00CC000033CC003333CC006633CC009933CC00CC33CC00FF33CC000066CC003366CC006666CC009966CC00CC66CC00FF66CC000099CC003399CC006699CC009999CC00CC99CC00FF99CC0000CCCC0033CCCC0066CC
310
CC0099CCCC00CCCCCC00FFCCCC0000FFCC0033FFCC0066FFCC0099FFCC00CCFFCC00FFFFCC000000FF003300FF006600FF009900FF00CC00FF00FF00FF000033FF003333FF006633FF009933FF00CC33FF00FF33FF000066FF003366FF006666FF009966FF00CC66FF00FF66FF000099FF003399FF006699FF009999FF00CC
310
99FF00FF99FF0000CCFF0033CCFF0066CCFF0099CCFF00CCCCFF00FFCCFF0000FFFF0033FFFF0066FFFF0099FFFF00CCFFFF00FFFFFF00000000000D0D0D001A1A1A00282828003535350043434300505050005D5D5D006B6B6B00787878008686860093939300A1A1A100AEAEAE00BBBBBB00C9C9C900D6D6D600E4E4E400
310
F1F1F100FFFFFF000000000000000000000000000000000000000000000000000000000000000000000000000000000000000000000000000000000000000000000000000000000000000000000000000000000000000000000000F5F5000000000000000000000000000000000000000000000000002D0000000000000000
310
0000000000000000000000000000000000F5F5000000000000000000000000000000000000000000000000000000000000000000000000000000000000000000000000000000000000000000000000000000000000000000000000000000000000000000000000000000000000000000000000000000000000000000000000
310
000000000000000000000000000000000000000000000000000000000000000000000000000000000000000000000000000000000000000000000000000000000000000000000000000000000000000000000000000000000000000000F5F5F5F5F5F5F5F5F5F5F5F5F5F5F5F5F5F5F5F5F5F5F5F5F5F5F52DF5F5F5F5F5F5
310
F5F5F5F5F5F5F5F5F5F5F5F5F5F5F5F5F5F5F5F5F500000000000000000000000000000000000000000000000000000000000000000000000000000000000000000000000000000000000000000000000000000000000000000000000000000000000000000000000000000000000000000000000000000000000000000000
310
0000000000000000000000000000000000000000000000000000000000000000000000000000000000000000000000000000000000000000000000000000000000000000000000000000000000000000000000000000000000000000000000F500000000000000000000000000000000000000000000000000002D00000000
310
00000000000000000000000000000000000000000000F50000000000000000000000000000000000000000000000000000000000000000000000000000000000000000000000000000000000000000000000000000000000000000000000000000000000000000000000000000000000000000000000000000000000000000
310
00000000000000000000000000000000000000000000000000000000000000000000000000000000000000000000000000000000000000000000000000000000000000000000000000000000000000000000000000000000000000000000000000F500000000000000000000000000000000000000000000000000002D0000
310
000000000000000000000000000000000000000000000000F5000000000000000000000000000000000000000000000000000000000000000000000000000000000000000000000000000000000000000000000000000000000000000000000000000000000000000000000000000000000000000000000000000000000000
310
000000000000000000000000000000000000000000000000000000000000000000000000000000000000000000000000000000000000000000000000000000000000000000000000000000000000000000000000000000000000000000000000000000F500000000000000000000000000000000000000000000000000002D
310
0000000000000000000000000000000000000000000000000000F500000000000000000000000000000000000000000000000000000000000000000000000000000000000000000000000000000000000000000000000000000000000000000000000000000000000000000000000000000000000000000000000000000000
310
0000000000000000000000000000000000000000000000000000000000000000000000000000000000000000000000000000000000000000000000000000000000000000000000000000000000000000000000000000000000000000000000000000000000F500000000000000000000000000000000000000000000000000
310
002D000000000000000000000000002D000000000000000000000000F50000000000000000000000000000000000000000000000000000000000000000000000000000000000000000000000000000000000000000000000000000000000000000000000000000000000000000000000000000000000000000000000000000
310
00000000000000000000000000000000000000000000000000000000000000000000000000000000000000000000000000000000000000000000000000000000000000000000000000000000000000000000000000000000000000000000000000000000000000F5F5F5F5F5F5F5F5F5F5F5F5F5F5F5F5F5F5F5F5F5F5F5F5
310
F5F5F5F5F5F5F5F5F5F5F5F5F5F5F5F5F5F5F5F5F5F5F5F5F5F5F5F5F5F5F5000000000000000000000000000000000000000000000000000000000000000000000000000000000000000000000000000000000000000000000000000000000000000000000000000000000000000000000000000000000000000000000000
310
000000000000000000000000000000000000000000000000000000000000000000000000000000000000000000000000000000000000000000000000000000000000000000000000000000000000000000000000000000000000000000000000000000000000000000F50000F5F5F5F5F5F500F500F500F500F5F5F5F5F5F5
310
F5F5F5F5F52DF5000000000000000000F5F5F52DF5F5F5000000000000000000F500000000000000000000000000000000000000000000000000000000000000000000000000000000000000000000000000000000000000000000000000000000000000000000000000000000000000000000000000000000000000000000
310
0000000000000000000000000000000000000000000000000000000000000000000000000000000000000000000000000000000000000000000000000000000000000000000000000000000000000000000000000000000000000000000000000000000000000000000000F50000F5F5F5F5F5F5F5F5F5F5F5F5F5F5F5F5F5
310
F5F5F5F5F5F5F52DF5000000000000000000F5F5F52DF5F5F5000000000000000000F50000000000000000000000000000000000000000000000000000000000000000000000000000000000000000000000000000000000000000000000000000000000000000000000000000000000000000000000000000000000000000
310
00000000000000000000000000000000000000000000000000000000000000000000000000000000000000000000000000000000000000000000000000000000000000000000000000000000000000000000000000000000000000000000000000000000000000000000000000F50000F5F5F5F5F5F5F5F5F5F5F5F5F5F5F5
310
F5F5F5F5F5F5F5F5F52DF5000000000000000000F5F5F52DF500F5000000000000000000F5000000000000000000000000000000000000000000000000000000000000000000000000000000000000000000000000000000000000000000000000000000000000000000000000000000000000000000000000000000000000
310
000000000000000000000000000000000000000000000000000000000000000000000000000000000000000000000000000000000000000000000000000000000000000000000000000000000000000000000000000000000000000000000000000000000000000000000000000000F50000F5F5F5F5F5F5F5F5F5F5F5F5F5
310
F5F5F5F5F5F5F5F5F5F5F5F5F5000000000000002D2DF5F5F52DF5F5F52D2D00000000000000F500000000000000000000000000000000000000000000000000000000000000000000000000000000000000000000000000000000000000000000000000000000000000000000000000000000000000000000000000000000
310
0000000000000000000000000000000000000000000000000000000000000000000000000000000000000000000000000000000000000000000000000000000000000000000000000000000000000000000000000000000000000000000000000000000000000000000000000000000000F500000000000000000000000000
310
000000000000000000000000002D00000000000000000000F5F5F52DF5F500000000000000000000F50000000000000000000000000000000000000000000000000000000000000000000000000000000000000000000000000000000000000000000000000000000000000000000000000000000000000000000000000000
310
00000000000000000000000000000000000000000000000000000000000000000000000000000000000000000000000000000000000000000000000000000000000000000000000000000000000000000000000000000000000000000000000000000000000000000000000000000000000000F50000000000000000000000
310
0000000000000000000000000000002D0000000000000000000000F5F5F5F5F500000000000000000000F5000000000000000000000000000000000000000000000000000000000000000000000000000000000000000000000000000000000000000000000000000000000000000000000000000000000000000000000000
310
000000000000000000000000000000000000000000000000000000000000000000000000000000000000000000000000000000000000000000000000000000000000000000000000000000000000000000000000000000000000000000000000000000000000000000000000000000000000000000F5000000000000000000
310
00000000000000000000000000000000002D000000000000000000000000002D000000000000000000000000F500000000000000000000000000000000000000000000000000000000000000000000000000000000000000000000000000000000000000000000000000000000000000000000000000000000000000000000
310
0000000000000000000000000000000000000000000000000000000000000000000000000000000000000000000000000000000000000000000000000000000000000000000000000000000000000000000000000000000000000000000000000000000000000000000000000000000000000000000000F500000000000000
310
000000000000000000000000000000000000002D000000000000000000000000002D000000000000000000000000F50000000000000000000000000000000000000000000000000000000000000000000000000000000000000000000000000000000000000000000000000000000000000000000000000000000000000000
310
00000000000000000000000000000000000000000000000000000000000000000000000000000000000000000000000000000000000000000000000000000000000000000000000000000000000000000000000000000000000000000000000000000000000000000000000000000000000000000000000000F50000000000
310
0000000000000000000000000000000000000000002D0000000000000000000000000000000000000000000000000000F5000000000000000000000000000000000000000000000000000000000000000000000000000000000000000000000000000000000000000000000000000000000000000000000000000000000000
310
000000000000000000000000000000000000000000000000000000000000000000000000000000000000000000000000000000000000000000000000000000000000000000000000000000000000000000000000000000000000000000000000000000000000000000000000000000000000000000000000000000F5F5F5F5
310
F5F5F5F5F5F5F5F5F5F5F5F5F5F5F5F5F5F5F5F5F5F5F52DF5F5F5F5F5F5F5F5F5F5F5F5F5F5F5F5F5F5F5F5F5F5F5F5F5F5F500000000000000000000000000000000000000000000000000000000000000000000000000000000000000000000000000000000000000000000000000000000000000000000000000000000
310
00000000000000000000000000000000000000000000000000000000000000000000000000000000000000000000000000000000000000000000000000000000000000000000000000000000000000000000000000000000000000000000000000000000000000000000000000000000000000000000000000000000000000
310
0000F5000000000000000000000000000000000000000000002D0000000000000000000000F50000000000000000000000000000000000000000000000000000000000000000000000000000000000000000000000000000000000000000000000000000000000000000000000000000000000000000000000000000000000
310
00000000000000000000000000000000000000000000000000000000000000000000000000000000000000000000000000000000000000000000000000000000000000000000000000000000000000000000000000000000000000000000000000000000000000000000000000000000000000000000000000000000000000
310
00000000F5000000000000000000000000000000000000000000002D0000000000000000000000F5000000000000000000000000000000000000000000000000000000000000000000000000000000000000000000000000000000000000000000000000000000000000000000000000000000000000000000000000000000
310
00000000000000000000000000000000000000000000000000000000000000000000000000000000000000000000000000000000000000000000000000000000000000000000000000000000000000000000000000000000000000000000000000000000000000000000000000000000000000000000000000000000000000
310
000000000000F5000000000000000000000000000000000000000000002D0000000000000000000000F500000000000000000000000000000000000000000000000000000000000000000000000000000000000000000000000000000000000000000000000000000000000000000000000000000000000000000000000000
310
00000000000000000000000000000000000000000000000000000000000000000000000000000000000000000000000000000000000000000000000000000000000000000000000000000000000000000000000000000000000000000000000000000000000000000000000000000000000000000000000000000000000000
310
0000000000000000F5F5F5F5F5F5F5F5F5F5F5F5F5F5F5F5F5F5F5F5F5F5F52DF5F5F5F5F5F5F5F5F5F5F5000000000000000000000000000000000000000000000000000000000000000000000000000000000000000000000000000000000000000000000000000000000000000000000000000000000000000000000000
310
00000000000000000000000000000000000000000000000000000000000000000000000000000000000000000000000000000000000000000000000000000000000000000000000000000000000000000000000000000000000000000000000000000000000000000000000000000000000000000000000000000000000000
310
0000000000000000000000000000000000000000000000000000000000000000002D000000000000000000000000000000000000000000000000000000000000000000000000000000000000000000000000000000000000000000000000000000000000000000000000000000000000000000000000000000000000000000
310
00000000000000000000000000000000000000000000000000000000000000000000000000000000000000000000000000000000000000000000000000000000000000000000000000000000000000000000000000000000000000000000000000000000000000000000000000000000000000000000000000000000000000
310
00000000000000000000000000000000000000000000000000000000000000000000002D00000000000000000000000000000000000000000000000000000000000000000000000000000000000000000000000000000000000000000000000000000000000000000000000000000000000000000000000000000000000000
310
00000000000000000000000000000000000000000000000000000000000000000000000000000000000000000000000000000000000000000000000000000000000000000000000000000000000000000000000000000000000000000000000000000000000000000000000000000000000000000000000000000000000000
310
00000000000000000000000000000000000000000000000000000000000000000000000000000000000000000000000000000000000000000000000000000000000000000000000000000000000000000000000000000000000000000000000000000000000000000000000000000000000000000000000000000000000000
310
00000000000000000000000000000000000000000000000000000000000000000000000000000000000000000000000000000000000000000000000000000000000000000000000000000000000000000000000000000000000000000000000000000000000000000000000000000000000000000000000000000000000000
310
00000000000000000000000000000000000000000000000000000000000000000000000000000000000000000000000000000000000000000000000000000000000000000000000000000000000000000000000000000000000000000000000000000000000000000000000000000000000000000000000000000000000000
310
00000000000000000000000000000000000000000000000000000000000000000000000000000000000000000000000000000000000000000000000000000000000000000000000000000000000000000000000000000000000000000000000000000000000000000000000000000000000000000000000000000000000000
310
00000000000000000000000000000000000000000000000000000000000000000000000000000000000000000000000000000000000000000000000000000000000000000000000000000000000000000000000000000000000000000000000000000000000000000000000000000000000000000000000000000000000000
310
00000000000000000000000000000000000000000000000000000000000000000000000000000000000000000000000000000000000000000000000000000000000000000000000000000000000000000000000000000000000000000000000000000000000000000000000000000000000000000000000000000000000000
310
00000000000000000000000000000000000000000000000000000000000000000000000000000000000000000000000000000000000000000000000000000000000000000000000000000000000000000000000000000000000000000000000000000000000000000000000000000000000000000000000000000000000000
310
00000000000000000000000000000000000000000000000000000000000000000000000000000000000000000000000000000000000000000000000000000000000000000000000000000000000000000000000000000000000000000000000000000000000000000000000000000000000000000000000000000000000000
310
00000000000000000000000000000000000000000000000000000000000000000000000000000000000000000000000000000000000000000000000000000000000000000000000000000000000000000000000000000000000000000000000000000000000000000000000000000000000000000000000000000000000000
310
00000000000000000000000000000000000000000000000000000000000000000000000000000000000000000000000000000000000000000000000000000000000000000000000000000000000000000000000000000000000000000000000000000000000000000000000000000000000000000000000000000000000000
310
00000000000000000000000000000000000000000000000000000000000000000000000000000000000000000000000000000000000000000000000000000000000000000000000000000000000000000000000000000000000000000000000000000000000000000000000000000000000000000000000000000000000000
310
00000000000000000000000000000000000000000000000000000000000000000000000000000000000000000000000000000000000000000000000000000000000000000000000000000000000000000000000000000000000000000000000000000000000000000000000000000000000000000000000000000000000000
310
00000000000000000000000000000000000000000000000000000000000000000000000000000000000000000000000000000000000000000000000000000000000000000000000000000000000000000000000000000000000000000000000000000000000000000000000000000000000000000000000000000000000000
310
00000000000000000000000000000000000000000000000000000000000000000000000000000000000000000000000000000000000000000000000000000000000000000000000000000000000000000000000000000000000000000000000000000000000000000000000000000000000000000000000000000000000000
310
00000000000000000000000000000000000000000000000000000000000000000000000000000000000000000000000000000000000000000000000000000000000000000000000000000000000000000000000000000000000000000000000000000000000000000000000000000000000000000000000000000000000000
310
00000000000000000000000000000000000000000000000000000000000000000000000000000000000000000000000000000000000000000000000000000000000000000000000000000000000000000000000000000000000000000000000000000000000000000000000000000000000000000000000000000000000000
310
00000000000000000000000000000000000000000000000000000000000000000000000000000000000000000000000000000000002D00000000000000000000000000000000000000000000000000000000000000000000000000000000000000000000000000000000000000000000000000000000000000000000000000
310
00000000000000000000000000000000000000000000000000000000000000000000000000000000000000000000000000000000000000000000000000000000000000000000000000000000000000000000000000000000000000000000000000000000000000000000000000000000000000000000000000000000000000
310
00000000000000000000000000000000000000000000000000000000000000000000000000000000000000000000000000000000F5F5F52DF5F5F50000000000000000000000000000000000000000000000000000000000000000000000000000000000000000000000000000000000000000000000000000000000000000
310
00000000F5F500000000000000000000000000000000000000000000000000000000000000000000000000000000000000000000000000000000000000000000000000000000000000000000000000000000000000000000000000000000000000000000000000000000000000000000000000000000000000000000000000
310
000000000000000000000000000000000000000000000000000000000000000000000000000000000000000000000000000000000000F5F5F52DF5F5F5000000000000000000000000000000000000000000000000000000000000000000000000000000000000000000000000000000000000000000000000000000000000
310
000000000000F5F50000000000000000000000000000000000000000000000000000000000000000000000000000000000000000000000000000000000000000000000000000000000000000000000000000000000000000000000000000000000000000000000000000000000000000000000000000000000000000000000
310
0000000000000000000000000000000000000000000000000000000000000000F5F5F5F5F5F5F5F5F5F5F5F5F5F5F5F5F5F5F5F5F5F5F5F5F5F5F5F5F5F5F5F5F5F5F5F5F5F5F5F5F5F5F5F5F5F5F5F5F5F5F5F5F5F5F500000000000000000000000000000000000000000000000000000000000000000000000000000000
310
00F5F5F5F5F5F5F5F5F5000000000000000000000000000000000000000000000000000000000000000000000000000000000000000000000000000000000000000000000000000000000000000000000000000000000000000000000000000000000000000000000000000000000000000000000000000000000000000000
310
00000000000000000000000000000000000000000000000000000000000000000000F50000F5F5F5F5F5F5F5F5F5F5F5F5F5F5F5F5F5F5F5F5F5F5F5F52DF50000000000000000000000002D000000000000000000000000F5000000000000000000000000000000000000000000000000000000000000000000000000002D
310
000000F5000000000000F5F5F5000000000000000000000000000000000000000000000000000000000000000000000000000000000000000000000000000000000000000000000000000000000000000000000000000000000000000000000000000000000000000000000000000000000000000000000000000000000000
310
000000000000000000000000000000000000000000000000000000000000000000000000F50000F5F5F5F5F5F5F5F5F5F5F5F5F5F5F5F5F5F5F5F5F5F5F5F52DF50000000000000000000000002D000000000000000000000000F5000000000000000000000000000000000000000000000000000000000000000000000000
310
002D00F5F5F5000000000000F5F5F500000000000000000000000000000000000000000000000000000000000000000000000000000000000000000000000000000000000000000000000000000000000000000000000000000000000000000000000000000000000000000000000000000000000000000000000000000000
310
0000000000000000000000000000000000000000000000000000000000000000000000000000F50000F5F5F5F5F5F5F5F5F5F5F5F5F5F5F5F5F5F5F5F5F5F5F5F52DF50000000000000000000000002D000000000000000000000000F500000000000000000000000000000000000000000000000000000000000000000000
310
0000002DF50000F5000000000000F5F5F50000000000000000000000000000000000000000000000000000000000000000000000000000000000000000000000000000000000000000000000000000000000000000000000000000000000000000000000000000000000000000000000000000000000000000000000000000
310
00000000000000000000000000000000000000000000000000000000000000000000000000000000F5F5F5F5F5F5F5F5F5F5F5F5F5F5F5F5F5F5F5F5F5F5F5F5F5F5F5F5F5F5F5F5F5F5F5F5F5F5F5F5F52DF5F5F5F5F5F5F5F5F5F5F5F5F5000000000000000000000000000000000000000000000000000000000000F5F5
310
F5F5F5F5F52DF5F5F5F5000000000000F5F500000000000000000000000000000000000000000000000000000000000000000000000000000000000000000000000000000000000000000000000000000000000000000000000000000000000000000000000000000000000000000000000000000000000000000000000000
310
000000000000000000000000000000000000000000000000000000000000000000000000000000000000F50000F500F5F5F500F500F500F500F500F500F5F500F5000000002DF50000000000000000000000002D000000000000000000000000F5000000000000000000000000000000000000000000000000000000000000
310
F50000000000002D00000000000000000000F5F5F5F5000000000000000000000000000000000000000000000000000000000000000000000000000000000000000000000000000000000000000000000000000000000000000000000000000000000000000000000000000000000000000000000000000000000000000000
310
0000000000000000000000000000000000000000000000000000000000000000000000000000000000000000F50000F500F500F5F5F500F5F5F500F5F5F5F5F5F5F5F5000000002DF50000000000000000000000002D000000000000000000000000F500000000000000000000000000000000000000000000000000000000
310
0000F50000000000002D00000000000000000000F5F500F500000000000000000000000000000000000000000000000000000000000000000000000000000000000000000000000000000000000000000000000000000000000000000000000000000000000000000000000000000000000000000000000000000000000000
310
00000000000000000000000000000000000000000000000000000000000000000000000000000000000000000000F50000F5F5F5F5F5F5F5F5F5F5F5F5F5F5F5F5F5F5F5F5F5F5F5F52DF500000000000000000000000000000000000000000000000000F50000000000000000000000000000000000000000000000000000
310
00000000F50000000000000000000000000000000000F5F5F5F50000000000000000000000000000000000000000000000000000000000000000000000000000000000000000000000000000000000000000000000000000000000000000000000000000000000000000000000000000000000000000000000000000000000
310
000000000000000000000000000000000000000000000000000000000000000000000000000000000000000000000000F500000000000000000000000000000000000000000000000000002D0000000000000000000000000000000000000000000000000000F5000000000000000000000000000000000000000000000000
310
000000000000F50000000000000000000000000000000000F50000F5000000000000000000000000000000000000000000000000000000000000000000000000000000000000000000000000000000000000000000000000000000000000000000000000000000000000000000000000000000000000000000000000000000
310
0000000000000000000000000000000000000000000000000000000000000000000000000000000000000000000000000000F500000000000000000000000000000000000000000000000000002D0000000000000000000000000000000000000000000000000000F500000000000000000000000000000000000000000000
310
0000000000000000F50000000000000000000000000000000000F50000F500000000000000000000000000000000000000000000000000000000000000000000000000000000000000000000000000000000000000000000000000000000000000000000000000000000000000000000000000000000000000000000000000
310
00000000000000000000000000000000000000000000000000000000000000000000000000000000000000000000000000000000F500000000000000000000000000000000000000000000000000002D0000000000000000000000000000000000000000000000000000F50000000000000000000000000000000000000000
310
00000000000000000000F50000000000000000000000000000000000F50000F50000000000000000000000000000000000000000000000000000000000000000000000000000000000000000000000000000000000000000000000000000000000000000000000000000000000000000000000000000000000000000000000
310
000000000000000000000000000000000000000000000000000000000000000000000000000000000000000000000000000000000000F5000000F5F5F5F5F5F5F5F5F5F5F5F5F5F5F5F5F5F5F5F5F5F5F52DF5F5F5F5F5F5F5F5F5F5F5000000000000000000000000000000F5000000000000000000000000000000000000
310
000000000000000000F5F5F5F50000000000000000000000000000000000F50000F5000000000000000000000000000000000000000000000000000000000000000000000000000000000000000000000000000000000000000000000000000000000000000000000000000000000000000000000000000000000000000000
310
0000000000000000000000000000000000000000000000000000000000000000000000000000000000000000000000000000000000000000F5000000F5000000000000000000000000000000000000000000002D00000000000000000000F5F50000000000000000000000000000F500000000000000000000000000000000
310
0000000000000000000000F50000F50000000000000000000000000000000000F50000F500000000000000000000000000000000000000000000000000000000000000000000000000000000000000000000000000000000000000000000000000000000000000000000000000000000000000000000000000000000000000
310
00000000000000000000000000000000000000000000000000000000000000000000000000000000000000000000000000000000000000000000F5000000F5000000000000000000000000000000000000000000002D0000000000000000000000F50000000000000000000000000000F50000000000000000000000000000
310
00000000000000000000000000F50000F50000000000000000000000000000000000F50000F50000000000000000000000000000000000000000000000000000000000000000000000000000000000000000000000000000000000000000000000000000000000000000000000000000000000000000000000000000000000
310
000000000000000000000000000000000000000000000000000000000000000000000000000000000000000000000000000000000000000000000000F5000000F5F5F5F5F5F5F5F5F5F5F5F5F5F5F5F5F5F5F5F5F5F5F52DF5F5F5F5F5F5F5F5F5F5F5F50000000000000000000000000000F5000000000000000000000000
310
000000000000000000000000000000F50000F50000000000000000000000000000000000F5F5F5F5000000000000000000000000000000000000000000000000000000000000000000000000000000000000000000000000000000000000000000000000000000000000000000000000000000000000000000000000000000
310
0000000000000000000000000000000000000000000000000000000000000000000000000000000000000000000000000000000000000000000000000000F5000000F5F5F5F5F5F5F5F5F5F5F5F5F5F5F5F5F5F5F5F5F5F5F5F5F5F5F5F5F5F5F5F5F5F500F50000000000000000000000000000F500000000000000000000
310
0000000000000000000000000000000000F50000F50000000000000000000000000000000000F5F5F50000000000000000000000000000000000000000000000000000000000000000000000000000000000000000000000000000000000000000000000000000000000000000000000000000000000000000000000000000
310
00000000000000000000000000000000000000000000000000000000000000000000000000000000000000000000000000000000000000000000000000000000F5000000F5F5F500F5F5F5F5F5F5F5F5F5F5F5F5F5F5F5F5F5F5F5F5F5F5F5F5F5F5F5F500F500F50000000000000000000000000000F50000000000000000
310
00000000000000000000000000000000000000F50000F50000000000000000000000000000000000F5F500000000000000000000000000000000000000000000000000000000000000000000000000000000000000000000000000000000000000000000000000000000000000000000000000000000000000000000000000
310
000000000000000000000000000000000000000000000000000000000000000000000000000000000000000000000000000000000000000000000000000000000000F5000000F5F5F5F5F50000F500F5F5F500F500F5F5F5F5F5F5F5F52D00F50000000000F500F500F50000000000000000000000000000F5000000000000
310
0000000000000000000000000000000000000000F5F50000F50000000000000000000000000000000000F5F50000000000000000000000000000000000000000000000000000000000000000000000000000000000000000000000000000000000000000000000000000000000000000000000000000000000000000000000
310
0000000000000000000000000000000000000000000000000000000000000000000000000000000000000000000000000000000000000000000000000000000000000000F5000000F5F5F5F5F50000F50000F5F5F5F500F5F5F5F500F5F5F52D00F50000000000F500F500F50000000000000000000000000000F500000000
310
00000000000000000000000000000000000000000000F5F50000F50000000000000000000000000000000000F5F5000000000000000000000000000000000000000000000000000000000000000000000000000000000000000000000000000000000000000000000000000000000000000000000000000000000000000000
310
00000000000000000000000000000000000000000000000000000000000000000000000000000000000000000000000000000000000000000000000000000000000000000000F5000000F5F5F5F5F50000F5F5F5F5F5F5F500F5F5F5F5F5F5F5F5F5F5F50000000000F500F500F50000000000000000000000000000F50000
310
000000000000000000000000000000000000000000000000F5F50000F50000000000000000000000000000000000F5F500000000000000000000000000000000000000000000000000000000000000000000000000000000000000000000000000000000000000000000000000000000000000000000000000000000000000
310
000000000000000000000000000000000000000000000000000000000000000000000000000000000000000000000000000000000000000000000000000000000000000000000000F5000000F5F5F500F5F5F5F5F5F5F5F5F5F5F5F5F5F5F5F5F5F5F5F5F5F5F5F5F5F5F5F500F500F50000000000000000000000000000F5
310
000000000000000000000000000000000000000000000000000000F50000F50000000000000000000000000000000000F5F50000000000000000000000000000000000000000000000000000000000000000000000000000000000000000000000000000000000000000000000000000000000000000000000000000000000
310
0000000000000000000000000000000000000000000000000000000000000000000000000000000000000000000000000000000000000000000000000000000000000000000000000000F5000000F5F5F5F5F5F5F5F5F5F5F5F5F5F5F5F5F5F5F5F5F5F5F52DF5F5F5F5F5F5F5F5F5F500F500000000000000000000000000
310
00F5000000000000000000000000000000000000000000000000000000F50000F500000000000000000000000000002D2D2D2D2D2D2D2D2D0000000000000000000000000000000000000000000000000000000000000000000000000000000000000000000000000000000000000000000000000000000000000000000000
310
00000000000000000000000000000000000000000000000000000000000000000000000000000000000000000000000000000000000000000000000000000000000000000000000000000000F5000000F5F5F500000000000000000000000000000000000000002D000000000000000000F500F50000000000000000000000
310
000000F5000000000000000000000000000000000000000000000000000000F50000F50000000000000000000000000000000000F5F500000000000000000000000000000000000000000000000000000000000000000000000000000000000000000000000000000000000000000000000000000000000000000000000000
310
000000000000000000000000000000000000000000000000000000000000000000000000000000000000000000000000000000000000000000000000000000000000000000000000000000000000F5000000F5F5F500000000000000000000000000000000000000002D000000000000000000F500F5000000000000000000
310
0000000000F5000000000000000000000000000000000000000000000000000000F50000F50000000000000000000000000000000000F5F50000000000000000000000000000000000000000000000000000000000000000000000000000000000000000000000000000000000000000000000000000000000000000000000
310
0000000000000000000000000000000000000000000000000000000000000000000000000000000000000000000000000000000000000000000000000000000000000000000000000000000000000000F5000000F5F5F500000000000000F5F5F5F5F5F5F5F5F5F5F500002D000000000000000000F500F500000000000000
310
00000000000000F5000000000000000000000000000000000000000000000000000000F50000F50000000000000000000000000000000000F5F5000000000000000000000000000000000000000000000000000000000000000000000000000000000000000000000000000000000000000000000000000000000000000000
310
00000000000000000000000000000000000000000000000000000000000000000000000000000000000000000000000000000000000000000000000000000000000000000000000000000000000000000000F5000000F5F5F500000000000000F500000000F5F5F5F5F5F500002D000000000000000000F500F50000000000
310
000000000000000000F5000000000000000000000000000000000000000000000000000000F50000F50000000000000000000000000000000000F5F500000000000000000000000000000000000000000000000000000000000000000000000000000000000000000000000000000000000000000000000000000000000000
310
000000000000000000000000000000000000000000000000000000000000000000000000000000000000000000000000000000000000000000000000000000000000000000000000000000000000000000000000F5000000F5F5F500000000000000F5F5F5F5F5F5F5F5F5F5F500002D000000000000000000F500F5000000
310
0000000000000000000000F5000000000000000000000000000000000000000000000000000000F50000F50000000000000000000000000000000000F5F50000000000000000000000000000000000000000000000000000000000000000000000000000000000000000000000000000000000000000000000000000000000
310
0000000000000000000000000000000000000000000000000000000000000000000000000000000000000000000000000000000000000000000000000000000000000000000000000000000000000000000000000000F5000000F5F5F500000000000000F5F5F5F5F5F5F5F5F500F500002D000000000000000000F500F500
310
00000000000000000000000000F5000000000000000000000000000000000000000000000000000000F50000F50000000000000000000000000000000000F5F5F50000000000000000000000000000000000000000000000000000000000000000000000000000000000000000000000000000000000000000000000000000
310
00000000000000000000000000000000000000000000000000000000000000000000000000000000000000000000000000000000000000000000000000000000000000000000000000000000000000000000000000000000F5000000F5F5F500000000000000F5F5F5F5F5F5F5F5F500F500002D000000000000000000F500
310
F50000000000000000000000000000F5000000000000000000000000000000000000000000000000000000F50000F50000000000000000000000000000000000F5F5F5F50000000000000000000000000000000000000000000000000000000000000000000000000000000000000000000000000000000000000000000000
310
000000000000000000000000000000000000000000000000000000000000000000000000000000000000000000000000000000000000000000000000000000000000000000000000000000000000000000000000000000000000F5000000F5F5F500000000000000F5F5F5F5F5F5F5F5F500F500002D000000000000000000
310
F500F50000000000000000000000000000F5000000000000000000000000000000000000000000000000000000F50000F50000000000000000000000000000000000F50000F5000000000000000000000000000000000000000000000000000000000000000000000000000000000000000000000000000000000000000000
310
0000000000000000000000000000000000000000000000000000000000000000000000000000000000000000000000000000000000000000000000000000000000000000000000000000000000000000000000000000000000000000F5000000F5F5F500000000000000F5F5F5F5F5F5F5F50000F500002D00000000000000
310
0000F500F50000000000000000000000000000F5000000000000000000000000000000000000000000000000000000F50000F50000000000000000000000000000000000F50000F500000000000000000000000000000000000000000000000000000000000000000000000000000000000000000000000000000000000000
310
00000000000000000000000000000000000000000000000000000000000000000000000000000000000000000000000000000000000000000000000000000000000000000000000000000000000000000000000000000000000000000000F5000000F5F5F500000000000000F5F5F5F5F5F5F5F50000F500002D0000000000
310
00000000F500F50000000000000000000000000000F5000000000000000000000000000000000000000000000000000000F50000F50000000000000000000000000000000000F50000F50000000000000000000000000000000000000000000000000000000000000000000000000000000000000000000000000000000000
310
000000000000000000000000000000000000000000000000000000000000000000000000000000000000000000000000000000000000000000000000000000000000000000000000000000000000000000000000000000000000000000000000F5000000F5F5F500000000000000F5F5F5F5F5F5F5F5F5F5F500002D000000
310
000000000000F500F50000000000000000000000000000F5000000000000000000000000000000000000000000000000000000F50000F50000000000000000000000000000000000F50000F5000000000000000000000000000000000000000000000000000000000000000000000000000000000000000000000000000000
310
0000000000000000000000000000000000000000000000000000000000000000000000000000000000000000000000000000000000000000000000000000000000000000000000000000000000000000000000000000000000000000000000000000F5000000F5F5F500000000000000000000000000000000000000002D00
310
0000000000000000F500F50000000000000000000000000000F5000000000000000000000000000000000000000000000000000000F50000F50000000000000000000000000000000000F50000F500000000000000000000000000000000000000000000000000000000000000000000000000000000000000000000000000
310
00000000000000000000000000000000000000000000000000000000000000000000000000000000000000000000000000000000000000000000000000000000000000000000000000000000000000000000000000000000000000000000000000000000F5000000F5F5F50000000000000000000000000000000000000000
310
2D000000000000000000F500F50000000000000000000000000000F5000000000000000000000000000000000000000000000000000000F50000F50000000000000000000000000000000000F50000F50000000000000000000000000000000000000000000000000000000000000000000000000000000000000000000000
310
000000000000000000000000000000000000000000000000000000000000000000000000000000000000000000000000000000000000000000000000000000000000000000000000000000000000000000000000000000000000000000000000000000000000F5000000F5F5F5000000000000000000000000000000000000
310
00002D000000000000000000F500F50000000000000000000000000000F5000000000000000000000000000000000000000000000000000000F50000F50000000000000000000000000000000000F50000F5000000000000000000000000000000000000000000000000000000000000000000000000000000000000000000
310
0000000000000000000000000000000000000000000000000000000000000000000000000000000000000000000000000000000000000000000000000000000000000000000000000000000000000000000000000000000000000000000000000000000000000000F5000000F5F5F5F5F5F5F5F5F5F5F5F5F5F5F5F5F5F5F5
310
F5F5F5F5F5F5F5F5F5F5F5F5F5F5F500F50000000000000000000000000000F5000000000000000000000000000000000000000000000000000000F50000F50000000000000000000000000000000000F50000F500000000000000000000000000000000000000000000000000000000000000000000000000000000000000
310
00000000000000000000000000000000000000000000000000000000000000000000000000000000000000000000000000000000000000000000000000000000000000000000000000000000000000000000000000000000000000000000000000000000000000000000F5000000F5F5F5F5F5F5F5F5F5F5F5F5F5F5F5F5F5
310
F5F5F5F5F5F5F5F5F5F5F5F5F5F5F5F5F500F50000000000000000000000000000F5000000000000000000000000000000000000000000000000000000F50000F50000000000000000000000000000000000F5F5F5F50000000000000000000000000000000000000000000000000000000000000000000000000000000000
310
000000000000000000000000000000000000000000000000000000000000000000000000000000000000000000000000000000000000000000000000000000000000000000000000000000000000000000000000000000000000000000000000000000000000000000000000F5000000F5F5F5F5F5F5F5F5F5F5F5F5F5F5F5
310
F5F5F5F5F5F5F5F52DF5F5F5F5F5F5F5F5F5F5F5000000000000000000000000000000F5000000000000000000000000000000000000000000000000000000F5F5F5F50000000000000000000000000000000000F5000000000000000000000000000000000000000000000000000000000000000000000000000000000000
310
0000000000000000000000000000000000000000000000000000000000000000000000000000000000000000000000000000000000000000000000000000000000000000000000000000000000000000000000000000000000000000000000000000000000000000000000000000F500000000000000000000000000000000
310
000000000000000000002D0000000000000000000000000000000000000000000000000000F5000000000000000000000000000000000000000000000000000000000000F50000000000000000000000000000000000F500000000000000000000000000000000000000000000000000000000000000000000000000000000
310
00000000000000000000000000000000000000000000000000000000000000000000000000000000000000000000000000000000000000000000000000000000000000000000000000000000000000000000000000000000000000000000000000000000000000000000000000000000F50000000000000000000000000000
310
0000000000000000000000002D0000000000000000000000000000000000000000000000000000F5000000000000000000000000000000000000000000000000000000000000F50000000000000000000000000000000000F50000000000000000000000000000000000000000000000000000000000000000000000000000
310
000000000000000000000000000000000000000000000000000000000000000000000000000000000000000000000000000000000000000000000000000000000000000000000000000000000000000000000000000000000000000000000000000000000000000000000000000000000000F5000000000000000000000000
310
00000000000000000000000000002D0000000000000000000000000000000000000000000000000000F5000000000000000000000000000000000000000000000000000000000000F50000000000000000000000000000000000F5000000000000000000000000000000000000000000000000000000000000000000000000
310
0000000000000000000000000000000000000000000000000000000000000000000000000000000000000000000000000000000000000000000000000000000000000000000000000000000000000000000000000000000000000000000000000000000000000000000000000000000000000000F5F5F5F5F5F5F5F5F5F5F5
310
F5F5F5F5F5F5F5F5F5F5F5F5F5F5F5F5F5F5F5F5F5F5F5F5F5F5F5F5F5F5F5F5F5F5F5F5F5F5F5F5F5F5F5F5000000000000000000000000000000000000000000000000000000000000F5F5F5F5F5F5F5F5F5F5F5F5F5F5F5F5F5F5F500000000000000000000000000000000000000000000000000000000000000000000
310
00000000000000000000000000000000000000000000000000000000000000000000000000000000000000000000000000000000000000000000000000000000000000000000000000000000000000000000000000000000000000000000000000000000000000000000000000000000000000000000000000000000000000
310
0000000000000000000000000000000000002D000000000000000000000000000000000000000000000000000000000000000000000000000000000000000000000000000000000000000000000000000000000000000000000000000000000000000000000000000000000000000000000000000000000000000000000000
310
00000000000000000000000000000000000000000000000000000000000000000000000000000000000000000000000000000000000000000000000000000000000000000000000000000000000000000000000000000000000000000000000000000000000000000000000000000000000000000000000000000000000000
310
00000000000000000000000000000000000000002D00000000000000000000000000000000000000000000000000000000000000000000000000000000000000000000000000000000000000000000000000000000000000000000000000000000000000000000000000000000000000000000000000000000000000000000
310
00000000000000000000000000000000000000000000000000000000000000000000000000000000000000000000000000000000000000000000000000000000000000000000000000000000000000000000000000000000000000000000000000000000000000000000000000000000000000000000000000000000000000
310
00000000000000000000000000000000000000000000000000000000000000000000000000000000000000000000000000000000000000000000000000000000000000000000000000000000000000000000000000000000000000000000000000000000000000000000000000000000000000000000000000000000000000
310
00000000000000000000000000000000000000000000000000000000000000000000000000000000000000000000000000000000000000000000000000000000000000000000000000000000000000000000000000000000000000000000000000000000000000000000000000000000000000000000000000000000000000
310
00000000000000000000000000000000000000000000000000000000000000000000000000000000000000000000000000000000000000000000000000000000000000000000000000000000000000000000000000000000000000000000000000000000000000000000000000000000000000000000000000000000000000
310
00000000000000000000000000000000000000000000000000000000000000000000000000000000000000000000000000000000000000000000000000000000000000000000000000000000000000000000000000000000000000000000000000000000000000000000000000000000000000000000000000000000000000
310
00000000000000000000000000000000000000000000000000000000000000000000000000000000000000000000000000000000000000000000000000000000000000000000000000000000000000000000000000000000000000000000000000000000000000000000000000000000000000000000000000000000000000
310
00000000000000000000000000000000000000000000000000000000000000000000000000000000000000000000000000000000000000000000000000000000000000000000000000000000000000000000000000000000000000000000000000000000000000000000000000000000000000000000000000000000000000
310
00000000000000000000000000000000000000000000000000000000000000000000000000000000000000000000000000000000000000000000000000000000000000000000000000000000000000000000000000000000000000000000000000000000000000000000000000000000000000000000000000000000000000
310
00000000000000000000000000000000000000000000000000000000000000000000000000000000000000000000000000000000000000000000000000000000000000000000000000000000000000000000000000000000000000000000000000000000000000000000000000000000000000000000000000000000000000
310
00000000000000000000000000000000000000000000000000000000000000000000000000000000000000000000000000000000000000000000000000000000000000000000000000000000000000000000000000000000000000000000000000000000000000000000000000000000000000000000000000000000000000
310
00000000000000000000000000000000000000000000000000000000000000000000000000000000000000000000000000000000000000000000000000000000000000000000000000000000000000000000000000000000000000000000000000000000000000000000000000000000000000000000000000000000000000
310
00000000000000000000000000000000000000000000000000000000000000000000000000000000000000000000000000000000000000000000000000000000000000000000000000000000000000000000000000000000000000000000000000000000000000000000000000000000000000000000000000000000000000
310
00000000000000000000000000000000000000000000000000000000000000000000000000000000000000000000000000000000000000000000000000000000000000000000000000000000000000000000000000000000000000000000000000000000000000000000000000000000000000000000000000000000000000
310
00000000000000000000000000000000000000000000000000000000000000000000000000000000000000000000000000000000000000000000000000000000000000000000000000000000000000000000000000000000000000000000000000000000000000000000000000000000000000000000000000000000000000
310
00000000000000000000000000000000000000000000000000000000000000000000000000000000000000000000000000000000000000000000000000000000000000000000000000000000000000000000000000000000000000000000000000000000000000000000000000000000000000000000000000000000000000
310
00000000000000000000000000000000000000000000000000000000000000000000000000000000000000000000000000000000000000000000000000000000000000000000000000000000000000000000000000000000000000000000000000000000000000000000000000000000000000000000000000000000000000
310
00000000000000000000000000000000000000000000000000000000000000000000000000000000000000000000000000000000000000000000000000000000000000000000000000000000000000000000000000000000000000000000000000000000000000000000000000000000000000000000000000000000000000
310
00000000000000000000000000000000000000000000000000000000000000000000000000000000000000000000000000000000000000000000000000000000000000000000000000000000000000000000000000000000000000000000000000000000000000000000000000000000000000000000000000000000000000
310
00000000000000000000000000000000000000000000000000000000000000000000000000000000000000000000000000000000000000000000000000000000000000000000000000000000000000000000000000000000000000000000000000000000000000000000000000000000000000000000000000000000000000
310
00000000000000000000000000000000000000000000000000000000000000000000000000000000000000000000000000000000000000000000000000000000000000000000000000000000000000000000000000000000000000000000000000000000000000000000000000000000000000000000000000000000000000
310
00000000000000000000000000000000000000000000000000000000000000000000000000000000000000000000000000000000000000000000000000000000000000000000000000000000000000000000000000000000000000000000000000000000000000000000000000000000000000000000000000000000000000
310
00000000000000000000000000000000000000000000000000000000000000000000000000000000000000000000000000000000000000000000000000000000000000000000000000000000000000000000000000000000000000000000000000000000000000000000000000000000000000000000000000000000000000
310
00000000000000000000000000000000000000000000000000000000000000000000000000000000000000000000000000000000000000000000000000000000000000000000000000000000000000000000000000000000000000000000000000000000000000000000000000000000000000000000000000000000000000
310
00000000000000000000000000000000000000000000000000000000000000000000000000000000000000000000000000000000000000000000000000000000000000000000000000000000000000000000000000000000000000000000000000000000000000000000000000000000000000000000000000000000000000
310
00000000000000000000000000000000000000000000000000000000000000000000000000000000000000000000000000000000000000000000000000000000000000000000000000000000000000000000000000000000000000000000000000000000000000000000000000000000000000000000000000000000000000
310
00000000000000000000000000000000000000000000000000000000000000000000000000000000000000000000000000000000000000000000000000000000000000000000000000000000000000000000000000000000000000000000000000000000000000000000000000000000000000000000000000000000000000
310
00000000000000000000000000000000000000000000000000000000000000000000000000000000000000000000000000000000000000000000000000000000000000000000000000000000000000000000000000000000000000000000000000000000000000000000000000000000000000000000000000000000000000
310
00000000000000000000000000000000000000000000000000000000000000000000000000000000000000000000000000000000000000000000000000000000000000000000000000000000000000000000000000000000000000000000000000000000000000000000000000000000000000000000000000000000000000
310
00000000000000000000000000000000000000000000000000000000000000000000000000000000000000000000000000000000000000000000000000000000000000000000000000000000000000000000000000000000000000000000000000000000000000000000000000000000000000000000000000000000000000
310
00000000000000000000000000000000000000000000000000000000000000000000000000000000000000000000000000000000000000000000000000000000000000000000000000000000000000000000000000000000000000000000000000000000000000000000000000000000000000000000000000000000000000
310
00000000000000000000000000000000000000000000000000000000000000000000000000000000000000000000000000000000000000000000000000000000000000000000000000000000000000000000000000000000000000000000000000000000000000000000000000000000000000000000000000000000000000
310
00000000000000000000000000000000000000000000000000000000000000000000000000000000000000000000000000000000000000000000000000000000000000000000000000000000000000000000000000000000000000000000000000000000000000000000000000000000000000000000000000000000000000
310
00000000000000000000000000000000000000000000000000000000000000000000000000000000000000000000000000000000000000000000000000000000000000000000000000000000000000000000000000000000000000000000000000000000000000000000000000000000000000000000000000000000000000
310
00000000000000000000000000000000000000000000000000000000000000000000000000000000000000000000000000000000000000000000000000000000000000000000000000000000000000000000000000000000000000000000000000000000000000000000000000000000000000000000000000000000000000
310
00000000000000000000000000000000000000000000000000000000000000000000000000000000000000000000000000000000000000000000000000000000000000000000000000000000000000000000000000000000000000000000000000000000000000000000000000000000000000000000000000000000000000
310
00000000000000000000000000000000000000000000000000000000000000000000000000000000000000000000000000000000000000000000000000000000000000000000000000000000000000000000000000000000000000000000000000000000000000000000000000000000000000000000000000000000000000
310
00000000000000000000000000000000000000000000000000000000000000000000000000000000000000000000000000000000000000000000000000000000000000000000000000000000000000000000000000000000000000000000000000000000000000000000000000000000000000000000000000000000000000
310
00000000000000000000000000000000000000000000000000000000000000000000000000000000000000000000000000000000000000000000000000000000000000000000000000000000000000000000000000000000000000000000000000000000000000000000000000000000000000000000000000000000000000
310
00000000000000000000000000000000000000000000000000000000000000000000000000000000000000000000000000000000000000000000000000000000000000000000000000000000000000000000000000000000000000000000000000000000000000000000000000000000000000000000000000000000000000
310
00000000000000000000000000000000000000000000000000000000000000000000000000000000000000000000000000000000000000000000000000000000000000000000000000000000000000000000000000000000000000000000000000000000000000000000000000000000000000000000000000000000000000
310
00000000000000000000000000000000000000000000000000000000000000000000000000000000000000000000000000000000000000000000000000000000000000000000000000000000000000000000000000000000000000000000000000000000000000000000000000000000000000000000000000000000000000
310
00000000000000000000000000000000000000000000000000000000000000000000000000000000000000000000000000000000000000000000000000000000000000000000000000000000000000000000000000000000000000000000000000000000000000000000000000000000000000000000000000000000000000
310
00000000000000000000000000000000000000000000000000000000000000000000000000000000000000000000000000000000000000000000000000000000000000000000000000000000000000000000000000000000000000000000000000000000000000000000000000000000000000000000000000000000000000
310
00000000000000000000000000000000000000000000000000000000000000000000000000000000000000000000000000000000000000000000000000000000000000000000000000000000000000000000000000000000000000000000000000000000000000000000000000000000000000000000000000000000000000
310
00000000000000000000000000000000000000000000000000000000000000000000000000000000000000000000000000000000000000000000000000000000000000000000000000000000000000000000000000000000000000000000000000000000000000000000000000000000000000000000000000000000000000
310
00000000000000000000000000000000000000000000000000000000000000000000000000000000000000000000000000000000000000000000000000000000000000000000000000000000000000000000000000000000000000000000000000000000000000000000000000000000000000000000000000000000000000
310
00000000000000000000000000000000000000000000000000000000000000000000000000000000000000000000000000000000000000000000000000000000000000000000000000000000000000000000000000000000000000000000000000000000000000000000000000000000000000000000000000000000000000
310
00000000000000000000000000000000000000000000000000000000000000000000000000000000000000000000000000000000000000000000000000000000000000000000000000000000000000000000000000000000000000000000000000000000000000000000000000000000000000000000000000000000000000
310
00000000000000000000000000000000000000000000000000000000000000000000000000000000000000000000000000000000000000000000000000000000000000000000000000000000000000000000000000000000000000000000000000000000000000000000000000000000000000000000000000000000000000
310
00000000000000000000000000000000000000000000000000000000000000000000000000000000000000000000000000000000000000000000000000000000000000000000000000000000000000000000000000000000000000000000000000000000000000000000000000000000000000000000000000000000000000
310
00000000000000000000000000000000000000000000000000000000000000000000000000000000000000000000000000000000000000000000000000000000000000000000000000000000000000000000000000000000000000000000000000000000000000000000000000000000000000000000000000000000000000
310
00000000000000000000000000000000000000000000000000000000000000000000000000000000000000000000000000000000000000000000000000000000000000000000000000000000000000000000000000000000000000000000000000000000000000000000000000000000000000000000000000000000000000
310
00000000000000000000000000000000000000000000000000000000000000000000000000000000000000000000000000000000000000000000000000000000000000000000000000000000000000000000000000000000000000000000000000000000000000000000000000000000000000000000000000000000000000
310
00000000000000000000000000000000000000000000000000000000000000000000000000000000000000000000000000000000000000000000000000000000000000000000000000000000000000000000000000000000000000000000000000000000000000000000000000000000000000000000000000000000000000
310
00000000000000000000000000000000000000000000000000000000000000000000000000000000000000000000000000000000000000000000000000000000000000000000000000000000000000000000000000000000000000000000000000000000000000000000000000000000000000000000000000000000000000
310
00000000000000000000000000000000000000000000000000000000000000000000000000000000000000000000000000000000000000000000000000000000000000000000000000000000000000000000000000000000000000000000000000000000000000000000000000000000000000000000000000000000000000
310
00000000000000000000000000000000000000000000000000000000000000000000000000000000000000000000000000000000000000000000000000000000000000000000000000000000000000000000000000000000000000000000000000000000000000000000000000000000000000000000000000000000000000
310
00000000000000000000000000000000000000000000000000000000000000000000000000000000000000000000000000000000000000000000000000000000000000000000000000000000000000000000000000000000000000000000000000000000000000000000000000000000000000000000000000000000000000
310
00000000000000000000000000000000000000000000000000000000000000000000000000000000000000000000000000000000000000000000000000000000000000000000000000000000000000000000000000000000000000000000000000000000000000000000000000000000000000000000000000000000000000
310
00000000000000000000000000000000000000000000000000000000000000000000000000000000000000000000000000000000000000000000000000000000000000000000000000000000000000000000000000000000000000000000000000000000000000000000000000000000000000000000000000000000000000
310
00000000000000000000000000000000000000000000000000000000000000000000000000000000000000000000000000000000000000000000000000000000000000000000000000000000000000000000000000000000000000000000000000000000000000000000000000000000000000000000000000000000000000
310
00000000000000000000000000000000000000000000000000000000000000000000000000000000000000000000000000000000000000000000000000000000000000000000000000000000000000000000000000000000000000000000000000000000000000000000000000000000000000000000000000000000000000
310
00000000000000000000000000000000000000000000000000000000000000000000000000000000000000000000000000000000000000000000000000000000000000000000000000000000000000000000000000000000000000000000000000000000000000000000000000000000000000000000000000000000000000
310
00000000000000000000000000000000000000000000000000000000000000000000000000000000000000000000000000000000000000000000000000000000000000000000000000000000000000000000000000000000000000000000000000000000000000000000000000000000000000000000000000000000000000
310
00000000000000000000000000000000000000000000000000000000000000000000000000000000000000000000000000000000000000000000000000000000000000000000000000000000000000000000000000000000000000000000000000000000000000000000000000000000000000000000000000000000000000
310
00000000000000000000000000000000000000000000000000000000000000000000000000000000000000000000000000000000000000000000000000000000000000000000000000000000000000000000000000000000000000000000000000000000000000000000000000000000000000000000000000000000000000
310
00000000000000000000000000000000000000000000000000000000000000000000000000000000000000000000000000000000000000000000000000000000000000000000000000000000000000000000000000000000000000000000000000000000000000000000000000000000000000000000000000000000000000
310
00000000000000000000000000000000000000000000000000000000000000000000000000000000000000000000000000000000000000000000000000000000000000000000000000000000000000000000000000000000000000000000000000000000000000000000000000000000000000000000000000000000000000
310
00000000000000000000000000000000000000000000000000000000000000000000000000000000000000000000000000000000000000000000000000000000000000000000000000000000000000000000000000000000000000000000000000000000000000000000000000000000000000000000000000000000000000
310
00000000000000000000000000000000000000000000000000000000000000000000000000000000000000000000000000000000000000000000000000000000000000000000000000000000000000000000000000000000000000000000000000000000000000000000000000000000000000000000000000000000000000
310
00000000000000000000000000000000000000000000000000000000000000000000000000000000000000000000000000000000000000000000000000000000000000000000000000000000000000000000000000000000000000000000000000000000000000000000000000000000000000000000000000000000000000
310
00000000000000000000000000000000000000000000
  0
XRECORD
  5
457
102
{ACAD_REACTORS
330
456
102
}
330
456
100
AcDbXrecord
280
     1
102
SHADEPLOT
 70
     0
102
SHADEPLOTRESLEVEL
 70
     2
102
SHADEPLOTCUSTOMDPI
 70
   300
  0
XRECORD
  5
3E
102
{ACAD_REACTORS
330
3D
102
}
330
3D
100
AcDbXrecord
280
     1
102
MATERIAL
148
0.0
149
0.0
149
0.0
 93
        0
 94
      127
282
     0
 72
     1
 77
     1
171
     1
175
     1
179
     1
273
     0
  0
XRECORD
  5
11
102
{ACAD_REACTORS
330
10
102
}
330
10
100
AcDbXrecord
280
     1
102
MATERIAL
148
0.0
149
0.0
149
0.0
 93
        0
 94
      127
282
     0
 72
     1
 77
     1
171
     1
175
     1
179
     1
273
     0
  0
XRECORD
  5
D
102
{ACAD_REACTORS
330
C
102
}
330
C
100
AcDbXrecord
280
     1
102
MATERIAL
148
0.0
149
0.0
149
0.0
 93
        0
 94
      127
282
     0
 72
     1
 77
     1
171
     1
175
     1
179
     1
273
     0
  0
CELLSTYLEMAP
  5
453
102
{ACAD_REACTORS
330
4B
102
}
330
4B
100
AcDbCellStyleMap
 90
        3
300
CELLSTYLE
  1
TABLEFORMAT_BEGIN
 90
        5
170
     1
 91
        0
 92
    32768
 62
   257
 93
        1
300
CONTENTFORMAT
  1
CONTENTFORMAT_BEGIN
 90
        0
 91
        0
 92
      512
 93
        0
300

 40
0.0
140
1.0
 94
        5
 62
     0
340
22
144
0.25
309
CONTENTFORMAT_END
171
     1
301
MARGIN
  1
CELLMARGIN_BEGIN
 40
0.06
 40
0.06
 40
0.06
 40
0.06
 40
0.18
 40
0.18
309
CELLMARGIN_END
 94
        6
 95
        1
302
GRIDFORMAT
  1
GRIDFORMAT_BEGIN
 90
        0
 91
        1
 62
     0
 92
       -2
340
0
 93
        0
 40
0.045
309
GRIDFORMAT_END
 95
        2
302
GRIDFORMAT
  1
GRIDFORMAT_BEGIN
 90
        0
 91
        1
 62
     0
 92
       -2
340
0
 93
        0
 40
0.045
309
GRIDFORMAT_END
 95
        4
302
GRIDFORMAT
  1
GRIDFORMAT_BEGIN
 90
        0
 91
        1
 62
     0
 92
       -2
340
0
 93
        0
 40
0.045
309
GRIDFORMAT_END
 95
        8
302
GRIDFORMAT
  1
GRIDFORMAT_BEGIN
 90
        0
 91
        1
 62
     0
 92
       -2
340
0
 93
        0
 40
0.045
309
GRIDFORMAT_END
 95
       16
302
GRIDFORMAT
  1
GRIDFORMAT_BEGIN
 90
        0
 91
        1
 62
     0
 92
       -2
340
0
 93
        0
 40
0.045
309
GRIDFORMAT_END
 95
       32
302
GRIDFORMAT
  1
GRIDFORMAT_BEGIN
 90
        0
 91
        1
 62
     0
 92
       -2
340
0
 93
        0
 40
0.045
309
GRIDFORMAT_END
309
TABLEFORMAT_END
  1
CELLSTYLE_BEGIN
 90
        1
 91
        1
300
_TITLE
309
CELLSTYLE_END
300
CELLSTYLE
  1
TABLEFORMAT_BEGIN
 90
        5
170
     1
 91
        0
 92
        0
 62
   257
 93
        1
300
CONTENTFORMAT
  1
CONTENTFORMAT_BEGIN
 90
        0
 91
        0
 92
      512
 93
        0
300

 40
0.0
140
1.0
 94
        5
 62
     0
340
22
144
0.18
309
CONTENTFORMAT_END
171
     1
301
MARGIN
  1
CELLMARGIN_BEGIN
 40
0.06
 40
0.06
 40
0.06
 40
0.06
 40
0.18
 40
0.18
309
CELLMARGIN_END
 94
        6
 95
        1
302
GRIDFORMAT
  1
GRIDFORMAT_BEGIN
 90
        0
 91
        1
 62
     0
 92
       -2
340
0
 93
        0
 40
0.045
309
GRIDFORMAT_END
 95
        2
302
GRIDFORMAT
  1
GRIDFORMAT_BEGIN
 90
        0
 91
        1
 62
     0
 92
       -2
340
0
 93
        0
 40
0.045
309
GRIDFORMAT_END
 95
        4
302
GRIDFORMAT
  1
GRIDFORMAT_BEGIN
 90
        0
 91
        1
 62
     0
 92
       -2
340
0
 93
        0
 40
0.045
309
GRIDFORMAT_END
 95
        8
302
GRIDFORMAT
  1
GRIDFORMAT_BEGIN
 90
        0
 91
        1
 62
     0
 92
       -2
340
0
 93
        0
 40
0.045
309
GRIDFORMAT_END
 95
       16
302
GRIDFORMAT
  1
GRIDFORMAT_BEGIN
 90
        0
 91
        1
 62
     0
 92
       -2
340
0
 93
        0
 40
0.045
309
GRIDFORMAT_END
 95
       32
302
GRIDFORMAT
  1
GRIDFORMAT_BEGIN
 90
        0
 91
        1
 62
     0
 92
       -2
340
0
 93
        0
 40
0.045
309
GRIDFORMAT_END
309
TABLEFORMAT_END
  1
CELLSTYLE_BEGIN
 90
        2
 91
        1
300
_HEADER
309
CELLSTYLE_END
300
CELLSTYLE
  1
TABLEFORMAT_BEGIN
 90
        5
170
     1
 91
        0
 92
        0
 62
   257
 93
        1
300
CONTENTFORMAT
  1
CONTENTFORMAT_BEGIN
 90
        0
 91
        0
 92
      512
 93
        0
300

 40
0.0
140
1.0
 94
        2
 62
     0
340
22
144
0.18
309
CONTENTFORMAT_END
171
     1
301
MARGIN
  1
CELLMARGIN_BEGIN
 40
0.06
 40
0.06
 40
0.06
 40
0.06
 40
0.18
 40
0.18
309
CELLMARGIN_END
 94
        6
 95
        1
302
GRIDFORMAT
  1
GRIDFORMAT_BEGIN
 90
        0
 91
        1
 62
     0
 92
       -2
340
0
 93
        0
 40
0.045
309
GRIDFORMAT_END
 95
        2
302
GRIDFORMAT
  1
GRIDFORMAT_BEGIN
 90
        0
 91
        1
 62
     0
 92
       -2
340
0
 93
        0
 40
0.045
309
GRIDFORMAT_END
 95
        4
302
GRIDFORMAT
  1
GRIDFORMAT_BEGIN
 90
        0
 91
        1
 62
     0
 92
       -2
340
0
 93
        0
 40
0.045
309
GRIDFORMAT_END
 95
        8
302
GRIDFORMAT
  1
GRIDFORMAT_BEGIN
 90
        0
 91
        1
 62
     0
 92
       -2
340
0
 93
        0
 40
0.045
309
GRIDFORMAT_END
 95
       16
302
GRIDFORMAT
  1
GRIDFORMAT_BEGIN
 90
        0
 91
        1
 62
     0
 92
       -2
340
0
 93
        0
 40
0.045
309
GRIDFORMAT_END
 95
       32
302
GRIDFORMAT
  1
GRIDFORMAT_BEGIN
 90
        0
 91
        1
 62
     0
 92
       -2
340
0
 93
        0
 40
0.045
309
GRIDFORMAT_END
309
TABLEFORMAT_END
  1
CELLSTYLE_BEGIN
 90
        3
 91
        2
300
_DATA
309
CELLSTYLE_END
  0
XRECORD
  5
45A
102
{ACAD_REACTORS
330
4B
102
}
330
4B
100
AcDbXrecord
280
     1
102
ACAD_ROUNDTRIP_PRE2007_TABLESTYLE
 90
      512
 91
        0
  1

 92
      512
 93
        0
  2

 94
      512
 95
        0
  3

  0
XRECORD
  5
459
102
{ACAD_REACTORS
330
458
102
}
330
458
100
AcDbXrecord
280
     1
102
RTVSPropertyOp0
 70
     1
102
RTVSPropertyOp1
 70
     1
102
RTVSPropertyOp2
 70
     1
102
RTVSPropertyOp3
 70
     1
102
RTVSPropertyOp4
 70
     1
102
RTVSPropertyOp5
 70
     1
102
RTVSPropertyOp6
 70
     1
102
RTVSPropertyOp7
 70
     1
102
RTVSPropertyOp8
 70
     1
102
RTVSPropertyOp9
 70
     1
102
RTVSPropertyOp10
 70
     1
102
RTVSPropertyOp11
 70
     1
102
RTVSPropertyOp12
 70
     1
102
RTVSPropertyOp13
 70
     1
102
RTVSPropertyOp14
 70
     1
102
RTVSPropertyOp15
 70
     1
102
RTVSPropertyOp16
 70
     1
102
RTVSPropertyOp17
 70
     1
102
RTVSPropertyOp18
 70
     1
102
RTVSPropertyOp19
 70
     1
102
RTVSPropertyOp20
 70
     1
102
RTVSPropertyOp21
 70
     1
102
RTVSPropertyOp22
 70
     1
102
RTVSPropertyOp23
 70
     1
102
RTVSPropertyOp24
 70
     1
102
RTVSPropertyOp25
 70
     1
102
RTVSPropertyOp26
 70
     1
102
RTVSPropertyOp27
 70
     1
102
RTVSPropertyOp28
 70
     1
102
RTVSPropertyOp29
 70
     1
102
RTVSPropertyOp30
 70
     1
102
RTVSPropertyOp31
 70
     1
102
RTVSPropertyOp32
 70
     1
  0
XRECORD
  5
45C
102
{ACAD_REACTORS
330
45B
102
}
330
45B
100
AcDbXrecord
280
     1
102
RTVSPropertyOp0
 70
     1
102
RTVSPropertyOp1
 70
     1
102
RTVSPropertyOp2
 70
     1
102
RTVSPropertyOp3
 70
     1
102
RTVSPropertyOp4
 70
     1
102
RTVSPropertyOp5
 70
     1
102
RTVSPropertyOp6
 70
     1
102
RTVSPropertyOp7
 70
     1
102
RTVSPropertyOp8
 70
     1
102
RTVSPropertyOp9
 70
     1
102
RTVSPropertyOp10
 70
     1
102
RTVSPropertyOp11
 70
     1
102
RTVSPropertyOp12
 70
     1
102
RTVSPropertyOp13
 70
     1
102
RTVSPropertyOp14
 70
     1
102
RTVSPropertyOp15
 70
     1
102
RTVSPropertyOp16
 70
     1
102
RTVSPropertyOp17
 70
     1
102
RTVSPropertyOp18
 70
     1
102
RTVSPropertyOp19
 70
     1
102
RTVSPropertyOp20
 70
     1
102
RTVSPropertyOp21
 70
     1
102
RTVSPropertyOp22
 70
     1
102
RTVSPropertyOp23
 70
     1
102
RTVSPropertyOp24
 70
     1
102
RTVSPropertyOp25
 70
     1
102
RTVSPropertyOp26
 70
     1
102
RTVSPropertyOp27
 70
     1
102
RTVSPropertyOp28
 70
     1
102
RTVSPropertyOp29
 70
     1
102
RTVSPropertyOp30
 70
     1
102
RTVSPropertyOp31
 70
     1
102
RTVSPropertyOp32
 70
     1
  0
XRECORD
  5
45E
102
{ACAD_REACTORS
330
45D
102
}
330
45D
100
AcDbXrecord
280
     1
102
RTVSPropertyOp0
 70
     1
102
RTVSPropertyOp1
 70
     1
102
RTVSPropertyOp2
 70
     1
102
RTVSPropertyOp3
 70
     1
102
RTVSPropertyOp4
 70
     1
102
RTVSPropertyOp5
 70
     1
102
RTVSPropertyOp6
 70
     1
102
RTVSPropertyOp7
 70
     1
102
RTVSPropertyOp8
 70
     1
102
RTVSPropertyOp9
 70
     1
102
RTVSPropertyOp10
 70
     1
102
RTVSPropertyOp11
 70
     1
102
RTVSPropertyOp12
 70
     1
102
RTVSPropertyOp13
 70
     1
102
RTVSPropertyOp14
 70
     1
102
RTVSPropertyOp15
 70
     1
102
RTVSPropertyOp16
 70
     1
102
RTVSPropertyOp17
 70
     1
102
RTVSPropertyOp18
 70
     1
102
RTVSPropertyOp19
 70
     1
102
RTVSPropertyOp20
 70
     1
102
RTVSPropertyOp21
 70
     1
102
RTVSPropertyOp22
 70
     1
102
RTVSPropertyOp23
 70
     1
102
RTVSPropertyOp24
 70
     1
102
RTVSPropertyOp25
 70
     1
102
RTVSPropertyOp26
 70
     1
102
RTVSPropertyOp27
 70
     1
102
RTVSPropertyOp28
 70
     1
102
RTVSPropertyOp29
 70
     1
102
RTVSPropertyOp30
 70
     1
102
RTVSPropertyOp31
 70
     1
102
RTVSPropertyOp32
 70
     1
  0
ENDSEC
  0
EOF
