  0
SECTION
  2
HEADER
  9
$ACADVER
  1
AC1015
  9
$ACADMAINTVER
 70
    20
  9
$DWGCODEPAGE
  3
ANSI_932
  9
$INSBASE
 10
0.0
 20
0.0
 30
0.0
  9
$EXTMIN
 10
-1.024635941818644
 20
46.80756925901618
 30
0.0
  9
$EXTMAX
 10
220.2324039373399
 20
168.3142885469585
 30
0.0
  9
$LIMMIN
 10
0.0
 20
0.0
  9
$LIMMAX
 10
420.0
 20
297.0
  9
$ORTHOMODE
 70
     0
  9
$REGENMODE
 70
     1
  9
$FILLMODE
 70
     1
  9
$QTEXTMODE
 70
     0
  9
$MIRRTEXT
 70
     1
  9
$LTSCALE
 40
1.0
  9
$ATTMODE
 70
     1
  9
$TEXTSIZE
 40
1.0
  9
$TRACEWID
 40
1.0
  9
$TEXTSTYLE
  7
ACISOTS
  9
$CLAYER
  8
AM_0
  9
$CELTYPE
  6
ByLayer
  9
$CECOLOR
 62
   256
  9
$CELTSCALE
 40
1.0
  9
$DISPSILH
 70
     0
  9
$DIMSCALE
 40
1.0
  9
$DIMASZ
 40
2.5
  9
$DIMEXO
 40
1.0
  9
$DIMDLI
 40
10.0
  9
$DIMRND
 40
0.0
  9
$DIMDLE
 40
0.0
  9
$DIMEXE
 40
1.0
  9
$DIMTP
 40
0.1
  9
$DIMTM
 40
0.1
  9
$DIMTXT
 40
3.5
  9
$DIMCEN
 40
0.0
  9
$DIMTSZ
 40
0.0
  9
$DIMTOL
 70
     0
  9
$DIMLIM
 70
     0
  9
$DIMTIH
 70
     0
  9
$DIMTOH
 70
     0
  9
$DIMSE1
 70
     0
  9
$DIMSE2
 70
     0
  9
$DIMTAD
 70
     1
  9
$DIMZIN
 70
     8
  9
$DIMBLK
  1

  9
$DIMASO
 70
     1
  9
$DIMSHO
 70
     1
  9
$DIMPOST
  1

  9
$DIMAPOST
  1
"
  9
$DIMALT
 70
     0
  9
$DIMALTD
 70
     2
  9
$DIMALTF
 40
0.0393701
  9
$DIMLFAC
 40
1.0
  9
$DIMTOFL
 70
     1
  9
$DIMTVP
 40
0.0
  9
$DIMTIX
 70
     0
  9
$DIMSOXD
 70
     0
  9
$DIMSAH
 70
     0
  9
$DIMBLK1
  1

  9
$DIMBLK2
  1

  9
$DIMSTYLE
  2
AM_ISO
  9
$DIMCLRD
 70
   256
  9
$DIMCLRE
 70
   256
  9
$DIMCLRT
 70
     2
  9
$DIMTFAC
 40
0.71
  9
$DIMGAP
 40
1.5
  9
$DIMJUST
 70
     0
  9
$DIMSD1
 70
     0
  9
$DIMSD2
 70
     0
  9
$DIMTOLJ
 70
     0
  9
$DIMTZIN
 70
     8
  9
$DIMALTZ
 70
     0
  9
$DIMALTTZ
 70
     0
  9
$DIMUPT
 70
     0
  9
$DIMDEC
 70
     2
  9
$DIMTDEC
 70
     3
  9
$DIMALTU
 70
     2
  9
$DIMALTTD
 70
     4
  9
$DIMTXSTY
  7
STANDARD
  9
$DIMAUNIT
 70
     0
  9
$DIMADEC
 70
     0
  9
$DIMALTRND
 40
0.0
  9
$DIMAZIN
 70
     2
  9
$DIMDSEP
 70
    46
  9
$DIMATFIT
 70
     3
  9
$DIMFRAC
 70
     0
  9
$DIMLDRBLK
  1

  9
$DIMLUNIT
 70
     2
  9
$DIMLWD
 70
    -1
  9
$DIMLWE
 70
    -1
  9
$DIMTMOVE
 70
     0
  9
$LUNITS
 70
     2
  9
$LUPREC
 70
     2
  9
$SKETCHINC
 40
1.0
  9
$FILLETRAD
 40
2.5
  9
$AUNITS
 70
     0
  9
$AUPREC
 70
     0
  9
$MENU
  1
.
  9
$ELEVATION
 40
0.0
  9
$PELEVATION
 40
0.0
  9
$THICKNESS
 40
0.0
  9
$LIMCHECK
 70
     0
  9
$CHAMFERA
 40
2.5
  9
$CHAMFERB
 40
2.5
  9
$CHAMFERC
 40
20.0
  9
$CHAMFERD
 40
0.0
  9
$SKPOLY
 70
     0
  9
$TDCREATE
 40
2456406.474625000
  9
$TDUCREATE
 40
2456406.099625000
  9
$TDUPDATE
 40
2456406.638801991
  9
$TDUUPDATE
 40
2456406.263801991
  9
$TDINDWG
 40
0.0065399653
  9
$TDUSRTIMER
 40
0.0065276620
  9
$USRTIMER
 70
     1
  9
$ANGBASE
 50
0.0
  9
$ANGDIR
 70
     0
  9
$PDMODE
 70
     0
  9
$PDSIZE
 40
0.0
  9
$PLINEWID
 40
0.0
  9
$SPLFRAME
 70
     0
  9
$SPLINETYPE
 70
     6
  9
$SPLINESEGS
 70
     8
  9
$HANDSEED
  5
DCF
  9
$SURFTAB1
 70
     6
  9
$SURFTAB2
 70
     6
  9
$SURFTYPE
 70
     6
  9
$SURFU
 70
     6
  9
$SURFV
 70
     6
  9
$UCSBASE
  2

  9
$UCSNAME
  2

  9
$UCSORG
 10
0.0
 20
0.0
 30
0.0
  9
$UCSXDIR
 10
1.0
 20
0.0
 30
0.0
  9
$UCSYDIR
 10
0.0
 20
1.0
 30
0.0
  9
$UCSORTHOREF
  2

  9
$UCSORTHOVIEW
 70
     0
  9
$UCSORGTOP
 10
0.0
 20
0.0
 30
0.0
  9
$UCSORGBOTTOM
 10
0.0
 20
0.0
 30
0.0
  9
$UCSORGLEFT
 10
0.0
 20
0.0
 30
0.0
  9
$UCSORGRIGHT
 10
0.0
 20
0.0
 30
0.0
  9
$UCSORGFRONT
 10
0.0
 20
0.0
 30
0.0
  9
$UCSORGBACK
 10
0.0
 20
0.0
 30
0.0
  9
$PUCSBASE
  2

  9
$PUCSNAME
  2

  9
$PUCSORG
 10
0.0
 20
0.0
 30
0.0
  9
$PUCSXDIR
 10
1.0
 20
0.0
 30
0.0
  9
$PUCSYDIR
 10
0.0
 20
1.0
 30
0.0
  9
$PUCSORTHOREF
  2

  9
$PUCSORTHOVIEW
 70
     0
  9
$PUCSORGTOP
 10
0.0
 20
0.0
 30
0.0
  9
$PUCSORGBOTTOM
 10
0.0
 20
0.0
 30
0.0
  9
$PUCSORGLEFT
 10
0.0
 20
0.0
 30
0.0
  9
$PUCSORGRIGHT
 10
0.0
 20
0.0
 30
0.0
  9
$PUCSORGFRONT
 10
0.0
 20
0.0
 30
0.0
  9
$PUCSORGBACK
 10
0.0
 20
0.0
 30
0.0
  9
$USERI1
 70
     0
  9
$USERI2
 70
     0
  9
$USERI3
 70
     0
  9
$USERI4
 70
     0
  9
$USERI5
 70
     0
  9
$USERR1
 40
0.0
  9
$USERR2
 40
0.0
  9
$USERR3
 40
0.0
  9
$USERR4
 40
0.0
  9
$USERR5
 40
0.0
  9
$WORLDVIEW
 70
     1
  9
$SHADEDGE
 70
     3
  9
$SHADEDIF
 70
    70
  9
$TILEMODE
 70
     1
  9
$MAXACTVP
 70
    64
  9
$PINSBASE
 10
0.0
 20
0.0
 30
0.0
  9
$PLIMCHECK
 70
     0
  9
$PEXTMIN
 10
1.000000000000000E+20
 20
1.000000000000000E+20
 30
1.000000000000000E+20
  9
$PEXTMAX
 10
-1.000000000000000E+20
 20
-1.000000000000000E+20
 30
-1.000000000000000E+20
  9
$PLIMMIN
 10
0.0
 20
0.0
  9
$PLIMMAX
 10
420.0
 20
297.0
  9
$UNITMODE
 70
     0
  9
$VISRETAIN
 70
     1
  9
$PLINEGEN
 70
     0
  9
$PSLTSCALE
 70
     1
  9
$TREEDEPTH
 70
  3020
  9
$CMLSTYLE
  2
Standard
  9
$CMLJUST
 70
     0
  9
$CMLSCALE
 40
20.0
  9
$PROXYGRAPHICS
 70
     1
  9
$MEASUREMENT
 70
     1
  9
$CELWEIGHT
370
    -1
  9
$ENDCAPS
280
     0
  9
$JOINSTYLE
280
     0
  9
$LWDISPLAY
290
     0
  9
$INSUNITS
 70
     4
  9
$HYPERLINKBASE
  1

  9
$STYLESHEET
  1

  9
$XEDIT
290
     1
  9
$CEPSNTYPE
380
     0
  9
$PSTYLEMODE
290
     1
  9
$FINGERPRINTGUID
  2
{722D1618-0C97-4144-A67C-8AEFACEB0610}
  9
$VERSIONGUID
  2
{DBE4F499-2986-4AAE-A796-EF0CB34FEC29}
  9
$EXTNAMES
290
     1
  9
$PSVPSCALE
 40
0.0
  9
$OLESTARTUP
290
     0
  0
ENDSEC
  0
SECTION
  2
CLASSES
  0
CLASS
  1
ACDBDICTIONARYWDFLT
  2
AcDbDictionaryWithDefault
  3
ObjectDBX Classes
 90
        0
280
     0
281
     0
  0
CLASS
  1
ACDBPLACEHOLDER
  2
AcDbPlaceHolder
  3
ObjectDBX Classes
 90
        0
280
     0
281
     0
  0
CLASS
  1
LAYOUT
  2
AcDbLayout
  3
ObjectDBX Classes
 90
        0
280
     0
281
     0
  0
CLASS
  1
ACME_DOCUMENT
  2
AcMeDbDoc
  3
AcMeServices
 90
        0
280
     0
281
     0
  0
CLASS
  1
AMGSETTINGSOBJ
  2
AmgSettingsObj
  3
"AcadM|Product Description: AutoCAD Mechanical 2000|Company: Autodesk"
 90
        0
280
     0
281
     0
  0
CLASS
  1
ACMESCOPE
  2
AcMeScope
  3
AcMeServices
 90
        0
280
     0
281
     0
  0
CLASS
  1
ACMECOMMANDHISTORY
  2
AcMeCommandHistory
  3
AcMeServices
 90
        0
280
     0
281
     0
  0
CLASS
  1
ACIMSYSVARMAN
  2
AcImSysVarManager
  3
AcMeServices
 90
        0
280
     0
281
     0
  0
CLASS
  1
ACIMREALSYSVAR
  2
AcImRealSysVar
  3
AcMeServices
 90
        0
280
     0
281
     0
  0
CLASS
  1
ACIMINTSYSVAR
  2
AcImIntSysVar
  3
AcMeServices
 90
        0
280
     0
281
     0
  0
CLASS
  1
ACMEDRAWINGMAN
  2
AcMeDrawingMan
  3
AcMeServices
 90
        0
280
     0
281
     0
  0
CLASS
  1
ACMEVIEW
  2
AcMeView
  3
AcMeServices
 90
        0
280
     0
281
     0
  0
CLASS
  1
ACDBENTITYCACHE
  2
AcMeEntityCache
  3
AcMeServices
 90
        0
280
     0
281
     0
  0
CLASS
  1
GSMANAGER
  2
AcMeGSManager
  3
AcMeServices
 90
        0
280
     0
281
     0
  0
CLASS
  1
AMDTINTERNALREACTOR
  2
AmdtInternalReactor
  3
AcMeServices
 90
        0
280
     0
281
     0
  0
CLASS
  1
ACMESTATEMGR
  2
AcMeStateMgr
  3
AcMeServices
 90
        0
280
     0
281
     0
  0
CLASS
  1
ACGREFMASTER
  2
AcGrefMaster
  3
AcAttribServices
 90
        0
280
     0
281
     0
  0
CLASS
  1
ACME_DATABASE
  2
AcMeDbDatabase
  3
AcMeServices
 90
        0
280
     0
281
     0
  0
CLASS
  1
ACRFINSADJUSTERMGR
  2
AcRfInsAdjusterMgr
  3
AcMeServices
 90
        0
280
     0
281
     0
  0
CLASS
  1
ACGREFACADMASTER
  2
AcGrefacadMaster
  3
AcGrefServices
 90
        0
280
     0
281
     0
  0
CLASS
  1
AMIMASTER
  2
AmiMaster
  3
AmiServices
 90
        0
280
     0
281
     0
  0
CLASS
  1
ACMDATADICTIONARY
  2
AcmDataDictionary
  3
"AcmSymBB|Product Description: AutoCAD Mechanical 2004 DX|Company: Autodesk"
 90
        0
280
     0
281
     0
  0
CLASS
  1
ACMDATAENTRYBLOCK
  2
AcmDataEntryBlock
  3
"AcmSymBB|Product Description: AutoCAD Mechanical 2004 DX|Company: Autodesk"
 90
    32768
280
     0
281
     0
  0
CLASS
  1
ACIMSTRSYSVAR
  2
AcImStrSysVar
  3
AcMeServices
 90
        0
280
     0
281
     0
  0
CLASS
  1
ACMSTANDARDISO
  2
AcmStandardISO
  3
"Amdt_StdImp|Product Description: AutoCAD Mechanical 2004 DX|Company: Autodesk"
 90
    32768
280
     0
281
     0
  0
CLASS
  1
AMGOBJPROPCFG
  2
AmgObjPropCfg
  3
"AmgLay|Product Description: AutoCAD Mechanical 2000|Company: Autodesk"
 90
        1
280
     0
281
     0
  0
CLASS
  1
AMDTEDGESTANDARDISO
  2
AmdtEdgeStdISO
  3
"Amdt_StdImp|Product Description: AutoCAD Mechanical 2004 DX|Company: Autodesk"
 90
    32768
280
     0
281
     0
  0
CLASS
  1
ACMSURFSTANDARDISO
  2
AcmSurfTextStdISO
  3
"Amdt_StdImp|Product Description: AutoCAD Mechanical 2004 DX|Company: Autodesk"
 90
    32768
280
     0
281
     0
  0
CLASS
  1
ACMFCFSTANDARDISO
  2
AcmFCFStdISO
  3
"Amdt_StdImp|Product Description: AutoCAD Mechanical 2004 DX|Company: Autodesk"
 90
    32768
280
     0
281
     0
  0
CLASS
  1
ACMWELDSTANDARDISO
  2
AcmWeldingStdISO
  3
"Amdt_StdImp|Product Description: AutoCAD Mechanical 2004 DX|Company: Autodesk"
 90
    32768
280
     0
281
     0
  0
CLASS
  1
ACMIDSTANDARDISO
  2
AcmIdStdISO
  3
"Amdt_StdImp|Product Description: AutoCAD Mechanical 2004 DX|Company: Autodesk"
 90
    32768
280
     0
281
     0
  0
CLASS
  1
ACMDATUMSTANDARDISO
  2
AcmDatumStdISO
  3
"Amdt_StdImp|Product Description: AutoCAD Mechanical 2004 DX|Company: Autodesk"
 90
    32768
280
     0
281
     0
  0
CLASS
  1
ACMBOMSTANDARDISO
  2
AcmBOMStdISO
  3
"Amdt_StdImp|Product Description: AutoCAD Mechanical 2004 DX|Company: Autodesk"
 90
    32768
280
     0
281
     0
  0
CLASS
  1
ACMDETAILSTANDARDISO
  2
AmdtDetailSymStdISO
  3
"Amdt_StdImp|Product Description: AutoCAD Mechanical 2004 DX|Company: Autodesk"
 90
    32768
280
     0
281
     0
  0
CLASS
  1
ACMSECTIONSTANDARDISO
  2
AmdtSectionSymStdISO
  3
"Amdt_StdImp|Product Description: AutoCAD Mechanical 2004 DX|Company: Autodesk"
 90
    32768
280
     0
281
     0
  0
CLASS
  1
ACMCENTERLINESTANDARDISO
  2
AmdtCenterLineStdISO
  3
"Amdt_StdImp|Product Description: AutoCAD Mechanical 2004 DX|Company: Autodesk"
 90
    32768
280
     0
281
     0
  0
CLASS
  1
ACMNOTESTANDARDISO
  2
AmdtNoteStdISO
  3
"Amdt_StdImp|Product Description: AutoCAD Mechanical 2004 DX|Company: Autodesk"
 90
    32768
280
     0
281
     0
  0
CLASS
  1
ACAMGLAYSTD
  2
AcAmgLayStd
  3
"AcAmgLayStd|Product Description: AutoCAD Mechanical 2000|Company: Autodesk"
 90
        0
280
     0
281
     0
  0
CLASS
  1
ACAMGDIMSTD
  2
AcAmgDimStd
  3
"AcAmgDimStd|Product Description: AutoCAD Mechanical 2000|Company: Autodesk"
 90
        0
280
     0
281
     0
  0
CLASS
  1
ACAMGHOLECHARTSTDISO
  2
AcAmgHoleChartStdISO
  3
ACMSYMBB_MODULE_NAME
 90
    32768
280
     0
281
     0
  0
CLASS
  1
ACAMGTITLESTD
  2
AcAmgTitleStd
  3
"TITLEAPP"
 90
        0
280
     0
281
     0
  0
CLASS
  1
LAYER_INDEX
  2
AcDbLayerIndex
  3
ObjectDBX Classes
 90
    32768
280
     0
281
     0
  0
CLASS
  1
IDBUFFER
  2
AcDbIdBuffer
  3
ObjectDBX Classes
 90
    32768
280
     0
281
     0
  0
CLASS
  1
DICTIONARYVAR
  2
AcDbDictionaryVar
  3
ObjectDBX Classes
 90
        0
280
     0
281
     0
  0
CLASS
  1
AM_DRAWING_MGR
  2
AcDmDwgMgr
  3
AcMechDwgViewMgmt
 90
        0
280
     0
281
     0
  0
CLASS
  1
AM_DWG_DOCUMENT
  2
AcDmDwgDocument
  3
AcMechDwgViewMgmt
 90
        0
280
     0
281
     0
  0
CLASS
  1
AM_DWG_SHEET
  2
AcDmSheet
  3
AcMechDwgViewMgmt
 90
        0
280
     0
281
     0
  0
CLASS
  1
AM_VIEWDIMPARMAP
  2
AcDmViewDimParMap
  3
AcMechDwgViewMgmt
 90
        0
280
     0
281
     0
  0
CLASS
  1
AM_DWGMGR_NAME
  2
AcDmDwgMgrName
  3
AcMechDwgViewMgmt
 90
        0
280
     0
281
     0
  0
CLASS
  1
AMDTMENUSTATEMGR
  2
AmdtMenuStateMgr
  3
McadcomServices
 90
        0
280
     0
281
     0
  0
CLASS
  1
AMDTMCOMMENUSTATE
  2
AmdtMcomMenuState
  3
McadcomServices
 90
        0
280
     0
281
     0
  0
CLASS
  1
MAPIAMMOUDLE
  2
MApiAmModule
  3
MApiAmServices
 90
        0
280
     0
281
     0
  0
CLASS
  1
AMDTADMENUSTATE
  2
AmdtAdMenuState
  3
DesignerServices
 90
        0
280
     0
281
     0
  0
CLASS
  1
ADAPPL
  2
AcAdAppl
  3
DesignerServices
 90
        0
280
     0
281
     0
  0
CLASS
  1
DEPMGR
  2
AcAdDepMgr
  3
DesignerServices
 90
        0
280
     0
281
     0
  0
CLASS
  1
PARAMMGR
  2
AcAdParamMgr
  3
DesignerServices
 90
        0
280
     0
281
     0
  0
CLASS
  1
PARAMSCOPE
  2
AcAdParamScope
  3
DesignerServices
 90
        0
280
     0
281
     0
  0
CLASS
  1
NAMEDAPPL
  2
AcAdNamedAppl
  3
DesignerServices
 90
        0
280
     0
281
     0
  0
CLASS
  1
AMDTDMMENUSTATE
  2
AmdtDmMenuState
  3
AcMechDwgViewMgmt
 90
        0
280
     0
281
     0
  0
CLASS
  1
AMDTAMMENUSTATE
  2
AmdtAmMenuState
  3
DesignerAssemblies
 90
        0
280
     0
281
     0
  0
CLASS
  1
ACAMPROJECT
  2
AcAmProject
  3
DesignerAssemblies
 90
        0
280
     0
281
     0
  0
CLASS
  1
ACAMGRCOMPDEF
  2
AcAmGrCompDef
  3
DesignerAssemblies
 90
        0
280
     0
281
     0
  0
CLASS
  1
ACCMCONTEXT
  2
AcCmContext
  3
DesignerAssemblies
 90
        0
280
     0
281
     0
  0
CLASS
  1
ACAMCOMPDEF
  2
AcAmCompDef
  3
DesignerAssemblies
 90
        0
280
     0
281
     0
  0
CLASS
  1
ACAMCOMPDEFMGR
  2
AcAmCompDefMgr
  3
DesignerAssemblies
 90
        0
280
     0
281
     0
  0
CLASS
  1
AMCONTEXTMGR
  2
AcAmContextMgr
  3
DesignerAssemblies
 90
        0
280
     0
281
     0
  0
CLASS
  1
ACAMCONTEXTMODELER
  2
AcAmContextModeler
  3
DesignerAssemblies
 90
        0
280
     0
281
     0
  0
CLASS
  1
ACMTHREADLINESTANDARDISO
  2
AmdtThreadLineStdISO
  3
"Amdt_StdImp|Product Description: AutoCAD Mechanical 2004 DX|Company: Autodesk"
 90
    32768
280
     0
281
     0
  0
CLASS
  1
CATALOGSTATE
  2
AcAmCatalogState
  3
DesignerAssemblies
 90
        0
280
     0
281
     0
  0
CLASS
  1
ACAMGRCOMPDEFSET
  2
AcAmGrCompDefSet
  3
DesignerAssemblies
 90
        0
280
     0
281
     0
  0
CLASS
  1
AMDTBROWSERDBTAB
  2
AmdtBrowserDbTab
  3
McadcomServices
 90
        0
280
     0
281
     0
  0
CLASS
  1
CBROWSERAPPOBJECT
  2
CBrowserAppObject
  3
McadcomServices
 90
        0
280
     0
281
     0
  0
CLASS
  1
DM_PLACEHOLDER
  2
AcDmSelsetPlaceholder
  3
AcMechDwgViewMgmt
 90
        0
280
     0
281
     0
  0
CLASS
  1
TABLESTYLE
  2
AcDbTableStyle
  3
ObjectDBX Classes
 90
     2047
280
     0
281
     0
  0
CLASS
  1
VAACXREFPANELOBJECT
  2
VaAcXREFPanelObject
  3
VAAC_ADDIN
 90
    32768
280
     0
281
     0
  0
CLASS
  1
VAACIMAGEINVENTORY
  2
VaAcImageInventory
  3
VAAC_ADDIN
 90
    32768
280
     0
281
     0
  0
CLASS
  1
AMDTNOTETEMPLATEDB
  2
AmdtNoteTemplateDB
  3
AMDT_STDIMP_MODULE_NAME
 90
        0
280
     0
281
     0
  0
CLASS
  1
ACMBOM
  2
AcmBom
  3
"AcmSymBB|Product Description: AutoCAD Mechanical 2004 DX|Company: Autodesk"
 90
    32768
280
     0
281
     0
  0
CLASS
  1
AMDTFORMULAUPDATEDISPATCHER
  2
AmdtFormulaUpdateDispatcher
  3
AcMeServices
 90
    32768
280
     0
281
     0
  0
CLASS
  1
ACMPARTLIST
  2
AcmPartList
  3
"AcmSymBB|Product Description: AutoCAD Mechanical 2004 DX|Company: Autodesk"
 90
    33791
280
     0
281
     1
  0
CLASS
  1
ACAMGFILTERDAT
  2
AcAmgFilterDat
  3
"AcadM|Product Description: AutoCAD Mechanical 2000|Company: Autodesk"
 90
    32768
280
     0
281
     0
  0
CLASS
  1
SORTENTSTABLE
  2
AcDbSortentsTable
  3
ObjectDBX Classes
 90
        0
280
     0
281
     0
  0
CLASS
  1
ACMSTANDARDJIS
  2
AcmStandardJIS
  3
"Amdt_StdImp|Product Description: AutoCAD Mechanical 2004 DX|Company: Autodesk"
 90
        0
280
     0
281
     0
  0
CLASS
  1
ACMSURFSTANDARDJIS
  2
AcmSurfTextStdJIS
  3
"Amdt_StdImp|Product Description: AutoCAD Mechanical 2004 DX|Company: Autodesk"
 90
        0
280
     0
281
     0
  0
CLASS
  1
ACMFCFSTANDARDJIS
  2
AcmFCFStdJIS
  3
"Amdt_StdImp|Product Description: AutoCAD Mechanical 2004 DX|Company: Autodesk"
 90
        0
280
     0
281
     0
  0
CLASS
  1
ACMWELDSTANDARDJIS
  2
AcmWeldingStdJIS
  3
"Amdt_StdImp|Product Description: AutoCAD Mechanical 2004 DX|Company: Autodesk"
 90
        0
280
     0
281
     0
  0
CLASS
  1
ACMIDSTANDARDJIS
  2
AcmIdStdJIS
  3
"Amdt_StdImp|Product Description: AutoCAD Mechanical 2004 DX|Company: Autodesk"
 90
        0
280
     0
281
     0
  0
CLASS
  1
ACMDATUMSTANDARDJIS
  2
AcmDatumStdJIS
  3
"Amdt_StdImp|Product Description: AutoCAD Mechanical 2004 DX|Company: Autodesk"
 90
        0
280
     0
281
     0
  0
CLASS
  1
ACMBOMSTANDARDJIS
  2
AcmBOMStdJIS
  3
"Amdt_StdImp|Product Description: AutoCAD Mechanical 2004 DX|Company: Autodesk"
 90
        0
280
     0
281
     0
  0
CLASS
  1
ACMDETAILSTANDARDJIS
  2
AmdtDetailSymStdJIS
  3
"Amdt_StdImp|Product Description: AutoCAD Mechanical 2004 DX|Company: Autodesk"
 90
        0
280
     0
281
     0
  0
CLASS
  1
ACMSECTIONSTANDARDJIS
  2
AmdtSectionSymStdJIS
  3
"Amdt_StdImp|Product Description: AutoCAD Mechanical 2004 DX|Company: Autodesk"
 90
        0
280
     0
281
     0
  0
CLASS
  1
ACMCENTERLINESTANDARDJIS
  2
AmdtCenterLineStdJIS
  3
"Amdt_StdImp|Product Description: AutoCAD Mechanical 2004 DX|Company: Autodesk"
 90
        0
280
     0
281
     0
  0
CLASS
  1
ACMTHREADLINESTANDARDJIS
  2
AmdtThreadLineStdJIS
  3
"Amdt_StdImp|Product Description: AutoCAD Mechanical 2004 DX|Company: Autodesk"
 90
        0
280
     0
281
     0
  0
CLASS
  1
ACMNOTESTANDARDJIS
  2
AmdtNoteStdJIS
  3
"Amdt_StdImp|Product Description: AutoCAD Mechanical 2004 DX|Company: Autodesk"
 90
        0
280
     0
281
     0
  0
CLASS
  1
ACAMGHOLECHARTSTDJIS
  2
AcAmgHoleChartStdJIS
  3
ACMSYMBB_MODULE_NAME
 90
        0
280
     0
281
     0
  0
CLASS
  1
ACRFATTGENMGR
  2
AcRfAttGeneralMgr
  3
AcAttribServices
 90
    32768
280
     0
281
     0
  0
ENDSEC
  0
SECTION
  2
TABLES
  0
TABLE
  2
VPORT
  5
8
330
0
100
AcDbSymbolTable
 70
     3
  0
VPORT
  5
DC6
330
8
100
AcDbSymbolTableRecord
100
AcDbViewportTableRecord
  2
*Active
 70
     0
 10
0.0
 20
0.0
 11
1.0
 21
1.0
 12
109.5954676027225
 22
107.5659720183652
 13
0.0
 23
0.0
 14
2.5
 24
2.5
 15
10.0
 25
10.0
 16
0.0
 26
0.0
 36
1.0
 17
0.0
 27
0.0
 37
0.0
 40
244.5642771502912
 41
1.954070981210855
 42
50.0
 43
0.0
 44
0.0
 50
0.0
 51
0.0
 71
     0
 72
   100
 73
     1
 74
     3
 75
     0
 76
     0
 77
     0
 78
     0
281
     0
 65
     1
110
0.0
120
0.0
130
0.0
111
1.0
121
0.0
131
0.0
112
0.0
122
1.0
132
0.0
 79
     0
146
0.0
  0
ENDTAB
  0
TABLE
  2
LTYPE
  5
5
330
0
100
AcDbSymbolTable
 70
    16
  0
LTYPE
  5
14
330
5
100
AcDbSymbolTableRecord
100
AcDbLinetypeTableRecord
  2
ByBlock
 70
     0
  3

 72
    65
 73
     0
 40
0.0
  0
LTYPE
  5
15
330
5
100
AcDbSymbolTableRecord
100
AcDbLinetypeTableRecord
  2
ByLayer
 70
     0
  3

 72
    65
 73
     0
 40
0.0
  0
LTYPE
  5
16
330
5
100
AcDbSymbolTableRecord
100
AcDbLinetypeTableRecord
  2
Continuous
 70
     0
  3
Solid line
 72
    65
 73
     0
 40
0.0
  0
LTYPE
  5
64
330
5
100
AcDbSymbolTableRecord
100
AcDbLinetypeTableRecord
  2
AM_ISO02W050
 70
     0
  3
__ __ __ __ __ __ __ __ __ __ __ __ __ __ __
 72
    65
 73
     2
 40
7.5
 49
6.0
 74
     0
 49
-1.5
 74
     0
  0
LTYPE
  5
65
330
5
100
AcDbSymbolTableRecord
100
AcDbLinetypeTableRecord
  2
AM_ISO08W050
 70
     0
  3
____ . ____ . ____ . ____ . ____ . ____ . ____
 72
    65
 73
     4
 40
18.0
 49
12.0
 74
     0
 49
-1.5
 74
     0
 49
3.0
 74
     0
 49
-1.5
 74
     0
  0
LTYPE
  5
66
330
5
100
AcDbSymbolTableRecord
100
AcDbLinetypeTableRecord
  2
AM_ISO09W050
 70
     0
  3
_____ . . _____ . . _____ . . ____ .. ____
 72
    65
 73
     6
 40
22.5
 49
12.0
 74
     0
 49
-1.5
 74
     0
 49
3.0
 74
     0
 49
-1.5
 74
     0
 49
3.0
 74
     0
 49
-1.5
 74
     0
  0
LTYPE
  5
67
330
5
100
AcDbSymbolTableRecord
100
AcDbLinetypeTableRecord
  2
Amconstr
 70
     0
  3
_______________________
 72
    65
 73
     2
 40
9999.0
 49
9999.0
 74
     0
 49
0.0
 74
     0
  0
LTYPE
  5
68
330
5
100
AcDbSymbolTableRecord
100
AcDbLinetypeTableRecord
  2
AM_ISO08W050x2
 70
     0
  3
__ . __ . __ . __ . __ . __
 72
    65
 73
     4
 40
9.0
 49
6.0
 74
     0
 49
-0.75
 74
     0
 49
1.5
 74
     0
 49
-0.75
 74
     0
  0
LTYPE
  5
69
330
5
100
AcDbSymbolTableRecord
100
AcDbLinetypeTableRecord
  2
AM_ISO02W050x2
 70
     0
  3
 _ _ _ _ _ _ _ _ _ _ _ _
 72
    65
 73
     2
 40
3.75
 49
3.0
 74
     0
 49
-0.75
 74
     0
  0
LTYPE
  5
6C
330
5
100
AcDbSymbolTableRecord
100
AcDbLinetypeTableRecord
  2
Amzigzag
 70
     0
  3
/\/-/\/-/\/-/\/-/\/-/\/
 72
    65
 73
     2
 40
11.0001
 49
0.0001
 74
     4
 75
   135
340
6B
 46
0.04
 50
0.0
 44
0.0
 45
0.0
 49
-11.0
 74
     0
  0
LTYPE
  5
7A
330
5
100
AcDbSymbolTableRecord
100
AcDbLinetypeTableRecord
  2
ACISOWELD
 70
     0
  3
_ _ _ _ _
 72
    65
 73
     2
 40
2.0
 49
2.0
 74
     0
 49
-1.0
 74
     0
  0
LTYPE
  5
7B
330
5
100
AcDbSymbolTableRecord
100
AcDbLinetypeTableRecord
  2
ACISOTGB
 70
     0
  3
__ . . __ . .
 72
    65
 73
     6
 40
9.0
 49
4.0
 74
     0
 49
-1.0
 74
     0
 49
1.0
 74
     0
 49
-1.0
 74
     0
 49
1.0
 74
     0
 49
-1.0
 74
     0
  0
LTYPE
  5
7C
330
5
100
AcDbSymbolTableRecord
100
AcDbLinetypeTableRecord
  2
ACISOTGL
 70
     0
  3
_ _ _ _ _
 72
    65
 73
     2
 40
3.0
 49
2.0
 74
     0
 49
-1.0
 74
     0
  0
LTYPE
  5
7E
330
5
100
AcDbSymbolTableRecord
100
AcDbLinetypeTableRecord
  2
CENTER
 70
     0
  3
__ . __
 72
    65
 73
     4
 40
7.0
 49
4.0
 74
     0
 49
-1.0
 74
     0
 49
1.0
 74
     0
 49
-1.0
 74
     0
  0
LTYPE
  5
D8
330
5
100
AcDbSymbolTableRecord
100
AcDbLinetypeTableRecord
  2
HIDDEN
 70
     0
  3
Hidden __ __ __ __ __ __ __ __ __ __ __ __ __ _
 72
    65
 73
     2
 40
9.524999999999996
 49
6.349999999999997
 74
     0
 49
-3.174999999999998
 74
     0
  0
LTYPE
  5
D9
330
5
100
AcDbSymbolTableRecord
100
AcDbLinetypeTableRecord
  2
PHANTOM2
 70
     0
  3
Phantom (.5x) ___ _ _ ___ _ _ ___ _ _ ___ _ _
 72
    65
 73
     6
 40
31.75
 49
15.875
 74
     0
 49
-3.174999999999998
 74
     0
 49
3.174999999999998
 74
     0
 49
-3.174999999999998
 74
     0
 49
3.174999999999998
 74
     0
 49
-3.174999999999998
 74
     0
  0
LTYPE
  5
2C8
330
5
100
AcDbSymbolTableRecord
100
AcDbLinetypeTableRecord
  2
ACJISTGB
 70
     0
  3
__ . . __ . .
 72
    65
 73
     6
 40
9.0
 49
4.0
 74
     0
 49
-1.0
 74
     0
 49
1.0
 74
     0
 49
-1.0
 74
     0
 49
1.0
 74
     0
 49
-1.0
 74
     0
  0
LTYPE
  5
2C9
330
5
100
AcDbSymbolTableRecord
100
AcDbLinetypeTableRecord
  2
ACJISTGL
 70
     0
  3
_ _ _ _ _
 72
    65
 73
     2
 40
3.0
 49
2.0
 74
     0
 49
-1.0
 74
     0
  0
ENDTAB
  0
TABLE
  2
LAYER
  5
2
102
{ACAD_XDICTIONARY
360
2D7
102
}
330
0
100
AcDbSymbolTable
 70
     4
  0
LAYER
  5
10
330
2
100
AcDbSymbolTableRecord
100
AcDbLayerTableRecord
  2
0
 70
     0
 62
     7
  6
Continuous
370
    -3
390
F
  0
LAYER
  5
1B0
330
2
100
AcDbSymbolTableRecord
100
AcDbLayerTableRecord
  2
AM_5
 70
     0
 62
     3
  6
Continuous
370
    25
390
F
  0
LAYER
  5
1FD
330
2
100
AcDbSymbolTableRecord
100
AcDbLayerTableRecord
  2
AM_0
 70
     0
 62
     7
  6
Continuous
370
    50
390
F
  0
LAYER
  5
2CA
330
2
100
AcDbSymbolTableRecord
100
AcDbLayerTableRecord
  2
AM_8
 70
     0
 62
     1
  6
Continuous
370
    25
390
F
  0
ENDTAB
  0
TABLE
  2
STYLE
  5
3
330
0
100
AcDbSymbolTable
 70
     9
  0
STYLE
  5
11
330
3
100
AcDbSymbolTableRecord
100
AcDbTextStyleTableRecord
  2
STANDARD
 70
     0
 40
0.0
 41
1.0
 50
0.0
 71
     0
 42
2.5
  3
ISOCP.SHX
  4
extfont.shx
  0
STYLE
  5
6B
330
3
100
AcDbSymbolTableRecord
100
AcDbTextStyleTableRecord
  2

 70
     1
 40
0.0
 41
1.0
 50
0.0
 71
     0
 42
2.5
  3
ltypeshp.shx
  4

  0
STYLE
  5
6D
330
3
100
AcDbSymbolTableRecord
100
AcDbTextStyleTableRecord
  2
ACISOTS
 70
     0
 40
1.0
 41
1.0
 50
0.0
 71
     0
 42
1.0
  3
isocp.shx
  4
extfont.shx
  0
STYLE
  5
79
330
3
100
AcDbSymbolTableRecord
100
AcDbTextStyleTableRecord
  2
ACISOGDT
 70
     0
 40
0.0
 41
1.0
 50
0.0
 71
     0
 42
2.5
  3
amgdt.shx
  4
extfont.shx
  0
STYLE
  5
1F8
330
3
100
AcDbSymbolTableRecord
100
AcDbTextStyleTableRecord
  2
USER1
 70
     0
 40
0.0
 41
1.0
 50
0.0
 71
     0
 42
1.0
  3
TXT.SHX
  4

  0
STYLE
  5
1F9
330
3
100
AcDbSymbolTableRecord
100
AcDbTextStyleTableRecord
  2
USER2
 70
     0
 40
0.0
 41
1.0
 50
0.0
 71
     0
 42
1.0
  3
SIMPLEX.SHX
  4

  0
STYLE
  5
1FA
330
3
100
AcDbSymbolTableRecord
100
AcDbTextStyleTableRecord
  2
USER3
 70
     0
 40
0.0
 41
1.0
 50
0.0
 71
     0
 42
1.0
  3
ITALIC.SHX
  4

  0
STYLE
  5
1FB
330
3
100
AcDbSymbolTableRecord
100
AcDbTextStyleTableRecord
  2
ACJISTS
 70
     0
 40
1.0
 41
1.0
 50
0.0
 71
     0
 42
2.5
  3
isocp.shx
  4
extfont.shx
  0
STYLE
  5
1FC
330
3
100
AcDbSymbolTableRecord
100
AcDbTextStyleTableRecord
  2
ACJISGDT
 70
     0
 40
0.0
 41
1.0
 50
0.0
 71
     0
 42
2.5
  3
amgdt.shx
  4
extfont.shx
  0
ENDTAB
  0
TABLE
  2
VIEW
  5
6
330
0
100
AcDbSymbolTable
 70
     0
  0
ENDTAB
  0
TABLE
  2
UCS
  5
7
330
0
100
AcDbSymbolTable
 70
     0
  0
ENDTAB
  0
TABLE
  2
APPID
  5
9
330
0
100
AcDbSymbolTable
 70
    14
  0
APPID
  5
12
330
9
100
AcDbSymbolTableRecord
100
AcDbRegAppTableRecord
  2
ACAD
 70
     0
  0
APPID
  5
46
330
9
100
AcDbSymbolTableRecord
100
AcDbRegAppTableRecord
  2
MCAD_NO_VIS
 70
     0
  0
APPID
  5
47
330
9
100
AcDbSymbolTableRecord
100
AcDbRegAppTableRecord
  2
ACAD_TEMP_GRAPHIC
 70
     0
  0
APPID
  5
58
330
9
100
AcDbSymbolTableRecord
100
AcDbRegAppTableRecord
  2
ACATTRIBSERVICES
 70
     0
  0
APPID
  5
EE
330
9
100
AcDbSymbolTableRecord
100
AcDbRegAppTableRecord
  2
AD_DRAW
 70
     0
  0
APPID
  5
10C
330
9
100
AcDbSymbolTableRecord
100
AcDbRegAppTableRecord
  2
DESIGNERASSEMBLIES
 70
     0
  0
APPID
  5
111
330
9
100
AcDbSymbolTableRecord
100
AcDbRegAppTableRecord
  2
ACADM_DIM_EDIT
 70
     0
  0
APPID
  5
112
330
9
100
AcDbSymbolTableRecord
100
AcDbRegAppTableRecord
  2
AMDT_DM_ADJ
 70
     0
  0
APPID
  5
2D1
330
9
100
AcDbSymbolTableRecord
100
AcDbRegAppTableRecord
  2
GENIUS_GENODEF_13
 70
     0
  0
APPID
  5
2D2
330
9
100
AcDbSymbolTableRecord
100
AcDbRegAppTableRecord
  2
GENIUS_GENOBJ-N-FIL_13
 70
     0
  0
APPID
  5
2D3
330
9
100
AcDbSymbolTableRecord
100
AcDbRegAppTableRecord
  2
GENIUS_GENOBJ-N-CEN_13
 70
     0
  0
APPID
  5
2D4
330
9
100
AcDbSymbolTableRecord
100
AcDbRegAppTableRecord
  2
GENIUS_GENOBJ-N-HTC_13
 70
     0
  0
APPID
  5
2D5
330
9
100
AcDbSymbolTableRecord
100
AcDbRegAppTableRecord
  2
GENIUS_GENHATCH_13
 70
     0
  0
APPID
  5
2D6
330
9
100
AcDbSymbolTableRecord
100
AcDbRegAppTableRecord
  2
ACAD_PSEXT
 70
     0
  0
ENDTAB
  0
TABLE
  2
DIMSTYLE
  5
A
330
0
100
AcDbSymbolTable
 70
    15
100
AcDbDimStyleTable
 71
     2
340
81
340
1FE
  0
DIMSTYLE
105
27
330
A
100
AcDbSymbolTableRecord
100
AcDbDimStyleTableRecord
  2
ISO-25
 70
     0
 41
2.5
 42
0.625
 43
3.75
 44
1.25
 73
     0
 74
     0
 77
     1
 78
     8
140
2.5
141
2.5
143
0.03937007874016
147
0.625
171
     3
172
     1
271
     2
272
     2
274
     3
278
    44
283
     0
284
     8
340
11
  0
DIMSTYLE
105
81
330
A
100
AcDbSymbolTableRecord
100
AcDbDimStyleTableRecord
  2
AM_ISO
 70
     0
  4
"
 41
2.5
 42
1.0
 43
10.0
 44
1.0
 47
0.1
 48
0.1
 73
     0
 74
     0
 77
     1
 78
     8
 79
     2
140
3.5
141
0.0
143
0.0393701
146
0.71
147
1.5
172
     1
176
   256
177
   256
178
     2
271
     2
272
     3
274
     4
283
     0
284
     8
340
11
371
    -1
372
    -1
  0
DIMSTYLE
105
82
330
A
100
AcDbSymbolTableRecord
100
AcDbDimStyleTableRecord
  2
AM_ISO$3
 70
     0
  4
"
 41
2.5
 42
1.0
 43
10.0
 44
1.0
 47
0.1
 48
0.1
 73
     0
 77
     1
 78
     8
 79
     2
140
3.5
141
0.0
143
0.0393701
146
0.71
147
1.5
176
   256
177
   256
178
     2
271
     2
272
     3
274
     4
283
     0
284
     8
288
     1
289
     0
340
11
371
    -1
372
    -1
  0
DIMSTYLE
105
83
330
A
100
AcDbSymbolTableRecord
100
AcDbDimStyleTableRecord
  2
AM_ISO$4
 70
     0
  4
"
 41
2.5
 42
1.0
 43
10.0
 44
1.0
 47
0.1
 48
0.1
 73
     0
 77
     1
 78
     8
 79
     2
140
3.5
141
0.0
143
0.0393701
146
0.71
147
1.5
176
   256
177
   256
178
     2
271
     2
272
     3
274
     4
283
     0
284
     8
288
     1
289
     0
340
11
371
    -1
372
    -1
  0
DIMSTYLE
105
84
330
A
100
AcDbSymbolTableRecord
100
AcDbDimStyleTableRecord
  2
AM_ISO$6
 70
     0
  4
"
 41
2.5
 42
1.0
 43
10.0
 44
1.0
 47
0.1
 48
0.1
 73
     0
 74
     0
 78
     8
 79
     2
140
3.5
141
0.0
143
0.0393701
146
0.71
147
1.5
172
     1
176
   256
177
   256
178
     2
271
     2
272
     3
274
     4
283
     0
284
     8
340
11
371
    -1
372
    -1
  0
DIMSTYLE
105
85
330
A
100
AcDbSymbolTableRecord
100
AcDbDimStyleTableRecord
  2
AM_ISO$7
 70
     0
  4
"
 41
2.5
 42
1.0
 43
10.0
 44
1.0
 47
0.1
 48
0.1
 73
     0
 74
     0
 77
     1
 78
     8
 79
     2
140
5.0
141
0.0
143
0.0393701
146
0.71
147
1.5
172
     1
176
   256
177
   256
178
     2
271
     2
272
     3
274
     4
283
     0
284
     8
340
11
371
    -1
372
    -1
  0
DIMSTYLE
105
86
330
A
100
AcDbSymbolTableRecord
100
AcDbDimStyleTableRecord
  2
AM_ISO$SF
 70
     0
  4
"
 41
2.5
 42
1.0
 43
10.0
 44
1.0
 47
0.1
 48
0.1
 73
     0
 74
     0
 75
     1
 76
     1
 77
     1
 78
     8
 79
     2
140
3.5
141
0.0
143
0.0393701
146
0.71
147
1.5
172
     1
176
   256
177
   256
178
     2
271
     2
272
     3
274
     4
283
     0
284
     8
340
11
371
    -1
372
    -1
  0
DIMSTYLE
105
8B
330
A
100
AcDbSymbolTableRecord
100
AcDbDimStyleTableRecord
  2
AM_ISO$SH
 70
     0
  4
"
 41
2.5
 42
1.0
 43
10.0
 44
1.0
 47
0.1
 48
0.1
 73
     0
 74
     0
 75
     1
 76
     1
 77
     1
 78
     8
 79
     2
140
3.5
141
0.0
143
0.0393701
144
2.0
146
0.71
147
1.5
172
     1
173
     1
176
   256
177
   256
178
     2
271
     2
272
     3
274
     4
283
     0
284
     8
340
11
343
87
371
    -1
372
    -1
  0
DIMSTYLE
105
1FE
330
A
100
AcDbSymbolTableRecord
100
AcDbDimStyleTableRecord
  2
AM_JIS
 70
     0
  4
"
 41
2.5
 42
1.0
 43
10.0
 44
1.0
 47
0.1
 48
0.1
 73
     0
 74
     0
 77
     3
 78
     8
 79
     2
140
3.5
141
0.0
143
0.0393701
146
0.71
147
1.5
172
     1
176
   256
177
   256
178
     2
271
     2
272
     3
274
     4
283
     0
284
     8
340
11
341
1FF
342
1FF
343
1FF
344
1FF
371
    -1
372
    -1
  0
DIMSTYLE
105
2CB
330
A
100
AcDbSymbolTableRecord
100
AcDbDimStyleTableRecord
  2
AM_JIS$3
 70
     0
  4
"
 41
2.5
 42
1.0
 43
10.0
 44
1.0
 47
0.1
 48
0.1
 73
     0
 77
     3
 78
     8
 79
     2
140
3.5
141
0.0
143
0.0393701
146
0.71
147
1.5
176
   256
177
   256
178
     2
271
     2
272
     3
274
     4
283
     0
284
     8
288
     1
289
     0
340
11
341
1FF
342
1FF
343
1FF
344
1FF
371
    -1
372
    -1
  0
DIMSTYLE
105
2CC
330
A
100
AcDbSymbolTableRecord
100
AcDbDimStyleTableRecord
  2
AM_JIS$4
 70
     0
  4
"
 41
2.5
 42
1.0
 43
10.0
 44
1.0
 47
0.1
 48
0.1
 73
     0
 77
     3
 78
     8
 79
     2
140
3.5
141
0.0
143
0.0393701
146
0.71
147
1.5
176
   256
177
   256
178
     2
271
     2
272
     3
274
     4
283
     0
284
     8
288
     1
289
     0
340
11
341
1FF
342
1FF
343
1FF
344
1FF
371
    -1
372
    -1
  0
DIMSTYLE
105
2CD
330
A
100
AcDbSymbolTableRecord
100
AcDbDimStyleTableRecord
  2
AM_JIS$6
 70
     0
  4
"
 41
2.5
 42
1.0
 43
10.0
 44
1.0
 47
0.1
 48
0.1
 73
     0
 74
     0
 78
     8
 79
     2
140
3.5
141
0.0
143
0.0393701
146
0.71
147
1.5
172
     1
176
   256
177
   256
178
     2
271
     2
272
     3
274
     4
283
     0
284
     8
340
11
341
1FF
342
1FF
343
1FF
344
1FF
371
    -1
372
    -1
  0
DIMSTYLE
105
2CE
330
A
100
AcDbSymbolTableRecord
100
AcDbDimStyleTableRecord
  2
AM_JIS$7
 70
     0
  4
"
 41
2.5
 42
1.0
 43
10.0
 44
1.0
 47
0.1
 48
0.1
 73
     0
 74
     0
 77
     3
 78
     8
 79
     2
140
3.5
141
0.0
143
0.0393701
146
0.71
147
1.5
172
     1
176
   256
177
   256
178
     2
271
     2
272
     3
274
     4
283
     0
284
     8
340
11
341
1FF
342
1FF
343
1FF
344
1FF
371
    -1
372
    -1
  0
DIMSTYLE
105
2CF
330
A
100
AcDbSymbolTableRecord
100
AcDbDimStyleTableRecord
  2
AM_JIS$SF
 70
     0
  4
"
 41
2.5
 42
1.0
 43
10.0
 44
1.0
 47
0.1
 48
0.1
 73
     0
 74
     0
 75
     1
 76
     1
 77
     3
 78
     8
 79
     2
140
3.5
141
0.0
143
0.0393701
146
0.71
147
1.5
172
     1
176
   256
177
   256
178
     2
271
     2
272
     3
274
     4
283
     0
284
     8
340
11
341
1FF
342
1FF
343
1FF
344
1FF
371
    -1
372
    -1
  0
DIMSTYLE
105
2D0
330
A
100
AcDbSymbolTableRecord
100
AcDbDimStyleTableRecord
  2
AM_JIS$SH
 70
     0
  4
"
 41
2.5
 42
1.0
 43
10.0
 44
1.0
 47
0.1
 48
0.1
 73
     0
 74
     0
 75
     1
 76
     1
 77
     3
 78
     8
 79
     2
140
3.5
141
0.0
143
0.0393701
144
2.0
146
0.71
147
1.5
172
     1
173
     1
176
   256
177
   256
178
     2
271
     2
272
     3
274
     4
283
     0
284
     8
340
11
341
1FF
342
1FF
343
87
344
1FF
371
    -1
372
    -1
  0
ENDTAB
  0
TABLE
  2
BLOCK_RECORD
  5
1
330
0
100
AcDbSymbolTable
 70
    12
  0
BLOCK_RECORD
  5
1F
102
{ACAD_XDICTIONARY
360
8F
102
}
330
1
100
AcDbSymbolTableRecord
100
AcDbBlockTableRecord
  2
*Model_Space
340
22
  0
BLOCK_RECORD
  5
1B
330
1
100
AcDbSymbolTableRecord
100
AcDbBlockTableRecord
  2
*Paper_Space
340
1E
  0
BLOCK_RECORD
  5
23
330
1
100
AcDbSymbolTableRecord
100
AcDbBlockTableRecord
  2
*Paper_Space0
340
26
  0
BLOCK_RECORD
  5
87
330
1
100
AcDbSymbolTableRecord
100
AcDbBlockTableRecord
  2
GENAXEH
340
0
  0
BLOCK_RECORD
  5
1FF
330
1
100
AcDbSymbolTableRecord
100
AcDbBlockTableRecord
  2
_Open30
340
0
  0
BLOCK_RECORD
  5
207
330
1
100
AcDbSymbolTableRecord
100
AcDbBlockTableRecord
  2
A$C4D5B45EB
340
0
  0
BLOCK_RECORD
  5
217
330
1
100
AcDbSymbolTableRecord
100
AcDbBlockTableRecord
  2
A$C353F20C3
340
0
  0
BLOCK_RECORD
  5
227
330
1
100
AcDbSymbolTableRecord
100
AcDbBlockTableRecord
  2
A$C5EEB0A1B
340
0
  0
BLOCK_RECORD
  5
23C
330
1
100
AcDbSymbolTableRecord
100
AcDbBlockTableRecord
  2
A$C7E0338A6
340
0
  0
BLOCK_RECORD
  5
249
330
1
100
AcDbSymbolTableRecord
100
AcDbBlockTableRecord
  2
A$C1A4D5635
340
0
102
{BLKREFS
331
2C6
102
}
  0
BLOCK_RECORD
  5
2B5
330
1
100
AcDbSymbolTableRecord
100
AcDbBlockTableRecord
  2
A$C2A805784
340
0
102
{BLKREFS
331
2C1
102
}
  0
BLOCK_RECORD
  5
2BF
330
1
100
AcDbSymbolTableRecord
100
AcDbBlockTableRecord
  2
A$C64985E4B
340
0
  0
BLOCK_RECORD
  5
2C3
330
1
100
AcDbSymbolTableRecord
100
AcDbBlockTableRecord
  2
A$C6B073BE3
340
0
  0
ENDTAB
  0
ENDSEC
  0
SECTION
  2
BLOCKS
  0
BLOCK
  5
20
330
1F
100
AcDbEntity
  8
0
100
AcDbBlockBegin
  2
*Model_Space
 70
     0
 10
0.0
 20
0.0
 30
0.0
  3
*Model_Space
  1

  0
ENDBLK
  5
21
330
1F
100
AcDbEntity
  8
0
100
AcDbBlockEnd
  0
BLOCK
  5
1C
330
1B
100
AcDbEntity
 67
     1
  8
0
100
AcDbBlockBegin
  2
*Paper_Space
 70
     0
 10
0.0
 20
0.0
 30
0.0
  3
*Paper_Space
  1

  0
ENDBLK
  5
1D
330
1B
100
AcDbEntity
 67
     1
  8
0
100
AcDbBlockEnd
  0
BLOCK
  5
24
330
23
100
AcDbEntity
  8
0
100
AcDbBlockBegin
  2
*Paper_Space0
 70
     0
 10
0.0
 20
0.0
 30
0.0
  3
*Paper_Space0
  1

  0
ENDBLK
  5
25
330
23
100
AcDbEntity
  8
0
100
AcDbBlockEnd
  0
BLOCK
  5
DBA
330
87
100
AcDbEntity
  8
0
100
AcDbBlockBegin
  2
GENAXEH
 70
     0
 10
0.0
 20
0.0
 30
0.0
  3
GENAXEH
  1

  0
LINE
  5
DBB
330
87
100
AcDbEntity
  8
0
100
AcDbLine
 10
-1.0
 20
0.0
 30
0.0
 11
1.0
 21
0.0
 31
0.0
  0
ENDBLK
  5
DBC
330
87
100
AcDbEntity
  8
0
100
AcDbBlockEnd
  0
BLOCK
  5
DAE
330
1FF
100
AcDbEntity
  8
0
100
AcDbBlockBegin
  2
_Open30
 70
     0
 10
0.0
 20
0.0
 30
0.0
  3
_Open30
  1

  0
LINE
  5
DAF
330
1FF
100
AcDbEntity
  8
0
  6
ByBlock
 62
     0
370
    -2
100
AcDbLine
 10
-1.0
 20
0.26794919
 30
0.0
 11
0.0
 21
0.0
 31
0.0
  0
LINE
  5
DB0
330
1FF
100
AcDbEntity
  8
0
  6
ByBlock
 62
     0
370
    -2
100
AcDbLine
 10
0.0
 20
0.0
 30
0.0
 11
-1.0
 21
-0.26794919
 31
0.0
  0
LINE
  5
DB1
330
1FF
100
AcDbEntity
  8
0
  6
ByBlock
 62
     0
370
    -2
100
AcDbLine
 10
0.0
 20
0.0
 30
0.0
 11
-1.0
 21
0.0
 31
0.0
  0
ENDBLK
  5
DB2
330
1FF
100
AcDbEntity
  8
0
100
AcDbBlockEnd
  0
BLOCK
  5
208
330
207
100
AcDbEntity
  8
0
100
AcDbBlockBegin
  2
A$C4D5B45EB
 70
     0
 10
0.0
 20
0.0
 30
0.0
  3
A$C4D5B45EB
  1

  0
LINE
  5
209
330
207
100
AcDbEntity
  8
0
370
    15
100
AcDbLine
 10
0.4295458170476536
 20
2.577272864410529
 30
0.0
 11
0.4295458170476536
 21
1.922727409865075
 31
0.0
  0
LINE
  5
20A
330
207
100
AcDbEntity
  8
0
370
    15
100
AcDbLine
 10
4.070454907956957
 20
2.577272864410529
 30
0.0
 11
4.070454907956872
 21
1.922727409865075
 31
0.0
  0
CIRCLE
  5
20B
330
207
100
AcDbEntity
  8
0
100
AcDbCircle
 10
2.25000036250222
 20
2.250000137137789
 30
0.0
 40
2.25
  0
LINE
  5
20C
330
207
100
AcDbEntity
  8
0
370
    15
100
AcDbLine
 10
2.577273089774848
 20
1.922727409865044
 30
0.0
 11
4.070454907956872
 21
1.922727409865075
 31
0.0
  0
LINE
  5
20D
330
207
100
AcDbEntity
  8
0
370
    15
100
AcDbLine
 10
2.577273089774848
 20
1.922727409865044
 30
0.0
 11
2.577273089774934
 21
0.4295455916832509
 31
0.0
  0
LINE
  5
20E
330
207
100
AcDbEntity
  8
0
370
    15
100
AcDbLine
 10
1.922727635229506
 20
0.4295455916832509
 30
0.0
 11
2.577273089774934
 21
0.4295455916832509
 31
0.0
  0
LINE
  5
20F
330
207
100
AcDbEntity
  8
0
370
    15
100
AcDbLine
 10
0.4295458170476536
 20
1.922727409865044
 30
0.0
 11
1.92272763522942
 21
1.922727409865075
 31
0.0
  0
LINE
  5
210
330
207
100
AcDbEntity
  8
0
370
    15
100
AcDbLine
 10
1.92272763522942
 20
1.922727409865044
 30
0.0
 11
1.922727635229506
 21
0.4295455916832509
 31
0.0
  0
LINE
  5
211
330
207
100
AcDbEntity
  8
0
370
    15
100
AcDbLine
 10
2.577273089774934
 20
2.577272864410529
 30
0.0
 11
4.070454907956872
 21
2.577272864410502
 31
0.0
  0
LINE
  5
212
330
207
100
AcDbEntity
  8
0
370
    15
100
AcDbLine
 10
0.4295458170476536
 20
2.577272864410529
 30
0.0
 11
1.92272763522942
 21
2.577272864410502
 31
0.0
  0
LINE
  5
213
330
207
100
AcDbEntity
  8
0
370
    15
100
AcDbLine
 10
2.577273089774934
 20
4.070454682592353
 30
0.0
 11
2.577273089774848
 21
2.577272864410502
 31
0.0
  0
LINE
  5
214
330
207
100
AcDbEntity
  8
0
370
    15
100
AcDbLine
 10
1.922727635229589
 20
4.070454682592353
 30
0.0
 11
2.577273089774934
 21
4.070454682592298
 31
0.0
  0
LINE
  5
215
330
207
100
AcDbEntity
  8
0
370
    15
100
AcDbLine
 10
1.922727635229506
 20
4.070454682592353
 30
0.0
 11
1.92272763522942
 21
2.577272864410502
 31
0.0
  0
ENDBLK
  5
216
330
207
100
AcDbEntity
  8
0
100
AcDbBlockEnd
  0
BLOCK
  5
218
330
217
100
AcDbEntity
  8
0
100
AcDbBlockBegin
  2
A$C353F20C3
 70
     0
 10
0.0
 20
0.0
 30
0.0
  3
A$C353F20C3
  1

  0
CIRCLE
  5
219
330
217
100
AcDbEntity
  8
0
100
AcDbCircle
 10
2.749999499561336
 20
2.750000228145779
 30
0.0
 40
2.75
  0
LINE
  5
21A
330
217
100
AcDbEntity
  8
0
100
AcDbLine
 10
3.249999499561113
 20
3.100000228145788
 30
0.0
 11
3.249999499561113
 21
5.310000228145796
 31
0.0
  0
LINE
  5
21B
330
217
100
AcDbEntity
  8
0
100
AcDbLine
 10
2.249999499561106
 20
3.100000228145788
 30
0.0
 11
2.249999499561113
 21
5.31000022814578
 31
0.0
  0
LINE
  5
21C
330
217
100
AcDbEntity
  8
0
100
AcDbLine
 10
3.249999499561106
 20
2.400000228145798
 30
0.0
 11
4.349999499561342
 21
2.400000228145798
 31
0.0
  0
LINE
  5
21D
330
217
100
AcDbEntity
  8
0
100
AcDbLine
 10
3.249999499561113
 20
3.100000228145788
 30
0.0
 11
4.349999499561342
 21
3.100000228145788
 31
0.0
  0
LINE
  5
21E
330
217
100
AcDbEntity
  8
0
100
AcDbLine
 10
1.149999499561342
 20
2.400000228145798
 30
0.0
 11
2.249999499561118
 21
2.400000228145813
 31
0.0
  0
LINE
  5
21F
330
217
100
AcDbEntity
  8
0
100
AcDbLine
 10
1.149999499561342
 20
3.100000228145788
 30
0.0
 11
2.249999499561118
 21
3.100000228145801
 31
0.0
  0
LINE
  5
220
330
217
100
AcDbEntity
  8
0
100
AcDbLine
 10
1.149999499561342
 20
3.100000228145788
 30
0.0
 11
1.149999499561342
 21
2.400000228145783
 31
0.0
  0
LINE
  5
221
330
217
100
AcDbEntity
  8
0
100
AcDbLine
 10
4.349999499561342
 20
3.100000228145788
 30
0.0
 11
4.349999499561342
 21
2.400000228145798
 31
0.0
  0
LINE
  5
222
330
217
100
AcDbEntity
  8
0
100
AcDbLine
 10
2.249999499561113
 20
0.1900002281457631
 30
0.0
 11
2.249999499561118
 21
2.400000228145813
 31
0.0
  0
LINE
  5
223
330
217
100
AcDbEntity
  8
0
100
AcDbLine
 10
3.249999499561106
 20
0.1900002281457773
 30
0.0
 11
3.249999499561106
 21
2.400000228145798
 31
0.0
  0
LINE
  5
224
330
217
100
AcDbEntity
  8
0
100
AcDbLine
 10
2.249999499561118
 20
0.1900002281457773
 30
0.0
 11
3.249999499561106
 21
0.1900002281457773
 31
0.0
  0
LINE
  5
225
330
217
100
AcDbEntity
  8
0
100
AcDbLine
 10
2.249999499561113
 20
5.310000228145766
 30
0.0
 11
3.249999499561099
 21
5.310000228145766
 31
0.0
  0
ENDBLK
  5
226
330
217
100
AcDbEntity
  8
0
100
AcDbBlockEnd
  0
BLOCK
  5
228
330
227
100
AcDbEntity
  8
0
100
AcDbBlockBegin
  2
A$C5EEB0A1B
 70
     0
 10
0.0
 20
0.0
 30
0.0
  3
A$C5EEB0A1B
  1

  0
ARC
  5
229
330
227
100
AcDbEntity
  8
0
100
AcDbCircle
 10
3.835533936011556
 20
15.80000010326012
 30
0.0
 40
2.5
100
AcDbArc
 50
89.99999999999408
 51
134.9999999999997
1001
GENIUS_GENODEF_13
1002
{
1000
HIER
1070
     0
1002
}
1002
{
1000
MANEDIT
1070
     0
1002
}
1002
{
1000
NOSEL
1070
     0
1002
}
1002
{
1000
BEHIND
1070
     0
1002
}
1002
{
1000
REACTOR
1002
}
1001
GENIUS_GENOBJ-N-FIL_13
1002
{
1000
OWNER
1000
GEN
1002
}
  0
LINE
  5
22A
330
227
100
AcDbEntity
  8
0
 62
     4
100
AcDbLine
 10
1.300000030077791
 20
16.17867975969986
 30
0.0
 11
29.30000003007776
 21
16.17867975969932
 31
0.0
  0
LINE
  5
22B
330
227
100
AcDbEntity
  8
0
100
AcDbLine
 10
30.6000000300777
 20
0.0000001032589978
 30
0.0
 11
0.0000000300777145
 21
0.0000001032589978
 31
0.0
  0
LINE
  5
22C
330
227
100
AcDbEntity
  8
0
100
AcDbLine
 10
0.3000000300777117
 20
0.0000001032589978
 30
0.0
 11
1.123614168876293
 21
15.71549406361865
 31
0.0
  0
LINE
  5
22D
330
227
100
AcDbEntity
  8
0
100
AcDbLine
 10
0.0000000300777145
 20
0.0000001032589978
 30
0.0
 11
0.000000030077743
 21
3.000000103260673
 31
0.0
  0
LINE
  5
22E
330
227
100
AcDbEntity
  8
0
100
AcDbLine
 10
0.4572233679269396
 20
3.000000103260673
 30
0.0
 11
0.000000030077743
 21
3.000000103260673
 31
0.0
  0
ARC
  5
22F
330
227
100
AcDbEntity
  8
0
100
AcDbCircle
 10
3.620188005762727
 20
15.58465417301127
 30
0.0
 40
2.5
100
AcDbArc
 50
134.9999999999997
 51
176.9999999999993
1001
GENIUS_GENODEF_13
1002
{
1000
HIER
1070
     0
1002
}
1002
{
1000
MANEDIT
1070
     0
1002
}
1002
{
1000
NOSEL
1070
     0
1002
}
1002
{
1000
BEHIND
1070
     0
1002
}
1002
{
1000
REACTOR
1002
}
1001
GENIUS_GENOBJ-N-FIL_13
1002
{
1000
OWNER
1000
GEN
1002
}
  0
LINE
  5
230
330
227
100
AcDbEntity
  8
0
100
AcDbLine
 10
2.067766983045189
 20
17.56776705622647
 30
0.0
 11
1.85242105279636
 21
17.35242112597765
 31
0.0
  0
LINE
  5
231
330
227
100
AcDbEntity
  8
0
100
AcDbLine
 10
30.60000003007772
 20
3.000000103258912
 30
0.0
 11
30.14277669222861
 21
3.000000103258968
 31
0.0
  0
LINE
  5
232
330
227
100
AcDbEntity
  8
0
100
AcDbLine
 10
30.30000003007771
 20
0.0000001032589978
 30
0.0
 11
29.47638589127926
 21
15.71549406361893
 31
0.0
  0
LINE
  5
233
330
227
100
AcDbEntity
  8
0
100
AcDbLine
 10
26.76446612414375
 20
18.30000010325773
 30
0.0
 11
3.835533936011818
 21
18.30000010326012
 31
0.0
1001
GENIUS_GENODEF_13
1002
{
1000
HIER
1070
     0
1002
}
1002
{
1000
MANEDIT
1070
     0
1002
}
1002
{
1000
NOSEL
1070
     0
1002
}
1002
{
1000
BEHIND
1070
     0
1002
}
1002
{
1000
REACTOR
1002
}
1001
GENIUS_GENOBJ-N-CEN_13
1002
{
1000
OWNER
1000
GEN
1002
}
  0
LINE
  5
234
330
227
100
AcDbEntity
  8
0
100
AcDbLine
 10
16.30000003007767
 20
3.000000103258997
 30
0.0
 11
14.30000003007768
 21
3.000000103258997
 31
0.0
  0
LINE
  5
235
330
227
100
AcDbEntity
  8
0
100
AcDbLine
 10
14.30000003007768
 20
3.000000103258997
 30
0.0
 11
14.30000003007768
 21
0.0000001032589978
 31
0.0
  0
LINE
  5
236
330
227
100
AcDbEntity
  8
0
100
AcDbLine
 10
16.30000003007767
 20
3.000000103258997
 30
0.0
 11
16.30000003007767
 21
0.0000001032589978
 31
0.0
  0
ARC
  5
237
330
227
100
AcDbEntity
  8
0
100
AcDbCircle
 10
26.76446612414349
 20
15.8000001032604
 30
0.0
 40
2.5
100
AcDbArc
 50
45.00000000000087
 51
90.0000000000073
1001
GENIUS_GENODEF_13
1002
{
1000
HIER
1070
     0
1002
}
1002
{
1000
MANEDIT
1070
     0
1002
}
1002
{
1000
NOSEL
1070
     0
1002
}
1002
{
1000
BEHIND
1070
     0
1002
}
1002
{
1000
REACTOR
1002
}
1001
GENIUS_GENOBJ-N-FIL_13
1002
{
1000
OWNER
1000
GEN
1002
}
  0
LINE
  5
238
330
227
100
AcDbEntity
  8
0
100
AcDbLine
 10
28.53223307710982
 20
17.56776705622678
 30
0.0
 11
28.74757900735865
 21
17.35242112597797
 31
0.0
  0
ARC
  5
239
330
227
100
AcDbEntity
  8
0
100
AcDbCircle
 10
26.97981205439233
 20
15.58465417301156
 30
0.0
 40
2.5
100
AcDbArc
 50
3.000000000002341
 51
45.00000000000101
1001
GENIUS_GENODEF_13
1002
{
1000
HIER
1070
     0
1002
}
1002
{
1000
MANEDIT
1070
     0
1002
}
1002
{
1000
NOSEL
1070
     0
1002
}
1002
{
1000
BEHIND
1070
     0
1002
}
1002
{
1000
REACTOR
1002
}
1001
GENIUS_GENOBJ-N-FIL_13
1002
{
1000
OWNER
1000
GEN
1002
}
  0
LINE
  5
23A
330
227
100
AcDbEntity
  8
0
100
AcDbLine
 10
30.60000003007771
 20
0.0000001032589978
 30
0.0
 11
30.60000003007772
 21
3.000000103258912
 31
0.0
  0
ENDBLK
  5
23B
330
227
100
AcDbEntity
  8
0
100
AcDbBlockEnd
  0
BLOCK
  5
23D
330
23C
100
AcDbEntity
  8
0
100
AcDbBlockBegin
  2
A$C7E0338A6
 70
     0
 10
0.0
 20
0.0
 30
0.0
  3
A$C7E0338A6
  1

  0
ARC
  5
23E
330
23C
100
AcDbEntity
  8
0
 62
     2
100
AcDbCircle
 10
1.250000176016939
 20
1.749999867658289
 30
0.0
 40
0.25
100
AcDbArc
 50
353.957671580949
 51
186.042328419051
  0
LINE
  5
23F
330
23C
100
AcDbEntity
  8
0
 62
     2
100
AcDbLine
 10
1.498611276381311
 20
1.723684078184646
 30
0.0
 11
1.39916683623555
 21
0.7842103939740924
 31
0.0
  0
LINE
  5
240
330
23C
100
AcDbEntity
  8
0
 62
     2
100
AcDbLine
 10
1.001389075652568
 20
1.723684078184646
 30
0.0
 11
1.100833515798327
 21
0.7842103939740924
 31
0.0
  0
LINE
  5
241
330
23C
100
AcDbEntity
  8
0
 62
     2
100
AcDbLine
 10
1.250000176016939
 20
2.499999867658289
 30
0.0
 11
2.500000176016937
 21
-0.0000001323417109
 31
0.0
  0
LINE
  5
242
330
23C
100
AcDbEntity
  8
0
 62
     2
100
AcDbLine
 10
1.250000176016939
 20
2.499999867658289
 30
0.0
 11
0.0000001760169397
 21
-0.0000001323417109
 31
0.0
  0
HATCH
  5
243
330
23C
100
AcDbEntity
  8
AM_8
 62
     2
100
AcDbHatch
 10
0.0
 20
0.0
 30
0.0
210
0.0
220
0.0
230
1.0
  2
SOLID
 70
     1
 71
     0
 91
        1
 92
        1
 93
        4
 72
     1
 10
1.001389075652568
 20
1.723684078184646
 11
1.100833515798314
 21
0.7842103939741209
 72
     2
 10
1.250000176016939
 20
0.7999998676583005
 40
0.1499999999999994
 50
186.0423284190532
 51
353.9576715809468
 73
     1
 72
     1
 10
1.39916683623555
 20
0.7842103939740924
 11
1.498611276381295
 21
1.723684078184618
 72
     2
 10
1.250000176016939
 20
1.749999867658289
 40
0.2499999999999981
 50
353.957671580949
 51
546.0423284190509
 73
     1
 97
        0
 75
     0
 76
     1
 98
        1
 10
9.750000176016939
 20
-33.50000013234171
1001
GENIUS_GENODEF_13
1002
{
1000
HIER
1070
     0
1002
}
1002
{
1000
MANEDIT
1070
     0
1002
}
1002
{
1000
NOSEL
1070
     0
1002
}
1002
{
1000
BEHIND
1070
     0
1002
}
1002
{
1000
REACTOR
1002
}
1001
GENIUS_GENOBJ-N-HTC_13
1002
{
1000
OWNER
1000
GEN
1002
}
1001
GENIUS_GENHATCH_13
1002
{
1000
DATA
1040
45.0
1042
0.02
1000
_U
1070
     0
1011
1.257144163109827
1021
1.708506355954057
1031
0.0
1002
}
1002
{
1000
UCS
1010
0.0
1020
0.0
1030
0.0
1010
1.0
1020
0.0
1030
0.0
1010
0.0
1020
1.0
1030
0.0
1002
}
  0
LINE
  5
244
330
23C
100
AcDbEntity
  8
0
 62
     2
100
AcDbLine
 10
0.0000001760169397
 20
-0.0000001323417109
 30
0.0
 11
2.500000176016937
 21
-0.0000001323417109
 31
0.0
  0
CIRCLE
  5
245
330
23C
100
AcDbEntity
  8
0
 62
     2
100
AcDbCircle
 10
1.250000176016939
 20
0.2999998676583004
 30
0.0
 40
0.2
  0
HATCH
  5
246
330
23C
100
AcDbEntity
  8
AM_8
 62
     2
100
AcDbHatch
 10
0.0
 20
0.0
 30
0.0
210
0.0
220
0.0
230
1.0
  2
SOLID
 70
     1
 71
     0
 91
        1
 92
        1
 93
        2
 72
     2
 10
1.250000176016939
 20
0.2999998676583004
 40
0.2000000000000005
 50
191.4591559026169
 51
479.7041291931025
 73
     1
 72
     2
 10
1.250000176016939
 20
0.2999998676583004
 40
0.199999999999999
 50
119.7041291931024
 51
191.4591559026169
 73
     1
 97
        0
 75
     0
 76
     1
 98
        1
 10
9.750000176016939
 20
-33.50000013234171
1001
GENIUS_GENODEF_13
1002
{
1000
HIER
1070
     0
1002
}
1002
{
1000
MANEDIT
1070
     0
1002
}
1002
{
1000
NOSEL
1070
     0
1002
}
1002
{
1000
BEHIND
1070
     0
1002
}
1002
{
1000
REACTOR
1002
}
1001
GENIUS_GENOBJ-N-HTC_13
1002
{
1000
OWNER
1000
GEN
1002
}
1001
GENIUS_GENHATCH_13
1002
{
1000
DATA
1040
45.0
1042
0.02
1000
_U
1070
     0
1011
1.234488216143811
1021
0.3271906749125151
1031
0.0
1002
}
1002
{
1000
UCS
1010
0.0
1020
0.0
1030
0.0
1010
1.0
1020
0.0
1030
0.0
1010
0.0
1020
1.0
1030
0.0
1002
}
  0
ARC
  5
247
330
23C
100
AcDbEntity
  8
0
 62
     2
100
AcDbCircle
 10
1.250000176016939
 20
0.7999998676583005
 30
0.0
 40
0.15
100
AcDbArc
 50
186.0423284190534
 51
353.9576715809465
  0
ENDBLK
  5
248
330
23C
100
AcDbEntity
  8
0
100
AcDbBlockEnd
  0
BLOCK
  5
24A
330
249
100
AcDbEntity
  8
0
100
AcDbBlockBegin
  2
A$C1A4D5635
 70
     0
 10
0.0
 20
0.0
 30
0.0
  3
A$C1A4D5635
  1

  0
LINE
  5
24B
330
249
100
AcDbEntity
  8
0
100
AcDbLine
 10
0.0963723966138162
 20
1.125000107727622
 30
0.0
 11
11.34637239661418
 21
20.61057169287638
 31
0.0
  0
LINE
  5
24C
330
249
100
AcDbEntity
  8
0
100
AcDbLine
 10
2.044929555128803
 20
1.500000107727579
 30
0.0
 11
11.99589144945206
 21
18.73557169287578
 31
0.0
  0
LINE
  5
24D
330
249
100
AcDbEntity
  8
0
100
AcDbLine
 10
21.95518359297306
 20
1.500000107727194
 30
0.0
 11
2.036599305931474
 21
1.500000107727584
 31
0.0
  0
LINE
  5
24E
330
249
100
AcDbEntity
  8
0
100
AcDbLine
 10
23.24589144945205
 20
0.0000001077271747
 30
0.0
 11
0.7458914494520457
 21
0.0000001077276224
 31
0.0
  0
ARC
  5
24F
330
249
100
AcDbEntity
  8
0
100
AcDbCircle
 10
0.7458914494520599
 20
0.7500001077276224
 30
0.0
 40
0.75
100
AcDbArc
 50
149.999999999998
 51
269.9999999999992
1001
GENIUS_GENOBJ-N-FIL_13
1002
{
1000
OWNER
1000
GEN
1002
}
1001
GENIUS_GENODEF_13
1002
{
1000
HIER
1070
     0
1002
}
1002
{
1000
MANEDIT
1070
     0
1002
}
1002
{
1000
NOSEL
1070
     0
1002
}
1002
{
1000
BEHIND
1070
     0
1002
}
1002
{
1000
OTHER
1070
     0
1002
}
1002
{
1000
REACTOR
1002
}
  0
LINE
  5
250
330
249
100
AcDbEntity
  8
0
100
AcDbLine
 10
23.89541050229039
 20
1.125000107727174
 30
0.0
 11
12.64541050229083
 21
20.61057169287635
 31
0.0
  0
LINE
  5
251
330
249
100
AcDbEntity
  8
0
100
AcDbLine
 10
21.94685334377536
 20
1.500000107727194
 30
0.0
 11
18.71369183631331
 21
7.100000107727452
 31
0.0
  0
LINE
  5
252
330
249
100
AcDbEntity
  8
0
100
AcDbLine
 10
16.46752481932051
 20
4.495096297159789
 30
0.0
 11
16.61752481932053
 21
4.754903918295183
 31
0.0
  0
LINE
  5
253
330
249
100
AcDbEntity
  8
0
100
AcDbLine
 10
16.46752481932049
 20
4.4950962971598
 30
0.0
 11
13.43085833650636
 21
6.248316508451664
 31
0.0
  0
LINE
  5
254
330
249
100
AcDbEntity
  8
0
100
AcDbLine
 10
14.36469916642709
 20
4.669060356396471
 30
0.0
 11
14.57683120078303
 21
4.881192390752431
 31
0.0
  0
LINE
  5
255
330
249
100
AcDbEntity
  8
0
100
AcDbLine
 10
13.12270823286798
 20
5.91105128995562
 30
0.0
 11
14.36469916642709
 21
4.669060356396471
 31
0.0
  0
LINE
  5
256
330
249
100
AcDbEntity
  8
0
100
AcDbLine
 10
14.75079526001994
 20
2.778366737859128
 30
0.0
 11
12.99757504872808
 21
5.815033220673327
 31
0.0
  0
LINE
  5
257
330
249
100
AcDbEntity
  8
0
100
AcDbLine
 10
14.49098763888456
 20
2.628366737859122
 30
0.0
 11
12.7377674275927
 21
5.665033220673277
 31
0.0
  0
LINE
  5
258
330
249
100
AcDbEntity
  8
0
100
AcDbLine
 10
12.59204674830172
 20
5.60467373899273
 30
0.0
 11
13.04664698125434
 21
3.908082572481021
 31
0.0
  0
LINE
  5
259
330
249
100
AcDbEntity
  8
0
100
AcDbLine
 10
12.30226900041505
 20
5.527028025461987
 30
0.0
 11
12.75686923336762
 21
3.83043685895025
 31
0.0
  0
LINE
  5
25A
330
249
100
AcDbEntity
  8
0
100
AcDbLine
 10
12.14589144945229
 20
2.000000107727371
 30
0.0
 11
12.14589144945232
 21
5.506440530311135
 31
0.0
  0
LINE
  5
25B
330
249
100
AcDbEntity
  8
0
100
AcDbLine
 10
11.84589144945225
 20
2.000000107727387
 30
0.0
 11
11.84589144945225
 21
5.50644053031111
 31
0.0
  0
LINE
  5
25C
330
249
100
AcDbEntity
  8
0
100
AcDbLine
 10
11.68951389848925
 20
5.527028025462006
 30
0.0
 11
11.23491366553666
 21
3.830436858950291
 31
0.0
  0
LINE
  5
25D
330
249
100
AcDbEntity
  8
0
100
AcDbLine
 10
11.39973615060256
 20
5.604673738992755
 30
0.0
 11
10.94513591764993
 21
3.908082572481033
 31
0.0
  0
LINE
  5
25E
330
249
100
AcDbEntity
  8
0
100
AcDbLine
 10
9.500795260019911
 20
2.628366737859029
 30
0.0
 11
11.25401547131182
 21
5.665033220673199
 31
0.0
  0
LINE
  5
25F
330
249
100
AcDbEntity
  8
0
100
AcDbLine
 10
9.240987638884547
 20
2.778366737859058
 30
0.0
 11
10.99420785017642
 21
5.815033220673207
 31
0.0
  0
LINE
  5
260
330
249
100
AcDbEntity
  8
0
100
AcDbLine
 10
7.374258079583881
 20
4.754903918294992
 30
0.0
 11
7.524258079583915
 21
4.495096297159611
 31
0.0
  0
LINE
  5
261
330
249
100
AcDbEntity
  8
0
100
AcDbLine
 10
9.414951698121226
 20
4.881192390752471
 30
0.0
 11
9.627083732477217
 21
4.669060356396521
 31
0.0
  0
LINE
  5
262
330
249
100
AcDbEntity
  8
0
100
AcDbLine
 10
10.86907466603631
 20
5.911051289955665
 30
0.0
 11
9.627083732477217
 21
4.669060356396521
 31
0.0
  0
LINE
  5
263
330
249
100
AcDbEntity
  8
0
100
AcDbLine
 10
7.524258079583915
 20
4.495096297159625
 30
0.0
 11
10.5609245623981
 21
6.24831650845148
 31
0.0
  0
LINE
  5
264
330
249
100
AcDbEntity
  8
0
100
AcDbLine
 10
11.84589144945225
 20
2.000000107727371
 30
0.0
 11
12.14589144945231
 21
2.000000107727371
 31
0.0
  0
LINE
  5
265
330
249
100
AcDbEntity
  8
0
100
AcDbLine
 10
9.240987638884547
 20
2.778366737859048
 30
0.0
 11
9.500795260019927
 21
2.628366737859025
 31
0.0
  0
LINE
  5
266
330
249
100
AcDbEntity
  8
0
100
AcDbLine
 10
10.94513591764993
 20
3.908082572481033
 30
0.0
 11
11.23491366553666
 21
3.830436858950291
 31
0.0
  0
LINE
  5
267
330
249
100
AcDbEntity
  8
0
100
AcDbLine
 10
14.49098763888457
 20
2.62836673785911
 30
0.0
 11
14.75079526001994
 21
2.778366737859128
 31
0.0
  0
LINE
  5
268
330
249
100
AcDbEntity
  8
0
100
AcDbLine
 10
12.75686923336762
 20
3.83043685895025
 30
0.0
 11
13.04664698125434
 21
3.908082572481021
 31
0.0
  0
ARC
  5
269
330
249
100
AcDbEntity
  8
0
100
AcDbCircle
 10
23.24589144945206
 20
0.7500001077271749
 30
0.0
 40
0.75
100
AcDbArc
 50
269.9999999999992
 51
30.00000000000014
1001
GENIUS_GENOBJ-N-FIL_13
1002
{
1000
OWNER
1000
GEN
1002
}
1001
GENIUS_GENODEF_13
1002
{
1000
HIER
1070
     0
1002
}
1002
{
1000
MANEDIT
1070
     0
1002
}
1002
{
1000
NOSEL
1070
     0
1002
}
1002
{
1000
BEHIND
1070
     0
1002
}
1002
{
1000
OTHER
1070
     0
1002
}
1002
{
1000
REACTOR
1002
}
  0
LINE
  5
26A
330
249
100
AcDbEntity
  8
0
100
AcDbLine
 10
18.54048675555643
 20
7.400000107727507
 30
0.0
 11
11.99589144945206
 21
18.73557169287706
 31
0.0
  0
LINE
  5
26B
330
249
100
AcDbEntity
  8
0
100
AcDbLine
 10
18.71369183631331
 20
7.100000107727452
 30
0.0
 11
13.73945102686844
 21
7.100000107727468
 31
0.0
  0
LINE
  5
26C
330
249
100
AcDbEntity
  8
0
100
AcDbLine
 10
18.54048675555643
 20
7.400000107727507
 30
0.0
 11
13.73945102686841
 21
7.400000107727534
 31
0.0
  0
LINE
  5
26D
330
249
100
AcDbEntity
  8
0
100
AcDbLine
 10
12.14589144945208
 20
12.5000001077274
 30
0.0
 11
12.14589144945208
 21
8.993559685143679
 31
0.0
  0
LINE
  5
26E
330
249
100
AcDbEntity
  8
0
100
AcDbLine
 10
11.84589144945204
 20
12.50000010772742
 30
0.0
 11
11.84589144945201
 21
8.993559685143651
 31
0.0
  0
LINE
  5
26F
330
249
100
AcDbEntity
  8
0
100
AcDbLine
 10
7.374258079583796
 20
9.745096297159648
 30
0.0
 11
10.41092456239795
 21
7.991876085867744
 31
0.0
  0
LINE
  5
270
330
249
100
AcDbEntity
  8
0
100
AcDbLine
 10
7.524258079583816
 20
10.00490391829501
 30
0.0
 11
10.56092456239795
 21
8.251683707003138
 31
0.0
  0
LINE
  5
271
330
249
100
AcDbEntity
  8
0
100
AcDbLine
 10
10.65694263168042
 20
8.376816891143249
 30
0.0
 11
9.414951698121283
 21
9.618807824702344
 31
0.0
  0
LINE
  5
272
330
249
100
AcDbEntity
  8
0
100
AcDbLine
 10
7.374258079583896
 20
4.754903918294997
 30
0.0
 11
10.41092456239804
 21
6.508124129586859
 31
0.0
  0
LINE
  5
273
330
249
100
AcDbEntity
  8
0
100
AcDbLine
 10
10.3505650807175
 20
6.653844808877846
 30
0.0
 11
8.653973914205792
 21
6.199244575925232
 31
0.0
  0
LINE
  5
274
330
249
100
AcDbEntity
  8
0
100
AcDbLine
 10
10.27291936718676
 20
6.943622556764522
 30
0.0
 11
8.576328200675021
 21
6.48902232381195
 31
0.0
  0
LINE
  5
275
330
249
100
AcDbEntity
  8
0
100
AcDbLine
 10
6.745891449452145
 20
7.10000010772728
 30
0.0
 11
10.25233187203591
 21
7.100000107727253
 31
0.0
  0
LINE
  5
276
330
249
100
AcDbEntity
  8
0
100
AcDbLine
 10
6.745891449452159
 20
7.400000107727322
 30
0.0
 11
10.25233187203588
 21
7.400000107727322
 31
0.0
  0
LINE
  5
277
330
249
100
AcDbEntity
  8
0
100
AcDbLine
 10
10.27291936718677
 20
7.556377658690307
 30
0.0
 11
8.57632820067505
 21
8.01097789164288
 31
0.0
  0
LINE
  5
278
330
249
100
AcDbEntity
  8
0
100
AcDbLine
 10
10.35056508071751
 20
7.846155406576982
 30
0.0
 11
8.653973914205792
 21
8.300755639529597
 31
0.0
  0
LINE
  5
279
330
249
100
AcDbEntity
  8
0
100
AcDbLine
 10
8.576328200675021
 20
6.48902232381195
 30
0.0
 11
8.653973914205792
 21
6.199244575925232
 31
0.0
  0
LINE
  5
27A
330
249
100
AcDbEntity
  8
0
100
AcDbLine
 10
6.745891449452145
 20
7.400000107727322
 30
0.0
 11
6.745891449452145
 21
7.100000107727267
 31
0.0
  0
LINE
  5
27B
330
249
100
AcDbEntity
  8
0
100
AcDbLine
 10
8.653973914205792
 20
8.300755639529597
 30
0.0
 11
8.57632820067505
 21
8.01097789164288
 31
0.0
  0
ARC
  5
27C
330
249
100
AcDbEntity
  8
0
100
AcDbCircle
 10
11.99589144945217
 20
7.250000107727402
 30
0.0
 40
1.75
100
AcDbArc
 50
199.9171003355269
 51
205.082899664473
  0
ARC
  5
27D
330
249
100
AcDbEntity
  8
0
100
AcDbCircle
 10
11.99589144945217
 20
7.250000107727402
 30
0.0
 40
1.75
100
AcDbArc
 50
214.9171003355335
 51
220.0828996644713
  0
LINE
  5
27E
330
249
100
AcDbEntity
  8
0
100
AcDbLine
 10
10.65694263168039
 20
6.12318332431159
 30
0.0
 11
9.414951698121226
 21
4.881192390752471
 31
0.0
  0
ARC
  5
27F
330
249
100
AcDbEntity
  8
0
100
AcDbCircle
 10
11.99589144945217
 20
7.250000107727402
 30
0.0
 40
1.75
100
AcDbArc
 50
259.9171003355269
 51
265.0828996644734
  0
ARC
  5
280
330
249
100
AcDbEntity
  8
0
100
AcDbCircle
 10
11.99589144945217
 20
7.250000107727402
 30
0.0
 40
1.75
100
AcDbArc
 50
229.9171003355269
 51
235.0828996644737
  0
ARC
  5
281
330
249
100
AcDbEntity
  8
0
100
AcDbCircle
 10
11.99589144945217
 20
7.250000107727402
 30
0.0
 40
1.75
100
AcDbArc
 50
244.9171003355328
 51
250.08289966447
  0
ARC
  5
282
330
249
100
AcDbEntity
  8
0
100
AcDbCircle
 10
11.99589144945217
 20
7.250000107727402
 30
0.0
 40
1.75
100
AcDbArc
 50
139.9171003355272
 51
145.0828996644742
  0
ARC
  5
283
330
249
100
AcDbEntity
  8
0
100
AcDbCircle
 10
11.99589144945217
 20
7.250000107727402
 30
0.0
 40
1.75
100
AcDbArc
 50
184.9171003355335
 51
190.0828996644713
  0
ARC
  5
284
330
249
100
AcDbEntity
  8
0
100
AcDbCircle
 10
11.99589144945217
 20
7.250000107727402
 30
0.0
 40
1.75
100
AcDbArc
 50
169.9171003355277
 51
175.0828996644738
  0
ARC
  5
285
330
249
100
AcDbEntity
  8
0
100
AcDbCircle
 10
11.99589144945217
 20
7.250000107727402
 30
0.0
 40
1.75
100
AcDbArc
 50
154.9171003355332
 51
160.0828996644723
  0
LINE
  5
286
330
249
100
AcDbEntity
  8
0
100
AcDbLine
 10
7.524258079583802
 20
10.00490391829501
 30
0.0
 11
7.37425807958378
 21
9.745096297159632
 31
0.0
  0
LINE
  5
287
330
249
100
AcDbEntity
  8
0
100
AcDbLine
 10
9.240987638884377
 20
11.72163347759566
 30
0.0
 11
10.99420785017624
 21
8.68496699478146
 31
0.0
  0
LINE
  5
288
330
249
100
AcDbEntity
  8
0
100
AcDbLine
 10
9.500795260019755
 20
11.87163347759568
 30
0.0
 11
11.25401547131162
 21
8.834966994781524
 31
0.0
  0
LINE
  5
289
330
249
100
AcDbEntity
  8
0
100
AcDbLine
 10
11.68951389848928
 20
8.972972189992802
 30
0.0
 11
11.23491366553671
 21
10.66956335650454
 31
0.0
  0
LINE
  5
28A
330
249
100
AcDbEntity
  8
0
100
AcDbLine
 10
11.3997361506026
 20
8.895326476462059
 30
0.0
 11
10.94513591764999
 21
10.59191764297377
 31
0.0
  0
LINE
  5
28B
330
249
100
AcDbEntity
  8
0
100
AcDbLine
 10
10.86907466603634
 20
8.588948925499181
 30
0.0
 11
9.627083732477231
 21
9.830939859058332
 31
0.0
  0
LINE
  5
28C
330
249
100
AcDbEntity
  8
0
100
AcDbLine
 10
9.627083732477231
 20
9.830939859058332
 30
0.0
 11
9.414951698121283
 21
9.618807824702344
 31
0.0
  0
ARC
  5
28D
330
249
100
AcDbEntity
  8
0
100
AcDbCircle
 10
11.99589144945217
 20
7.250000107727402
 30
0.0
 40
1.75
100
AcDbArc
 50
124.9171003355342
 51
130.0828996644713
  0
ARC
  5
28E
330
249
100
AcDbEntity
  8
0
100
AcDbCircle
 10
11.99589144945217
 20
7.250000107727402
 30
0.0
 40
1.75
100
AcDbArc
 50
109.9171003355282
 51
115.0828996644735
  0
ARC
  5
28F
330
249
100
AcDbEntity
  8
0
100
AcDbCircle
 10
11.99589144945217
 20
7.250000107727402
 30
0.0
 40
1.75
100
AcDbArc
 50
94.9171003355339
 51
100.0828996644722
  0
LINE
  5
290
330
249
100
AcDbEntity
  8
0
100
AcDbLine
 10
9.500795260019742
 20
11.87163347759568
 30
0.0
 11
9.240987638884377
 21
11.72163347759564
 31
0.0
  0
LINE
  5
291
330
249
100
AcDbEntity
  8
0
100
AcDbLine
 10
11.23491366553671
 20
10.66956335650454
 30
0.0
 11
10.94513591764999
 21
10.59191764297377
 31
0.0
  0
LINE
  5
292
330
249
100
AcDbEntity
  8
0
100
AcDbLine
 10
13.33484026722392
 20
8.376816891143235
 30
0.0
 11
14.57683120078307
 21
9.618807824702344
 31
0.0
  0
LINE
  5
293
330
249
100
AcDbEntity
  8
0
100
AcDbLine
 10
16.46752481932042
 20
10.00490391829518
 30
0.0
 11
13.43085833650622
 21
8.251683707003337
 31
0.0
  0
LINE
  5
294
330
249
100
AcDbEntity
  8
0
100
AcDbLine
 10
16.61752481932042
 20
9.745096297159818
 30
0.0
 11
13.58085833650626
 21
7.991876085867942
 31
0.0
  0
LINE
  5
295
330
249
100
AcDbEntity
  8
0
100
AcDbLine
 10
13.64121781818681
 20
7.846155406576941
 30
0.0
 11
15.33780898469852
 21
8.300755639529555
 31
0.0
  0
LINE
  5
296
330
249
100
AcDbEntity
  8
0
100
AcDbLine
 10
13.71886353171756
 20
7.556377658690266
 30
0.0
 11
15.4154546982293
 21
8.010977891642838
 31
0.0
  0
LINE
  5
297
330
249
100
AcDbEntity
  8
0
100
AcDbLine
 10
13.71886353171754
 20
6.943622556764481
 30
0.0
 11
15.41545469822927
 21
6.489022323811923
 31
0.0
  0
LINE
  5
298
330
249
100
AcDbEntity
  8
0
100
AcDbLine
 10
13.6412178181868
 20
6.653844808877806
 30
0.0
 11
15.33780898469852
 21
6.199244575925193
 31
0.0
  0
LINE
  5
299
330
249
100
AcDbEntity
  8
0
100
AcDbLine
 10
16.61752481932052
 20
4.754903918295156
 30
0.0
 11
13.58085833650636
 21
6.508124129587057
 31
0.0
  0
ARC
  5
29A
330
249
100
AcDbEntity
  8
0
100
AcDbCircle
 10
11.99589144945217
 20
7.250000107727402
 30
0.0
 40
1.75
100
AcDbArc
 50
334.9171003355329
 51
340.0828996644709
  0
ARC
  5
29B
330
249
100
AcDbEntity
  8
0
100
AcDbCircle
 10
11.99589144945217
 20
7.250000107727402
 30
0.0
 40
1.75
100
AcDbArc
 50
319.9171003355271
 51
325.0828996644731
  0
LINE
  5
29C
330
249
100
AcDbEntity
  8
0
100
AcDbLine
 10
13.33484026722391
 20
6.123183324311553
 30
0.0
 11
14.57683120078303
 21
4.881192390752431
 31
0.0
  0
ARC
  5
29D
330
249
100
AcDbEntity
  8
0
100
AcDbCircle
 10
11.99589144945217
 20
7.250000107727402
 30
0.0
 40
1.75
100
AcDbArc
 50
274.917100335534
 51
280.0828996644714
  0
ARC
  5
29E
330
249
100
AcDbEntity
  8
0
100
AcDbCircle
 10
11.99589144945217
 20
7.250000107727402
 30
0.0
 40
1.75
100
AcDbArc
 50
289.9171003355265
 51
295.0828996644735
  0
ARC
  5
29F
330
249
100
AcDbEntity
  8
0
100
AcDbCircle
 10
11.99589144945217
 20
7.250000107727402
 30
0.0
 40
1.75
100
AcDbArc
 50
304.9171003355331
 51
310.0828996644712
  0
ARC
  5
2A0
330
249
100
AcDbEntity
  8
0
100
AcDbCircle
 10
11.99589144945217
 20
7.250000107727402
 30
0.0
 40
1.75
100
AcDbArc
 50
34.91710033553427
 51
40.08289966447196
  0
ARC
  5
2A1
330
249
100
AcDbEntity
  8
0
100
AcDbCircle
 10
11.99589144945217
 20
7.250000107727402
 30
0.0
 40
1.75
100
AcDbArc
 50
349.9171003355265
 51
355.0828996644733
  0
ARC
  5
2A2
330
249
100
AcDbEntity
  8
0
100
AcDbCircle
 10
11.99589144945217
 20
7.250000107727402
 30
0.0
 40
1.75
100
AcDbArc
 50
4.917100335533119
 51
10.08289966447091
  0
ARC
  5
2A3
330
249
100
AcDbEntity
  8
0
100
AcDbCircle
 10
11.99589144945217
 20
7.250000107727402
 30
0.0
 40
1.75
100
AcDbArc
 50
19.91710033552693
 51
25.08289966447444
  0
LINE
  5
2A4
330
249
100
AcDbEntity
  8
0
100
AcDbLine
 10
15.33780898469852
 20
6.199244575925193
 30
0.0
 11
15.41545469822927
 21
6.489022323811923
 31
0.0
  0
LINE
  5
2A5
330
249
100
AcDbEntity
  8
0
100
AcDbLine
 10
15.4154546982293
 20
8.010977891642838
 30
0.0
 11
15.33780898469852
 21
8.300755639529555
 31
0.0
  0
LINE
  5
2A6
330
249
100
AcDbEntity
  8
0
100
AcDbLine
 10
12.30226900041506
 20
8.972972189992786
 30
0.0
 11
12.75686923336762
 21
10.66956335650451
 31
0.0
  0
LINE
  5
2A7
330
249
100
AcDbEntity
  8
0
100
AcDbLine
 10
12.59204674830174
 20
8.895326476462043
 30
0.0
 11
13.04664698125435
 21
10.59191764297378
 31
0.0
  0
LINE
  5
2A8
330
249
100
AcDbEntity
  8
0
100
AcDbLine
 10
14.49098763888439
 20
11.87163347759578
 30
0.0
 11
12.73776742759247
 21
8.834966994781609
 31
0.0
  0
LINE
  5
2A9
330
249
100
AcDbEntity
  8
0
100
AcDbLine
 10
14.75079526001974
 20
11.72163347759574
 30
0.0
 11
12.99757504872789
 21
8.684966994781602
 31
0.0
  0
LINE
  5
2AA
330
249
100
AcDbEntity
  8
0
100
AcDbLine
 10
13.12270823286799
 20
8.588948925499151
 30
0.0
 11
14.3646991664271
 21
9.830939859058304
 31
0.0
  0
ARC
  5
2AB
330
249
100
AcDbEntity
  8
0
100
AcDbCircle
 10
11.99589144945217
 20
7.250000107727402
 30
0.0
 40
1.75
100
AcDbArc
 50
49.91710033552803
 51
55.08289966447453
  0
ARC
  5
2AC
330
249
100
AcDbEntity
  8
0
100
AcDbCircle
 10
11.99589144945217
 20
7.250000107727402
 30
0.0
 40
1.75
100
AcDbArc
 50
64.9171003355345
 51
70.08289966447178
  0
ARC
  5
2AD
330
249
100
AcDbEntity
  8
0
100
AcDbCircle
 10
11.99589144945217
 20
7.250000107727402
 30
0.0
 40
1.75
100
AcDbArc
 50
79.91710033552781
 51
85.08289966447428
  0
LINE
  5
2AE
330
249
100
AcDbEntity
  8
0
100
AcDbLine
 10
14.57683120078307
 20
9.618807824702344
 30
0.0
 11
14.3646991664271
 21
9.830939859058304
 31
0.0
  0
LINE
  5
2AF
330
249
100
AcDbEntity
  8
0
100
AcDbLine
 10
13.04664698125435
 20
10.59191764297378
 30
0.0
 11
12.75686923336762
 21
10.66956335650451
 31
0.0
  0
LINE
  5
2B0
330
249
100
AcDbEntity
  8
0
100
AcDbLine
 10
14.75079526001976
 20
11.72163347759576
 30
0.0
 11
14.49098763888438
 21
11.87163347759579
 31
0.0
  0
LINE
  5
2B1
330
249
100
AcDbEntity
  8
0
100
AcDbLine
 10
16.61752481932042
 20
9.745096297159818
 30
0.0
 11
16.4675248193204
 21
10.0049039182952
 31
0.0
  0
LINE
  5
2B2
330
249
100
AcDbEntity
  8
0
100
AcDbLine
 10
12.14589144945208
 20
12.50000010772742
 30
0.0
 11
11.84589144945202
 21
12.50000010772742
 31
0.0
  0
ARC
  5
2B3
330
249
100
AcDbEntity
  8
0
100
AcDbCircle
 10
11.9958914494525
 20
20.23557169287635
 30
0.0
 40
0.75
100
AcDbArc
 50
30.00000000000014
 51
149.9999999999977
1001
GENIUS_GENOBJ-N-FIL_13
1002
{
1000
OWNER
1000
GEN
1002
}
1001
GENIUS_GENODEF_13
1002
{
1000
HIER
1070
     0
1002
}
1002
{
1000
MANEDIT
1070
     0
1002
}
1002
{
1000
NOSEL
1070
     0
1002
}
1002
{
1000
BEHIND
1070
     0
1002
}
1002
{
1000
OTHER
1070
     0
1002
}
1002
{
1000
REACTOR
1002
}
  0
ENDBLK
  5
2B4
330
249
100
AcDbEntity
  8
0
100
AcDbBlockEnd
  0
BLOCK
  5
2B6
330
2B5
100
AcDbEntity
  8
0
100
AcDbBlockBegin
  2
A$C2A805784
 70
     0
 10
0.0
 20
0.0
 30
0.0
  3
A$C2A805784
  1

  0
LINE
  5
2B7
330
2B5
100
AcDbEntity
  8
0
 62
     6
100
AcDbLine
 10
-0.0000002228103142
 20
3.499999900514723
 30
0.0
 11
4.24409426537872
 21
-0.0000000994852769
 31
0.0
  0
LINE
  5
2B8
330
2B5
100
AcDbEntity
  8
0
 62
     6
100
AcDbLine
 10
4.24409426537872
 20
-0.0000000994852769
 30
0.0
 11
8.488188753567669
 21
3.499999900514723
 31
0.0
  0
LINE
  5
2B9
330
2B5
100
AcDbEntity
  8
0
 62
     6
100
AcDbLine
 10
4.24409426537872
 20
6.999999900514723
 30
0.0
 11
-0.0000002228103142
 21
3.499999900514723
 31
0.0
  0
TEXT
  5
2BA
330
2B5
100
AcDbEntity
  8
0
 62
     6
100
AcDbText
 10
4.37536781550068
 20
3.425983395835231
 30
0.0
 40
1.7
  1
S
100
AcDbText
  0
LINE
  5
2BB
330
2B5
100
AcDbEntity
  8
0
 62
     6
100
AcDbLine
 10
8.488188753567669
 20
3.499999900514723
 30
0.0
 11
4.24409426537872
 21
6.999999900514723
 31
0.0
  0
TEXT
  5
2BC
330
2B5
100
AcDbEntity
  8
0
 62
     6
100
AcDbText
 10
3.849492437393165
 20
1.847351669299641
 30
0.0
 40
1.1
  1
C
100
AcDbText
  0
TEXT
  5
2BD
330
2B5
100
AcDbEntity
  8
0
 62
     6
100
AcDbText
 10
2.770967815500681
 20
3.425983395835231
 30
0.0
 40
1.7
  1
P
100
AcDbText
  0
ENDBLK
  5
2BE
330
2B5
100
AcDbEntity
  8
0
100
AcDbBlockEnd
  0
BLOCK
  5
2C0
330
2BF
100
AcDbEntity
  8
0
100
AcDbBlockBegin
  2
A$C64985E4B
 70
     0
 10
0.0
 20
0.0
 30
0.0
  3
A$C64985E4B
  1

  0
INSERT
  5
2C1
330
2BF
100
AcDbEntity
  8
0
100
AcDbBlockReference
  2
A$C2A805784
 10
0.0000003039999683
 20
0.0000001043579942
 30
0.0
  0
ENDBLK
  5
2C2
330
2BF
100
AcDbEntity
  8
0
100
AcDbBlockEnd
  0
BLOCK
  5
2C4
330
2C3
100
AcDbEntity
  8
0
100
AcDbBlockBegin
  2
A$C6B073BE3
 70
     0
 10
0.0
 20
0.0
 30
0.0
  3
A$C6B073BE3
  1

  0
HATCH
  5
2C5
330
2C3
100
AcDbEntity
  8
AM_8
 62
     7
100
AcDbHatch
 10
0.0
 20
0.0
 30
0.0
210
0.0
220
0.0
230
1.0
  2
SOLID
 70
     1
 71
     0
 91
        2
 92
        1
 93
        6
 72
     1
 10
3.40172664182252
 20
6.183171145766401
 11
0.0267266418224494
 21
0.3374996702218382
 72
     2
 10
0.2215823576739382
 20
0.224999670221834
 40
0.2249999999999935
 50
149.9999999999977
 51
269.9999999999928
 73
     1
 72
     1
 10
0.2215823576739098
 20
-0.0000003297781603
 11
6.971582357673852
 21
-0.0000003297782882
 72
     2
 10
6.971582357673852
 20
0.2249996702217061
 40
0.2249999999999943
 50
270.0
 51
389.9999999999989
 73
     1
 72
     1
 10
7.166438073525355
 20
0.3374996702217032
 11
3.791438073525508
 21
6.183171145766401
 72
     2
 10
3.596582357674007
 20
6.070671145766402
 40
0.2250000000000023
 50
29.99999999999884
 51
149.9999999999993
 73
     1
 97
        0
 92
       16
 93
       99
 72
     1
 10
0.6112937893769299
 20
0.4499996702218283
 11
3.59658235767388
 21
5.620671145766237
 72
     1
 10
3.59658235767388
 20
5.620671145766237
 11
5.559960949505181
 21
2.219999670221787
 72
     1
 10
5.559960949505181
 20
2.219999670221787
 11
4.119650230898781
 21
2.219999670221795
 72
     2
 10
3.596582357673908
 20
2.174999670221871
 40
0.5249999999999875
 50
4.917100335520553
 51
10.08289966445852
 73
     1
 72
     1
 10
4.113473982353538
 20
2.266912935510615
 11
4.622451332307051
 21
2.403293005396384
 72
     1
 10
4.622451332307051
 20
2.403293005396384
 11
4.599157618247815
 21
2.490226329762398
 72
     1
 10
4.599157618247815
 20
2.490226329762398
 11
4.090180268294303
 21
2.353846259876615
 72
     2
 10
3.59658235767388
 20
2.174999670221863
 40
0.5249999999999836
 50
19.917100335515
 51
25.08289966446215
 73
     1
 72
     1
 10
4.072072423790146
 20
2.397562463663923
 11
4.983072368634378
 21
2.923528527051473
 72
     1
 10
4.983072368634378
 20
2.923528527051473
 11
4.938072368634379
 21
3.001470813392089
 72
     1
 10
4.938072368634379
 20
3.001470813392089
 11
4.027072423790126
 21
2.475504750004529
 72
     2
 10
3.596582357673852
 20
2.174999670221858
 40
0.5249999999999889
 50
34.91710033552086
 51
40.08289966445864
 73
     1
 72
     1
 10
3.99826700300545
 20
2.513044705246505
 11
4.370864283073188
 21
2.885641985314228
 72
     1
 10
4.370864283073188
 20
2.885641985314228
 11
4.307224672766395
 21
2.949281595621016
 72
     1
 10
4.307224672766395
 20
2.949281595621016
 11
3.934627392698656
 21
2.576684315553279
 72
     2
 10
3.596582357673866
 20
2.174999670221803
 40
0.5249999999999832
 50
49.91710033552053
 51
55.08289966446644
 73
     1
 72
     1
 10
3.897087437456633
 20
2.605489736338014
 11
4.423053500844176
 21
3.516489681182246
 72
     1
 10
4.423053500844176
 20
3.516489681182246
 11
4.345111214503575
 21
3.561489681182258
 72
     1
 10
4.345111214503575
 20
3.561489681182258
 11
3.819145151116002
 21
2.650489736338016
 72
     2
 10
3.596582357673838
 20
2.174999670221793
 40
0.5249999999999903
 50
64.91710033552535
 51
70.08289966446222
 73
     1
 72
     1
 10
3.775428947328791
 20
2.668597580842153
 11
3.911809017214562
 21
3.177574930795663
 72
     1
 10
3.911809017214562
 20
3.177574930795663
 11
3.82487569284855
 21
3.200868644854878
 72
     1
 10
3.82487569284855
 20
3.200868644854878
 11
3.68849562296279
 21
2.691891294901374
 72
     2
 10
3.596582357673966
 20
2.174999670221751
 40
0.5249999999999943
 50
79.91710033553295
 51
85.08289966447874
 73
     1
 72
     1
 10
3.641582357673897
 20
2.698067543446633
 11
3.641582357673897
 21
3.74999967022174
 72
     1
 10
3.641582357673897
 20
3.74999967022174
 11
3.551582357673876
 21
3.749999670221747
 72
     1
 10
3.551582357673876
 20
3.749999670221747
 11
3.551582357673863
 21
2.698067543446625
 72
     2
 10
3.596582357673866
 20
2.174999670221751
 40
0.5249999999999943
 50
94.91710033552903
 51
100.082899664467
 73
     1
 72
     1
 10
3.504669092385041
 20
2.691891294901374
 11
3.36828902249928
 21
3.200868644854883
 72
     1
 10
3.36828902249928
 20
3.200868644854883
 11
3.281355698133268
 21
3.177574930795656
 72
     1
 10
3.281355698133268
 20
3.177574930795656
 11
3.417735768019056
 21
2.668597580842146
 72
     2
 10
3.596582357673852
 20
2.174999670221723
 40
0.5249999999999983
 50
109.9171003355193
 51
115.0828996644656
 73
     1
 72
     1
 10
3.374019564231758
 20
2.650489736337988
 11
2.848053500844201
 21
3.561489681182221
 72
     1
 10
2.848053500844201
 20
3.561489681182221
 11
2.770111214503585
 21
3.516489681182214
 72
     1
 10
2.770111214503585
 20
3.516489681182214
 11
3.296077277891142
 21
2.60548973633797
 72
     2
 10
3.596582357673923
 20
2.174999670221751
 40
0.5250000000000032
 50
124.9171003355339
 51
130.0828996644714
 73
     1
 72
     1
 10
3.258537322649173
 20
2.576684315553285
 11
2.885940042581437
 21
2.949281595621028
 72
     1
 10
2.885940042581437
 20
2.949281595621028
 11
2.822300432274658
 21
2.885641985314228
 72
     1
 10
2.822300432274658
 20
2.885641985314228
 11
3.194897712342395
 21
2.513044705246505
 72
     2
 10
3.596582357673923
 20
2.174999670221771
 40
0.5249999999999899
 50
139.9171003355292
 51
145.0828996644763
 73
     1
 72
     1
 10
3.16609229155766
 20
2.475504750004468
 11
2.255092346713423
 21
3.001470813392031
 72
     1
 10
2.255092346713423
 20
3.001470813392031
 11
2.210092346713409
 21
2.923528527051411
 72
     1
 10
2.210092346713409
 20
2.923528527051411
 11
3.121092291557658
 21
2.397562463663855
 72
     2
 10
3.596582357673951
 20
2.174999670221821
 40
0.5250000000000004
 50
154.9171003355413
 51
160.0828996644799
 73
     1
 72
     1
 10
3.102984447053529
 20
2.353846259876624
 11
2.594007097100015
 21
2.490226329762414
 72
     1
 10
2.594007097100015
 20
2.490226329762414
 11
2.570713383040795
 21
2.403293005396399
 72
     1
 10
2.570713383040795
 20
2.403293005396399
 11
3.079690732994305
 21
2.266912935510625
 72
     2
 10
3.596582357673938
 20
2.174999670221793
 40
0.5250000000000023
 50
169.9171003355323
 51
175.082899664478
 73
     1
 72
     1
 10
3.073514484449046
 20
2.219999670221731
 11
2.021582357673934
 21
2.219999670221731
 72
     1
 10
2.021582357673934
 20
2.219999670221731
 11
2.021582357673921
 21
2.129999670221712
 72
     1
 10
2.021582357673921
 20
2.129999670221712
 11
3.073514484449046
 21
2.129999670221712
 72
     2
 10
3.596582357673923
 20
2.174999670221793
 40
0.5250000000000008
 50
184.9171003355375
 51
190.0828996644756
 73
     1
 72
     1
 10
3.079690732994305
 20
2.08308640493289
 11
2.57071338304078
 21
1.946706335047124
 72
     1
 10
2.57071338304078
 20
1.946706335047124
 11
2.594007097100015
 21
1.859773010681109
 72
     1
 10
2.594007097100015
 20
1.859773010681109
 11
3.102984447053529
 21
1.996153080566888
 72
     2
 10
3.596582357673938
 20
2.174999670221716
 40
0.5249999999999945
 50
199.9171003355228
 51
205.0828996644685
 73
     1
 72
     1
 10
3.121092291557686
 20
1.9524368767796
 11
2.210092346713451
 21
1.426470813392043
 72
     1
 10
2.210092346713451
 20
1.426470813392043
 11
2.255092346713453
 21
1.348528527051428
 72
     1
 10
2.255092346713453
 20
1.348528527051428
 11
3.166092291557703
 21
1.874494590438985
 72
     2
 10
3.596582357673892
 20
2.174999670221793
 40
0.5249999999999963
 50
214.9171003355383
 51
220.0828996644764
 73
     1
 72
     1
 10
3.194897712342395
 20
1.836954635197017
 11
2.822300432274643
 21
1.464357355129284
 72
     1
 10
2.822300432274643
 20
1.464357355129284
 11
2.885940042581437
 21
1.4007177448225
 72
     1
 10
2.885940042581437
 20
1.4007177448225
 11
3.258537322649161
 21
1.773315024890236
 72
     2
 10
3.596582357673852
 20
2.174999670221821
 40
0.5250000000000064
 50
229.9171003355368
 51
235.0828996644832
 73
     1
 72
     1
 10
3.2960772778912
 20
1.744509604105504
 11
2.770111214503642
 21
0.833509659261267
 72
     1
 10
2.770111214503642
 20
0.833509659261267
 11
2.848053500844258
 21
0.7885096592612584
 72
     1
 10
2.848053500844258
 20
0.7885096592612584
 11
3.374019564231814
 21
1.699509604105499
 72
     2
 10
3.596582357673923
 20
2.174999670221758
 40
0.5249999999999983
 50
244.9171003355326
 51
250.0828996644691
 73
     1
 72
     1
 10
3.417735768019028
 20
1.681401759601371
 11
3.281355698133253
 21
1.172424409647849
 72
     1
 10
3.281355698133253
 20
1.172424409647849
 11
3.368289022499268
 21
1.149130695588629
 72
     1
 10
3.368289022499268
 20
1.149130695588629
 11
3.504669092385041
 21
1.65810804554214
 72
     2
 10
3.59658235767388
 20
2.174999670221763
 40
0.5249999999999968
 50
259.9171003355314
 51
265.0828996644772
 73
     1
 72
     1
 10
3.551582357673936
 20
1.651931796996883
 11
3.55158235767395
 21
0.5999996702217702
 72
     1
 10
3.55158235767395
 20
0.5999996702217702
 11
3.641582357673953
 21
0.599999670221763
 72
     1
 10
3.641582357673953
 20
0.599999670221763
 11
3.641582357673966
 21
1.651931796996883
 72
     2
 10
3.596582357673866
 20
2.174999670221751
 40
0.5249999999999956
 50
274.9171003355399
 51
280.0828996644765
 73
     1
 72
     1
 10
3.688495622962776
 20
1.65810804554214
 11
3.82487569284855
 21
1.149130695588616
 72
     1
 10
3.82487569284855
 20
1.149130695588616
 11
3.911809017214562
 21
1.172424409647849
 72
     1
 10
3.911809017214562
 20
1.172424409647849
 11
3.775428947328776
 21
1.681401759601357
 72
     2
 10
3.596582357673923
 20
2.174999670221751
 40
0.5249999999999908
 50
289.9171003355263
 51
295.0828996644729
 73
     1
 72
     1
 10
3.819145151116073
 20
1.699509604105521
 11
4.345111214503631
 21
0.7885096592612868
 72
     1
 10
4.345111214503631
 20
0.7885096592612868
 11
4.423053500844247
 21
0.8335096592612885
 72
     1
 10
4.423053500844247
 20
0.8335096592612885
 11
3.89708743745669
 21
1.744509604105537
 72
     2
 10
3.596582357673923
 20
2.174999670221763
 40
0.5250000000000009
 50
304.9171003355322
 51
310.0828996644697
 73
     1
 72
     1
 10
3.934627392698656
 20
1.773315024890223
 11
4.30722467276638
 21
1.400717744822485
 72
     1
 10
4.30722467276638
 20
1.400717744822485
 11
4.370864283073172
 21
1.464357355129273
 72
     1
 10
4.370864283073172
 20
1.464357355129273
 11
3.998267003005437
 21
1.836954635197002
 72
     2
 10
3.596582357673923
 20
2.174999670221763
 40
0.5249999999999974
 50
319.9171003355258
 51
325.0828996644723
 73
     1
 72
     1
 10
4.027072423790173
 20
1.874494590439034
 11
4.938072368634408
 21
1.348528527051485
 72
     1
 10
4.938072368634408
 20
1.348528527051485
 11
4.98307236863441
 21
1.4264708133921
 72
     1
 10
4.98307236863441
 20
1.4264708133921
 11
4.072072423790173
 21
1.952436876779657
 72
     2
 10
3.596582357673978
 20
2.174999670221879
 40
0.5249999999999884
 50
334.9171003355184
 51
340.0828996644563
 73
     1
 72
     1
 10
4.090180268294318
 20
1.996153080566875
 11
4.599157618247815
 21
1.859773010681093
 72
     1
 10
4.599157618247815
 20
1.859773010681093
 11
4.622451332307035
 21
1.946706335047115
 72
     1
 10
4.622451332307035
 20
1.946706335047115
 11
4.113473982353525
 21
2.083086404932878
 72
     2
 10
3.596582357673938
 20
2.174999670221863
 40
0.524999999999988
 50
349.9171003355147
 51
355.0828996644615
 73
     1
 72
     1
 10
4.119650230898797
 20
2.129999670221778
 11
5.611922473732248
 21
2.129999670221771
 72
     1
 10
5.611922473732248
 20
2.129999670221771
 11
6.581870925970846
 21
0.4499996702217146
 72
     1
 10
6.581870925970846
 20
0.4499996702217146
 11
0.6112937893769299
 21
0.4499996702218283
 97
        0
 75
     0
 76
     1
 98
        1
 10
-68.02842167199378
 20
-49.20432885423361
1001
GENIUS_GENOBJ-N-HTC_13
1002
{
1000
OWNER
1000
GEN
1002
}
1001
GENIUS_GENODEF_13
1002
{
1000
HIER
1070
     0
1002
}
1002
{
1000
MANEDIT
1070
     0
1002
}
1002
{
1000
NOSEL
1070
     0
1002
}
1002
{
1000
BEHIND
1070
     0
1002
}
1002
{
1000
OTHER
1070
     0
1002
}
1002
{
1000
REACTOR
1002
}
1001
GENIUS_GENHATCH_13
1002
{
1000
DATA
1040
45.0
1042
2.5
1000
_U
1070
     0
1011
3.602868472264616
1021
2.229619591833396
1031
0.0
1002
}
1002
{
1000
UCS
1010
0.0
1020
0.0
1030
0.0
1010
1.0
1020
0.0
1030
0.0
1010
0.0
1020
1.0
1030
0.0
1002
}
  0
INSERT
  5
2C6
330
2C3
100
AcDbEntity
  8
0
100
AcDbBlockReference
  2
A$C1A4D5635
 10
-0.0021850771616982
 20
-0.0000003620964435
 30
0.0
 41
0.2999999999999971
 42
0.2999999999999971
 43
0.3
  0
ENDBLK
  5
2C7
330
2C3
100
AcDbEntity
  8
0
100
AcDbBlockEnd
  0
ENDSEC
  0
SECTION
  2
ENTITIES
  0
LINE
  5
5F1
330
1F
100
AcDbEntity
  8
0
100
AcDbLine
 10
9.103883997764112
 20
120.9644235085087
 30
0.0
 11
50.10388399776335
 21
120.9644235085086
 31
0.0
1001
GENIUS_GENODEF_13
1002
{
1000
HIER
1070
     0
1002
}
1002
{
1000
MANEDIT
1070
     0
1002
}
1002
{
1000
NOSEL
1070
     0
1002
}
1002
{
1000
BEHIND
1070
     0
1002
}
1002
{
1000
REACTOR
1002
}
1001
GENIUS_GENOBJ-N-CEN_13
1002
{
1000
OWNER
1000
GEN
1002
}
  0
ARC
  5
5F2
330
1F
100
AcDbEntity
  8
0
100
AcDbCircle
 10
36.10388399776333
 20
143.9043754315582
 30
0.0
 40
14.0
100
AcDbArc
 50
0.0
 51
80.15097308936454
1001
GENIUS_GENODEF_13
1002
{
1000
HIER
1070
     0
1002
}
1002
{
1000
MANEDIT
1070
     0
1002
}
1002
{
1000
NOSEL
1070
     0
1002
}
1002
{
1000
BEHIND
1070
     0
1002
}
1002
{
1000
REACTOR
1002
}
1001
GENIUS_GENOBJ-N-FIL_13
1002
{
1000
OWNER
1000
GEN
1002
}
  0
ARC
  5
5F3
330
1F
100
AcDbEntity
  8
0
100
AcDbCircle
 10
36.10388399776333
 20
143.9043754315582
 30
0.0
 40
12.0
100
AcDbArc
 50
0.0
 51
80.15097308936454
1001
GENIUS_GENODEF_13
1002
{
1000
HIER
1070
     0
1002
}
1002
{
1000
MANEDIT
1070
     0
1002
}
1002
{
1000
NOSEL
1070
     0
1002
}
1002
{
1000
BEHIND
1070
     0
1002
}
1002
{
1000
REACTOR
1002
}
1001
GENIUS_GENOBJ-N-FIL_13
1002
{
1000
OWNER
1000
GEN
1002
}
  0
ARC
  5
5F4
330
1F
100
AcDbEntity
  8
0
100
AcDbCircle
 10
38.60439819658122
 20
147.4886936928378
 30
0.0
 40
18.0
100
AcDbArc
 50
3.690434494568154
 51
77.62565673863491
1001
GENIUS_GENODEF_13
1002
{
1000
HIER
1070
     0
1002
}
1002
{
1000
MANEDIT
1070
     0
1002
}
1002
{
1000
NOSEL
1070
     0
1002
}
1002
{
1000
BEHIND
1070
     0
1002
}
1002
{
1000
REACTOR
1002
}
1001
GENIUS_GENOBJ-N-FIL_13
1002
{
1000
OWNER
1000
GEN
1002
}
  0
ARC
  5
5F5
330
1F
100
AcDbEntity
  8
0
100
AcDbCircle
 10
35.48648822561623
 20
71.42869795198158
 30
0.0
 40
20.0
100
AcDbArc
 50
312.9860952101507
 51
354.616337705032
1001
GENIUS_GENODEF_13
1002
{
1000
HIER
1070
     0
1002
}
1002
{
1000
MANEDIT
1070
     0
1002
}
1002
{
1000
NOSEL
1070
     0
1002
}
1002
{
1000
BEHIND
1070
     0
1002
}
1002
{
1000
REACTOR
1002
}
1001
GENIUS_GENOBJ-N-FIL_13
1002
{
1000
OWNER
1000
GEN
1002
}
  0
ARC
  5
5F6
330
1F
100
AcDbEntity
  8
0
100
AcDbCircle
 10
-449.8961160022367
 20
98.46442350850869
 30
0.0
 40
500.0
100
AcDbArc
 50
355.065442706635
 51
0.0
  0
ARC
  5
5F7
330
1F
100
AcDbEntity
  8
0
100
AcDbCircle
 10
501.6038839977603
 20
116.4644235085086
 30
0.0
 40
500.0
100
AcDbArc
 50
176.3095655054318
 51
185.3836622949679
  0
ARC
  5
5F8
330
1F
100
AcDbEntity
  8
0
100
AcDbCircle
 10
509.1038839977668
 20
98.46442350856689
 30
0.0
 40
500.0
100
AcDbArc
 50
180.0000000000065
 51
184.9345572933724
  0
ARC
  5
5F9
330
1F
100
AcDbEntity
  8
0
100
AcDbCircle
 10
509.1038839977668
 20
98.46442350856689
 30
0.0
 40
498.3999999999999
100
AcDbArc
 50
180.0000000000065
 51
184.9345572933724
  0
ARC
  5
5FA
330
1F
100
AcDbEntity
  8
0
100
AcDbCircle
 10
-449.8961160022367
 20
98.46442350850869
 30
0.0
 40
498.3999999999999
100
AcDbArc
 50
355.065442706635
 51
0.0
  0
ARC
  5
5FB
330
1F
100
AcDbEntity
  8
0
100
AcDbCircle
 10
29.60388399776034
 20
108.4644235085088
 30
0.0
 40
60.0
100
AcDbArc
 50
256.4312596275591
 51
283.5687403724559
  0
ARC
  5
5FC
330
1F
100
AcDbEntity
  8
0
100
AcDbCircle
 10
29.60388399776034
 20
108.4644235085088
 30
0.0
 40
58.39999999999999
100
AcDbArc
 50
256.4312596275591
 51
283.5687403724559
  0
ARC
  5
5FD
330
1F
100
AcDbEntity
  8
0
100
AcDbCircle
 10
23.72127976990514
 20
71.42869795198149
 30
0.0
 40
20.0
100
AcDbArc
 50
185.383662294967
 51
227.0139047899049
1001
GENIUS_GENODEF_13
1002
{
1000
HIER
1070
     0
1002
}
1002
{
1000
MANEDIT
1070
     0
1002
}
1002
{
1000
NOSEL
1070
     0
1002
}
1002
{
1000
BEHIND
1070
     0
1002
}
1002
{
1000
REACTOR
1002
}
1001
GENIUS_GENOBJ-N-FIL_13
1002
{
1000
OWNER
1000
GEN
1002
}
  0
ARC
  5
5FE
330
1F
100
AcDbEntity
  8
0
100
AcDbCircle
 10
16.93484721237274
 20
55.97160964860517
 30
0.0
 40
4.4
100
AcDbArc
 50
184.9345572933707
 51
256.4312596275591
1001
GENIUS_GENODEF_13
1002
{
1000
HIER
1070
     0
1002
}
1002
{
1000
MANEDIT
1070
     0
1002
}
1002
{
1000
NOSEL
1070
     0
1002
}
1002
{
1000
BEHIND
1070
     0
1002
}
1002
{
1000
REACTOR
1002
}
1001
GENIUS_GENOBJ-N-FIL_13
1002
{
1000
OWNER
1000
GEN
1002
}
  0
ARC
  5
5FF
330
1F
100
AcDbEntity
  8
0
100
AcDbCircle
 10
16.93484721237274
 20
55.97160964860517
 30
0.0
 40
6.0
100
AcDbArc
 50
184.9345572933707
 51
256.4312596275591
1001
GENIUS_GENODEF_13
1002
{
1000
HIER
1070
     0
1002
}
1002
{
1000
MANEDIT
1070
     0
1002
}
1002
{
1000
NOSEL
1070
     0
1002
}
1002
{
1000
BEHIND
1070
     0
1002
}
1002
{
1000
REACTOR
1002
}
1001
GENIUS_GENOBJ-N-FIL_13
1002
{
1000
OWNER
1000
GEN
1002
}
  0
ARC
  5
600
330
1F
100
AcDbEntity
  8
0
100
AcDbCircle
 10
8.039400176855451
 20
54.6037565723186
 30
0.0
 40
3.0
100
AcDbArc
 50
8.741900973271544
 51
47.01390478990489
1001
GENIUS_GENODEF_13
1002
{
1000
HIER
1070
     0
1002
}
1002
{
1000
MANEDIT
1070
     0
1002
}
1002
{
1000
NOSEL
1070
     0
1002
}
1002
{
1000
BEHIND
1070
     0
1002
}
1002
{
1000
REACTOR
1002
}
1001
GENIUS_GENOBJ-N-FIL_13
1002
{
1000
OWNER
1000
GEN
1002
}
  0
ARC
  5
601
330
1F
100
AcDbEntity
  8
0
100
AcDbCircle
 10
42.27292078316271
 20
55.97160964860877
 30
0.0
 40
6.0
100
AcDbArc
 50
283.5687403724559
 51
355.0654427066317
1001
GENIUS_GENODEF_13
1002
{
1000
HIER
1070
     0
1002
}
1002
{
1000
MANEDIT
1070
     0
1002
}
1002
{
1000
NOSEL
1070
     0
1002
}
1002
{
1000
BEHIND
1070
     0
1002
}
1002
{
1000
REACTOR
1002
}
1001
GENIUS_GENOBJ-N-FIL_13
1002
{
1000
OWNER
1000
GEN
1002
}
  0
ARC
  5
602
330
1F
100
AcDbEntity
  8
0
100
AcDbCircle
 10
42.27292078316271
 20
55.97160964860877
 30
0.0
 40
4.4
100
AcDbArc
 50
283.5687403724559
 51
355.0654427066317
1001
GENIUS_GENODEF_13
1002
{
1000
HIER
1070
     0
1002
}
1002
{
1000
MANEDIT
1070
     0
1002
}
1002
{
1000
NOSEL
1070
     0
1002
}
1002
{
1000
BEHIND
1070
     0
1002
}
1002
{
1000
REACTOR
1002
}
1001
GENIUS_GENOBJ-N-FIL_13
1002
{
1000
OWNER
1000
GEN
1002
}
  0
ARC
  5
603
330
1F
100
AcDbEntity
  8
0
100
AcDbCircle
 10
51.16836781868184
 20
54.60375657233349
 30
0.0
 40
3.0
100
AcDbArc
 50
132.9860952101507
 51
171.2580990268017
1001
GENIUS_GENODEF_13
1002
{
1000
HIER
1070
     0
1002
}
1002
{
1000
MANEDIT
1070
     0
1002
}
1002
{
1000
NOSEL
1070
     0
1002
}
1002
{
1000
BEHIND
1070
     0
1002
}
1002
{
1000
REACTOR
1002
}
1001
GENIUS_GENOBJ-N-FIL_13
1002
{
1000
OWNER
1000
GEN
1002
}
  0
ARC
  5
604
330
1F
100
AcDbEntity
  8
0
100
AcDbCircle
 10
29.60388399776093
 20
106.4644235085086
 30
0.0
 40
60.0
100
AcDbArc
 50
77.62565673863491
 51
102.374343261365
  0
ARC
  5
605
330
1F
100
AcDbEntity
  8
0
100
AcDbCircle
 10
29.60388399777015
 20
106.4644235085109
 30
0.0
 40
52.0
100
AcDbArc
 50
80.15097308936454
 51
99.84902691065521
  0
ARC
  5
606
330
1F
100
AcDbEntity
  8
0
100
AcDbCircle
 10
29.60388399777015
 20
106.4644235085109
 30
0.0
 40
50.0
100
AcDbArc
 50
80.15097308936454
 51
99.84902691065521
  0
LINE
  5
607
330
1F
100
AcDbEntity
  8
0
100
AcDbLine
 10
9.103883997764112
 20
98.46442350850878
 30
0.0
 11
9.103883997764112
 21
143.9043754315559
 31
0.0
  0
LINE
  5
608
330
1F
100
AcDbEntity
  8
0
100
AcDbLine
 10
11.10388399776411
 20
122.2394427689204
 30
0.0
 11
11.10388399776411
 21
143.9043754315559
 31
0.0
  0
LINE
  5
609
330
1F
100
AcDbEntity
  8
0
100
AcDbLine
 10
10.70388399776414
 20
98.46442350850878
 30
0.0
 11
10.70388399776414
 21
120.9644235085087
 31
0.0
  0
ARC
  5
60A
330
1F
100
AcDbEntity
  8
0
100
AcDbCircle
 10
23.10388399776413
 20
143.9043754315559
 30
0.0
 40
14.0
100
AcDbArc
 50
99.84902691065521
 51
180.0
1001
GENIUS_GENODEF_13
1002
{
1000
HIER
1070
     0
1002
}
1002
{
1000
MANEDIT
1070
     0
1002
}
1002
{
1000
NOSEL
1070
     0
1002
}
1002
{
1000
BEHIND
1070
     0
1002
}
1002
{
1000
REACTOR
1002
}
1001
GENIUS_GENOBJ-N-FIL_13
1002
{
1000
OWNER
1000
GEN
1002
}
  0
ARC
  5
60B
330
1F
100
AcDbEntity
  8
0
100
AcDbCircle
 10
20.60336979894002
 20
147.4886936928377
 30
0.0
 40
18.0
100
AcDbArc
 50
102.374343261365
 51
176.3095655054318
1001
GENIUS_GENODEF_13
1002
{
1000
HIER
1070
     0
1002
}
1002
{
1000
MANEDIT
1070
     0
1002
}
1002
{
1000
NOSEL
1070
     0
1002
}
1002
{
1000
BEHIND
1070
     0
1002
}
1002
{
1000
REACTOR
1002
}
1001
GENIUS_GENOBJ-N-FIL_13
1002
{
1000
OWNER
1000
GEN
1002
}
  0
ARC
  5
60C
330
1F
100
AcDbEntity
  8
0
100
AcDbCircle
 10
23.10388399776413
 20
143.9043754315559
 30
0.0
 40
12.0
100
AcDbArc
 50
99.84902691065521
 51
180.0
1001
GENIUS_GENODEF_13
1002
{
1000
HIER
1070
     0
1002
}
1002
{
1000
MANEDIT
1070
     0
1002
}
1002
{
1000
NOSEL
1070
     0
1002
}
1002
{
1000
BEHIND
1070
     0
1002
}
1002
{
1000
REACTOR
1002
}
1001
GENIUS_GENOBJ-N-FIL_13
1002
{
1000
OWNER
1000
GEN
1002
}
  0
LINE
  5
60D
330
1F
100
AcDbEntity
  8
0
100
AcDbLine
 10
48.10388399776335
 20
122.2394427689204
 30
0.0
 11
48.10388399776335
 21
143.9043754315582
 31
0.0
  0
LINE
  5
60E
330
1F
100
AcDbEntity
  8
0
100
AcDbLine
 10
48.50388399776331
 20
98.46442350850869
 30
0.0
 11
48.50388399776331
 21
120.9644235085086
 31
0.0
  0
LINE
  5
60F
330
1F
100
AcDbEntity
  8
0
100
AcDbLine
 10
116.1038839977606
 20
129.4644235085085
 30
0.0
 11
116.103883997761
 21
73.46442350850847
 31
0.0
1001
GENIUS_GENODEF_13
1002
{
1000
HIER
1070
     0
1002
}
1002
{
1000
MANEDIT
1070
     0
1002
}
1002
{
1000
NOSEL
1070
     0
1002
}
1002
{
1000
BEHIND
1070
     0
1002
}
1002
{
1000
REACTOR
1002
}
1001
GENIUS_GENOBJ-N-CEN_13
1002
{
1000
OWNER
1000
GEN
1002
}
  0
LINE
  5
610
330
1F
100
AcDbEntity
  8
0
100
AcDbLine
 10
110.0838839977604
 20
48.46442350850878
 30
0.0
 11
110.0838839977604
 21
158.4836908601558
 31
0.0
  0
LINE
  5
611
330
1F
100
AcDbEntity
  8
0
100
AcDbLine
 10
111.4339142349042
 20
160.7453169621544
 30
0.0
 11
111.433914234904
 21
49.66442350850861
 31
0.0
  0
ARC
  5
612
330
1F
100
AcDbEntity
  8
0
100
AcDbCircle
 10
-442.3961160022391
 20
116.4644235085086
 30
0.0
 40
500.0
100
AcDbArc
 50
354.616337705032
 51
3.690434494568154
  0
LINE
  5
613
330
1F
100
AcDbEntity
  8
0
100
AcDbLine
 10
117.6038839977558
 20
47.66442350850877
 30
0.0
 11
117.6038839977565
 21
70.59214218524179
 31
0.0
  0
LINE
  5
614
330
1F
100
AcDbEntity
  8
0
100
AcDbLine
 10
109.6038839977604
 20
48.46442350850878
 30
0.0
 11
117.6038839977604
 21
48.46442350850878
 31
0.0
  0
LINE
  5
615
330
1F
100
AcDbEntity
  8
0
100
AcDbLine
 10
111.433914234904
 20
56.04948899627167
 30
0.0
 11
117.603883997756
 21
56.04948899627167
 31
0.0
  0
LINE
  5
616
330
1F
100
AcDbEntity
  8
0
100
AcDbLine
 10
50.10388399776335
 20
98.46442350850869
 30
0.0
 11
50.10388399776335
 21
143.9043754315582
 31
0.0
  0
LINE
  5
617
330
1F
100
AcDbEntity
  8
0
100
AcDbLine
 10
117.603883997759
 20
132.3367048317769
 30
0.0
 11
117.6038839977605
 21
167.2644235085087
 31
0.0
  0
LINE
  5
618
330
1F
100
AcDbEntity
  8
0
100
AcDbLine
 10
103.6038839977604
 20
137.4644235085092
 30
0.0
 11
103.6038839977604
 21
120.9644235085085
 31
0.0
  0
LINE
  5
619
330
1F
100
AcDbEntity
  8
0
100
AcDbLine
 10
105.1527135746209
 20
153.9644235085086
 30
0.0
 11
105.1527135746209
 21
122.2394427689208
 31
0.0
  0
LINE
  5
61A
330
1F
100
AcDbEntity
  8
0
100
AcDbLine
 10
103.6038839977604
 20
120.9644235085085
 30
0.0
 11
110.0838839977604
 21
120.9644235085085
 31
0.0
  0
LINE
  5
61B
330
1F
100
AcDbEntity
  8
0
100
AcDbLine
 10
116.1038839977604
 20
120.7644235085105
 30
0.0
 11
116.1038839977604
 21
93.7644235085057
 31
0.0
1001
GENIUS_GENODEF_13
1002
{
1000
HIER
1070
     0
1002
}
1002
{
1000
MANEDIT
1070
     0
1002
}
1002
{
1000
NOSEL
1070
     0
1002
}
1002
{
1000
BEHIND
1070
     0
1002
}
1002
{
1000
REACTOR
1002
}
1001
GENIUS_GENOBJ-N-CEN_13
1002
{
1000
OWNER
1000
GEN
1002
}
  0
LINE
  5
61C
330
1F
100
AcDbEntity
  8
0
100
AcDbLine
 10
116.1038839977604
 20
93.7644235085057
 30
0.0
 11
116.1038839977575
 21
93.7644235085057
 31
0.0
  0
ARC
  5
61D
330
1F
100
AcDbEntity
  8
0
100
AcDbCircle
 10
106.8941365370003
 20
156.9644235085086
 30
0.0
 40
2.0
100
AcDbArc
 50
90.0
 51
172.4288796213552
1001
GENIUS_GENODEF_13
1002
{
1000
HIER
1070
     0
1002
}
1002
{
1000
MANEDIT
1070
     0
1002
}
1002
{
1000
NOSEL
1070
     0
1002
}
1002
{
1000
BEHIND
1070
     0
1002
}
1002
{
1000
REACTOR
1002
}
1001
GENIUS_GENOBJ-N-FIL_13
1002
{
1000
OWNER
1000
GEN
1002
}
  0
ARC
  5
61E
330
1F
100
AcDbEntity
  8
0
100
AcDbCircle
 10
253.6038839977604
 20
137.4644235085091
 30
0.0
 40
150.0
100
AcDbArc
 50
172.4288796213552
 51
180.0
  0
ARC
  5
61F
330
1F
100
AcDbEntity
  8
0
100
AcDbCircle
 10
116.4525561812394
 20
160.4644235085086
 30
0.0
 40
6.0
100
AcDbArc
 50
90.0
 51
170.8092266205617
1001
GENIUS_GENODEF_13
1002
{
1000
HIER
1070
     0
1002
}
1002
{
1000
MANEDIT
1070
     0
1002
}
1002
{
1000
NOSEL
1070
     0
1002
}
1002
{
1000
BEHIND
1070
     0
1002
}
1002
{
1000
REACTOR
1002
}
1001
GENIUS_GENOBJ-N-FIL_13
1002
{
1000
OWNER
1000
GEN
1002
}
  0
LINE
  5
620
330
1F
100
AcDbEntity
  8
0
100
AcDbLine
 10
110.1527135746209
 20
158.9644235085087
 30
0.0
 11
106.8941365370003
 21
158.9644235085087
 31
0.0
  0
ARC
  5
621
330
1F
100
AcDbEntity
  8
0
100
AcDbCircle
 10
258.6038839977605
 20
137.4644235085091
 30
0.0
 40
150.0
100
AcDbArc
 50
170.8092266205617
 51
171.9447208965013
  0
LINE
  5
622
330
1F
100
AcDbEntity
  8
0
100
AcDbLine
 10
117.6038839977604
 20
166.4644235085086
 30
0.0
 11
116.4525561812394
 21
166.4644235085086
 31
0.0
  0
ARC
  5
623
330
1F
100
AcDbEntity
  8
0
100
AcDbCircle
 10
124.6038839977612
 20
56.46442350850858
 30
0.0
 40
8.0
100
AcDbArc
 50
270.0
 51
0.0000000000004071
1001
GENIUS_GENODEF_13
1002
{
1000
HIER
1070
     0
1002
}
1002
{
1000
MANEDIT
1070
     0
1002
}
1002
{
1000
NOSEL
1070
     0
1002
}
1002
{
1000
BEHIND
1070
     0
1002
}
1002
{
1000
REACTOR
1002
}
1001
GENIUS_GENOBJ-N-FIL_13
1002
{
1000
OWNER
1000
GEN
1002
}
  0
LINE
  5
624
330
1F
100
AcDbEntity
  8
0
100
AcDbLine
 10
124.6038839977613
 20
48.46442350850847
 30
0.0
 11
121.6038839977613
 21
48.46442350850847
 31
0.0
  0
LINE
  5
625
330
1F
100
AcDbEntity
  8
0
100
AcDbLine
 10
121.6038839977613
 20
167.2644235085087
 30
0.0
 11
121.6038839977613
 21
132.3367048317772
 31
0.0
1001
GENIUS_GENODEF_13
1002
{
1000
HIER
1070
     0
1002
}
1002
{
1000
MANEDIT
1070
     0
1002
}
1002
{
1000
NOSEL
1070
     0
1002
}
1002
{
1000
BEHIND
1070
     0
1002
}
1002
{
1000
REACTOR
1002
}
1001
GENIUS_GENOBJ-N-CEN_13
1002
{
1000
OWNER
1000
GEN
1002
}
  0
LINE
  5
626
330
1F
100
AcDbEntity
  8
0
100
AcDbLine
 10
132.6038839977605
 20
153.9644235085086
 30
0.0
 11
132.6038839977612
 21
56.46442350850858
 31
0.0
  0
LINE
  5
627
330
1F
100
AcDbEntity
  8
0
100
AcDbLine
 10
132.8838839977608
 20
114.4644235085088
 30
0.0
 11
132.8838839977609
 21
109.4644235085087
 31
0.0
  0
ARC
  5
628
330
1F
100
AcDbEntity
  8
0
100
AcDbCircle
 10
132.3838839977609
 20
109.4644235085087
 30
0.0
 40
0.5
100
AcDbArc
 50
296.1038811373143
 51
0.0000000000012213
1001
GENIUS_GENODEF_13
1002
{
1000
HIER
1070
     0
1002
}
1002
{
1000
MANEDIT
1070
     0
1002
}
1002
{
1000
NOSEL
1070
     0
1002
}
1002
{
1000
BEHIND
1070
     0
1002
}
1002
{
1000
REACTOR
1002
}
1001
GENIUS_GENOBJ-N-FIL_13
1002
{
1000
OWNER
1000
GEN
1002
}
  0
ARC
  5
629
330
1F
100
AcDbEntity
  8
0
100
AcDbCircle
 10
132.3838839977608
 20
114.4644235085088
 30
0.0
 40
0.5
100
AcDbArc
 50
0.0000000000012213
 51
63.89611886266388
1001
GENIUS_GENODEF_13
1002
{
1000
HIER
1070
     0
1002
}
1002
{
1000
MANEDIT
1070
     0
1002
}
1002
{
1000
NOSEL
1070
     0
1002
}
1002
{
1000
BEHIND
1070
     0
1002
}
1002
{
1000
REACTOR
1002
}
1001
GENIUS_GENOBJ-N-FIL_13
1002
{
1000
OWNER
1000
GEN
1002
}
  0
LINE
  5
62A
330
1F
100
AcDbEntity
  8
0
100
AcDbLine
 10
124.6038839977604
 20
166.4644235085086
 30
0.0
 11
121.6038839977604
 21
166.4644235085086
 31
0.0
  0
LINE
  5
62B
330
1F
100
AcDbEntity
  8
0
100
AcDbLine
 10
130.6038839977604
 20
160.4644235085086
 30
0.0
 11
130.6038839977607
 21
62.06304449449389
 31
0.0
  0
ARC
  5
62C
330
1F
100
AcDbEntity
  8
0
100
AcDbCircle
 10
130.6038839977605
 20
153.9644235085086
 30
0.0
 40
2.0
100
AcDbArc
 50
0.0000000000004071
 51
90.0
1001
GENIUS_GENODEF_13
1002
{
1000
HIER
1070
     0
1002
}
1002
{
1000
MANEDIT
1070
     0
1002
}
1002
{
1000
NOSEL
1070
     0
1002
}
1002
{
1000
BEHIND
1070
     0
1002
}
1002
{
1000
REACTOR
1002
}
1001
GENIUS_GENOBJ-N-FIL_13
1002
{
1000
OWNER
1000
GEN
1002
}
  0
LINE
  5
62D
330
1F
100
AcDbEntity
  8
0
100
AcDbLine
 10
130.6038839977605
 20
155.9644235085086
 30
0.0
 11
130.6038839977605
 21
155.9644235085086
 31
0.0
  0
LINE
  5
62E
330
1F
100
AcDbEntity
  8
0
100
AcDbLine
 10
121.6038839977613
 20
56.06304449449377
 30
0.0
 11
124.6038839977605
 21
56.06304449449377
 31
0.0
  0
LINE
  5
62F
330
1F
100
AcDbEntity
  8
0
100
AcDbLine
 10
123.1038839977608
 20
129.4644235085086
 30
0.0
 11
123.1038839977612
 21
73.4644235085086
 31
0.0
1001
GENIUS_GENODEF_13
1002
{
1000
HIER
1070
     0
1002
}
1002
{
1000
MANEDIT
1070
     0
1002
}
1002
{
1000
NOSEL
1070
     0
1002
}
1002
{
1000
BEHIND
1070
     0
1002
}
1002
{
1000
REACTOR
1002
}
1001
GENIUS_GENOBJ-N-CEN_13
1002
{
1000
OWNER
1000
GEN
1002
}
  0
LINE
  5
630
330
1F
100
AcDbEntity
  8
0
100
AcDbLine
 10
121.6038839977613
 20
70.59214218523959
 30
0.0
 11
121.6038839977613
 21
47.66442350850877
 31
0.0
1001
GENIUS_GENODEF_13
1002
{
1000
HIER
1070
     0
1002
}
1002
{
1000
MANEDIT
1070
     0
1002
}
1002
{
1000
NOSEL
1070
     0
1002
}
1002
{
1000
BEHIND
1070
     0
1002
}
1002
{
1000
REACTOR
1002
}
1001
GENIUS_GENOBJ-N-CEN_13
1002
{
1000
OWNER
1000
GEN
1002
}
  0
LINE
  5
631
330
1F
100
AcDbEntity
  8
0
100
AcDbLine
 10
125.6038839977604
 20
165.4644235085086
 30
0.0
 11
125.6038839977605
 21
57.06304449449376
 31
0.0
  0
ARC
  5
632
330
1F
100
AcDbEntity
  8
0
100
AcDbCircle
 10
183.7212797699051
 20
71.42869795198141
 30
0.0
 40
20.0
100
AcDbArc
 50
185.383662294967
 51
227.0139047898663
1001
GENIUS_GENODEF_13
1002
{
1000
HIER
1070
     0
1002
}
1002
{
1000
MANEDIT
1070
     0
1002
}
1002
{
1000
NOSEL
1070
     0
1002
}
1002
{
1000
BEHIND
1070
     0
1002
}
1002
{
1000
REACTOR
1002
}
1001
GENIUS_GENOBJ-N-FIL_13
1002
{
1000
OWNER
1000
GEN
1002
}
  0
ARC
  5
633
330
1F
100
AcDbEntity
  8
0
100
AcDbCircle
 10
661.6038839977605
 20
116.4644235085086
 30
0.0
 40
500.0
100
AcDbArc
 50
176.3095655054318
 51
185.3836622949679
  0
ARC
  5
634
330
1F
100
AcDbEntity
  8
0
100
AcDbCircle
 10
195.4864882256162
 20
71.42869795198149
 30
0.0
 40
20.0
100
AcDbArc
 50
312.9860952101107
 51
354.616337705032
1001
GENIUS_GENODEF_13
1002
{
1000
HIER
1070
     0
1002
}
1002
{
1000
MANEDIT
1070
     0
1002
}
1002
{
1000
NOSEL
1070
     0
1002
}
1002
{
1000
BEHIND
1070
     0
1002
}
1002
{
1000
REACTOR
1002
}
1001
GENIUS_GENOBJ-N-FIL_13
1002
{
1000
OWNER
1000
GEN
1002
}
  0
ARC
  5
635
330
1F
100
AcDbEntity
  8
0
100
AcDbCircle
 10
669.1038839977565
 20
98.46442350856708
 30
0.0
 40
500.0
100
AcDbArc
 50
180.0000000000065
 51
184.9345572933724
  0
ARC
  5
636
330
1F
100
AcDbEntity
  8
0
100
AcDbCircle
 10
-289.8961160022468
 20
98.46442350850887
 30
0.0
 40
500.0
100
AcDbArc
 50
355.0654427066342
 51
0.0
  0
ARC
  5
638
330
1F
100
AcDbEntity
  8
0
100
AcDbCircle
 10
176.9348472123624
 20
55.9716096486083
 30
0.0
 40
6.0
100
AcDbArc
 50
184.9345572933716
 51
256.4312596275441
1001
GENIUS_GENODEF_13
1002
{
1000
HIER
1070
     0
1002
}
1002
{
1000
MANEDIT
1070
     0
1002
}
1002
{
1000
NOSEL
1070
     0
1002
}
1002
{
1000
BEHIND
1070
     0
1002
}
1002
{
1000
REACTOR
1002
}
1001
GENIUS_GENOBJ-N-FIL_13
1002
{
1000
OWNER
1000
GEN
1002
}
  0
ARC
  5
639
330
1F
100
AcDbEntity
  8
0
100
AcDbCircle
 10
168.0394001768439
 20
54.60375657232927
 30
0.0
 40
3.0
100
AcDbArc
 50
8.741900973223753
 51
47.01390478986602
1001
GENIUS_GENODEF_13
1002
{
1000
HIER
1070
     0
1002
}
1002
{
1000
MANEDIT
1070
     0
1002
}
1002
{
1000
NOSEL
1070
     0
1002
}
1002
{
1000
BEHIND
1070
     0
1002
}
1002
{
1000
REACTOR
1002
}
1001
GENIUS_GENOBJ-N-FIL_13
1002
{
1000
OWNER
1000
GEN
1002
}
  0
LINE
  5
63A
330
1F
100
AcDbEntity
  8
0
100
AcDbLine
 10
187.8538839977676
 20
54.96442350850879
 30
0.0
 11
191.3538839977675
 21
54.9644235085089
 31
0.0
  0
ARC
  5
63C
330
1F
100
AcDbEntity
  8
0
100
AcDbCircle
 10
202.2729207831523
 20
55.9716096486056
 30
0.0
 40
6.0
100
AcDbArc
 50
283.5687403724423
 51
355.0654427066342
1001
GENIUS_GENODEF_13
1002
{
1000
HIER
1070
     0
1002
}
1002
{
1000
MANEDIT
1070
     0
1002
}
1002
{
1000
NOSEL
1070
     0
1002
}
1002
{
1000
BEHIND
1070
     0
1002
}
1002
{
1000
REACTOR
1002
}
1001
GENIUS_GENOBJ-N-FIL_13
1002
{
1000
OWNER
1000
GEN
1002
}
  0
ARC
  5
63D
330
1F
100
AcDbEntity
  8
0
100
AcDbCircle
 10
211.1683678186702
 20
54.60375657232259
 30
0.0
 40
3.0
100
AcDbArc
 50
132.9860952101106
 51
171.2580990267518
1001
GENIUS_GENODEF_13
1002
{
1000
HIER
1070
     0
1002
}
1002
{
1000
MANEDIT
1070
     0
1002
}
1002
{
1000
NOSEL
1070
     0
1002
}
1002
{
1000
BEHIND
1070
     0
1002
}
1002
{
1000
REACTOR
1002
}
1001
GENIUS_GENOBJ-N-FIL_13
1002
{
1000
OWNER
1000
GEN
1002
}
  0
ELLIPSE
  5
63F
330
1F
100
AcDbEntity
  8
0
100
AcDbEllipse
 10
181.6019984582288
 20
62.46939129782939
 30
0.0
 11
-2.09773433663198
 21
0.0000000000000448
 31
0.0
210
0.0
220
0.0
230
1.0
 40
0.5753333635477999
 41
3.859128061423152
 42
9.190159774811318
  0
ELLIPSE
  5
640
330
1F
100
AcDbEntity
  8
0
100
AcDbEllipse
 10
181.7454574156045
 20
62.46939129782939
 30
0.0
 11
1.321653064122584
 21
0.0000000000000004
 31
0.0
210
0.0
220
0.0
230
1.0
 40
0.6522657033973779
 41
0.331498499987813
 42
5.951686807191772
  0
ELLIPSE
  5
641
330
1F
100
AcDbEntity
  8
0
100
AcDbEllipse
 10
197.4353649787689
 20
62.46939129782939
 30
0.0
 11
2.068965517241366
 21
0.0
 31
0.0
210
0.0
220
0.0
230
1.0
 40
0.5833333335538823
 41
3.141592653589792
 42
6.283185307179584
  0
ELLIPSE
  5
642
330
1F
100
AcDbEntity
  8
0
100
AcDbEllipse
 10
197.4353981659757
 20
62.46939129782939
 30
0.0
 11
-1.14945847456305
 21
0.0000000000000006
 31
0.0
210
0.0
220
0.0
230
1.0
 40
0.7499783459728237
 41
0.0
 42
6.283185307179584
  0
ARC
  5
643
330
1F
100
AcDbEntity
  8
0
100
AcDbCircle
 10
-282.3961160022393
 20
116.4644235085086
 30
0.0
 40
500.0
100
AcDbArc
 50
354.616337705032
 51
3.690434494568154
  0
LINE
  5
644
330
1F
100
AcDbEntity
  8
0
100
AcDbLine
 10
210.1038839977531
 20
98.46442350850887
 30
0.0
 11
210.1038839977532
 21
143.5508661708985
 31
0.0
  0
LINE
  5
645
330
1F
100
AcDbEntity
  8
0
100
AcDbLine
 10
169.103883997754
 20
98.46442350850887
 30
0.0
 11
169.103883997754
 21
143.5508661708957
 31
0.0
  0
LINE
  5
646
330
1F
100
AcDbEntity
  8
0
100
AcDbLine
 10
171.103883997754
 20
143.5508661708957
 30
0.0
 11
171.103883997754
 21
102.4644235085109
 31
0.0
  0
LINE
  5
647
330
1F
100
AcDbEntity
  8
0
100
AcDbLine
 10
208.1038839977532
 20
143.5508661708985
 30
0.0
 11
208.1038839977532
 21
102.4644235085107
 31
0.0
  0
ARC
  5
648
330
1F
100
AcDbEntity
  8
0
100
AcDbCircle
 10
172.103883997754
 20
102.4644235085109
 30
0.0
 40
1.0
100
AcDbArc
 50
180.0
 51
270.0
1001
GENIUS_GENODEF_13
1002
{
1000
HIER
1070
     0
1002
}
1002
{
1000
MANEDIT
1070
     0
1002
}
1002
{
1000
NOSEL
1070
     0
1002
}
1002
{
1000
BEHIND
1070
     0
1002
}
1002
{
1000
REACTOR
1002
}
1001
GENIUS_GENOBJ-N-FIL_13
1002
{
1000
OWNER
1000
GEN
1002
}
  0
ARC
  5
649
330
1F
100
AcDbEntity
  8
0
100
AcDbCircle
 10
207.1038839977532
 20
102.4644235085107
 30
0.0
 40
1.0
100
AcDbArc
 50
270.0
 51
0.0
1001
GENIUS_GENODEF_13
1002
{
1000
HIER
1070
     0
1002
}
1002
{
1000
MANEDIT
1070
     0
1002
}
1002
{
1000
NOSEL
1070
     0
1002
}
1002
{
1000
BEHIND
1070
     0
1002
}
1002
{
1000
REACTOR
1002
}
1001
GENIUS_GENOBJ-N-FIL_13
1002
{
1000
OWNER
1000
GEN
1002
}
  0
LINE
  5
64A
330
1F
100
AcDbEntity
  8
0
100
AcDbLine
 10
194.7916868178494
 20
61.26249474610528
 30
0.0
 11
193.8262276297332
 21
61.26249474610528
 31
0.0
  0
LINE
  5
64B
330
1F
100
AcDbEntity
  8
0
100
AcDbLine
 10
207.1038839977532
 20
101.4644235085107
 30
0.0
 11
172.103883997754
 21
101.4644235085109
 31
0.0
  0
LINE
  5
64C
330
1F
100
AcDbEntity
  8
0
100
AcDbLine
 10
188.3549052086541
 20
61.26249474610528
 30
0.0
 11
186.5158247488839
 21
61.26249474610528
 31
0.0
  0
LINE
  5
64D
330
1F
100
AcDbEntity
  8
0
100
AcDbLine
 10
185.4238707258955
 20
62.26824187254209
 30
0.0
 11
186.9755948638264
 21
62.26824187254209
 31
0.0
  0
LINE
  5
64E
330
1F
100
AcDbEntity
  8
0
100
AcDbLine
 10
185.4238707258955
 20
62.67054072311679
 30
0.0
 11
186.9755948638264
 21
62.67054072311679
 31
0.0
  0
LINE
  5
64F
330
1F
100
AcDbEntity
  8
0
100
AcDbLine
 10
186.9755948638264
 20
63.3314602633467
 30
0.0
 11
186.5158247488839
 21
63.3314602633467
 31
0.0
  0
LINE
  5
650
330
1F
100
AcDbEntity
  8
0
100
AcDbLine
 10
186.9755948638264
 20
61.60732233231218
 30
0.0
 11
186.5158247488839
 21
61.60732233231218
 31
0.0
  0
LINE
  5
651
330
1F
100
AcDbEntity
  8
0
100
AcDbLine
 10
183.6422615304931
 20
62.74996052928189
 30
0.0
 11
182.9951540078604
 21
62.74996052928189
 31
0.0
  0
LINE
  5
652
330
1F
100
AcDbEntity
  8
0
100
AcDbLine
 10
183.6422615304931
 20
62.18882206637688
 30
0.0
 11
182.9951540078604
 21
62.18882206637688
 31
0.0
  0
LINE
  5
653
330
1F
100
AcDbEntity
  8
0
100
AcDbLine
 10
183.1824914155506
 20
63.6762878495536
 30
0.0
 11
183.1824914155506
 21
63.26296171800319
 31
0.0
  0
LINE
  5
654
330
1F
100
AcDbEntity
  8
0
100
AcDbLine
 10
183.6422615304931
 20
63.6762878495536
 30
0.0
 11
183.6422615304931
 21
62.74996052928189
 31
0.0
  0
LINE
  5
655
330
1F
100
AcDbEntity
  8
0
100
AcDbLine
 10
185.8836408408379
 20
61.26249474610528
 30
0.0
 11
184.0445603810678
 21
61.26249474610528
 31
0.0
  0
LINE
  5
656
330
1F
100
AcDbEntity
  8
0
100
AcDbLine
 10
184.5043304960103
 20
63.3314602633467
 30
0.0
 11
184.0445603810678
 21
63.3314602633467
 31
0.0
  0
LINE
  5
657
330
1F
100
AcDbEntity
  8
0
100
AcDbLine
 10
184.5043304960103
 20
61.60732233231218
 30
0.0
 11
184.0445603810678
 21
61.60732233231218
 31
0.0
  0
LINE
  5
658
330
1F
100
AcDbEntity
  8
0
100
AcDbLine
 10
184.0445603810678
 20
61.60732233231218
 30
0.0
 11
184.0445603810678
 21
61.26249474610528
 31
0.0
  0
LINE
  5
659
330
1F
100
AcDbEntity
  8
0
100
AcDbLine
 10
184.5043304960103
 20
63.3314602633467
 30
0.0
 11
184.5043304960103
 21
61.60732233231218
 31
0.0
  0
LINE
  5
65A
330
1F
100
AcDbEntity
  8
0
100
AcDbLine
 10
184.0445603810678
 20
63.6762878495536
 30
0.0
 11
184.0445603810678
 21
63.3314602633467
 31
0.0
  0
LINE
  5
65B
330
1F
100
AcDbEntity
  8
0
100
AcDbLine
 10
185.4238707258955
 20
62.26824187254209
 30
0.0
 11
185.4238707258955
 21
61.60732233231218
 31
0.0
  0
LINE
  5
65C
330
1F
100
AcDbEntity
  8
0
100
AcDbLine
 10
185.8836408408379
 20
63.3314602633467
 30
0.0
 11
185.4238707258955
 21
63.3314602633467
 31
0.0
  0
LINE
  5
65D
330
1F
100
AcDbEntity
  8
0
100
AcDbLine
 10
185.8836408408379
 20
61.60732233231218
 30
0.0
 11
185.4238707258955
 21
61.60732233231218
 31
0.0
  0
LINE
  5
65E
330
1F
100
AcDbEntity
  8
0
100
AcDbLine
 10
185.8836408408379
 20
61.60732233231218
 30
0.0
 11
185.8836408408379
 21
61.26249474610528
 31
0.0
  0
LINE
  5
65F
330
1F
100
AcDbEntity
  8
0
100
AcDbLine
 10
185.4238707258955
 20
63.3314602633467
 30
0.0
 11
185.4238707258955
 21
62.67054072311679
 31
0.0
  0
LINE
  5
660
330
1F
100
AcDbEntity
  8
0
100
AcDbLine
 10
185.8836408408379
 20
63.6762878495536
 30
0.0
 11
185.8836408408379
 21
63.3314602633467
 31
0.0
  0
LINE
  5
661
330
1F
100
AcDbEntity
  8
0
100
AcDbLine
 10
186.5158247488839
 20
61.60732233231218
 30
0.0
 11
186.5158247488839
 21
61.26249474610528
 31
0.0
  0
LINE
  5
662
330
1F
100
AcDbEntity
  8
0
100
AcDbLine
 10
186.5158247488839
 20
63.6762878495536
 30
0.0
 11
186.5158247488839
 21
63.3314602633467
 31
0.0
  0
LINE
  5
663
330
1F
100
AcDbEntity
  8
0
100
AcDbLine
 10
190.6537557833665
 20
63.3314602633467
 30
0.0
 11
190.1939856684242
 21
63.3314602633467
 31
0.0
  0
LINE
  5
664
330
1F
100
AcDbEntity
  8
0
100
AcDbLine
 10
190.6537557833665
 20
61.60732233231218
 30
0.0
 11
190.1939856684242
 21
61.60732233231218
 31
0.0
  0
LINE
  5
665
330
1F
100
AcDbEntity
  8
0
100
AcDbLine
 10
190.6537557833665
 20
61.26249474610528
 30
0.0
 11
188.8146753235965
 21
61.26249474610528
 31
0.0
  0
LINE
  5
666
330
1F
100
AcDbEntity
  8
0
100
AcDbLine
 10
188.3549052086541
 20
63.3314602633467
 30
0.0
 11
187.8951350937115
 21
63.3314602633467
 31
0.0
  0
LINE
  5
667
330
1F
100
AcDbEntity
  8
0
100
AcDbLine
 10
188.3549052086541
 20
61.60732233231218
 30
0.0
 11
187.8951350937115
 21
61.60732233231218
 31
0.0
  0
LINE
  5
668
330
1F
100
AcDbEntity
  8
0
100
AcDbLine
 10
186.9755948638264
 20
62.26824187254209
 30
0.0
 11
186.9755948638264
 21
61.60732233231218
 31
0.0
  0
LINE
  5
669
330
1F
100
AcDbEntity
  8
0
100
AcDbLine
 10
186.9755948638264
 20
63.3314602633467
 30
0.0
 11
186.9755948638264
 21
62.67054072311679
 31
0.0
  0
LINE
  5
66A
330
1F
100
AcDbEntity
  8
0
100
AcDbLine
 10
187.8951350937115
 20
63.3314602633467
 30
0.0
 11
187.8951350937115
 21
61.60732233231218
 31
0.0
  0
LINE
  5
66B
330
1F
100
AcDbEntity
  8
0
100
AcDbLine
 10
188.3549052086541
 20
61.60732233231218
 30
0.0
 11
188.3549052086541
 21
61.26249474610528
 31
0.0
  0
LINE
  5
66C
330
1F
100
AcDbEntity
  8
0
100
AcDbLine
 10
188.3549052086541
 20
63.6762878495536
 30
0.0
 11
188.3549052086541
 21
63.3314602633467
 31
0.0
  0
LINE
  5
66D
330
1F
100
AcDbEntity
  8
0
100
AcDbLine
 10
188.8146753235965
 20
61.60732233231218
 30
0.0
 11
188.8146753235965
 21
61.26249474610528
 31
0.0
  0
LINE
  5
66E
330
1F
100
AcDbEntity
  8
0
100
AcDbLine
 10
189.2744454385391
 20
61.60732233231218
 30
0.0
 11
188.8146753235965
 21
61.60732233231218
 31
0.0
  0
LINE
  5
66F
330
1F
100
AcDbEntity
  8
0
100
AcDbLine
 10
189.2744454385391
 20
63.3314602633467
 30
0.0
 11
188.8146753235965
 21
63.3314602633467
 31
0.0
  0
LINE
  5
670
330
1F
100
AcDbEntity
  8
0
100
AcDbLine
 10
188.8146753235965
 20
63.6762878495536
 30
0.0
 11
188.8146753235965
 21
63.3314602633467
 31
0.0
  0
LINE
  5
671
330
1F
100
AcDbEntity
  8
0
100
AcDbLine
 10
189.2744454385391
 20
63.3314602633467
 30
0.0
 11
189.2744454385391
 21
61.60732233231218
 31
0.0
  0
LINE
  5
672
330
1F
100
AcDbEntity
  8
0
100
AcDbLine
 10
190.1939856684242
 20
63.3314602633467
 30
0.0
 11
190.1939856684242
 21
61.60732233231218
 31
0.0
  0
LINE
  5
673
330
1F
100
AcDbEntity
  8
0
100
AcDbLine
 10
192.5503075075047
 20
61.26249474610528
 30
0.0
 11
191.1135258983092
 21
61.26249474610528
 31
0.0
  0
LINE
  5
674
330
1F
100
AcDbEntity
  8
0
100
AcDbLine
 10
191.5732960132516
 20
63.3314602633467
 30
0.0
 11
191.1135258983092
 21
63.3314602633467
 31
0.0
  0
LINE
  5
675
330
1F
100
AcDbEntity
  8
0
100
AcDbLine
 10
191.5732960132516
 20
61.60732233231218
 30
0.0
 11
191.1135258983092
 21
61.60732233231218
 31
0.0
  0
LINE
  5
676
330
1F
100
AcDbEntity
  8
0
100
AcDbLine
 10
191.1135258983092
 20
61.60732233231218
 30
0.0
 11
191.1135258983092
 21
61.26249474610528
 31
0.0
  0
LINE
  5
677
330
1F
100
AcDbEntity
  8
0
100
AcDbLine
 10
191.5732960132516
 20
63.3314602633467
 30
0.0
 11
191.5732960132516
 21
61.60732233231218
 31
0.0
  0
LINE
  5
678
330
1F
100
AcDbEntity
  8
0
100
AcDbLine
 10
191.1135258983092
 20
63.6762878495536
 30
0.0
 11
191.1135258983092
 21
63.3314602633467
 31
0.0
  0
LINE
  5
679
330
1F
100
AcDbEntity
  8
0
100
AcDbLine
 10
190.6537557833665
 20
61.60732233231218
 30
0.0
 11
190.6537557833665
 21
61.26249474610528
 31
0.0
  0
LINE
  5
67A
330
1F
100
AcDbEntity
  8
0
100
AcDbLine
 10
190.6537557833665
 20
63.6762878495536
 30
0.0
 11
190.6537557833665
 21
63.3314602633467
 31
0.0
  0
LINE
  5
67B
330
1F
100
AcDbEntity
  8
0
100
AcDbLine
 10
192.0905373925621
 20
62.99818498327628
 30
0.0
 11
193.8262276297332
 21
61.26249474610528
 31
0.0
  0
LINE
  5
67C
330
1F
100
AcDbEntity
  8
0
100
AcDbLine
 10
192.0905373925621
 20
61.60732233231218
 30
0.0
 11
192.5503075075047
 21
61.60732233231218
 31
0.0
  0
LINE
  5
67D
330
1F
100
AcDbEntity
  8
0
100
AcDbLine
 10
192.0905373925621
 20
62.99818498327628
 30
0.0
 11
192.0905373925621
 21
61.60732233231218
 31
0.0
  0
LINE
  5
67E
330
1F
100
AcDbEntity
  8
0
100
AcDbLine
 10
194.274445438539
 20
63.3314602633467
 30
0.0
 11
193.8146753235965
 21
63.3314602633467
 31
0.0
  0
LINE
  5
67F
330
1F
100
AcDbEntity
  8
0
100
AcDbLine
 10
193.8146753235965
 20
63.67628784955346
 30
0.0
 11
193.8146753235965
 21
63.33146026334659
 31
0.0
  0
LINE
  5
680
330
1F
100
AcDbEntity
  8
0
100
AcDbLine
 10
194.274445438539
 20
63.3314602633467
 30
0.0
 11
194.274445438539
 21
61.95214991851909
 31
0.0
  0
LINE
  5
681
330
1F
100
AcDbEntity
  8
0
100
AcDbLine
 10
192.5503075075047
 20
63.6762878495536
 30
0.0
 11
194.274445438539
 21
61.95214991851909
 31
0.0
  0
LINE
  5
682
330
1F
100
AcDbEntity
  8
0
100
AcDbLine
 10
192.5503075075047
 20
61.60732233231218
 30
0.0
 11
192.5503075075047
 21
61.26249474610528
 31
0.0
  0
LINE
  5
683
330
1F
100
AcDbEntity
  8
0
100
AcDbLine
 10
194.7916868178494
 20
63.3314602633467
 30
0.0
 11
194.7916868178494
 21
61.26249474610528
 31
0.0
  0
LINE
  5
684
330
1F
100
AcDbEntity
  8
0
100
AcDbLine
 10
195.251456932792
 20
63.67628784955346
 30
0.0
 11
195.251456932792
 21
63.33146026334659
 31
0.0
  0
LINE
  5
685
330
1F
100
AcDbEntity
  8
0
100
AcDbLine
 10
195.251456932792
 20
63.3314602633467
 30
0.0
 11
194.7916868178494
 21
63.3314602633467
 31
0.0
  0
ARC
  5
686
330
1F
100
AcDbEntity
  8
0
100
AcDbCircle
 10
189.6038839977609
 20
106.4644235085086
 30
0.0
 40
60.0
100
AcDbArc
 50
77.62565673863659
 51
102.374343261365
  0
ARC
  5
687
330
1F
100
AcDbEntity
  8
0
100
AcDbCircle
 10
189.6038839977601
 20
104.4644235085109
 30
0.0
 40
52.0
100
AcDbArc
 50
77.73110100405142
 51
102.2688989959651
  0
ARC
  5
688
330
1F
100
AcDbEntity
  8
0
100
AcDbCircle
 10
189.6038839977574
 20
104.4644235085109
 30
0.0
 40
50.0
100
AcDbArc
 50
77.73110100405142
 51
102.2688989959651
  0
CIRCLE
  5
689
330
1F
100
AcDbEntity
  8
0
100
AcDbCircle
 10
177.103883997761
 20
158.4644235085088
 30
0.0
 40
2.75
  0
ARC
  5
68A
330
1F
100
AcDbEntity
  8
0
100
AcDbCircle
 10
181.1038839977514
 20
143.5508661708957
 30
0.0
 40
10.0
100
AcDbArc
 50
102.2688989959651
 51
180.0
1001
GENIUS_GENODEF_13
1002
{
1000
HIER
1070
     0
1002
}
1002
{
1000
MANEDIT
1070
     0
1002
}
1002
{
1000
NOSEL
1070
     0
1002
}
1002
{
1000
BEHIND
1070
     0
1002
}
1002
{
1000
REACTOR
1002
}
1001
GENIUS_GENOBJ-N-FIL_13
1002
{
1000
OWNER
1000
GEN
1002
}
  0
ARC
  5
68B
330
1F
100
AcDbEntity
  8
0
100
AcDbCircle
 10
181.103883997754
 20
143.5508661708957
 30
0.0
 40
12.0
100
AcDbArc
 50
102.2688989959651
 51
180.0
1001
GENIUS_GENODEF_13
1002
{
1000
HIER
1070
     0
1002
}
1002
{
1000
MANEDIT
1070
     0
1002
}
1002
{
1000
NOSEL
1070
     0
1002
}
1002
{
1000
BEHIND
1070
     0
1002
}
1002
{
1000
REACTOR
1002
}
1001
GENIUS_GENOBJ-N-FIL_13
1002
{
1000
OWNER
1000
GEN
1002
}
  0
ARC
  5
68C
330
1F
100
AcDbEntity
  8
0
100
AcDbCircle
 10
198.6043981965812
 20
147.4886936928378
 30
0.0
 40
18.0
100
AcDbArc
 50
3.690434494568154
 51
77.62565673863659
1001
GENIUS_GENODEF_13
1002
{
1000
HIER
1070
     0
1002
}
1002
{
1000
MANEDIT
1070
     0
1002
}
1002
{
1000
NOSEL
1070
     0
1002
}
1002
{
1000
BEHIND
1070
     0
1002
}
1002
{
1000
REACTOR
1002
}
1001
GENIUS_GENOBJ-N-FIL_13
1002
{
1000
OWNER
1000
GEN
1002
}
  0
ARC
  5
68D
330
1F
100
AcDbEntity
  8
0
100
AcDbCircle
 10
198.1038839977506
 20
143.5508661708985
 30
0.0
 40
10.0
100
AcDbArc
 50
0.0
 51
77.73110100405142
1001
GENIUS_GENODEF_13
1002
{
1000
HIER
1070
     0
1002
}
1002
{
1000
MANEDIT
1070
     0
1002
}
1002
{
1000
NOSEL
1070
     0
1002
}
1002
{
1000
BEHIND
1070
     0
1002
}
1002
{
1000
REACTOR
1002
}
1001
GENIUS_GENOBJ-N-FIL_13
1002
{
1000
OWNER
1000
GEN
1002
}
  0
ARC
  5
68E
330
1F
100
AcDbEntity
  8
0
100
AcDbCircle
 10
198.1038839977532
 20
143.5508661708985
 30
0.0
 40
12.0
100
AcDbArc
 50
0.0
 51
77.73110100405142
1001
GENIUS_GENODEF_13
1002
{
1000
HIER
1070
     0
1002
}
1002
{
1000
MANEDIT
1070
     0
1002
}
1002
{
1000
NOSEL
1070
     0
1002
}
1002
{
1000
BEHIND
1070
     0
1002
}
1002
{
1000
REACTOR
1002
}
1001
GENIUS_GENOBJ-N-FIL_13
1002
{
1000
OWNER
1000
GEN
1002
}
  0
CIRCLE
  5
68F
330
1F
100
AcDbEntity
  8
0
100
AcDbCircle
 10
202.1038839977613
 20
158.4644235085086
 30
0.0
 40
2.75
  0
ARC
  5
690
330
1F
100
AcDbEntity
  8
0
100
AcDbCircle
 10
180.6033697989401
 20
147.4886936928377
 30
0.0
 40
18.0
100
AcDbArc
 50
102.374343261365
 51
176.3095655054318
1001
GENIUS_GENODEF_13
1002
{
1000
HIER
1070
     0
1002
}
1002
{
1000
MANEDIT
1070
     0
1002
}
1002
{
1000
NOSEL
1070
     0
1002
}
1002
{
1000
BEHIND
1070
     0
1002
}
1002
{
1000
REACTOR
1002
}
1001
GENIUS_GENOBJ-N-FIL_13
1002
{
1000
OWNER
1000
GEN
1002
}
  0
ARC
  5
691
330
1F
100
AcDbEntity
  8
0
100
AcDbCircle
 10
168.0394001768439
 20
54.60375657232927
 30
0.0
 40
3.0
100
AcDbArc
 50
47.01390478986602
 51
47.01390478986691
1001
GENIUS_GENODEF_13
1002
{
1000
HIER
1070
     0
1002
}
1002
{
1000
MANEDIT
1070
     0
1002
}
1002
{
1000
NOSEL
1070
     0
1002
}
1002
{
1000
BEHIND
1070
     0
1002
}
1002
{
1000
REACTOR
1002
}
1001
GENIUS_GENOBJ-N-FIL_13
1002
{
1000
OWNER
1000
GEN
1002
}
  0
ARC
  5
692
330
1F
100
AcDbEntity
  8
0
100
AcDbCircle
 10
124.6038839977604
 20
160.4644235085086
 30
0.0
 40
6.0
100
AcDbArc
 50
0.0
 51
90.0
1001
GENIUS_GENODEF_13
1002
{
1000
HIER
1070
     0
1002
}
1002
{
1000
MANEDIT
1070
     0
1002
}
1002
{
1000
NOSEL
1070
     0
1002
}
1002
{
1000
BEHIND
1070
     0
1002
}
1002
{
1000
REACTOR
1002
}
1001
GENIUS_GENOBJ-N-FIL_13
1002
{
1000
OWNER
1000
GEN
1002
}
  0
ARC
  5
693
330
1F
100
AcDbEntity
  8
0
100
AcDbCircle
 10
124.6038839977605
 20
62.06304449449376
 30
0.0
 40
6.0
100
AcDbArc
 50
270.0
 51
0.0
1001
GENIUS_GENODEF_13
1002
{
1000
HIER
1070
     0
1002
}
1002
{
1000
MANEDIT
1070
     0
1002
}
1002
{
1000
NOSEL
1070
     0
1002
}
1002
{
1000
BEHIND
1070
     0
1002
}
1002
{
1000
REACTOR
1002
}
1001
GENIUS_GENOBJ-N-FIL_13
1002
{
1000
OWNER
1000
GEN
1002
}
  0
ARC
  5
694
330
1F
100
AcDbEntity
  8
0
100
AcDbCircle
 10
119.6038839977608
 20
129.4644235085085
 30
0.0
 40
3.5
100
AcDbArc
 50
0.0000000000004071
 51
55.15009542094286
  0
ARC
  5
695
330
1F
100
AcDbEntity
  8
0
100
AcDbCircle
 10
119.6038839977612
 20
73.4644235085086
 30
0.0
 40
3.5
100
AcDbArc
 50
304.8499045790486
 51
0.0000000000004071
  0
LINE
  5
696
330
1F
100
AcDbEntity
  8
0
100
AcDbLine
 10
186.6038839977676
 20
53.7144235085089
 30
0.0
 11
186.6038839977676
 21
53.71442350850879
 31
0.0
  0
LINE
  5
697
330
1F
100
AcDbEntity
  8
0
100
AcDbLine
 10
192.6038839977675
 20
53.9644235085089
 30
0.0
 11
192.6038839977675
 21
53.9644235085089
 31
0.0
  0
LINE
  5
698
330
1F
100
AcDbEntity
  8
0
100
AcDbLine
 10
186.6038839977676
 20
53.71442350850879
 30
0.0
 11
186.6038839977676
 21
53.7144235085089
 31
0.0
  0
ARC
  5
699
330
1F
100
AcDbEntity
  8
0
100
AcDbCircle
 10
191.3538839977675
 20
53.7144235085089
 30
0.0
 40
1.25
100
AcDbArc
 50
0.0
 51
90.0
1001
GENIUS_GENODEF_13
1002
{
1000
HIER
1070
     0
1002
}
1002
{
1000
MANEDIT
1070
     0
1002
}
1002
{
1000
NOSEL
1070
     0
1002
}
1002
{
1000
BEHIND
1070
     0
1002
}
1002
{
1000
REACTOR
1002
}
1001
GENIUS_GENOBJ-N-FIL_13
1002
{
1000
OWNER
1000
GEN
1002
}
  0
ARC
  5
69A
330
1F
100
AcDbEntity
  8
0
100
AcDbCircle
 10
191.3538839977675
 20
53.7144235085089
 30
0.0
 40
1.25
100
AcDbArc
 50
270.0
 51
0.0
1001
GENIUS_GENODEF_13
1002
{
1000
HIER
1070
     0
1002
}
1002
{
1000
MANEDIT
1070
     0
1002
}
1002
{
1000
NOSEL
1070
     0
1002
}
1002
{
1000
BEHIND
1070
     0
1002
}
1002
{
1000
REACTOR
1002
}
1001
GENIUS_GENOBJ-N-FIL_13
1002
{
1000
OWNER
1000
GEN
1002
}
  0
ARC
  5
69B
330
1F
100
AcDbEntity
  8
0
100
AcDbCircle
 10
187.8538839977676
 20
53.7144235085089
 30
0.0
 40
1.25
100
AcDbArc
 50
180.0
 51
270.0
1001
GENIUS_GENODEF_13
1002
{
1000
HIER
1070
     0
1002
}
1002
{
1000
MANEDIT
1070
     0
1002
}
1002
{
1000
NOSEL
1070
     0
1002
}
1002
{
1000
BEHIND
1070
     0
1002
}
1002
{
1000
REACTOR
1002
}
1001
GENIUS_GENOBJ-N-FIL_13
1002
{
1000
OWNER
1000
GEN
1002
}
  0
ARC
  5
69C
330
1F
100
AcDbEntity
  8
0
100
AcDbCircle
 10
187.8538839977676
 20
53.71442350850879
 30
0.0
 40
1.25
100
AcDbArc
 50
90.0
 51
180.0
1001
GENIUS_GENODEF_13
1002
{
1000
HIER
1070
     0
1002
}
1002
{
1000
MANEDIT
1070
     0
1002
}
1002
{
1000
NOSEL
1070
     0
1002
}
1002
{
1000
BEHIND
1070
     0
1002
}
1002
{
1000
REACTOR
1002
}
1001
GENIUS_GENOBJ-N-FIL_13
1002
{
1000
OWNER
1000
GEN
1002
}
  0
LINE
  5
69D
330
1F
100
AcDbEntity
  8
0
100
AcDbLine
 10
187.8538839977676
 20
56.63141382061446
 30
0.0
 11
191.3538839977675
 21
56.63141382061457
 31
0.0
  0
ARC
  5
69E
330
1F
100
AcDbEntity
  8
0
100
AcDbCircle
 10
191.3538839977675
 20
55.38141382061457
 30
0.0
 40
1.25
100
AcDbArc
 50
0.0
 51
90.0
1001
GENIUS_GENODEF_13
1002
{
1000
HIER
1070
     0
1002
}
1002
{
1000
MANEDIT
1070
     0
1002
}
1002
{
1000
NOSEL
1070
     0
1002
}
1002
{
1000
BEHIND
1070
     0
1002
}
1002
{
1000
REACTOR
1002
}
1001
GENIUS_GENOBJ-N-FIL_13
1002
{
1000
OWNER
1000
GEN
1002
}
  0
ARC
  5
69F
330
1F
100
AcDbEntity
  8
0
100
AcDbCircle
 10
187.8538839977676
 20
55.38141382061446
 30
0.0
 40
1.25
100
AcDbArc
 50
90.0
 51
180.0
1001
GENIUS_GENODEF_13
1002
{
1000
HIER
1070
     0
1002
}
1002
{
1000
MANEDIT
1070
     0
1002
}
1002
{
1000
NOSEL
1070
     0
1002
}
1002
{
1000
BEHIND
1070
     0
1002
}
1002
{
1000
REACTOR
1002
}
1001
GENIUS_GENOBJ-N-FIL_13
1002
{
1000
OWNER
1000
GEN
1002
}
  0
LINE
  5
6A0
330
1F
100
AcDbEntity
  8
0
100
AcDbLine
 10
192.6038839977675
 20
53.7144235085089
 30
0.0
 11
192.6038839977675
 21
55.38141382061457
 31
0.0
  0
LINE
  5
6A1
330
1F
100
AcDbEntity
  8
0
100
AcDbLine
 10
186.6038839977676
 20
53.71442350850879
 30
0.0
 11
186.6038839977675
 21
55.38141382061446
 31
0.0
  0
LINE
  5
6A2
330
1F
100
AcDbEntity
  8
0
100
AcDbLine
 10
121.6038839977613
 20
167.2644235085087
 30
0.0
 11
117.6038839977605
 21
167.2644235085087
 31
0.0
  0
LINE
  5
6A3
330
1F
100
AcDbEntity
  8
0
100
AcDbLine
 10
117.6038839977558
 20
47.66442350850877
 30
0.0
 11
121.6038839977613
 21
47.66442350850877
 31
0.0
  0
ARC
  5
6A4
330
1F
100
AcDbEntity
  8
0
100
AcDbCircle
 10
119.60388399776
 20
129.4644235085085
 30
0.0
 40
3.5
100
AcDbArc
 50
124.8499045790571
 51
179.9999999999996
  0
ARC
  5
6A5
330
1F
100
AcDbEntity
  8
0
100
AcDbCircle
 10
119.6038839977597
 20
73.4644235085086
 30
0.0
 40
3.5
100
AcDbArc
 50
179.9999999999996
 51
235.1500954209514
  0
LINE
  5
6A6
330
1F
100
AcDbEntity
  8
0
100
AcDbLine
 10
117.6038839977606
 20
129.4644235085085
 30
0.0
 11
117.603883997761
 21
73.46442350850847
 31
0.0
1001
GENIUS_GENODEF_13
1002
{
1000
HIER
1070
     0
1002
}
1002
{
1000
MANEDIT
1070
     0
1002
}
1002
{
1000
NOSEL
1070
     0
1002
}
1002
{
1000
BEHIND
1070
     0
1002
}
1002
{
1000
REACTOR
1002
}
1001
GENIUS_GENOBJ-N-CEN_13
1002
{
1000
OWNER
1000
GEN
1002
}
  0
LINE
  5
6A7
330
1F
100
AcDbEntity
  8
0
100
AcDbLine
 10
121.6038839977609
 20
129.4644235085086
 30
0.0
 11
121.6038839977612
 21
73.4644235085086
 31
0.0
1001
GENIUS_GENODEF_13
1002
{
1000
HIER
1070
     0
1002
}
1002
{
1000
MANEDIT
1070
     0
1002
}
1002
{
1000
NOSEL
1070
     0
1002
}
1002
{
1000
BEHIND
1070
     0
1002
}
1002
{
1000
REACTOR
1002
}
1001
GENIUS_GENOBJ-N-CEN_13
1002
{
1000
OWNER
1000
GEN
1002
}
  0
ARC
  5
6A8
330
1F
100
AcDbEntity
  8
0
100
AcDbCircle
 10
119.6038839977608
 20
129.4644235085085
 30
0.0
 40
2.0
100
AcDbArc
 50
0.0000000000004071
 51
180.0000000000008
  0
ARC
  5
6A9
330
1F
100
AcDbEntity
  8
0
100
AcDbCircle
 10
119.6038839977597
 20
73.4644235085086
 30
0.0
 40
2.0
100
AcDbArc
 50
179.9999999999996
 51
0.0000000000004071
  0
ARC
  5
6AA
330
1F
100
AcDbEntity
  8
0
100
AcDbCircle
 10
-442.3961160022391
 20
116.4644235085086
 30
0.0
 40
501.7999999999998
100
AcDbArc
 50
354.9595267191007
 51
1.601927772411214
  0
ARC
  5
6AB
330
1F
100
AcDbEntity
  8
0
100
AcDbCircle
 10
501.6038839977607
 20
116.4644235085086
 30
0.0
 40
501.7999999999998
100
AcDbArc
 50
178.3980722275888
 51
185.0404732808993
  0
ARC
  5
6AC
330
1F
100
AcDbEntity
  8
0
100
AcDbCircle
 10
29.60388399776034
 20
108.4644235085088
 30
0.0
 40
60.8
100
AcDbArc
 50
256.4133371488765
 51
283.586662851142
  0
ARC
  5
6AD
330
1F
100
AcDbEntity
  8
0
100
AcDbCircle
 10
23.72127976990514
 20
71.42869795198141
 30
0.0
 40
20.8
100
AcDbArc
 50
185.383662294967
 51
226.9510555680052
1001
GENIUS_GENODEF_13
1002
{
1000
HIER
1070
     0
1002
}
1002
{
1000
MANEDIT
1070
     0
1002
}
1002
{
1000
NOSEL
1070
     0
1002
}
1002
{
1000
BEHIND
1070
     0
1002
}
1002
{
1000
REACTOR
1002
}
1001
GENIUS_GENOBJ-N-FIL_13
1002
{
1000
OWNER
1000
GEN
1002
}
  0
ARC
  5
6AE
330
1F
100
AcDbEntity
  8
0
100
AcDbCircle
 10
2.740535975479089
 20
72.46442350850867
 30
0.0
 40
1.0
100
AcDbArc
 50
185.040473280901
 51
270.0000000000017
1001
GENIUS_GENODEF_13
1002
{
1000
HIER
1070
     0
1002
}
1002
{
1000
MANEDIT
1070
     0
1002
}
1002
{
1000
NOSEL
1070
     0
1002
}
1002
{
1000
BEHIND
1070
     0
1002
}
1002
{
1000
REACTOR
1002
}
1001
GENIUS_GENOBJ-N-FIL_13
1002
{
1000
OWNER
1000
GEN
1002
}
  0
LINE
  5
6AF
330
1F
100
AcDbEntity
  8
0
100
AcDbLine
 10
2.740535975479132
 20
71.46442350850867
 30
0.0
 11
2.829746737216622
 21
71.46442350850867
 31
0.0
1001
GENIUS_GENODEF_13
1002
{
1000
HIER
1070
     0
1002
}
1002
{
1000
MANEDIT
1070
     0
1002
}
1002
{
1000
NOSEL
1070
     0
1002
}
1002
{
1000
BEHIND
1070
     0
1002
}
1002
{
1000
REACTOR
1002
}
1001
GENIUS_GENOBJ-N-CEN_13
1002
{
1000
OWNER
1000
GEN
1002
}
  0
ARC
  5
6B0
330
1F
100
AcDbEntity
  8
0
100
AcDbCircle
 10
501.6038839977607
 20
116.4644235085086
 30
0.0
 40
500.8
100
AcDbArc
 50
176.3095655054322
 51
185.3836622949686
  0
ARC
  5
6B1
330
1F
100
AcDbEntity
  8
0
100
AcDbCircle
 10
8.020953901938412
 20
54.62096855031457
 30
0.0
 40
2.2
100
AcDbArc
 50
46.95105556800433
 51
46.95105556800433
1001
GENIUS_GENODEF_13
1002
{
1000
HIER
1070
     0
1002
}
1002
{
1000
MANEDIT
1070
     0
1002
}
1002
{
1000
NOSEL
1070
     0
1002
}
1002
{
1000
BEHIND
1070
     0
1002
}
1002
{
1000
REACTOR
1002
}
1001
GENIUS_GENOBJ-N-FIL_13
1002
{
1000
OWNER
1000
GEN
1002
}
  0
ARC
  5
6B2
330
1F
100
AcDbEntity
  8
0
100
AcDbCircle
 10
8.020953901938412
 20
54.62096855031457
 30
0.0
 40
2.2
100
AcDbArc
 50
8.656589980361701
 51
46.95105556800433
1001
GENIUS_GENODEF_13
1002
{
1000
HIER
1070
     0
1002
}
1002
{
1000
MANEDIT
1070
     0
1002
}
1002
{
1000
NOSEL
1070
     0
1002
}
1002
{
1000
BEHIND
1070
     0
1002
}
1002
{
1000
REACTOR
1002
}
1001
GENIUS_GENOBJ-N-FIL_13
1002
{
1000
OWNER
1000
GEN
1002
}
  0
ARC
  5
6B3
330
1F
100
AcDbEntity
  8
0
100
AcDbCircle
 10
56.46723202004232
 20
72.46442350850867
 30
0.0
 40
1.0
100
AcDbArc
 50
270.0
 51
354.9595267190826
1001
GENIUS_GENODEF_13
1002
{
1000
HIER
1070
     0
1002
}
1002
{
1000
MANEDIT
1070
     0
1002
}
1002
{
1000
NOSEL
1070
     0
1002
}
1002
{
1000
BEHIND
1070
     0
1002
}
1002
{
1000
REACTOR
1002
}
1001
GENIUS_GENOBJ-N-FIL_13
1002
{
1000
OWNER
1000
GEN
1002
}
  0
ARC
  5
6B4
330
1F
100
AcDbEntity
  8
0
100
AcDbCircle
 10
35.48648822561623
 20
71.42869795198149
 30
0.0
 40
20.8
100
AcDbArc
 50
313.0489444320561
 51
354.6163377050313
1001
GENIUS_GENODEF_13
1002
{
1000
HIER
1070
     0
1002
}
1002
{
1000
MANEDIT
1070
     0
1002
}
1002
{
1000
NOSEL
1070
     0
1002
}
1002
{
1000
BEHIND
1070
     0
1002
}
1002
{
1000
REACTOR
1002
}
1001
GENIUS_GENOBJ-N-FIL_13
1002
{
1000
OWNER
1000
GEN
1002
}
  0
ARC
  5
6B5
330
1F
100
AcDbEntity
  8
0
100
AcDbCircle
 10
51.18681409360113
 20
54.62096855033171
 30
0.0
 40
2.2
100
AcDbArc
 50
133.0489444320573
 51
171.3434100197222
1001
GENIUS_GENODEF_13
1002
{
1000
HIER
1070
     0
1002
}
1002
{
1000
MANEDIT
1070
     0
1002
}
1002
{
1000
NOSEL
1070
     0
1002
}
1002
{
1000
BEHIND
1070
     0
1002
}
1002
{
1000
REACTOR
1002
}
1001
GENIUS_GENOBJ-N-FIL_13
1002
{
1000
OWNER
1000
GEN
1002
}
  0
ARC
  5
6B6
330
1F
100
AcDbEntity
  8
0
100
AcDbCircle
 10
-442.3961160022391
 20
116.4644235085086
 30
0.0
 40
500.8
100
AcDbArc
 50
354.6163377050313
 51
3.690434494567746
  0
LINE
  5
6B7
330
1F
100
AcDbEntity
  8
0
100
AcDbLine
 10
56.37802125830472
 20
71.46442350850867
 30
0.0
 11
56.46723202004232
 21
71.46442350850867
 31
0.0
1001
GENIUS_GENODEF_13
1002
{
1000
HIER
1070
     0
1002
}
1002
{
1000
MANEDIT
1070
     0
1002
}
1002
{
1000
NOSEL
1070
     0
1002
}
1002
{
1000
BEHIND
1070
     0
1002
}
1002
{
1000
REACTOR
1002
}
1001
GENIUS_GENOBJ-N-CEN_13
1002
{
1000
OWNER
1000
GEN
1002
}
  0
ARC
  5
6B8
330
1F
100
AcDbEntity
  8
0
100
AcDbCircle
 10
29.60388399776093
 20
106.4644235085086
 30
0.0
 40
60.8
100
AcDbArc
 50
77.62565673863491
 51
102.374343261365
  0
ARC
  5
6B9
330
1F
100
AcDbEntity
  8
0
100
AcDbCircle
 10
20.60336979894002
 20
147.4886936928377
 30
0.0
 40
18.8
100
AcDbArc
 50
102.374343261365
 51
176.3095655054318
1001
GENIUS_GENODEF_13
1002
{
1000
HIER
1070
     0
1002
}
1002
{
1000
MANEDIT
1070
     0
1002
}
1002
{
1000
NOSEL
1070
     0
1002
}
1002
{
1000
BEHIND
1070
     0
1002
}
1002
{
1000
REACTOR
1002
}
1001
GENIUS_GENOBJ-N-FIL_13
1002
{
1000
OWNER
1000
GEN
1002
}
  0
LINE
  5
6BA
330
1F
100
AcDbEntity
  8
0
100
AcDbLine
 10
0.9996091458572776
 20
131.4644235085086
 30
0.0
 11
1.028574978228562
 21
131.4644235085086
 31
0.0
1001
GENIUS_GENODEF_13
1002
{
1000
HIER
1070
     0
1002
}
1002
{
1000
MANEDIT
1070
     0
1002
}
1002
{
1000
NOSEL
1070
     0
1002
}
1002
{
1000
BEHIND
1070
     0
1002
}
1002
{
1000
REACTOR
1002
}
1001
GENIUS_GENOBJ-N-CEN_13
1002
{
1000
OWNER
1000
GEN
1002
}
  0
ARC
  5
6BB
330
1F
100
AcDbEntity
  8
0
100
AcDbCircle
 10
0.9996091458572776
 20
130.4644235085087
 30
0.0
 40
1.0
100
AcDbArc
 50
90.0
 51
178.3980722275854
1001
GENIUS_GENODEF_13
1002
{
1000
HIER
1070
     0
1002
}
1002
{
1000
MANEDIT
1070
     0
1002
}
1002
{
1000
NOSEL
1070
     0
1002
}
1002
{
1000
BEHIND
1070
     0
1002
}
1002
{
1000
REACTOR
1002
}
1001
GENIUS_GENOBJ-N-FIL_13
1002
{
1000
OWNER
1000
GEN
1002
}
  0
LINE
  5
6BC
330
1F
100
AcDbEntity
  8
0
100
AcDbLine
 10
58.17919301729272
 20
131.4644235085086
 30
0.0
 11
58.20815884966414
 21
131.4644235085086
 31
0.0
1001
GENIUS_GENODEF_13
1002
{
1000
HIER
1070
     0
1002
}
1002
{
1000
MANEDIT
1070
     0
1002
}
1002
{
1000
NOSEL
1070
     0
1002
}
1002
{
1000
BEHIND
1070
     0
1002
}
1002
{
1000
REACTOR
1002
}
1001
GENIUS_GENOBJ-N-CEN_13
1002
{
1000
OWNER
1000
GEN
1002
}
  0
ARC
  5
6BD
330
1F
100
AcDbEntity
  8
0
100
AcDbCircle
 10
58.20815884966414
 20
130.4644235085087
 30
0.0
 40
1.0
100
AcDbArc
 50
1.601927772411214
 51
90.0
1001
GENIUS_GENODEF_13
1002
{
1000
HIER
1070
     0
1002
}
1002
{
1000
MANEDIT
1070
     0
1002
}
1002
{
1000
NOSEL
1070
     0
1002
}
1002
{
1000
BEHIND
1070
     0
1002
}
1002
{
1000
REACTOR
1002
}
1001
GENIUS_GENOBJ-N-FIL_13
1002
{
1000
OWNER
1000
GEN
1002
}
  0
ARC
  5
6BE
330
1F
100
AcDbEntity
  8
0
100
AcDbCircle
 10
38.60439819658122
 20
147.4886936928378
 30
0.0
 40
18.8
100
AcDbArc
 50
3.690434494568154
 51
77.62565673863491
1001
GENIUS_GENODEF_13
1002
{
1000
HIER
1070
     0
1002
}
1002
{
1000
MANEDIT
1070
     0
1002
}
1002
{
1000
NOSEL
1070
     0
1002
}
1002
{
1000
BEHIND
1070
     0
1002
}
1002
{
1000
REACTOR
1002
}
1001
GENIUS_GENOBJ-N-FIL_13
1002
{
1000
OWNER
1000
GEN
1002
}
  0
ARC
  5
6BF
330
1F
100
AcDbEntity
  8
0
100
AcDbCircle
 10
16.91842775151393
 20
55.97557517074696
 30
0.0
 40
6.799999999999998
100
AcDbArc
 50
188.6565899803617
 51
256.4133371488765
1001
GENIUS_GENODEF_13
1002
{
1000
HIER
1070
     0
1002
}
1002
{
1000
MANEDIT
1070
     0
1002
}
1002
{
1000
NOSEL
1070
     0
1002
}
1002
{
1000
BEHIND
1070
     0
1002
}
1002
{
1000
REACTOR
1002
}
1001
GENIUS_GENOBJ-N-FIL_13
1002
{
1000
OWNER
1000
GEN
1002
}
  0
ARC
  5
6C0
330
1F
100
AcDbEntity
  8
0
100
AcDbCircle
 10
42.28934024402363
 20
55.97557517075099
 30
0.0
 40
6.799999999999998
100
AcDbArc
 50
283.586662851142
 51
351.3434100197218
1001
GENIUS_GENODEF_13
1002
{
1000
HIER
1070
     0
1002
}
1002
{
1000
MANEDIT
1070
     0
1002
}
1002
{
1000
NOSEL
1070
     0
1002
}
1002
{
1000
BEHIND
1070
     0
1002
}
1002
{
1000
REACTOR
1002
}
1001
GENIUS_GENOBJ-N-FIL_13
1002
{
1000
OWNER
1000
GEN
1002
}
  0
ARC
  5
6C1
330
1F
100
AcDbEntity
  8
0
100
AcDbCircle
 10
16.58899516802201
 20
60.18800412233538
 30
0.0
 40
4.0
100
AcDbArc
 50
184.4438818078691
 51
254.912268117604
1001
GENIUS_GENODEF_13
1002
{
1000
HIER
1070
     0
1002
}
1002
{
1000
MANEDIT
1070
     0
1002
}
1002
{
1000
NOSEL
1070
     0
1002
}
1002
{
1000
BEHIND
1070
     0
1002
}
1002
{
1000
REACTOR
1002
}
1001
GENIUS_GENOBJ-N-FIL_13
1002
{
1000
OWNER
1000
GEN
1002
}
  0
ARC
  5
6C2
330
1F
100
AcDbEntity
  8
0
100
AcDbCircle
 10
42.61877282750622
 20
60.18800412234059
 30
0.0
 40
4.0
100
AcDbArc
 50
285.0877318824196
 51
355.5561181921263
1001
GENIUS_GENODEF_13
1002
{
1000
HIER
1070
     0
1002
}
1002
{
1000
MANEDIT
1070
     0
1002
}
1002
{
1000
NOSEL
1070
     0
1002
}
1002
{
1000
BEHIND
1070
     0
1002
}
1002
{
1000
REACTOR
1002
}
1001
GENIUS_GENOBJ-N-FIL_13
1002
{
1000
OWNER
1000
GEN
1002
}
  0
CIRCLE
  5
6C3
330
1F
100
AcDbEntity
  8
0
100
AcDbCircle
 10
29.60388399776262
 20
59.46442350850879
 30
0.0
 40
3.0
  0
ARC
  5
6C4
330
1F
100
AcDbEntity
  8
0
100
AcDbCircle
 10
29.60388399775424
 20
108.4644235085088
 30
0.0
 40
54.0
100
AcDbArc
 50
254.912268117604
 51
285.0877318824196
  0
ARC
  5
6C5
330
1F
100
AcDbEntity
  8
0
100
AcDbCircle
 10
-449.8961160022368
 20
98.46442350850859
 30
0.0
 40
498.0
100
AcDbArc
 50
355.5561181921292
 51
0.0
  0
LINE
  5
6C6
330
1F
100
AcDbEntity
  8
0
100
AcDbLine
 10
11.10388399775813
 20
98.46442350850878
 30
0.0
 11
11.10388399775813
 21
120.9644235085087
 31
0.0
  0
LINE
  5
6C7
330
1F
100
AcDbEntity
  8
0
100
AcDbLine
 10
37.10388399776333
 20
120.9644235085086
 30
0.0
 11
37.10388399776322
 21
76.46442350850867
 31
0.0
  0
LINE
  5
6C8
330
1F
100
AcDbEntity
  8
0
100
AcDbLine
 10
22.10388399776322
 20
120.9644235085086
 30
0.0
 11
22.10388399776322
 21
76.46442350850867
 31
0.0
  0
ARC
  5
6C9
330
1F
100
AcDbEntity
  8
0
100
AcDbCircle
 10
509.1038839977643
 20
98.46442350851138
 30
0.0
 40
498.0
100
AcDbArc
 50
180.0
 51
184.4438818078708
  0
ARC
  5
6CA
330
1F
100
AcDbEntity
  8
0
100
AcDbCircle
 10
29.60388399776322
 20
76.46442350850867
 30
0.0
 40
7.5
100
AcDbArc
 50
270.0
 51
0.0
1001
GENIUS_GENODEF_13
1002
{
1000
HIER
1070
     0
1002
}
1002
{
1000
MANEDIT
1070
     0
1002
}
1002
{
1000
NOSEL
1070
     0
1002
}
1002
{
1000
BEHIND
1070
     0
1002
}
1002
{
1000
REACTOR
1002
}
1001
GENIUS_GENOBJ-N-FIL_13
1002
{
1000
OWNER
1000
GEN
1002
}
  0
ARC
  5
6CB
330
1F
100
AcDbEntity
  8
0
100
AcDbCircle
 10
29.60388399776322
 20
76.46442350850867
 30
0.0
 40
7.5
100
AcDbArc
 50
180.0
 51
270.0
1001
GENIUS_GENODEF_13
1002
{
1000
HIER
1070
     0
1002
}
1002
{
1000
MANEDIT
1070
     0
1002
}
1002
{
1000
NOSEL
1070
     0
1002
}
1002
{
1000
BEHIND
1070
     0
1002
}
1002
{
1000
REACTOR
1002
}
1001
GENIUS_GENOBJ-N-FIL_13
1002
{
1000
OWNER
1000
GEN
1002
}
  0
LINE
  5
6CC
330
1F
100
AcDbEntity
  8
0
100
AcDbLine
 10
29.60388399776322
 20
68.96442350850867
 30
0.0
 11
29.60388399776322
 21
68.96442350850867
 31
0.0
  0
LINE
  5
6CD
330
1F
100
AcDbEntity
  8
0
100
AcDbLine
 10
29.60388399776322
 20
68.96442350850867
 30
0.0
 11
29.60388399776315
 21
68.96442350850867
 31
0.0
1001
GENIUS_GENODEF_13
1002
{
1000
HIER
1070
     0
1002
}
1002
{
1000
MANEDIT
1070
     0
1002
}
1002
{
1000
NOSEL
1070
     0
1002
}
1002
{
1000
BEHIND
1070
     0
1002
}
1002
{
1000
REACTOR
1002
}
1001
GENIUS_GENOBJ-N-CEN_13
1002
{
1000
OWNER
1000
GEN
1002
}
  0
LINE
  5
6CE
330
1F
100
AcDbEntity
  8
0
100
AcDbLine
 10
48.10388399775725
 20
98.46442350850859
 30
0.0
 11
48.10388399775725
 21
120.9644235085086
 31
0.0
  0
ELLIPSE
  5
6CF
330
1F
100
AcDbEntity
  8
0
100
AcDbEllipse
 10
189.6038839977652
 20
111.964423508509
 30
0.0
 11
-7.0
 21
0.0
 31
0.0
210
0.0
220
0.0
230
1.0
 40
0.6
 41
0.0
 42
6.283185307179584
  0
LINE
  5
6D0
330
1F
100
AcDbEntity
  8
0
100
AcDbLine
 10
207.1038839977539
 20
102.4644235085107
 30
0.0
 11
172.1038839977548
 21
102.4644235085109
 31
0.0
  0
ARC
  5
6D1
330
1F
100
AcDbEntity
  8
0
100
AcDbCircle
 10
198.1038839977514
 20
143.5508661708985
 30
0.0
 40
9.0
100
AcDbArc
 50
0.0
 51
77.7311010040531
1001
GENIUS_GENODEF_13
1002
{
1000
HIER
1070
     0
1002
}
1002
{
1000
MANEDIT
1070
     0
1002
}
1002
{
1000
NOSEL
1070
     0
1002
}
1002
{
1000
BEHIND
1070
     0
1002
}
1002
{
1000
REACTOR
1002
}
1001
GENIUS_GENOBJ-N-FIL_13
1002
{
1000
OWNER
1000
GEN
1002
}
  0
ARC
  5
6D2
330
1F
100
AcDbEntity
  8
0
100
AcDbCircle
 10
189.6038839977583
 20
104.4644235085109
 30
0.0
 40
49.0
100
AcDbArc
 50
77.7311010040531
 51
102.2688989959651
  0
LINE
  5
6D3
330
1F
100
AcDbEntity
  8
0
100
AcDbLine
 10
172.1038839977548
 20
143.5508661708957
 30
0.0
 11
172.1038839977548
 21
102.4644235085109
 31
0.0
  0
ARC
  5
6D4
330
1F
100
AcDbEntity
  8
0
100
AcDbCircle
 10
181.103883997752
 20
143.5508661708957
 30
0.0
 40
9.0
100
AcDbArc
 50
102.2688989959651
 51
180.0
1001
GENIUS_GENODEF_13
1002
{
1000
HIER
1070
     0
1002
}
1002
{
1000
MANEDIT
1070
     0
1002
}
1002
{
1000
NOSEL
1070
     0
1002
}
1002
{
1000
BEHIND
1070
     0
1002
}
1002
{
1000
REACTOR
1002
}
1001
GENIUS_GENOBJ-N-FIL_13
1002
{
1000
OWNER
1000
GEN
1002
}
  0
LINE
  5
6D6
330
1F
100
AcDbEntity
  8
0
100
AcDbLine
 10
207.1038839977539
 20
143.5508661708985
 30
0.0
 11
207.1038839977539
 21
102.4644235085107
 31
0.0
  0
ARC
  5
6D8
330
1F
100
AcDbEntity
  8
0
100
AcDbCircle
 10
661.6038839977606
 20
116.4644235085086
 30
0.0
 40
500.8
100
AcDbArc
 50
176.3095655054322
 51
185.3836622949686
  0
ARC
  5
6D9
330
1F
100
AcDbEntity
  8
0
100
AcDbCircle
 10
661.6038839977606
 20
116.4644235085086
 30
0.0
 40
501.7999999999998
100
AcDbArc
 50
178.3980722275888
 51
185.0404732808993
  0
ARC
  5
6DA
330
1F
100
AcDbEntity
  8
0
100
AcDbCircle
 10
162.740535975479
 20
72.46442350850867
 30
0.0
 40
1.0
100
AcDbArc
 50
185.040473280901
 51
270.0000000000017
1001
GENIUS_GENODEF_13
1002
{
1000
HIER
1070
     0
1002
}
1002
{
1000
MANEDIT
1070
     0
1002
}
1002
{
1000
NOSEL
1070
     0
1002
}
1002
{
1000
BEHIND
1070
     0
1002
}
1002
{
1000
REACTOR
1002
}
1001
GENIUS_GENOBJ-N-FIL_13
1002
{
1000
OWNER
1000
GEN
1002
}
  0
ARC
  5
6DC
330
1F
100
AcDbEntity
  8
0
100
AcDbCircle
 10
202.2893402440236
 20
55.97557517075099
 30
0.0
 40
6.799999999999998
100
AcDbArc
 50
283.586662851142
 51
351.3434100197218
1001
GENIUS_GENODEF_13
1002
{
1000
HIER
1070
     0
1002
}
1002
{
1000
MANEDIT
1070
     0
1002
}
1002
{
1000
NOSEL
1070
     0
1002
}
1002
{
1000
BEHIND
1070
     0
1002
}
1002
{
1000
REACTOR
1002
}
1001
GENIUS_GENOBJ-N-FIL_13
1002
{
1000
OWNER
1000
GEN
1002
}
  0
ARC
  5
6DD
330
1F
100
AcDbEntity
  8
0
100
AcDbCircle
 10
195.4864882256162
 20
71.42869795198149
 30
0.0
 40
20.8
100
AcDbArc
 50
313.0489444320561
 51
354.6163377050313
1001
GENIUS_GENODEF_13
1002
{
1000
HIER
1070
     0
1002
}
1002
{
1000
MANEDIT
1070
     0
1002
}
1002
{
1000
NOSEL
1070
     0
1002
}
1002
{
1000
BEHIND
1070
     0
1002
}
1002
{
1000
REACTOR
1002
}
1001
GENIUS_GENOBJ-N-FIL_13
1002
{
1000
OWNER
1000
GEN
1002
}
  0
ARC
  5
6DE
330
1F
100
AcDbEntity
  8
0
100
AcDbCircle
 10
211.1868140936011
 20
54.62096855033171
 30
0.0
 40
2.2
100
AcDbArc
 50
133.0489444320573
 51
171.3434100197222
1001
GENIUS_GENODEF_13
1002
{
1000
HIER
1070
     0
1002
}
1002
{
1000
MANEDIT
1070
     0
1002
}
1002
{
1000
NOSEL
1070
     0
1002
}
1002
{
1000
BEHIND
1070
     0
1002
}
1002
{
1000
REACTOR
1002
}
1001
GENIUS_GENOBJ-N-FIL_13
1002
{
1000
OWNER
1000
GEN
1002
}
  0
ARC
  5
6DF
330
1F
100
AcDbEntity
  8
0
100
AcDbCircle
 10
-282.3961160022393
 20
116.4644235085086
 30
0.0
 40
500.8
100
AcDbArc
 50
354.6163377050313
 51
3.690434494567746
  0
ARC
  5
6E0
330
1F
100
AcDbEntity
  8
0
100
AcDbCircle
 10
-282.3961160022393
 20
116.4644235085086
 30
0.0
 40
501.7999999999998
100
AcDbArc
 50
354.9595267191007
 51
1.601927772411214
  0
ARC
  5
6E1
330
1F
100
AcDbEntity
  8
0
100
AcDbCircle
 10
218.2081588496641
 20
130.4644235085087
 30
0.0
 40
1.0
100
AcDbArc
 50
1.601927772411214
 51
90.0
1001
GENIUS_GENODEF_13
1002
{
1000
HIER
1070
     0
1002
}
1002
{
1000
MANEDIT
1070
     0
1002
}
1002
{
1000
NOSEL
1070
     0
1002
}
1002
{
1000
BEHIND
1070
     0
1002
}
1002
{
1000
REACTOR
1002
}
1001
GENIUS_GENOBJ-N-FIL_13
1002
{
1000
OWNER
1000
GEN
1002
}
  0
LINE
  5
6E2
330
1F
100
AcDbEntity
  8
0
100
AcDbLine
 10
218.1791930172928
 20
131.4644235085086
 30
0.0
 11
218.2081588496641
 21
131.4644235085086
 31
0.0
1001
GENIUS_GENODEF_13
1002
{
1000
HIER
1070
     0
1002
}
1002
{
1000
MANEDIT
1070
     0
1002
}
1002
{
1000
NOSEL
1070
     0
1002
}
1002
{
1000
BEHIND
1070
     0
1002
}
1002
{
1000
REACTOR
1002
}
1001
GENIUS_GENOBJ-N-CEN_13
1002
{
1000
OWNER
1000
GEN
1002
}
  0
ARC
  5
6E3
330
1F
100
AcDbEntity
  8
0
100
AcDbCircle
 10
198.6043981965812
 20
147.4886936928378
 30
0.0
 40
18.8
100
AcDbArc
 50
3.690434494568154
 51
77.62565673863491
1001
GENIUS_GENODEF_13
1002
{
1000
HIER
1070
     0
1002
}
1002
{
1000
MANEDIT
1070
     0
1002
}
1002
{
1000
NOSEL
1070
     0
1002
}
1002
{
1000
BEHIND
1070
     0
1002
}
1002
{
1000
REACTOR
1002
}
1001
GENIUS_GENOBJ-N-FIL_13
1002
{
1000
OWNER
1000
GEN
1002
}
  0
ARC
  5
6E4
330
1F
100
AcDbEntity
  8
0
100
AcDbCircle
 10
189.6038839977609
 20
106.4644235085086
 30
0.0
 40
60.8
100
AcDbArc
 50
77.62565673863491
 51
102.374343261365
  0
ARC
  5
6E5
330
1F
100
AcDbEntity
  8
0
100
AcDbCircle
 10
180.6033697989401
 20
147.4886936928377
 30
0.0
 40
18.8
100
AcDbArc
 50
102.374343261365
 51
176.3095655054318
1001
GENIUS_GENODEF_13
1002
{
1000
HIER
1070
     0
1002
}
1002
{
1000
MANEDIT
1070
     0
1002
}
1002
{
1000
NOSEL
1070
     0
1002
}
1002
{
1000
BEHIND
1070
     0
1002
}
1002
{
1000
REACTOR
1002
}
1001
GENIUS_GENOBJ-N-FIL_13
1002
{
1000
OWNER
1000
GEN
1002
}
  0
LINE
  5
6E6
330
1F
100
AcDbEntity
  8
0
100
AcDbLine
 10
162.7405359754791
 20
71.46442350850867
 30
0.0
 11
162.8297467372166
 21
71.46442350850867
 31
0.0
1001
GENIUS_GENODEF_13
1002
{
1000
HIER
1070
     0
1002
}
1002
{
1000
MANEDIT
1070
     0
1002
}
1002
{
1000
NOSEL
1070
     0
1002
}
1002
{
1000
BEHIND
1070
     0
1002
}
1002
{
1000
REACTOR
1002
}
1001
GENIUS_GENOBJ-N-CEN_13
1002
{
1000
OWNER
1000
GEN
1002
}
  0
ARC
  5
6E7
330
1F
100
AcDbEntity
  8
0
100
AcDbCircle
 10
160.9996091458572
 20
130.4644235085087
 30
0.0
 40
1.0
100
AcDbArc
 50
90.0
 51
178.3980722275854
1001
GENIUS_GENODEF_13
1002
{
1000
HIER
1070
     0
1002
}
1002
{
1000
MANEDIT
1070
     0
1002
}
1002
{
1000
NOSEL
1070
     0
1002
}
1002
{
1000
BEHIND
1070
     0
1002
}
1002
{
1000
REACTOR
1002
}
1001
GENIUS_GENOBJ-N-FIL_13
1002
{
1000
OWNER
1000
GEN
1002
}
  0
LINE
  5
6E8
330
1F
100
AcDbEntity
  8
0
100
AcDbLine
 10
160.9996091458572
 20
131.4644235085086
 30
0.0
 11
161.0285749782285
 21
131.4644235085086
 31
0.0
1001
GENIUS_GENODEF_13
1002
{
1000
HIER
1070
     0
1002
}
1002
{
1000
MANEDIT
1070
     0
1002
}
1002
{
1000
NOSEL
1070
     0
1002
}
1002
{
1000
BEHIND
1070
     0
1002
}
1002
{
1000
REACTOR
1002
}
1001
GENIUS_GENOBJ-N-CEN_13
1002
{
1000
OWNER
1000
GEN
1002
}
  0
ARC
  5
6E9
330
1F
100
AcDbEntity
  8
0
100
AcDbCircle
 10
183.7212797699051
 20
71.42869795198141
 30
0.0
 40
20.8
100
AcDbArc
 50
185.383662294967
 51
226.9510555680052
1001
GENIUS_GENODEF_13
1002
{
1000
HIER
1070
     0
1002
}
1002
{
1000
MANEDIT
1070
     0
1002
}
1002
{
1000
NOSEL
1070
     0
1002
}
1002
{
1000
BEHIND
1070
     0
1002
}
1002
{
1000
REACTOR
1002
}
1001
GENIUS_GENOBJ-N-FIL_13
1002
{
1000
OWNER
1000
GEN
1002
}
  0
ARC
  5
6EA
330
1F
100
AcDbEntity
  8
0
100
AcDbCircle
 10
176.9184277515139
 20
55.97557517074696
 30
0.0
 40
6.799999999999998
100
AcDbArc
 50
188.6565899803617
 51
256.4133371488765
1001
GENIUS_GENODEF_13
1002
{
1000
HIER
1070
     0
1002
}
1002
{
1000
MANEDIT
1070
     0
1002
}
1002
{
1000
NOSEL
1070
     0
1002
}
1002
{
1000
BEHIND
1070
     0
1002
}
1002
{
1000
REACTOR
1002
}
1001
GENIUS_GENOBJ-N-FIL_13
1002
{
1000
OWNER
1000
GEN
1002
}
  0
ARC
  5
6EB
330
1F
100
AcDbEntity
  8
0
100
AcDbCircle
 10
168.0209539019384
 20
54.62096855031457
 30
0.0
 40
2.2
100
AcDbArc
 50
8.656589980361701
 51
46.95105556800433
1001
GENIUS_GENODEF_13
1002
{
1000
HIER
1070
     0
1002
}
1002
{
1000
MANEDIT
1070
     0
1002
}
1002
{
1000
NOSEL
1070
     0
1002
}
1002
{
1000
BEHIND
1070
     0
1002
}
1002
{
1000
REACTOR
1002
}
1001
GENIUS_GENOBJ-N-FIL_13
1002
{
1000
OWNER
1000
GEN
1002
}
  0
ARC
  5
6EC
330
1F
100
AcDbEntity
  8
0
100
AcDbCircle
 10
168.0209539019384
 20
54.62096855031457
 30
0.0
 40
2.2
100
AcDbArc
 50
46.95105556800433
 51
46.95105556800433
1001
GENIUS_GENODEF_13
1002
{
1000
HIER
1070
     0
1002
}
1002
{
1000
MANEDIT
1070
     0
1002
}
1002
{
1000
NOSEL
1070
     0
1002
}
1002
{
1000
BEHIND
1070
     0
1002
}
1002
{
1000
REACTOR
1002
}
1001
GENIUS_GENOBJ-N-FIL_13
1002
{
1000
OWNER
1000
GEN
1002
}
  0
ARC
  5
6EE
330
1F
100
AcDbEntity
  8
0
100
AcDbCircle
 10
216.4672320200424
 20
72.4644235085086
 30
0.0
 40
1.0
100
AcDbArc
 50
270.0
 51
354.9595267190826
1001
GENIUS_GENODEF_13
1002
{
1000
HIER
1070
     0
1002
}
1002
{
1000
MANEDIT
1070
     0
1002
}
1002
{
1000
NOSEL
1070
     0
1002
}
1002
{
1000
BEHIND
1070
     0
1002
}
1002
{
1000
REACTOR
1002
}
1001
GENIUS_GENOBJ-N-FIL_13
1002
{
1000
OWNER
1000
GEN
1002
}
  0
LINE
  5
6EF
330
1F
100
AcDbEntity
  8
0
100
AcDbLine
 10
216.3780212583049
 20
71.46442350850858
 30
0.0
 11
216.4672320200424
 21
71.46442350850858
 31
0.0
1001
GENIUS_GENODEF_13
1002
{
1000
HIER
1070
     0
1002
}
1002
{
1000
MANEDIT
1070
     0
1002
}
1002
{
1000
NOSEL
1070
     0
1002
}
1002
{
1000
BEHIND
1070
     0
1002
}
1002
{
1000
REACTOR
1002
}
1001
GENIUS_GENOBJ-N-CEN_13
1002
{
1000
OWNER
1000
GEN
1002
}
  0
LINE
  5
6F1
330
1F
100
AcDbEntity
  8
0
100
AcDbLine
 10
201.6038839977603
 20
59.9644235085087
 30
0.0
 11
201.6038839977603
 21
64.96442350850869
 31
0.0
  0
LINE
  5
6F2
330
1F
100
AcDbEntity
  8
0
100
AcDbLine
 10
177.6038839977603
 20
59.9644235085087
 30
0.0
 11
177.6038839977603
 21
64.96442350850869
 31
0.0
  0
LINE
  5
6F3
330
1F
100
AcDbEntity
  8
0
100
AcDbLine
 10
201.6038839977603
 20
59.9644235085087
 30
0.0
 11
177.6038839977603
 21
59.9644235085087
 31
0.0
  0
LINE
  5
6F4
330
1F
100
AcDbEntity
  8
0
100
AcDbLine
 10
201.6038839977603
 20
64.96442350850869
 30
0.0
 11
177.6038839977603
 21
64.96442350850869
 31
0.0
  0
LINE
  5
6F5
330
1F
100
AcDbEntity
  8
0
100
AcDbLine
 10
216.4672320200451
 20
71.46442350850467
 30
0.0
 11
216.3780212583077
 21
71.46442350850467
 31
0.0
1001
GENIUS_GENODEF_13
1002
{
1000
HIER
1070
     0
1002
}
1002
{
1000
MANEDIT
1070
     0
1002
}
1002
{
1000
NOSEL
1070
     0
1002
}
1002
{
1000
BEHIND
1070
     0
1002
}
1002
{
1000
REACTOR
1002
}
1001
GENIUS_GENOBJ-N-CEN_13
1002
{
1000
OWNER
1000
GEN
1002
}
  0
ARC
  5
6F6
330
1F
100
AcDbEntity
  8
0
100
AcDbCircle
 10
216.4672320200454
 20
72.46442350850465
 30
0.0
 40
1.0
100
AcDbArc
 50
269.9999999999894
 51
354.9595267190904
1001
GENIUS_GENODEF_13
1002
{
1000
HIER
1070
     0
1002
}
1002
{
1000
MANEDIT
1070
     0
1002
}
1002
{
1000
NOSEL
1070
     0
1002
}
1002
{
1000
BEHIND
1070
     0
1002
}
1002
{
1000
REACTOR
1002
}
1001
GENIUS_GENOBJ-N-FIL_13
1002
{
1000
OWNER
1000
GEN
1002
}
  0
ARC
  5
6F7
330
1F
100
AcDbEntity
  8
0
100
AcDbCircle
 10
109.6038839977604
 20
54.46442350850848
 30
0.0
 40
4.0
100
AcDbArc
 50
180.0
 51
270.0
1001
GENIUS_GENODEF_13
1002
{
1000
HIER
1070
     0
1002
}
1002
{
1000
MANEDIT
1070
     0
1002
}
1002
{
1000
NOSEL
1070
     0
1002
}
1002
{
1000
BEHIND
1070
     0
1002
}
1002
{
1000
REACTOR
1002
}
1001
GENIUS_GENOBJ-N-FIL_13
1002
{
1000
OWNER
1000
GEN
1002
}
  0
ARC
  5
6F8
330
1F
100
AcDbEntity
  8
0
100
AcDbCircle
 10
109.6038839977604
 20
54.46442350850848
 30
0.0
 40
6.0
100
AcDbArc
 50
180.0
 51
270.0
1001
GENIUS_GENODEF_13
1002
{
1000
HIER
1070
     0
1002
}
1002
{
1000
MANEDIT
1070
     0
1002
}
1002
{
1000
NOSEL
1070
     0
1002
}
1002
{
1000
BEHIND
1070
     0
1002
}
1002
{
1000
REACTOR
1002
}
1001
GENIUS_GENOBJ-N-FIL_13
1002
{
1000
OWNER
1000
GEN
1002
}
  0
LINE
  5
6F9
330
1F
100
AcDbEntity
  8
0
100
AcDbLine
 10
103.6038839977604
 20
120.9644235085085
 30
0.0
 11
103.6038839977604
 21
54.46442350850848
 31
0.0
  0
LINE
  5
6FA
330
1F
100
AcDbEntity
  8
0
100
AcDbLine
 10
105.6038839977605
 20
119.9644235085085
 30
0.0
 11
105.6038839977604
 21
54.46442350850848
 31
0.0
  0
LINE
  5
6FB
330
1F
100
AcDbEntity
  8
0
100
AcDbLine
 10
96.90388399776095
 20
152.4644235085094
 30
0.0
 11
104.4284715661961
 21
152.8587704329918
 31
0.0
  0
LINE
  5
6FC
330
1F
100
AcDbEntity
  8
0
100
AcDbLine
 10
96.90388399776095
 20
122.5023844250703
 30
0.0
 11
103.6038839977605
 21
122.1512523038742
 31
0.0
  0
CIRCLE
  5
6FE
330
1F
100
AcDbEntity
  8
0
100
AcDbCircle
 10
29.60388399777015
 20
137.4644235085096
 30
0.0
 40
15.0
  0
CIRCLE
  5
6FF
330
1F
100
AcDbEntity
  8
0
100
AcDbCircle
 10
29.60388399777015
 20
137.4644235085096
 30
0.0
 40
8.5
  0
CIRCLE
  5
700
330
1F
100
AcDbEntity
  8
0
100
AcDbCircle
 10
29.60388399777015
 20
137.4644235085096
 30
0.0
 40
8.9
  0
CIRCLE
  5
701
330
1F
100
AcDbEntity
  8
0
100
AcDbCircle
 10
29.60388399777015
 20
137.4644235085096
 30
0.0
 40
9.3
  0
CIRCLE
  5
702
330
1F
100
AcDbEntity
  8
0
100
AcDbCircle
 10
29.60388399777015
 20
137.4644235085096
 30
0.0
 40
9.699999999999999
  0
CIRCLE
  5
703
330
1F
100
AcDbEntity
  8
0
100
AcDbCircle
 10
29.60388399777015
 20
137.4644235085096
 30
0.0
 40
10.1
  0
CIRCLE
  5
704
330
1F
100
AcDbEntity
  8
0
100
AcDbCircle
 10
29.60388399777015
 20
137.4644235085096
 30
0.0
 40
10.5
  0
CIRCLE
  5
705
330
1F
100
AcDbEntity
  8
0
100
AcDbCircle
 10
29.60388399777015
 20
137.4644235085096
 30
0.0
 40
10.9
  0
CIRCLE
  5
706
330
1F
100
AcDbEntity
  8
0
100
AcDbCircle
 10
29.60388399777015
 20
137.4644235085096
 30
0.0
 40
11.3
  0
CIRCLE
  5
707
330
1F
100
AcDbEntity
  8
0
100
AcDbCircle
 10
29.60388399777015
 20
137.4644235085096
 30
0.0
 40
11.7
  0
CIRCLE
  5
708
330
1F
100
AcDbEntity
  8
0
100
AcDbCircle
 10
29.60388399777015
 20
137.4644235085096
 30
0.0
 40
12.1
  0
ARC
  5
709
330
1F
100
AcDbEntity
  8
0
100
AcDbCircle
 10
29.60388399777023
 20
137.4644235085096
 30
0.0
 40
15.3
100
AcDbArc
 50
266.2525064443429
 51
273.7474935556563
  0
LINE
  5
70A
330
1F
100
AcDbEntity
  8
0
100
AcDbLine
 10
28.60388399777015
 20
122.1971382226442
 30
0.0
 11
28.60388399777015
 21
122.4977939614138
 31
0.0
1001
GENIUS_GENODEF_13
1002
{
1000
HIER
1070
     0
1002
}
1002
{
1000
MANEDIT
1070
     0
1002
}
1002
{
1000
NOSEL
1070
     0
1002
}
1002
{
1000
BEHIND
1070
     0
1002
}
1002
{
1000
REACTOR
1002
}
1001
GENIUS_GENOBJ-N-CEN_13
1002
{
1000
OWNER
1000
GEN
1002
}
  0
LINE
  5
70B
330
1F
100
AcDbEntity
  8
0
100
AcDbLine
 10
30.60388399777015
 20
122.1971382226442
 30
0.0
 11
30.60388399777015
 21
122.4977939614138
 31
0.0
1001
GENIUS_GENODEF_13
1002
{
1000
HIER
1070
     0
1002
}
1002
{
1000
MANEDIT
1070
     0
1002
}
1002
{
1000
NOSEL
1070
     0
1002
}
1002
{
1000
BEHIND
1070
     0
1002
}
1002
{
1000
REACTOR
1002
}
1001
GENIUS_GENOBJ-N-CEN_13
1002
{
1000
OWNER
1000
GEN
1002
}
  0
LINE
  5
70C
330
1F
100
AcDbEntity
  8
0
100
AcDbLine
 10
14.33659871190487
 20
138.4644235085095
 30
0.0
 11
14.6372544506744
 21
138.4644235085095
 31
0.0
1001
GENIUS_GENODEF_13
1002
{
1000
HIER
1070
     0
1002
}
1002
{
1000
MANEDIT
1070
     0
1002
}
1002
{
1000
NOSEL
1070
     0
1002
}
1002
{
1000
BEHIND
1070
     0
1002
}
1002
{
1000
REACTOR
1002
}
1001
GENIUS_GENOBJ-N-CEN_13
1002
{
1000
OWNER
1000
GEN
1002
}
  0
LINE
  5
70D
330
1F
100
AcDbEntity
  8
0
100
AcDbLine
 10
14.33659871190487
 20
136.4644235085095
 30
0.0
 11
14.6372544506744
 21
136.4644235085095
 31
0.0
1001
GENIUS_GENODEF_13
1002
{
1000
HIER
1070
     0
1002
}
1002
{
1000
MANEDIT
1070
     0
1002
}
1002
{
1000
NOSEL
1070
     0
1002
}
1002
{
1000
BEHIND
1070
     0
1002
}
1002
{
1000
REACTOR
1002
}
1001
GENIUS_GENOBJ-N-CEN_13
1002
{
1000
OWNER
1000
GEN
1002
}
  0
ARC
  5
70E
330
1F
100
AcDbEntity
  8
0
100
AcDbCircle
 10
29.60388399777015
 20
137.4644235085096
 30
0.0
 40
15.3
100
AcDbArc
 50
176.2525064443429
 51
183.7474935556571
  0
ARC
  5
70F
330
1F
100
AcDbEntity
  8
0
100
AcDbCircle
 10
29.60388399777015
 20
137.4644235085096
 30
0.0
 40
15.3
100
AcDbArc
 50
86.25250644434292
 51
93.74749355565624
  0
LINE
  5
710
330
1F
100
AcDbEntity
  8
0
100
AcDbLine
 10
28.60388399777022
 20
152.7317087943749
 30
0.0
 11
28.60388399777022
 21
152.4310530556052
 31
0.0
1001
GENIUS_GENODEF_13
1002
{
1000
HIER
1070
     0
1002
}
1002
{
1000
MANEDIT
1070
     0
1002
}
1002
{
1000
NOSEL
1070
     0
1002
}
1002
{
1000
BEHIND
1070
     0
1002
}
1002
{
1000
REACTOR
1002
}
1001
GENIUS_GENOBJ-N-CEN_13
1002
{
1000
OWNER
1000
GEN
1002
}
  0
LINE
  5
711
330
1F
100
AcDbEntity
  8
0
100
AcDbLine
 10
30.60388399777015
 20
152.7317087943749
 30
0.0
 11
30.60388399777015
 21
152.4310530556052
 31
0.0
1001
GENIUS_GENODEF_13
1002
{
1000
HIER
1070
     0
1002
}
1002
{
1000
MANEDIT
1070
     0
1002
}
1002
{
1000
NOSEL
1070
     0
1002
}
1002
{
1000
BEHIND
1070
     0
1002
}
1002
{
1000
REACTOR
1002
}
1001
GENIUS_GENOBJ-N-CEN_13
1002
{
1000
OWNER
1000
GEN
1002
}
  0
ARC
  5
712
330
1F
100
AcDbEntity
  8
0
100
AcDbCircle
 10
29.60388399777015
 20
137.4644235085096
 30
0.0
 40
15.3
100
AcDbArc
 50
356.252506444343
 51
3.747493555657077
  0
LINE
  5
713
330
1F
100
AcDbEntity
  8
0
100
AcDbLine
 10
44.87116928363552
 20
136.4644235085095
 30
0.0
 11
44.57051354486593
 21
136.4644235085095
 31
0.0
1001
GENIUS_GENODEF_13
1002
{
1000
HIER
1070
     0
1002
}
1002
{
1000
MANEDIT
1070
     0
1002
}
1002
{
1000
NOSEL
1070
     0
1002
}
1002
{
1000
BEHIND
1070
     0
1002
}
1002
{
1000
REACTOR
1002
}
1001
GENIUS_GENOBJ-N-CEN_13
1002
{
1000
OWNER
1000
GEN
1002
}
  0
LINE
  5
714
330
1F
100
AcDbEntity
  8
0
100
AcDbLine
 10
44.87116928363552
 20
138.4644235085095
 30
0.0
 11
44.57051354486593
 21
138.4644235085095
 31
0.0
1001
GENIUS_GENODEF_13
1002
{
1000
HIER
1070
     0
1002
}
1002
{
1000
MANEDIT
1070
     0
1002
}
1002
{
1000
NOSEL
1070
     0
1002
}
1002
{
1000
BEHIND
1070
     0
1002
}
1002
{
1000
REACTOR
1002
}
1001
GENIUS_GENOBJ-N-CEN_13
1002
{
1000
OWNER
1000
GEN
1002
}
  0
CIRCLE
  5
715
330
1F
100
AcDbEntity
  8
0
100
AcDbCircle
 10
29.60388399777015
 20
137.4644235085096
 30
0.0
 40
15.37102472405126
  0
LINE
  5
726
330
1F
100
AcDbEntity
  8
0
100
AcDbLine
 10
187.8538839977676
 20
52.4644235085089
 30
0.0
 11
191.3538839977675
 21
52.4644235085089
 31
0.0
  0
ARC
  5
72D
330
1F
100
AcDbEntity
  8
0
100
AcDbCircle
 10
189.6038839977629
 20
108.4644235085088
 30
0.0
 40
60.0
100
AcDbArc
 50
256.4312596275454
 51
283.5687403724423
  0
ARC
  5
72E
330
1F
100
AcDbEntity
  8
0
100
AcDbCircle
 10
189.6038839977603
 20
108.4644235085088
 30
0.0
 40
60.8
100
AcDbArc
 50
256.4133371488766
 51
283.586662851142
  0
LINE
  5
73B
330
1F
100
AcDbEntity
  8
0
100
AcDbLine
 10
195.2058839977664
 20
138.7244235085087
 30
0.0
 11
194.4858839977664
 21
138.1144235085087
 31
0.0
  0
LINE
  5
73C
330
1F
100
AcDbEntity
  8
0
100
AcDbLine
 10
196.0058839977664
 20
137.9344235085087
 30
0.0
 11
195.3508839977664
 21
138.5794235085087
 31
0.0
  0
LINE
  5
73D
330
1F
100
AcDbEntity
  8
0
100
AcDbLine
 10
195.3508839977664
 20
138.5794235085087
 30
0.0
 11
194.8208839977664
 21
138.1394235085087
 31
0.0
  0
LINE
  5
73F
330
1F
100
AcDbEntity
  8
0
100
AcDbLine
 10
192.1258839977664
 20
138.7094235085086
 30
0.0
 11
192.7308839977664
 21
138.1144235085087
 31
0.0
  0
LINE
  5
740
330
1F
100
AcDbEntity
  8
0
100
AcDbLine
 10
191.9708839977664
 20
138.5794235085087
 30
0.0
 11
192.4108839977664
 21
138.1494235085086
 31
0.0
  0
LINE
  5
741
330
1F
100
AcDbEntity
  8
0
100
AcDbLine
 10
191.1858839977664
 20
137.9194235085087
 30
0.0
 11
191.9708839977664
 21
138.5794235085087
 31
0.0
  0
LINE
  5
742
330
1F
100
AcDbEntity
  8
0
100
AcDbLine
 10
184.6598839977664
 20
137.9194235085087
 30
0.0
 11
185.4448839977664
 21
138.5794235085087
 31
0.0
  0
LINE
  5
743
330
1F
100
AcDbEntity
  8
0
100
AcDbLine
 10
188.6798839977664
 20
138.7244235085087
 30
0.0
 11
187.9598839977664
 21
138.1144235085087
 31
0.0
  0
LINE
  5
744
330
1F
100
AcDbEntity
  8
0
100
AcDbLine
 10
185.5998839977664
 20
138.7094235085086
 30
0.0
 11
186.2048839977664
 21
138.1144235085087
 31
0.0
  0
LINE
  5
745
330
1F
100
AcDbEntity
  8
0
100
AcDbLine
 10
185.4448839977664
 20
138.5794235085087
 30
0.0
 11
185.8848839977664
 21
138.1494235085086
 31
0.0
  0
LINE
  5
74A
330
1F
100
AcDbEntity
  8
0
100
AcDbLine
 10
202.1038839977653
 20
148.5644235085087
 30
0.0
 11
202.1038839977653
 21
124.9644235085087
 31
0.0
1001
GENIUS_GENODEF_13
1002
{
1000
HIER
1070
     0
1002
}
1002
{
1000
MANEDIT
1070
     0
1002
}
1002
{
1000
NOSEL
1070
     0
1002
}
1002
{
1000
BEHIND
1070
     0
1002
}
1002
{
1000
REACTOR
1002
}
1001
GENIUS_GENOBJ-N-CEN_13
1002
{
1000
OWNER
1000
GEN
1002
}
  0
LINE
  5
74B
330
1F
100
AcDbEntity
  8
0
100
AcDbLine
 10
177.1038839977652
 20
148.5644235085086
 30
0.0
 11
177.1038839977653
 21
124.9644235085086
 31
0.0
1001
GENIUS_GENODEF_13
1002
{
1000
HIER
1070
     0
1002
}
1002
{
1000
MANEDIT
1070
     0
1002
}
1002
{
1000
NOSEL
1070
     0
1002
}
1002
{
1000
BEHIND
1070
     0
1002
}
1002
{
1000
REACTOR
1002
}
1001
GENIUS_GENOBJ-N-CEN_13
1002
{
1000
OWNER
1000
GEN
1002
}
  0
ARC
  5
751
330
1F
100
AcDbEntity
  8
0
100
AcDbCircle
 10
187.8798839977664
 20
133.3594235085087
 30
0.0
 40
1.194999999999998
100
AcDbArc
 50
270.0
 51
304.2422045816789
  0
LINE
  5
752
330
1F
100
AcDbEntity
  8
0
100
AcDbLine
 10
188.5523014877365
 20
132.3715572629155
 30
0.0
 11
187.7148839977665
 21
133.3644235085087
 31
0.0
  0
LINE
  5
753
330
1F
100
AcDbEntity
  8
0
100
AcDbLine
 10
177.1038839977653
 20
124.9644235085086
 30
0.0
 11
202.1038839977653
 21
124.9644235085087
 31
0.0
  0
LINE
  5
756
330
1F
100
AcDbEntity
  8
0
100
AcDbLine
 10
184.4985258826485
 20
132.5030653933907
 30
0.0
 11
185.4748839977665
 21
133.4794235085087
 31
0.0
  0
LINE
  5
757
330
1F
100
AcDbEntity
  8
0
100
AcDbLine
 10
184.6441859335221
 20
132.3687289345855
 30
0.0
 11
185.6448839977664
 21
133.3644235085087
 31
0.0
  0
LINE
  5
758
330
1F
100
AcDbEntity
  8
0
100
AcDbLine
 10
184.6598839977664
 20
137.9194235085087
 30
0.0
 11
184.2498839977664
 21
133.2544235085087
 31
0.0
  0
ARC
  5
75A
330
1F
100
AcDbEntity
  8
0
100
AcDbCircle
 10
185.2460786958582
 20
133.1672677657609
 30
0.0
 40
1.0
100
AcDbArc
 50
175.0000000000001
 51
221.6211626396135
  0
ARC
  5
75B
330
1F
100
AcDbEntity
  8
0
100
AcDbCircle
 10
185.2488839977664
 20
133.1644235085087
 30
0.0
 40
1.0
100
AcDbArc
 50
175.0000000000001
 51
221.4999999999992
  0
ARC
  5
75C
330
1F
100
AcDbEntity
  8
0
100
AcDbCircle
 10
185.2498839977664
 20
133.1644235085087
 30
0.0
 40
1.0
100
AcDbArc
 50
232.7209092036895
 51
270.0
  0
LINE
  5
75D
330
1F
100
AcDbEntity
  8
0
100
AcDbLine
 10
185.2498839977664
 20
132.1644235085087
 30
0.0
 11
187.8798839977664
 21
132.1644235085087
 31
0.0
  0
LINE
  5
75E
330
1F
100
AcDbEntity
  8
0
100
AcDbLine
 10
186.2048839977664
 20
138.1144235085087
 30
0.0
 11
187.9598839977664
 21
138.1144235085087
 31
0.0
  0
LINE
  5
75F
330
1F
100
AcDbEntity
  8
0
100
AcDbLine
 10
187.7148839977665
 20
133.3644235085087
 30
0.0
 11
185.6448839977664
 21
133.3644235085087
 31
0.0
  0
LINE
  5
760
330
1F
100
AcDbEntity
  8
0
100
AcDbLine
 10
185.8848839977664
 20
138.1494235085086
 30
0.0
 11
185.4748839977665
 21
133.4794235085087
 31
0.0
  0
CIRCLE
  5
772
330
1F
100
AcDbEntity
  8
0
100
AcDbCircle
 10
194.0088839977651
 20
125.6644235085087
 30
0.0
 40
0.2
  0
ARC
  5
77B
330
1F
100
AcDbEntity
  8
0
100
AcDbCircle
 10
194.4054503600563
 20
133.3640103998058
 30
0.0
 40
1.199999999999999
100
AcDbArc
 50
313.6581624010748
 51
355.0000000000002
  0
LINE
  5
77C
330
1F
100
AcDbEntity
  8
0
100
AcDbLine
 10
195.0783014877365
 20
132.3715572629155
 30
0.0
 11
194.2408839977664
 21
133.3644235085087
 31
0.0
  0
LINE
  5
77D
330
1F
100
AcDbEntity
  8
0
100
AcDbLine
 10
195.2338757560205
 20
132.4958444112106
 30
0.0
 11
194.4158839977664
 21
133.4744235085087
 31
0.0
  0
LINE
  5
77E
330
1F
100
AcDbEntity
  8
0
100
AcDbLine
 10
191.1701859335221
 20
132.3687289345855
 30
0.0
 11
192.1708839977664
 21
133.3644235085087
 31
0.0
  0
LINE
  5
77F
330
1F
100
AcDbEntity
  8
0
100
AcDbLine
 10
191.0245258826485
 20
132.5030653933907
 30
0.0
 11
192.0008839977664
 21
133.4794235085087
 31
0.0
  0
LINE
  5
780
330
1F
100
AcDbEntity
  8
0
100
AcDbLine
 10
191.1848839977664
 20
137.9194235085087
 30
0.0
 11
190.7798839977664
 21
133.2544235085087
 31
0.0
  0
LINE
  5
785
330
1F
100
AcDbEntity
  8
0
100
AcDbLine
 10
191.7758839977664
 20
132.1644235085087
 30
0.0
 11
194.4058839977664
 21
132.1644235085087
 31
0.0
  0
ARC
  5
786
330
1F
100
AcDbEntity
  8
0
100
AcDbCircle
 10
191.7748839977664
 20
133.1644235085087
 30
0.0
 40
1.0
100
AcDbArc
 50
175.0000000000001
 51
221.4999999999992
  0
ARC
  5
787
330
1F
100
AcDbEntity
  8
0
100
AcDbCircle
 10
191.7720786958582
 20
133.1672677657609
 30
0.0
 40
1.0
100
AcDbArc
 50
175.0000000000001
 51
221.6211626396135
  0
ARC
  5
788
330
1F
100
AcDbEntity
  8
0
100
AcDbCircle
 10
191.7758839977664
 20
133.1644235085087
 30
0.0
 40
1.0
100
AcDbArc
 50
232.7209092036895
 51
270.0
  0
ARC
  5
78D
330
1F
100
AcDbEntity
  8
0
100
AcDbCircle
 10
194.4058839977664
 20
133.3594235085087
 30
0.0
 40
1.194999999999998
100
AcDbArc
 50
270.0
 51
304.2422045816789
  0
LINE
  5
78E
330
1F
100
AcDbEntity
  8
0
100
AcDbLine
 10
194.8208839977664
 20
138.1394235085087
 30
0.0
 11
194.4158839977664
 21
133.4744235085087
 31
0.0
  0
LINE
  5
78F
330
1F
100
AcDbEntity
  8
0
100
AcDbLine
 10
192.4108839977664
 20
138.1494235085086
 30
0.0
 11
192.0008839977664
 21
133.4794235085087
 31
0.0
  0
LINE
  5
790
330
1F
100
AcDbEntity
  8
0
100
AcDbLine
 10
194.2408839977664
 20
133.3644235085087
 30
0.0
 11
192.1708839977664
 21
133.3644235085087
 31
0.0
  0
LINE
  5
791
330
1F
100
AcDbEntity
  8
0
100
AcDbLine
 10
192.7308839977664
 20
138.1144235085087
 30
0.0
 11
194.4858839977664
 21
138.1144235085087
 31
0.0
  0
LINE
  5
793
330
1F
100
AcDbEntity
  8
0
100
AcDbLine
 10
199.7430965961916
 20
134.7520219337055
 30
0.0
 11
199.5677028954042
 21
132.7317463431542
 31
0.0
  0
LINE
  5
794
330
1F
100
AcDbEntity
  8
0
100
AcDbLine
 10
200.0808918717822
 20
132.6386361069338
 30
0.0
 11
200.2562855725697
 21
134.6632424061465
 31
0.0
  0
LINE
  5
795
330
1F
100
AcDbEntity
  8
0
100
AcDbLine
 10
195.6008839977664
 20
133.2594235085087
 30
0.0
 11
196.0058839977664
 21
137.9344235085087
 31
0.0
  0
LINE
  5
799
330
1F
100
AcDbEntity
  8
0
100
AcDbLine
 10
198.4243958087899
 20
132.1644235085087
 30
0.0
 11
199.5633721867428
 21
132.1644235085087
 31
0.0
  0
LINE
  5
79A
330
1F
100
AcDbEntity
  8
0
100
AcDbLine
 10
199.4919154938294
 20
132.6841085478787
 30
0.0
 11
198.595458800916
 21
132.6841085478787
 31
0.0
  0
LINE
  5
7A0
330
1F
100
AcDbEntity
  8
0
100
AcDbLine
 10
198.1620856234874
 20
132.2529022363373
 30
0.0
 11
198.595458800916
 21
132.6841085478787
 31
0.0
  0
ARC
  5
7A1
330
1F
100
AcDbEntity
  8
0
100
AcDbCircle
 10
198.4243958087899
 20
132.5974943746504
 30
0.0
 40
0.4330708661417324
100
AcDbArc
 50
232.7209092036895
 51
270.0
  0
CIRCLE
  5
7A2
330
1F
100
AcDbEntity
  8
0
100
AcDbCircle
 10
197.3688839977664
 20
132.3644235085086
 30
0.0
 40
0.2
  0
LINE
  5
7A5
330
1F
100
AcDbEntity
  8
0
100
AcDbLine
 10
199.8545766115329
 20
132.2541271029368
 30
0.0
 11
199.4919154938294
 21
132.6841085478787
 31
0.0
  0
ARC
  5
7A6
330
1F
100
AcDbEntity
  8
0
100
AcDbCircle
 10
199.5633721867428
 20
132.681943193548
 30
0.0
 40
0.5175196850393701
100
AcDbArc
 50
270.0
 51
304.2422045816789
  0
LINE
  5
7A7
330
1F
100
AcDbEntity
  8
0
100
AcDbLine
 10
199.9219512946481
 20
132.3079522458993
 30
0.0
 11
199.5677028954042
 21
132.7317463431542
 31
0.0
  0
ARC
  5
7A8
330
1F
100
AcDbEntity
  8
0
100
AcDbCircle
 10
199.5631843908841
 20
132.683929642535
 30
0.0
 40
0.5196850393700787
100
AcDbArc
 50
313.6581624010748
 51
355.0000000000002
  0
LINE
  5
7A9
330
1F
100
AcDbEntity
  8
0
100
AcDbLine
 10
198.9549076198136
 20
137.1447384691386
 30
0.0
 11
199.8535296670577
 21
137.1447384691386
 31
0.0
  0
LINE
  5
7AA
330
1F
100
AcDbEntity
  8
0
100
AcDbLine
 10
200.0484115568216
 20
137.6644235085087
 30
0.0
 11
198.9094351788688
 21
137.6644235085087
 31
0.0
  0
LINE
  5
7AC
330
1F
100
AcDbEntity
  8
0
100
AcDbLine
 10
199.6478210056404
 20
135.2608802014221
 30
0.0
 11
198.8899469898924
 21
135.2608802014221
 31
0.0
  0
LINE
  5
7AD
330
1F
100
AcDbEntity
  8
0
100
AcDbLine
 10
198.8379784859554
 20
134.741195162052
 30
0.0
 11
199.5980178560341
 21
134.741195162052
 31
0.0
  0
LINE
  5
7AF
330
1F
100
AcDbEntity
  8
0
100
AcDbLine
 10
198.504857329443
 20
137.4713635626589
 30
0.0
 11
198.9029391158767
 21
137.0732817762251
 31
0.0
  0
ARC
  5
7B0
330
1F
100
AcDbEntity
  8
0
100
AcDbCircle
 10
198.9074576203968
 20
137.1427520201516
 30
0.0
 40
0.5196850393700787
100
AcDbArc
 50
140.7778921832453
 51
175.0000000000001
  0
LINE
  5
7B1
330
1F
100
AcDbEntity
  8
0
100
AcDbLine
 10
198.5657882482315
 20
137.5338578407207
 30
0.0
 11
198.9549076198136
 21
137.1447384691386
 31
0.0
  0
ARC
  5
7B2
330
1F
100
AcDbEntity
  8
0
100
AcDbCircle
 10
198.9094351788688
 20
137.1469038234693
 30
0.0
 40
0.5175196850393701
100
AcDbArc
 50
90.0
 51
131.6077059495928
  0
LINE
  5
7B3
330
1F
100
AcDbEntity
  8
0
100
AcDbLine
 10
198.5759706119397
 20
134.9988723274063
 30
0.0
 11
198.8899469898924
 21
135.2608802014221
 31
0.0
  0
LINE
  5
7B4
330
1F
100
AcDbEntity
  8
0
100
AcDbLine
 10
198.5759706119397
 20
134.9988723274063
 30
0.0
 11
198.8379784859554
 21
134.741195162052
 31
0.0
  0
LINE
  5
7B5
330
1F
100
AcDbEntity
  8
0
100
AcDbLine
 10
198.5153406906798
 20
135.0595022486661
 30
0.0
 11
198.2295139190262
 21
135.3409983116583
 31
0.0
  0
LINE
  5
7B6
330
1F
100
AcDbEntity
  8
0
100
AcDbLine
 10
198.5153406906798
 20
135.0595022486661
 30
0.0
 11
198.7427028954042
 21
135.2522187840992
 31
0.0
  0
LINE
  5
7B7
330
1F
100
AcDbEntity
  8
0
100
AcDbLine
 10
198.9029391158767
 20
137.0732817762251
 30
0.0
 11
198.7427028954042
 21
135.2522187840992
 31
0.0
  0
LINE
  5
7B8
330
1F
100
AcDbEntity
  8
0
100
AcDbLine
 10
198.3897501394986
 20
137.1880455557528
 30
0.0
 11
198.2295139190262
 21
135.3409983116583
 31
0.0
  0
ARC
  5
7BA
330
1F
100
AcDbEntity
  8
0
100
AcDbCircle
 10
200.0484115568216
 20
137.2313526423669
 30
0.0
 40
0.4330708661417324
100
AcDbArc
 50
62.50279258408699
 51
90.0
  0
LINE
  5
7BB
330
1F
100
AcDbEntity
  8
0
100
AcDbLine
 10
200.2483627056264
 20
137.6155009382013
 30
0.0
 11
199.8535296670577
 21
137.1447384691386
 31
0.0
  0
LINE
  5
7BC
330
1F
100
AcDbEntity
  8
0
100
AcDbLine
 10
200.2562855725697
 20
134.6632424061465
 30
0.0
 11
199.9726241552467
 21
134.9425731148078
 31
0.0
  0
LINE
  5
7BD
330
1F
100
AcDbEntity
  8
0
100
AcDbLine
 10
199.9098288796561
 20
135.0053683903983
 30
0.0
 11
199.5980178560341
 21
134.741195162052
 31
0.0
  0
LINE
  5
7BE
330
1F
100
AcDbEntity
  8
0
100
AcDbLine
 10
199.9726241552467
 20
134.9425731148078
 30
0.0
 11
199.7430965961916
 21
134.7520219337055
 31
0.0
  0
LINE
  5
7BF
330
1F
100
AcDbEntity
  8
0
100
AcDbLine
 10
199.9098288796561
 20
135.0053683903983
 30
0.0
 11
199.6478210056404
 21
135.2608802014221
 31
0.0
  0
LINE
  5
7C0
330
1F
100
AcDbEntity
  8
0
100
AcDbLine
 10
202.1038839977653
 20
148.5644235085087
 30
0.0
 11
177.1038839977652
 21
148.5644235085087
 31
0.0
  0
LINE
  5
7C1
330
1F
100
AcDbEntity
  8
0
100
AcDbLine
 10
186.4748839977664
 20
143.6644235085087
 30
0.0
 11
188.5498839977664
 21
143.6644235085087
 31
0.0
  0
LINE
  5
7C3
330
1F
100
AcDbEntity
  8
0
100
AcDbLine
 10
188.9998839977664
 20
144.8644235085087
 30
0.0
 11
186.3698839977664
 21
144.8644235085087
 31
0.0
  0
LINE
  5
7C4
330
1F
100
AcDbEntity
  8
0
100
AcDbLine
 10
188.6798839977664
 20
138.7244235085087
 30
0.0
 11
188.0748839977664
 21
139.3144235085087
 31
0.0
  0
LINE
  5
7C5
330
1F
100
AcDbEntity
  8
0
100
AcDbLine
 10
177.1038839977652
 20
148.5644235085086
 30
0.0
 11
202.1038839977653
 21
148.5644235085087
 31
0.0
  0
LINE
  5
7C6
330
1F
100
AcDbEntity
  8
0
100
AcDbLine
 10
181.2440002768349
 20
145.2894235085087
 30
0.0
 11
178.3137677186954
 21
145.2894235085087
 31
0.0
  0
LINE
  5
7C8
330
1F
100
AcDbEntity
  8
0
100
AcDbLine
 10
181.3291309106936
 20
145.4349839086589
 30
0.0
 11
179.8640146316239
 21
148.0396350714496
 31
0.0
  0
LINE
  5
7C9
330
1F
100
AcDbEntity
  8
0
100
AcDbLine
 10
181.0769919178919
 20
145.4847723457181
 30
0.0
 11
178.4807760776386
 21
145.484772345718
 31
0.0
  0
LINE
  5
7CA
330
1F
100
AcDbEntity
  8
0
100
AcDbLine
 10
180.6704221504501
 20
146.2075630433924
 30
0.0
 11
180.2346979512536
 21
146.2075630433924
 31
0.0
  0
LINE
  5
7CB
330
1F
100
AcDbEntity
  8
0
100
AcDbLine
 10
180.3579804366317
 20
146.5980269608863
 30
0.0
 11
180.3840269482597
 21
146.5529130793868
 31
0.0
  0
LINE
  5
7CC
330
1F
100
AcDbEntity
  8
0
100
AcDbLine
 10
180.3840269482597
 20
145.9143060306536
 30
0.0
 11
180.3579804366317
 21
145.8691921491543
 31
0.0
  0
LINE
  5
7CD
330
1F
100
AcDbEntity
  8
0
100
AcDbLine
 10
179.6937533639066
 20
148.0396350714496
 30
0.0
 11
178.2286370848368
 21
145.4349839086589
 31
0.0
  0
ARC
  5
7CE
330
1F
100
AcDbEntity
  8
0
100
AcDbCircle
 10
178.3137677186954
 20
145.3870979271134
 30
0.0
 40
0.0976744186046512
100
AcDbArc
 50
150.6422464572074
 51
269.9999999999968
  0
LINE
  5
7CF
330
1F
100
AcDbEntity
  8
0
100
AcDbLine
 10
179.8049305093931
 20
146.9173304852529
 30
0.0
 11
179.8049305093931
 21
146.6894235085087
 31
0.0
  0
LINE
  5
7D0
330
1F
100
AcDbEntity
  8
0
100
AcDbLine
 10
179.7528374861373
 20
146.9173304852529
 30
0.0
 11
179.7528374861373
 21
146.6894235085087
 31
0.0
  0
LINE
  5
7D1
330
1F
100
AcDbEntity
  8
0
100
AcDbLine
 10
178.4807760776386
 20
145.484772345718
 30
0.0
 11
179.7788839977652
 21
147.7925197592765
 31
0.0
  0
LINE
  5
7D2
330
1F
100
AcDbEntity
  8
0
100
AcDbLine
 10
179.8813728171277
 20
146.030047201049
 30
0.0
 11
179.9842340337597
 21
145.825839836086
 31
0.0
  0
LINE
  5
7D3
330
1F
100
AcDbEntity
  8
0
100
AcDbLine
 10
180.0293479152591
 20
145.851886347714
 30
0.0
 11
179.9039297578774
 21
146.0430704568628
 31
0.0
  0
LINE
  5
7D4
330
1F
100
AcDbEntity
  8
0
100
AcDbLine
 10
179.9305664093669
 20
146.0635094784201
 30
0.0
 11
180.0827754702379
 21
145.8928827525507
 31
0.0
  0
LINE
  5
7D5
330
1F
100
AcDbEntity
  8
0
100
AcDbLine
 10
179.9842340337596
 20
146.6413792739546
 30
0.0
 11
179.8813728171275
 21
146.4371719089917
 31
0.0
  0
LINE
  5
7D6
330
1F
100
AcDbEntity
  8
0
100
AcDbLine
 10
179.9039297578773
 20
146.4241486531776
 30
0.0
 11
180.0293479152591
 21
146.6153327623267
 31
0.0
  0
LINE
  5
7D7
330
1F
100
AcDbEntity
  8
0
100
AcDbLine
 10
180.082775470238
 20
146.5743363574896
 30
0.0
 11
179.9305664093669
 21
146.4037096316203
 31
0.0
  0
LINE
  5
7D8
330
1F
100
AcDbEntity
  8
0
100
AcDbLine
 10
179.8716983316854
 20
146.6806333579454
 30
0.0
 11
179.9220163282177
 21
146.6671506914098
 31
0.0
  0
LINE
  5
7D9
330
1F
100
AcDbEntity
  8
0
100
AcDbLine
 10
179.4144665918992
 20
146.8127059938868
 30
0.0
 11
179.4595804733986
 21
146.8387525055148
 31
0.0
  0
LINE
  5
7DA
330
1F
100
AcDbEntity
  8
0
100
AcDbLine
 10
179.4381571952958
 20
146.5375010274931
 30
0.0
 11
179.4749925252925
 21
146.5743363574896
 31
0.0
  0
LINE
  5
7DB
330
1F
100
AcDbEntity
  8
0
100
AcDbLine
 10
179.4595804733986
 20
146.8387525055148
 30
0.0
 11
179.5735339617708
 21
146.6413792739546
 31
0.0
  0
LINE
  5
7DC
330
1F
100
AcDbEntity
  8
0
100
AcDbLine
 10
179.4144665918992
 20
146.8127059938868
 30
0.0
 11
179.5284200802713
 21
146.6153327623267
 31
0.0
  0
LINE
  5
7DD
330
1F
100
AcDbEntity
  8
0
100
AcDbLine
 10
179.1737410472707
 20
146.5529130793868
 30
0.0
 11
179.1997875588986
 21
146.5980269608864
 31
0.0
  0
LINE
  5
7DE
330
1F
100
AcDbEntity
  8
0
100
AcDbLine
 10
179.6357516673129
 20
146.6671506914099
 30
0.0
 11
179.6860696638453
 21
146.6806333579454
 31
0.0
  0
ARC
  5
7DF
330
1F
100
AcDbEntity
  8
0
100
AcDbCircle
 10
179.7788839977652
 20
146.2336095550203
 30
0.0
 40
0.227906976744186
100
AcDbArc
 50
48.275828959793
 51
56.72417104021288
  0
ARC
  5
7E0
330
1F
100
AcDbEntity
  8
0
100
AcDbCircle
 10
179.7788839977652
 20
146.2336095550203
 30
0.0
 40
0.227906976744186
100
AcDbArc
 50
78.2758289597877
 51
86.7241710402102
  0
ARC
  5
7E1
330
1F
100
AcDbEntity
  8
0
100
AcDbCircle
 10
179.7788839977652
 20
146.2336095550203
 30
0.0
 40
0.227906976744186
100
AcDbArc
 50
93.27582895980942
 51
101.724171040189
  0
ARC
  5
7E2
330
1F
100
AcDbEntity
  8
0
100
AcDbCircle
 10
179.7788839977652
 20
146.2336095550203
 30
0.0
 40
0.227906976744186
100
AcDbArc
 50
108.2758289597889
 51
116.7241710402122
  0
ARC
  5
7E3
330
1F
100
AcDbEntity
  8
0
100
AcDbCircle
 10
179.7788839977652
 20
146.2336095550203
 30
0.0
 40
0.227906976744186
100
AcDbArc
 50
63.27582895980601
 51
71.72417104019044
  0
ARC
  5
7E4
330
1F
100
AcDbEntity
  8
0
100
AcDbCircle
 10
179.7788839977652
 20
146.2336095550203
 30
0.0
 40
0.227906976744186
100
AcDbArc
 50
303.2758289598064
 51
311.7241710401894
  0
LINE
  5
7E5
330
1F
100
AcDbEntity
  8
0
100
AcDbLine
 10
179.8251947812195
 20
146.0104573616981
 30
0.0
 11
179.8716983316851
 21
145.7865857520952
 31
0.0
  0
LINE
  5
7E6
330
1F
100
AcDbEntity
  8
0
100
AcDbLine
 10
179.7658607419513
 20
146.0060749755457
 30
0.0
 11
179.7528374861373
 21
145.7777956015318
 31
0.0
  0
LINE
  5
7E7
330
1F
100
AcDbEntity
  8
0
100
AcDbLine
 10
179.686069663845
 20
145.7865857520952
 30
0.0
 11
179.7325732143108
 21
146.0104573616981
 31
0.0
  0
LINE
  5
7E8
330
1F
100
AcDbEntity
  8
0
100
AcDbLine
 10
179.8049305093931
 20
145.7777956015318
 30
0.0
 11
179.7919072535792
 21
146.0060749755457
 31
0.0
  0
ARC
  5
7E9
330
1F
100
AcDbEntity
  8
0
100
AcDbCircle
 10
179.7788839977652
 20
146.2336095550203
 30
0.0
 40
0.227906976744186
100
AcDbArc
 50
273.2758289598094
 51
281.7241710401891
  0
ARC
  5
7EA
330
1F
100
AcDbEntity
  8
0
100
AcDbCircle
 10
179.7788839977652
 20
146.2336095550203
 30
0.0
 40
0.227906976744186
100
AcDbArc
 50
258.2758289597876
 51
266.7241710402102
  0
ARC
  5
7EB
330
1F
100
AcDbEntity
  8
0
100
AcDbCircle
 10
179.7788839977652
 20
146.2336095550203
 30
0.0
 40
0.227906976744186
100
AcDbArc
 50
243.275828959806
 51
251.7241710401904
  0
ARC
  5
7EC
330
1F
100
AcDbEntity
  8
0
100
AcDbCircle
 10
179.7788839977652
 20
146.2336095550203
 30
0.0
 40
0.227906976744186
100
AcDbArc
 50
288.2758289597891
 51
296.7241710402122
  0
LINE
  5
7ED
330
1F
100
AcDbEntity
  8
0
100
AcDbLine
 10
179.9220163282175
 20
145.8000684186307
 30
0.0
 11
179.8503537794856
 21
146.0171986949658
 31
0.0
  0
LINE
  5
7EE
330
1F
100
AcDbEntity
  8
0
100
AcDbLine
 10
179.9220163282175
 20
145.8000684186307
 30
0.0
 11
179.8716983316851
 21
145.7865857520952
 31
0.0
  0
LINE
  5
7EF
330
1F
100
AcDbEntity
  8
0
100
AcDbLine
 10
179.8049305093931
 20
145.5498886247878
 30
0.0
 11
179.7528374861373
 21
145.5498886247878
 31
0.0
  0
LINE
  5
7F0
330
1F
100
AcDbEntity
  8
0
100
AcDbLine
 10
179.8049305093931
 20
145.5498886247878
 30
0.0
 11
179.8049305093931
 21
145.7777956015318
 31
0.0
  0
LINE
  5
7F1
330
1F
100
AcDbEntity
  8
0
100
AcDbLine
 10
179.7528374861373
 20
145.5498886247878
 30
0.0
 11
179.7528374861373
 21
145.7777956015318
 31
0.0
  0
ARC
  5
7F2
330
1F
100
AcDbEntity
  8
0
100
AcDbCircle
 10
179.7788839977652
 20
146.2336095550203
 30
0.0
 40
0.227906976744186
100
AcDbArc
 50
153.2758289598076
 51
161.7241710401939
  0
LINE
  5
7F3
330
1F
100
AcDbEntity
  8
0
100
AcDbLine
 10
179.3318601948401
 20
146.3264238889406
 30
0.0
 11
179.555731804443
 21
146.2799203384746
 31
0.0
  0
LINE
  5
7F4
330
1F
100
AcDbEntity
  8
0
100
AcDbLine
 10
179.5624731377109
 20
146.3050793367407
 30
0.0
 11
179.3453428613756
 21
146.3767418854728
 31
0.0
  0
ARC
  5
7F5
330
1F
100
AcDbEntity
  8
0
100
AcDbCircle
 10
179.7788839977652
 20
146.2336095550203
 30
0.0
 40
0.227906976744186
100
AcDbArc
 50
168.2758289597876
 51
176.7241710401971
  0
LINE
  5
7F6
330
1F
100
AcDbEntity
  8
0
100
AcDbLine
 10
179.5513494182906
 20
146.2466328108343
 30
0.0
 11
179.3230700442768
 21
146.2596560666481
 31
0.0
  0
ARC
  5
7F7
330
1F
100
AcDbEntity
  8
0
100
AcDbCircle
 10
179.7788839977652
 20
146.2336095550203
 30
0.0
 40
0.227906976744186
100
AcDbArc
 50
138.2758289597886
 51
146.7241710402114
  0
ARC
  5
7F8
330
1F
100
AcDbEntity
  8
0
100
AcDbCircle
 10
179.7788839977652
 20
146.2336095550203
 30
0.0
 40
0.227906976744186
100
AcDbArc
 50
123.2758289598063
 51
131.7241710401894
  0
LINE
  5
7F9
330
1F
100
AcDbEntity
  8
0
100
AcDbLine
 10
179.3318601948401
 20
146.3264238889406
 30
0.0
 11
179.3453428613756
 21
146.3767418854728
 31
0.0
  0
LINE
  5
7FA
330
1F
100
AcDbEntity
  8
0
100
AcDbLine
 10
179.3711142788308
 20
146.4389595910146
 30
0.0
 11
179.5753216437938
 21
146.3360983743826
 31
0.0
  0
LINE
  5
7FB
330
1F
100
AcDbEntity
  8
0
100
AcDbLine
 10
179.5883448996077
 20
146.3586553151325
 30
0.0
 11
179.3971607904588
 21
146.4840734725141
 31
0.0
  0
ARC
  5
7FC
330
1F
100
AcDbEntity
  8
0
100
AcDbCircle
 10
179.7788839977652
 20
146.2336095550203
 30
0.0
 40
0.227906976744186
100
AcDbArc
 50
213.2758289598095
 51
221.7241710401917
  0
ARC
  5
7FD
330
1F
100
AcDbEntity
  8
0
100
AcDbCircle
 10
179.7788839977652
 20
146.2336095550203
 30
0.0
 40
0.227906976744186
100
AcDbArc
 50
183.2758289597865
 51
191.7241710401924
  0
ARC
  5
7FE
330
1F
100
AcDbEntity
  8
0
100
AcDbCircle
 10
179.7788839977652
 20
146.2336095550203
 30
0.0
 40
0.227906976744186
100
AcDbArc
 50
198.2758289597884
 51
206.7241710402127
  0
LINE
  5
7FF
330
1F
100
AcDbEntity
  8
0
100
AcDbLine
 10
179.653838237653
 20
146.0430704568628
 30
0.0
 11
179.5284200802713
 21
145.8518863477138
 31
0.0
  0
ARC
  5
800
330
1F
100
AcDbEntity
  8
0
100
AcDbCircle
 10
179.7788839977652
 20
146.2336095550203
 30
0.0
 40
0.227906976744186
100
AcDbArc
 50
228.2758289597887
 51
236.7241710402129
  0
LINE
  5
801
330
1F
100
AcDbEntity
  8
0
100
AcDbLine
 10
179.3453428613756
 20
146.090477224568
 30
0.0
 11
179.3318601948401
 21
146.1407952211002
 31
0.0
  0
LINE
  5
802
330
1F
100
AcDbEntity
  8
0
100
AcDbLine
 10
179.4749925252924
 20
145.8928827525509
 30
0.0
 11
179.4381571952958
 21
145.9297180825476
 31
0.0
  0
LINE
  5
803
330
1F
100
AcDbEntity
  8
0
100
AcDbLine
 10
179.4595804733986
 20
145.6284666045258
 30
0.0
 11
179.4144665918991
 21
145.6545131161538
 31
0.0
  0
LINE
  5
804
330
1F
100
AcDbEntity
  8
0
100
AcDbLine
 10
179.3230700442768
 20
146.2075630433924
 30
0.0
 11
179.5513494182906
 21
146.2205862992062
 31
0.0
  0
LINE
  5
805
330
1F
100
AcDbEntity
  8
0
100
AcDbLine
 10
179.3453428613756
 20
146.090477224568
 30
0.0
 11
179.5624731377107
 21
146.1621397732998
 31
0.0
  0
LINE
  5
806
330
1F
100
AcDbEntity
  8
0
100
AcDbLine
 10
179.5557318044429
 20
146.187298771566
 30
0.0
 11
179.3318601948401
 21
146.1407952211002
 31
0.0
  0
LINE
  5
807
330
1F
100
AcDbEntity
  8
0
100
AcDbLine
 10
179.3971607904588
 20
145.9831456375263
 30
0.0
 11
179.5883448996077
 21
146.1085637949081
 31
0.0
  0
LINE
  5
808
330
1F
100
AcDbEntity
  8
0
100
AcDbLine
 10
179.5753216437938
 20
146.1311207356579
 30
0.0
 11
179.3711142788309
 21
146.0282595190259
 31
0.0
  0
LINE
  5
809
330
1F
100
AcDbEntity
  8
0
100
AcDbLine
 10
179.608783921165
 20
146.0819271434185
 30
0.0
 11
179.4381571952958
 21
145.9297180825476
 31
0.0
  0
LINE
  5
80A
330
1F
100
AcDbEntity
  8
0
100
AcDbLine
 10
179.4749925252924
 20
145.8928827525509
 30
0.0
 11
179.6272015861634
 21
146.0635094784201
 31
0.0
  0
LINE
  5
80B
330
1F
100
AcDbEntity
  8
0
100
AcDbLine
 10
179.4144665918991
 20
145.6545131161538
 30
0.0
 11
179.5284200802713
 21
145.851886347714
 31
0.0
  0
LINE
  5
80C
330
1F
100
AcDbEntity
  8
0
100
AcDbLine
 10
179.4595804733986
 20
145.6284666045258
 30
0.0
 11
179.5735339617707
 21
145.825839836086
 31
0.0
  0
LINE
  5
80D
330
1F
100
AcDbEntity
  8
0
100
AcDbLine
 10
179.1997875588986
 20
145.8691921491543
 30
0.0
 11
179.1737410472707
 21
145.9143060306536
 31
0.0
  0
LINE
  5
80E
330
1F
100
AcDbEntity
  8
0
100
AcDbLine
 10
179.1997875588986
 20
145.8691921491543
 30
0.0
 11
179.3971607904588
 21
145.9831456375263
 31
0.0
  0
LINE
  5
80F
330
1F
100
AcDbEntity
  8
0
100
AcDbLine
 10
179.1737410472707
 20
145.9143060306536
 30
0.0
 11
179.3711142788308
 21
146.0282595190259
 31
0.0
  0
LINE
  5
810
330
1F
100
AcDbEntity
  8
0
100
AcDbLine
 10
179.5735339617708
 20
145.825839836086
 30
0.0
 11
179.6763951784027
 21
146.0300472010488
 31
0.0
  0
LINE
  5
811
330
1F
100
AcDbEntity
  8
0
100
AcDbLine
 10
179.7074142160447
 20
146.0171986949658
 30
0.0
 11
179.6357516673127
 21
145.8000684186307
 31
0.0
  0
LINE
  5
812
330
1F
100
AcDbEntity
  8
0
100
AcDbLine
 10
179.686069663845
 20
145.7865857520952
 30
0.0
 11
179.6357516673127
 21
145.8000684186307
 31
0.0
  0
LINE
  5
813
330
1F
100
AcDbEntity
  8
0
100
AcDbLine
 10
179.6763951784027
 20
146.4371719089917
 30
0.0
 11
179.5735339617706
 21
146.6413792739546
 31
0.0
  0
LINE
  5
814
330
1F
100
AcDbEntity
  8
0
100
AcDbLine
 10
179.6357516673129
 20
146.6671506914099
 30
0.0
 11
179.7074142160447
 21
146.4500204150747
 31
0.0
  0
LINE
  5
815
330
1F
100
AcDbEntity
  8
0
100
AcDbLine
 10
179.5284200802712
 20
146.6153327623267
 30
0.0
 11
179.653838237653
 21
146.4241486531776
 31
0.0
  0
LINE
  5
816
330
1F
100
AcDbEntity
  8
0
100
AcDbLine
 10
179.4381571952958
 20
146.5375010274931
 30
0.0
 11
179.6087839211652
 21
146.3852919666221
 31
0.0
  0
LINE
  5
817
330
1F
100
AcDbEntity
  8
0
100
AcDbLine
 10
179.6272015861635
 20
146.4037096316203
 30
0.0
 11
179.4749925252925
 21
146.5743363574896
 31
0.0
  0
LINE
  5
818
330
1F
100
AcDbEntity
  8
0
100
AcDbLine
 10
179.1997875588986
 20
146.5980269608864
 30
0.0
 11
179.3971607904588
 21
146.4840734725141
 31
0.0
  0
LINE
  5
819
330
1F
100
AcDbEntity
  8
0
100
AcDbLine
 10
179.1737410472707
 20
146.5529130793868
 30
0.0
 11
179.3711142788309
 21
146.4389595910148
 31
0.0
  0
LINE
  5
81A
330
1F
100
AcDbEntity
  8
0
100
AcDbLine
 10
179.7528374861373
 20
146.6894235085087
 30
0.0
 11
179.7658607419512
 21
146.4611441344948
 31
0.0
  0
LINE
  5
81B
330
1F
100
AcDbEntity
  8
0
100
AcDbLine
 10
179.7325732143109
 20
146.4567617483426
 30
0.0
 11
179.6860696638453
 21
146.6806333579454
 31
0.0
  0
LINE
  5
81C
330
1F
100
AcDbEntity
  8
0
100
AcDbLine
 10
179.7919072535791
 20
146.4611441344948
 30
0.0
 11
179.8049305093931
 21
146.6894235085087
 31
0.0
  0
LINE
  5
81D
330
1F
100
AcDbEntity
  8
0
100
AcDbLine
 10
179.8716983316854
 20
146.6806333579454
 30
0.0
 11
179.8251947812195
 21
146.4567617483425
 31
0.0
  0
LINE
  5
81E
330
1F
100
AcDbEntity
  8
0
100
AcDbLine
 10
179.8503537794857
 20
146.4500204150747
 30
0.0
 11
179.9220163282177
 21
146.6671506914098
 31
0.0
  0
LINE
  5
81F
330
1F
100
AcDbEntity
  8
0
100
AcDbLine
 10
179.0951630675326
 20
146.2596560666481
 30
0.0
 11
179.0951630675326
 21
146.2075630433924
 31
0.0
1001
GENIUS_GENODEF_13
1002
{
1000
HIER
1070
     0
1002
}
1002
{
1000
MANEDIT
1070
     0
1002
}
1002
{
1000
NOSEL
1070
     0
1002
}
1002
{
1000
BEHIND
1070
     0
1002
}
1002
{
1000
REACTOR
1002
}
1001
GENIUS_GENOBJ-N-CEN_13
1002
{
1000
OWNER
1000
GEN
1002
}
  0
LINE
  5
820
330
1F
100
AcDbEntity
  8
0
100
AcDbLine
 10
179.3230700442768
 20
146.2075630433924
 30
0.0
 11
179.0951630675326
 21
146.2075630433924
 31
0.0
  0
LINE
  5
821
330
1F
100
AcDbEntity
  8
0
100
AcDbLine
 10
179.3230700442768
 20
146.2596560666481
 30
0.0
 11
179.0951630675326
 21
146.2596560666481
 31
0.0
  0
LINE
  5
822
330
1F
100
AcDbEntity
  8
0
100
AcDbLine
 10
180.0981875221318
 20
146.8387525055148
 30
0.0
 11
180.1433014036311
 21
146.8127059938868
 31
0.0
  0
LINE
  5
823
330
1F
100
AcDbEntity
  8
0
100
AcDbLine
 10
180.082775470238
 20
146.5743363574896
 30
0.0
 11
180.1196108002347
 21
146.537501027493
 31
0.0
  0
LINE
  5
824
330
1F
100
AcDbEntity
  8
0
100
AcDbLine
 10
180.1433014036311
 20
146.8127059938868
 30
0.0
 11
180.0293479152591
 21
146.6153327623267
 31
0.0
  0
LINE
  5
825
330
1F
100
AcDbEntity
  8
0
100
AcDbLine
 10
180.0981875221318
 20
146.8387525055148
 30
0.0
 11
179.9842340337596
 21
146.6413792739546
 31
0.0
  0
LINE
  5
826
330
1F
100
AcDbEntity
  8
0
100
AcDbLine
 10
180.2124251341548
 20
146.3767418854727
 30
0.0
 11
179.9952948578196
 21
146.3050793367407
 31
0.0
  0
LINE
  5
827
330
1F
100
AcDbEntity
  8
0
100
AcDbLine
 10
180.0020361910874
 20
146.2799203384746
 30
0.0
 11
180.2259078006904
 21
146.3264238889403
 31
0.0
  0
ARC
  5
828
330
1F
100
AcDbEntity
  8
0
100
AcDbCircle
 10
179.7788839977652
 20
146.2336095550203
 30
0.0
 40
0.227906976744186
100
AcDbArc
 50
18.27582895978846
 51
26.72417104021276
  0
LINE
  5
829
330
1F
100
AcDbEntity
  8
0
100
AcDbLine
 10
180.2346979512536
 20
146.2596560666483
 30
0.0
 11
180.0064185772398
 21
146.2466328108343
 31
0.0
  0
LINE
  5
82A
330
1F
100
AcDbEntity
  8
0
100
AcDbLine
 10
180.0064185772399
 20
146.2466328108343
 30
0.0
 11
180.2346979512536
 21
146.2596560666481
 31
0.0
  0
ARC
  5
82B
330
1F
100
AcDbEntity
  8
0
100
AcDbCircle
 10
179.7788839977652
 20
146.2336095550203
 30
0.0
 40
0.227906976744186
100
AcDbArc
 50
3.275828959804481
 51
11.72417104019241
  0
LINE
  5
82C
330
1F
100
AcDbEntity
  8
0
100
AcDbLine
 10
179.9824463517365
 20
146.3360983743827
 30
0.0
 11
180.1866537166994
 21
146.4389595910148
 31
0.0
  0
LINE
  5
82D
330
1F
100
AcDbEntity
  8
0
100
AcDbLine
 10
179.9694230959227
 20
146.3586553151325
 30
0.0
 11
180.1606072050716
 21
146.4840734725141
 31
0.0
  0
ARC
  5
82E
330
1F
100
AcDbEntity
  8
0
100
AcDbCircle
 10
179.7788839977652
 20
146.2336095550203
 30
0.0
 40
0.227906976744186
100
AcDbArc
 50
33.27582895980948
 51
41.72417104019173
  0
LINE
  5
82F
330
1F
100
AcDbEntity
  8
0
100
AcDbLine
 10
180.2124251341548
 20
146.3767418854727
 30
0.0
 11
180.2259078006904
 21
146.3264238889403
 31
0.0
  0
LINE
  5
830
330
1F
100
AcDbEntity
  8
0
100
AcDbLine
 10
180.1196108002345
 20
145.9297180825475
 30
0.0
 11
180.0827754702379
 21
145.8928827525507
 31
0.0
  0
LINE
  5
831
330
1F
100
AcDbEntity
  8
0
100
AcDbLine
 10
180.1433014036311
 20
145.6545131161538
 30
0.0
 11
180.0981875221317
 21
145.6284666045258
 31
0.0
  0
LINE
  5
832
330
1F
100
AcDbEntity
  8
0
100
AcDbLine
 10
180.1433014036311
 20
145.6545131161538
 30
0.0
 11
180.0293479152591
 21
145.851886347714
 31
0.0
  0
LINE
  5
833
330
1F
100
AcDbEntity
  8
0
100
AcDbLine
 10
179.9952948578196
 20
146.1621397732998
 30
0.0
 11
180.2124251341547
 21
146.0904772245678
 31
0.0
  0
LINE
  5
834
330
1F
100
AcDbEntity
  8
0
100
AcDbLine
 10
180.1866537166994
 20
146.0282595190259
 30
0.0
 11
179.9824463517365
 21
146.1311207356579
 31
0.0
  0
LINE
  5
835
330
1F
100
AcDbEntity
  8
0
100
AcDbLine
 10
180.0064185772398
 20
146.2205862992063
 30
0.0
 11
180.2346979512536
 21
146.2075630433924
 31
0.0
  0
LINE
  5
836
330
1F
100
AcDbEntity
  8
0
100
AcDbLine
 10
180.2259078006904
 20
146.1407952211001
 30
0.0
 11
180.0020361910874
 21
146.1872987715658
 31
0.0
  0
LINE
  5
837
330
1F
100
AcDbEntity
  8
0
100
AcDbLine
 10
180.1196108002345
 20
145.9297180825475
 30
0.0
 11
179.9489840743652
 21
146.0819271434185
 31
0.0
  0
LINE
  5
838
330
1F
100
AcDbEntity
  8
0
100
AcDbLine
 10
179.9694230959226
 20
146.1085637949081
 30
0.0
 11
180.1606072050716
 21
145.9831456375263
 31
0.0
  0
ARC
  5
839
330
1F
100
AcDbEntity
  8
0
100
AcDbCircle
 10
179.7788839977652
 20
146.2336095550203
 30
0.0
 40
0.227906976744186
100
AcDbArc
 50
318.2758289597887
 51
326.7241710402128
  0
ARC
  5
83A
330
1F
100
AcDbEntity
  8
0
100
AcDbCircle
 10
179.7788839977652
 20
146.2336095550203
 30
0.0
 40
0.227906976744186
100
AcDbArc
 50
333.2758289598077
 51
341.7241710401939
  0
ARC
  5
83B
330
1F
100
AcDbEntity
  8
0
100
AcDbCircle
 10
179.7788839977652
 20
146.2336095550203
 30
0.0
 40
0.227906976744186
100
AcDbArc
 50
348.2758289597876
 51
356.7241710402102
  0
LINE
  5
83C
330
1F
100
AcDbEntity
  8
0
100
AcDbLine
 10
180.0981875221317
 20
145.6284666045258
 30
0.0
 11
179.9842340337596
 21
145.825839836086
 31
0.0
  0
LINE
  5
83D
330
1F
100
AcDbEntity
  8
0
100
AcDbLine
 10
180.2259078006904
 20
146.1407952211001
 30
0.0
 11
180.2124251341547
 21
146.0904772245678
 31
0.0
  0
LINE
  5
83E
330
1F
100
AcDbEntity
  8
0
100
AcDbLine
 10
179.9489840743653
 20
146.385291966622
 30
0.0
 11
180.1196108002347
 21
146.537501027493
 31
0.0
  0
LINE
  5
83F
330
1F
100
AcDbEntity
  8
0
100
AcDbLine
 10
179.7528374861373
 20
146.9173304852529
 30
0.0
 11
179.8049305093931
 21
146.9173304852529
 31
0.0
  0
ARC
  5
840
330
1F
100
AcDbEntity
  8
0
100
AcDbCircle
 10
179.7788839977652
 20
147.991749089904
 30
0.0
 40
0.0976744186046512
100
AcDbArc
 50
29.3577535427911
 51
150.6422464572074
  0
LINE
  5
841
330
1F
100
AcDbEntity
  8
0
100
AcDbLine
 10
180.6411198248686
 20
146.2596560666481
 30
0.0
 11
179.7788839977652
 21
147.7925197592765
 31
0.0
  0
LINE
  5
842
330
1F
100
AcDbEntity
  8
0
100
AcDbLine
 10
180.4626049279977
 20
146.2596560666481
 30
0.0
 11
180.2346979512536
 21
146.2596560666481
 31
0.0
  0
LINE
  5
843
330
1F
100
AcDbEntity
  8
0
100
AcDbLine
 10
180.3579804366317
 20
145.8691921491543
 30
0.0
 11
180.1606072050716
 21
145.9831456375263
 31
0.0
  0
LINE
  5
844
330
1F
100
AcDbEntity
  8
0
100
AcDbLine
 10
180.3840269482597
 20
145.9143060306536
 30
0.0
 11
180.1866537166994
 21
146.0282595190259
 31
0.0
  0
LINE
  5
845
330
1F
100
AcDbEntity
  8
0
100
AcDbLine
 10
180.6411198248686
 20
146.2596560666481
 30
0.0
 11
180.2346979512536
 21
146.2596560666481
 31
0.0
  0
LINE
  5
846
330
1F
100
AcDbEntity
  8
0
100
AcDbLine
 10
180.3579804366317
 20
146.5980269608863
 30
0.0
 11
180.1606072050716
 21
146.4840734725141
 31
0.0
  0
LINE
  5
847
330
1F
100
AcDbEntity
  8
0
100
AcDbLine
 10
180.3840269482597
 20
146.5529130793868
 30
0.0
 11
180.1866537166994
 21
146.4389595910148
 31
0.0
  0
LINE
  5
848
330
1F
100
AcDbEntity
  8
0
100
AcDbLine
 10
185.5763719942952
 20
144.5629355119798
 30
0.0
 11
186.4748839977664
 21
143.6644235085087
 31
0.0
  0
LINE
  5
849
330
1F
100
AcDbEntity
  8
0
100
AcDbLine
 10
185.5998839977664
 20
138.7094235085086
 30
0.0
 11
186.3248839977664
 21
139.3144235085087
 31
0.0
  0
LINE
  5
84A
330
1F
100
AcDbEntity
  8
0
100
AcDbLine
 10
188.0748839977664
 20
139.3144235085087
 30
0.0
 11
186.3248839977664
 21
139.3144235085087
 31
0.0
  0
ARC
  5
84B
330
1F
100
AcDbEntity
  8
0
100
AcDbCircle
 10
181.2440002768349
 20
145.3870979271134
 30
0.0
 40
0.0976744186046512
100
AcDbArc
 50
270.0
 51
29.3577535427911
  0
LINE
  5
84C
330
1F
100
AcDbEntity
  8
0
100
AcDbLine
 10
181.0769919178919
 20
145.4847723457181
 30
0.0
 11
180.67042215045
 21
146.2075630433925
 31
0.0
  0
ARC
  5
84D
330
1F
100
AcDbEntity
  8
0
100
AcDbCircle
 10
186.3698839977664
 20
143.6694235085087
 30
0.0
 40
1.194999999999998
100
AcDbArc
 50
90.0
 51
131.6077059495928
  0
LINE
  5
84E
330
1F
100
AcDbEntity
  8
0
100
AcDbLine
 10
196.1532132736
 20
144.6362373814329
 30
0.0
 11
195.3008839977664
 21
143.6194235085086
 31
0.0
  0
LINE
  5
84F
330
1F
100
AcDbEntity
  8
0
100
AcDbLine
 10
195.987589377734
 20
144.7514568461623
 30
0.0
 11
195.0758839977664
 21
143.6644235085087
 31
0.0
  0
LINE
  5
850
330
1F
100
AcDbEntity
  8
0
100
AcDbLine
 10
195.5258839977664
 20
144.8644235085087
 30
0.0
 11
192.8958839977664
 21
144.8644235085087
 31
0.0
  0
LINE
  5
852
330
1F
100
AcDbEntity
  8
0
100
AcDbLine
 10
195.3608839977664
 20
138.8494235085087
 30
0.0
 11
196.1458839977664
 21
139.5094235085087
 31
0.0
  0
ARC
  5
854
330
1F
100
AcDbEntity
  8
0
100
AcDbCircle
 10
189.0036466608219
 20
143.8608731577106
 30
0.0
 40
0.9949999999999995
100
AcDbArc
 50
355.0156249999998
 51
51.19291966846494
  0
LINE
  5
855
330
1F
100
AcDbEntity
  8
0
100
AcDbLine
 10
189.6272132735999
 20
144.6362373814329
 30
0.0
 11
188.7748839977664
 21
143.6194235085086
 31
0.0
  0
ARC
  5
856
330
1F
100
AcDbEntity
  8
0
100
AcDbCircle
 10
192.8913176354765
 20
143.6598366172115
 30
0.0
 40
1.199999999999999
100
AcDbArc
 50
140.7778921832453
 51
175.0000000000001
  0
LINE
  5
857
330
1F
100
AcDbEntity
  8
0
100
AcDbLine
 10
191.9616769636378
 20
144.4186305426373
 30
0.0
 11
192.8808839977664
 21
143.4994235085087
 31
0.0
  0
LINE
  5
858
330
1F
100
AcDbEntity
  8
0
100
AcDbLine
 10
192.1023719942952
 20
144.5629355119798
 30
0.0
 11
193.0008839977664
 21
143.6644235085087
 31
0.0
  0
LINE
  5
859
330
1F
100
AcDbEntity
  8
0
100
AcDbLine
 10
189.4615893777341
 20
144.7514568461623
 30
0.0
 11
188.5498839977664
 21
143.6644235085087
 31
0.0
  0
LINE
  5
85C
330
1F
100
AcDbEntity
  8
0
100
AcDbLine
 10
191.9858839977664
 20
138.8494235085087
 30
0.0
 11
191.3258839977664
 21
139.4994235085087
 31
0.0
  0
LINE
  5
85D
330
1F
100
AcDbEntity
  8
0
100
AcDbLine
 10
188.8348839977664
 20
138.8494235085087
 30
0.0
 11
189.6198839977664
 21
139.5094235085087
 31
0.0
  0
LINE
  5
85E
330
1F
100
AcDbEntity
  8
0
100
AcDbLine
 10
188.8348839977664
 20
138.8494235085087
 30
0.0
 11
188.3948839977664
 21
139.2794235085087
 31
0.0
  0
LINE
  5
85F
330
1F
100
AcDbEntity
  8
0
100
AcDbLine
 10
188.7748839977664
 20
143.6194235085086
 30
0.0
 11
188.3948839977664
 21
139.2794235085087
 31
0.0
  0
LINE
  5
860
330
1F
100
AcDbEntity
  8
0
100
AcDbLine
 10
191.6958839977664
 20
143.7644235085087
 30
0.0
 11
191.3258839977664
 21
139.4994235085087
 31
0.0
  0
LINE
  5
861
330
1F
100
AcDbEntity
  8
0
100
AcDbLine
 10
189.6198839977664
 20
139.5094235085087
 30
0.0
 11
189.9948839977664
 21
143.7744235085087
 31
0.0
  0
LINE
  5
862
330
1F
100
AcDbEntity
  8
0
100
AcDbLine
 10
193.0008839977664
 20
143.6644235085087
 30
0.0
 11
195.0758839977664
 21
143.6644235085087
 31
0.0
  0
LINE
  5
863
330
1F
100
AcDbEntity
  8
0
100
AcDbLine
 10
195.2058839977664
 20
138.7244235085087
 30
0.0
 11
194.6008839977664
 21
139.3144235085087
 31
0.0
  0
LINE
  5
864
330
1F
100
AcDbEntity
  8
0
100
AcDbLine
 10
195.3608839977664
 20
138.8494235085087
 30
0.0
 11
194.9208839977664
 21
139.2794235085087
 31
0.0
  0
LINE
  5
865
330
1F
100
AcDbEntity
  8
0
100
AcDbLine
 10
191.9858839977664
 20
138.8494235085087
 30
0.0
 11
192.5108839977664
 21
139.2944235085087
 31
0.0
  0
LINE
  5
866
330
1F
100
AcDbEntity
  8
0
100
AcDbLine
 10
192.1258839977664
 20
138.7094235085086
 30
0.0
 11
192.8508839977664
 21
139.3144235085087
 31
0.0
  0
LINE
  5
867
330
1F
100
AcDbEntity
  8
0
100
AcDbLine
 10
194.6008839977664
 20
139.3144235085087
 30
0.0
 11
192.8508839977664
 21
139.3144235085087
 31
0.0
  0
LINE
  5
868
330
1F
100
AcDbEntity
  8
0
100
AcDbLine
 10
192.8808839977664
 20
143.4994235085087
 30
0.0
 11
192.5108839977664
 21
139.2944235085087
 31
0.0
  0
LINE
  5
869
330
1F
100
AcDbEntity
  8
0
100
AcDbLine
 10
195.3008839977664
 20
143.6194235085086
 30
0.0
 11
194.9208839977664
 21
139.2794235085087
 31
0.0
  0
ARC
  5
86A
330
1F
100
AcDbEntity
  8
0
100
AcDbCircle
 10
188.9998839977664
 20
143.8644235085086
 30
0.0
 40
1.0
100
AcDbArc
 50
62.50279258408699
 51
90.0
  0
ARC
  5
86B
330
1F
100
AcDbEntity
  8
0
100
AcDbCircle
 10
192.8958839977664
 20
143.6694235085087
 30
0.0
 40
1.194999999999998
100
AcDbArc
 50
90.0
 51
131.6077059495928
  0
ARC
  5
86D
330
1F
100
AcDbEntity
  8
0
100
AcDbCircle
 10
197.356109640659
 20
144.2047446622482
 30
0.0
 40
0.5929334923362895
100
AcDbArc
 50
299.0986865482741
 51
31.47615530256095
  0
ARC
  5
86E
330
1F
100
AcDbEntity
  8
0
100
AcDbCircle
 10
195.5296466608219
 20
143.8608731577106
 30
0.0
 40
0.9949999999999995
100
AcDbArc
 50
355.0156249999998
 51
51.19291966846494
  0
ARC
  5
86F
330
1F
100
AcDbEntity
  8
0
100
AcDbCircle
 10
197.4687833561697
 20
143.9918835787186
 30
0.0
 40
0.3521804863571374
100
AcDbArc
 50
214.5537027862324
 51
299.9227645855494
  0
LINE
  5
870
330
1F
100
AcDbEntity
  8
0
100
AcDbLine
 10
200.1438839977664
 20
143.1744235085087
 30
0.0
 11
198.3819842455422
 21
143.1744235085087
 31
0.0
  0
LINE
  5
871
330
1F
100
AcDbEntity
  8
0
100
AcDbLine
 10
198.7084468396198
 20
143.0044235085087
 30
0.0
 11
199.2338839977664
 21
143.0044235085087
 31
0.0
  0
ARC
  5
872
330
1F
100
AcDbEntity
  8
0
100
AcDbCircle
 10
198.6056156392274
 20
141.2788309255097
 30
0.0
 40
1.794999999999999
100
AcDbArc
 50
284.2968749999993
 51
314.6093749999994
  0
LINE
  5
874
330
1F
100
AcDbEntity
  8
0
100
AcDbLine
 10
198.6338839977664
 20
139.3694235085086
 30
0.0
 11
199.9288839977664
 21
139.3694235085086
 31
0.0
  0
ARC
  5
876
330
1F
100
AcDbEntity
  8
0
100
AcDbCircle
 10
198.9251134252278
 20
142.5372184243316
 30
0.0
 40
0.5150000000000004
100
AcDbArc
 50
114.8795356100267
 51
173.0624999999998
  0
ARC
  5
877
330
1F
100
AcDbEntity
  8
0
100
AcDbCircle
 10
198.5667137775613
 20
142.5044235085087
 30
0.0
 40
0.6950000000000001
100
AcDbArc
 50
105.4143688030733
 51
173.9531249999999
  0
LINE
  5
878
330
1F
100
AcDbEntity
  8
0
100
AcDbLine
 10
198.5338839977664
 20
139.3694235085086
 30
0.0
 11
198.5492233589853
 21
139.5432696023223
 31
0.0
  0
LINE
  5
879
330
1F
100
AcDbEntity
  8
0
100
AcDbLine
 10
198.6338839977664
 20
139.3694235085086
 30
0.0
 11
198.6488839977664
 21
139.5394235085087
 31
0.0
  0
LINE
  5
87A
330
1F
100
AcDbEntity
  8
0
100
AcDbLine
 10
197.5938839977664
 20
139.3694235085086
 30
0.0
 11
198.5338839977664
 21
139.3694235085086
 31
0.0
  0
ARC
  5
87B
330
1F
100
AcDbEntity
  8
0
100
AcDbCircle
 10
198.577571605611
 20
139.9372510446686
 30
0.0
 40
0.395
100
AcDbArc
 50
175.3281249999993
 51
265.8844748645937
  0
LINE
  5
87C
330
1F
100
AcDbEntity
  8
0
100
AcDbLine
 10
198.6488839977664
 20
139.5394235085087
 30
0.0
 11
199.0488839977664
 21
139.5394235085087
 31
0.0
  0
LINE
  5
87D
330
1F
100
AcDbEntity
  8
0
100
AcDbLine
 10
196.1458839977664
 20
139.5094235085087
 30
0.0
 11
196.5208839977664
 21
143.7744235085087
 31
0.0
  0
LINE
  5
87E
330
1F
100
AcDbEntity
  8
0
100
AcDbLine
 10
197.8755807260086
 20
142.5776362468238
 30
0.0
 11
197.5938839977664
 21
139.3694235085086
 31
0.0
  0
LINE
  5
87F
330
1F
100
AcDbEntity
  8
0
100
AcDbLine
 10
198.4138839977664
 20
142.5994235085087
 30
0.0
 11
198.1838839977664
 21
139.9694235085087
 31
0.0
  0
ARC
  5
880
330
1F
100
AcDbEntity
  8
0
100
AcDbCircle
 10
199.2185830980167
 20
142.0995528644568
 30
0.0
 40
0.905
100
AcDbArc
 50
54.2343749999998
 51
89.0312500000016
  0
LINE
  5
881
330
1F
100
AcDbEntity
  8
0
100
AcDbLine
 10
200.4838839977665
 20
142.2494235085085
 30
0.0
 11
200.1438839977664
 21
143.1744235085087
 31
0.0
  0
ARC
  5
882
330
1F
100
AcDbEntity
  8
0
100
AcDbCircle
 10
196.5906114736479
 20
139.4935247404736
 30
0.0
 40
4.625
100
AcDbArc
 50
36.57467758322344
 51
41.5781250000009
  0
LINE
  5
883
330
1F
100
AcDbEntity
  8
0
100
AcDbLine
 10
200.4838839977665
 20
142.2494235085085
 30
0.0
 11
200.3048606548881
 21
142.2494235085085
 31
0.0
  0
ARC
  5
884
330
1F
100
AcDbEntity
  8
0
100
AcDbCircle
 10
198.6860621346079
 20
141.3431827895474
 30
0.0
 40
1.83
100
AcDbArc
 50
41.79687499999938
 51
54.54687500000083
  0
LINE
  5
885
330
1F
100
AcDbEntity
  8
0
100
AcDbLine
 10
200.263046130084
 20
140.4128775736477
 30
0.0
 11
200.4338839977664
 21
140.3494235085087
 31
0.0
  0
LINE
  5
886
330
1F
100
AcDbEntity
  8
0
100
AcDbLine
 10
199.8661894789368
 20
140.0009504167608
 30
0.0
 11
200.263046130084
 21
140.4128775736477
 31
0.0
  0
LINE
  5
887
330
1F
100
AcDbEntity
  8
0
100
AcDbLine
 10
200.4338839977664
 20
140.3494235085087
 30
0.0
 11
199.9288839977664
 21
139.3694235085086
 31
0.0
  0
LINE
  5
889
330
1F
100
AcDbEntity
  8
0
100
AcDbLine
 10
199.4788839977664
 20
146.0644235085087
 30
0.0
 11
197.9638839977664
 21
146.0644235085087
 31
0.0
  0
LINE
  5
88A
330
1F
100
AcDbEntity
  8
0
100
AcDbLine
 10
197.6338839977664
 20
147.2894235085087
 30
0.0
 11
199.4788839977664
 21
147.2894235085087
 31
0.0
  0
LINE
  5
88B
330
1F
100
AcDbEntity
  8
0
100
AcDbLine
 10
195.9888839977665
 20
147.8044235085087
 30
0.0
 11
199.9638839977664
 21
147.8044235085087
 31
0.0
  0
LINE
  5
88C
330
1F
100
AcDbEntity
  8
0
100
AcDbLine
 10
199.7388839977665
 20
147.5444235085087
 30
0.0
 11
196.2288839977664
 21
147.5444235085087
 31
0.0
  0
LINE
  5
88D
330
1F
100
AcDbEntity
  8
0
100
AcDbLine
 10
195.9888839977665
 20
145.5394235085087
 30
0.0
 11
199.9638839977664
 21
145.5394235085087
 31
0.0
  0
LINE
  5
88E
330
1F
100
AcDbEntity
  8
0
100
AcDbLine
 10
196.2288839977664
 20
145.7994235085086
 30
0.0
 11
199.7388839977665
 21
145.7994235085086
 31
0.0
  0
LINE
  5
890
330
1F
100
AcDbEntity
  8
0
100
AcDbLine
 10
197.9638839977664
 20
146.0644235085087
 30
0.0
 11
197.6338839977664
 21
147.2894235085087
 31
0.0
  0
ARC
  5
891
330
1F
100
AcDbEntity
  8
0
100
AcDbCircle
 10
197.4351931657585
 20
144.1745857244819
 30
0.0
 40
0.295
100
AcDbArc
 50
298.6718749999992
 51
31.39062500000128
  0
ARC
  5
892
330
1F
100
AcDbEntity
  8
0
100
AcDbCircle
 10
197.5365432151085
 20
144.233674084653
 30
0.0
 40
0.1777221344526809
100
AcDbArc
 50
32.14834111149601
 51
122.4264902738646
  0
LINE
  5
893
330
1F
100
AcDbEntity
  8
0
100
AcDbLine
 10
195.9888839977665
 20
146.8244235085087
 30
0.0
 11
195.9888839977665
 21
147.8044235085087
 31
0.0
  0
LINE
  5
894
330
1F
100
AcDbEntity
  8
0
100
AcDbLine
 10
196.2288839977664
 20
147.5444235085087
 30
0.0
 11
196.2288839977664
 21
146.8244235085087
 31
0.0
  0
LINE
  5
895
330
1F
100
AcDbEntity
  8
0
100
AcDbLine
 10
196.4838839977664
 20
147.2894235085087
 30
0.0
 11
196.4838839977664
 21
146.0644235085087
 31
0.0
  0
LINE
  5
896
330
1F
100
AcDbEntity
  8
0
100
AcDbLine
 10
195.9888839977665
 20
146.5244235085086
 30
0.0
 11
196.2288839977664
 21
146.5244235085086
 31
0.0
  0
LINE
  5
897
330
1F
100
AcDbEntity
  8
0
100
AcDbLine
 10
196.2288839977664
 20
146.8244235085087
 30
0.0
 11
195.9888839977665
 21
146.8244235085087
 31
0.0
  0
ARC
  5
898
330
1F
100
AcDbEntity
  8
0
100
AcDbCircle
 10
197.6788839977664
 20
144.1144235085086
 30
0.0
 40
0.5950000000000001
100
AcDbArc
 50
120.5937499999981
 51
212.7968750000006
  0
ARC
  5
899
330
1F
100
AcDbEntity
  8
0
100
AcDbCircle
 10
195.5258839977664
 20
143.8644235085086
 30
0.0
 40
1.0
100
AcDbArc
 50
62.50279258408699
 51
90.0
  0
LINE
  5
89A
330
1F
100
AcDbEntity
  8
0
100
AcDbLine
 10
195.9888839977665
 20
145.5394235085087
 30
0.0
 11
195.9888839977665
 21
146.5244235085086
 31
0.0
  0
LINE
  5
89B
330
1F
100
AcDbEntity
  8
0
100
AcDbLine
 10
196.2288839977664
 20
146.5244235085086
 30
0.0
 11
196.2288839977664
 21
145.7994235085086
 31
0.0
  0
LINE
  5
89C
330
1F
100
AcDbEntity
  8
0
100
AcDbLine
 10
196.4838839977664
 20
147.2894235085087
 30
0.0
 11
197.3738839977664
 21
147.2894235085087
 31
0.0
  0
LINE
  5
89D
330
1F
100
AcDbEntity
  8
0
100
AcDbLine
 10
197.3738839977664
 20
147.2894235085087
 30
0.0
 11
197.7038839977664
 21
146.0644235085087
 31
0.0
  0
LINE
  5
89F
330
1F
100
AcDbEntity
  8
0
100
AcDbLine
 10
197.7038839977664
 20
146.0644235085087
 30
0.0
 11
196.4838839977664
 21
146.0644235085087
 31
0.0
  0
ARC
  5
8A0
330
1F
100
AcDbEntity
  8
0
100
AcDbCircle
 10
197.5913850849308
 20
144.1297505244753
 30
0.0
 40
0.295
100
AcDbArc
 50
120.5937499999981
 51
212.7968750000006
  0
ARC
  5
8A1
330
1F
100
AcDbEntity
  8
0
100
AcDbCircle
 10
197.4889429120072
 20
144.0671452334247
 30
0.0
 40
0.175
100
AcDbArc
 50
213.734374999999
 51
300.1093749999989
  0
ARC
  5
8A2
330
1F
100
AcDbEntity
  8
0
100
AcDbCircle
 10
197.562410737876
 20
144.3259150243352
 30
0.0
 40
0.3537467972984882
100
AcDbArc
 50
32.1852313948066
 51
121.7888691311802
  0
LINE
  5
8A3
330
1F
100
AcDbEntity
  8
0
100
AcDbLine
 10
199.4788839977664
 20
146.0644235085087
 30
0.0
 11
199.4788839977664
 21
147.2894235085087
 31
0.0
  0
LINE
  5
8A4
330
1F
100
AcDbEntity
  8
0
100
AcDbLine
 10
200.4838839977665
 20
146.0494235085087
 30
0.0
 11
200.4838839977665
 21
147.2994235085087
 31
0.0
  0
LINE
  5
8A5
330
1F
100
AcDbEntity
  8
0
100
AcDbLine
 10
199.7388839977665
 20
145.7994235085086
 30
0.0
 11
199.7388839977665
 21
147.5444235085087
 31
0.0
  0
LINE
  5
8A6
330
1F
100
AcDbEntity
  8
0
100
AcDbLine
 10
199.9638839977664
 20
146.0494235085087
 30
0.0
 11
200.4838839977665
 21
146.0494235085087
 31
0.0
  0
LINE
  5
8A7
330
1F
100
AcDbEntity
  8
0
100
AcDbLine
 10
199.9638839977664
 20
146.3444235085086
 30
0.0
 11
200.2538839977666
 21
146.3444235085086
 31
0.0
  0
LINE
  5
8A8
330
1F
100
AcDbEntity
  8
0
100
AcDbLine
 10
200.2538839977666
 20
146.9994235085087
 30
0.0
 11
199.9638839977664
 21
146.9994235085087
 31
0.0
  0
LINE
  5
8A9
330
1F
100
AcDbEntity
  8
0
100
AcDbLine
 10
199.9638839977664
 20
146.9994235085087
 30
0.0
 11
199.9638839977664
 21
146.3444235085086
 31
0.0
  0
LINE
  5
8AA
330
1F
100
AcDbEntity
  8
0
100
AcDbLine
 10
200.2538839977666
 20
146.3444235085086
 30
0.0
 11
200.2538839977666
 21
146.9994235085087
 31
0.0
  0
LINE
  5
8AB
330
1F
100
AcDbEntity
  8
0
100
AcDbLine
 10
199.9638839977664
 20
145.5394235085087
 30
0.0
 11
199.9638839977664
 21
146.0494235085087
 31
0.0
  0
LINE
  5
8AC
330
1F
100
AcDbEntity
  8
0
100
AcDbLine
 10
200.4838839977665
 20
147.2994235085087
 30
0.0
 11
199.9638839977664
 21
147.2994235085087
 31
0.0
  0
LINE
  5
8AD
330
1F
100
AcDbEntity
  8
0
100
AcDbLine
 10
199.9638839977664
 20
147.2994235085087
 30
0.0
 11
199.9638839977664
 21
147.8044235085087
 31
0.0
  0
ELLIPSE
  5
8AE
330
1F
100
AcDbEntity
  8
0
100
AcDbEllipse
 10
197.4353649787689
 20
62.46939129782939
 30
0.0
 11
2.068965517241366
 21
0.0
 31
0.0
210
0.0
220
0.0
230
-1.0
 40
0.5833333335538823
 41
3.141592653589792
 42
6.283185307179584
  0
LINE
  5
8AF
330
1F
100
AcDbEntity
  8
0
100
AcDbLine
 10
183.1824914155506
 20
63.6762878495536
 30
0.0
 11
183.6422615304931
 21
63.6762878495536
 31
0.0
  0
LINE
  5
8B0
330
1F
100
AcDbEntity
  8
0
100
AcDbLine
 10
184.0445603810678
 20
63.6762878495536
 30
0.0
 11
185.8836408408379
 21
63.6762878495536
 31
0.0
  0
LINE
  5
8B1
330
1F
100
AcDbEntity
  8
0
100
AcDbLine
 10
186.5158247488839
 20
63.6762878495536
 30
0.0
 11
188.3549052086541
 21
63.6762878495536
 31
0.0
  0
LINE
  5
8B2
330
1F
100
AcDbEntity
  8
0
100
AcDbLine
 10
188.8146753235965
 20
63.6762878495536
 30
0.0
 11
190.6537557833665
 21
63.6762878495536
 31
0.0
  0
LINE
  5
8B3
330
1F
100
AcDbEntity
  8
0
100
AcDbLine
 10
191.1135258983092
 20
63.6762878495536
 30
0.0
 11
192.5503075075047
 21
63.6762878495536
 31
0.0
  0
LINE
  5
8B4
330
1F
100
AcDbEntity
  8
0
100
AcDbLine
 10
193.8146753235965
 20
63.67628784955346
 30
0.0
 11
195.251456932792
 21
63.67628784955346
 31
0.0
  0
LINE
  5
8B7
330
1F
100
AcDbEntity
  8
0
100
AcDbLine
 10
206.1976251394873
 20
67.46442350851078
 30
0.0
 11
173.0101428560228
 21
67.46442350851089
 31
0.0
  0
LINE
  5
8B8
330
1F
100
AcDbEntity
  8
0
100
AcDbLine
 10
207.1028779605196
 20
98.46442350851077
 30
0.0
 11
172.1048900349905
 21
98.46442350851091
 31
0.0
  0
LINE
  5
8BE
330
1F
100
AcDbEntity
  8
0
100
AcDbLine
 10
196.603883997755
 20
93.46442350851075
 30
0.0
 11
182.603883997755
 21
93.46442350851091
 31
0.0
  0
LINE
  5
8BF
330
1F
100
AcDbEntity
  8
0
100
AcDbLine
 10
196.603883997755
 20
90.46442350851078
 30
0.0
 11
182.603883997755
 21
90.46442350851087
 31
0.0
  0
LINE
  5
8C8
330
1F
100
AcDbEntity
  8
0
100
AcDbLine
 10
182.603883997755
 20
90.96442350851091
 30
0.0
 11
172.1604767570512
 21
90.96442350851091
 31
0.0
  0
LINE
  5
8C9
330
1F
100
AcDbEntity
  8
0
100
AcDbLine
 10
196.603883997755
 20
90.96442350851091
 30
0.0
 11
207.0472912384588
 21
90.96442350851075
 31
0.0
  0
ARC
  5
8CA
330
1F
100
AcDbEntity
  8
0
100
AcDbCircle
 10
205.0155471213444
 20
94.4527603849214
 30
0.0
 40
2.011663123589356
100
AcDbArc
 50
84.26082836334371
 51
275.7391716366563
  0
ARC
  5
8CB
330
1F
100
AcDbEntity
  8
0
100
AcDbCircle
 10
201.6155471213443
 20
94.4527603849214
 30
0.0
 40
2.011663123589356
100
AcDbArc
 50
84.26082952273189
 51
275.7391704772681
  0
ARC
  5
8CC
330
1F
100
AcDbEntity
  8
0
100
AcDbCircle
 10
201.6155471213443
 20
94.4527603849214
 30
0.0
 40
1.40816418651255
100
AcDbArc
 50
81.7867892982637
 51
278.2132107017363
  0
LINE
  5
8CD
330
1F
100
AcDbEntity
  8
0
100
AcDbLine
 10
201.8167134337033
 20
93.0590392898137
 30
0.0
 11
201.8167134337033
 21
92.45118084925938
 31
0.0
  0
LINE
  5
8CE
330
1F
100
AcDbEntity
  8
0
100
AcDbLine
 10
201.8167134337033
 20
96.4543399205835
 30
0.0
 11
201.8167134337033
 21
95.84648148002917
 31
0.0
  0
ARC
  5
8CF
330
1F
100
AcDbEntity
  8
0
100
AcDbCircle
 10
205.0155471213444
 20
94.4527603849214
 30
0.0
 40
1.40816418651255
100
AcDbArc
 50
81.78678763321022
 51
167.6263744188954
  0
ARC
  5
8D0
330
1F
100
AcDbEntity
  8
0
100
AcDbCircle
 10
205.0155471213444
 20
94.4527603849214
 30
0.0
 40
1.40816418651255
100
AcDbArc
 50
192.3736246512702
 51
278.2132123667898
  0
LINE
  5
8D1
330
1F
100
AcDbEntity
  8
0
100
AcDbLine
 10
205.2167134742056
 20
93.05903929565969
 30
0.0
 11
205.2167134742056
 21
92.45118085333002
 31
0.0
  0
LINE
  5
8D2
330
1F
100
AcDbEntity
  8
0
100
AcDbLine
 10
205.0155471618467
 20
94.75450986462069
 30
0.0
 11
203.640093149858
 21
94.75450986462069
 31
0.0
  0
LINE
  5
8D3
330
1F
100
AcDbEntity
  8
0
100
AcDbLine
 10
205.0155471618467
 20
94.15101092754387
 30
0.0
 11
203.6400931449609
 21
94.15101092754387
 31
0.0
  0
LINE
  5
8D4
330
1F
100
AcDbEntity
  8
0
100
AcDbLine
 10
205.0155471618467
 20
94.75450986462069
 30
0.0
 11
205.0155471618467
 21
94.15101092754387
 31
0.0
  0
LINE
  5
8D5
330
1F
100
AcDbEntity
  8
0
100
AcDbLine
 10
205.2167134742056
 20
96.45433991651287
 30
0.0
 11
205.2167134742056
 21
95.84648147418318
 31
0.0
  0
ARC
  5
8D7
330
1F
100
AcDbEntity
  8
0
100
AcDbCircle
 10
-289.896116002245
 20
98.46442350851077
 30
0.0
 40
498.0
100
AcDbArc
 50
356.5393985658634
 51
359.884716663636
  0
ARC
  5
8D8
330
1F
100
AcDbEntity
  8
0
100
AcDbCircle
 10
669.103883997755
 20
98.46442350851077
 30
0.0
 40
498.0
100
AcDbArc
 50
180.1152833363639
 51
183.4606014341349
  0
ARC
  5
8D9
330
1F
100
AcDbEntity
  8
0
100
AcDbCircle
 10
172.1048900349905
 20
97.46442350851092
 30
0.0
 40
1.0
100
AcDbArc
 50
90.0
 51
180.1152833363608
1001
GENIUS_GENODEF_13
1002
{
1000
HIER
1070
     0
1002
}
1002
{
1000
MANEDIT
1070
     0
1002
}
1002
{
1000
NOSEL
1070
     0
1002
}
1002
{
1000
BEHIND
1070
     0
1002
}
1002
{
1000
OTHER
1070
     0
1002
}
1002
{
1000
REACTOR
1002
}
1001
GENIUS_GENOBJ-N-FIL_13
1002
{
1000
OWNER
1000
GEN
1002
}
  0
ARC
  5
8DA
330
1F
100
AcDbEntity
  8
0
100
AcDbCircle
 10
207.1028779605196
 20
97.46442350851078
 30
0.0
 40
1.0
100
AcDbArc
 50
359.8847166636327
 51
90.0
1001
GENIUS_GENODEF_13
1002
{
1000
HIER
1070
     0
1002
}
1002
{
1000
MANEDIT
1070
     0
1002
}
1002
{
1000
NOSEL
1070
     0
1002
}
1002
{
1000
BEHIND
1070
     0
1002
}
1002
{
1000
OTHER
1070
     0
1002
}
1002
{
1000
REACTOR
1002
}
1001
GENIUS_GENOBJ-N-FIL_13
1002
{
1000
OWNER
1000
GEN
1002
}
  0
ARC
  5
8DB
330
1F
100
AcDbEntity
  8
0
100
AcDbCircle
 10
206.1976251394873
 20
68.46442350851077
 30
0.0
 40
1.0
100
AcDbArc
 50
270.0
 51
356.5393985658702
1001
GENIUS_GENODEF_13
1002
{
1000
HIER
1070
     0
1002
}
1002
{
1000
MANEDIT
1070
     0
1002
}
1002
{
1000
NOSEL
1070
     0
1002
}
1002
{
1000
BEHIND
1070
     0
1002
}
1002
{
1000
OTHER
1070
     0
1002
}
1002
{
1000
REACTOR
1002
}
1001
GENIUS_GENOBJ-N-FIL_13
1002
{
1000
OWNER
1000
GEN
1002
}
  0
ARC
  5
8DC
330
1F
100
AcDbEntity
  8
0
100
AcDbCircle
 10
173.0101428560228
 20
68.46442350851089
 30
0.0
 40
1.0
100
AcDbArc
 50
183.4606014341365
 51
270.0
1001
GENIUS_GENODEF_13
1002
{
1000
HIER
1070
     0
1002
}
1002
{
1000
MANEDIT
1070
     0
1002
}
1002
{
1000
NOSEL
1070
     0
1002
}
1002
{
1000
BEHIND
1070
     0
1002
}
1002
{
1000
OTHER
1070
     0
1002
}
1002
{
1000
REACTOR
1002
}
1001
GENIUS_GENOBJ-N-FIL_13
1002
{
1000
OWNER
1000
GEN
1002
}
  0
LINE
  5
8DE
330
1F
100
AcDbEntity
  8
0
100
AcDbLine
 10
182.603883997755
 20
93.46442350851091
 30
0.0
 11
182.603883997755
 21
90.46442350851087
 31
0.0
1001
GENIUS_GENOBJ-N-CEN_13
1002
{
1000
OWNER
1000
GEN
1002
}
1001
GENIUS_GENODEF_13
1002
{
1000
HIER
1070
     0
1002
}
1002
{
1000
MANEDIT
1070
     0
1002
}
1002
{
1000
NOSEL
1070
     0
1002
}
1002
{
1000
BEHIND
1070
     0
1002
}
1002
{
1000
OTHER
1070
     0
1002
}
1002
{
1000
REACTOR
1002
}
  0
LINE
  5
8DF
330
1F
100
AcDbEntity
  8
0
100
AcDbLine
 10
196.603883997755
 20
93.46442350851075
 30
0.0
 11
196.603883997755
 21
90.46442350851078
 31
0.0
1001
GENIUS_GENOBJ-N-CEN_13
1002
{
1000
OWNER
1000
GEN
1002
}
1001
GENIUS_GENODEF_13
1002
{
1000
HIER
1070
     0
1002
}
1002
{
1000
MANEDIT
1070
     0
1002
}
1002
{
1000
NOSEL
1070
     0
1002
}
1002
{
1000
BEHIND
1070
     0
1002
}
1002
{
1000
OTHER
1070
     0
1002
}
1002
{
1000
REACTOR
1002
}
  0
LINE
  5
8E2
330
1F
100
AcDbEntity
  8
0
100
AcDbLine
 10
206.1976251394872
 20
68.46442350851077
 30
0.0
 11
173.0101428560229
 21
68.46442350851089
 31
0.0
  0
LINE
  5
8E3
330
1F
100
AcDbEntity
  8
0
100
AcDbLine
 10
182.6038839977551
 20
78.96442350851089
 30
0.0
 11
173.5072738398566
 21
78.96442350851089
 31
0.0
  0
LINE
  5
8E4
330
1F
100
AcDbEntity
  8
0
100
AcDbLine
 10
196.603883997755
 20
78.96442350851089
 30
0.0
 11
205.7004941556535
 21
78.96442350851089
 31
0.0
  0
ARC
  5
8E5
330
1F
100
AcDbEntity
  8
0
100
AcDbCircle
 10
669.103883997755
 20
98.46442350851077
 30
0.0
 40
497.0
100
AcDbArc
 50
180.8646572587231
 51
183.4606014341349
  0
ARC
  5
8E6
330
1F
100
AcDbEntity
  8
0
100
AcDbCircle
 10
-289.896116002245
 20
98.46442350851077
 30
0.0
 40
497.0
100
AcDbArc
 50
356.5393985658634
 51
359.1353427412768
  0
ARC
  5
8ED
330
1F
100
AcDbEntity
  8
0
100
AcDbCircle
 10
184.1465820026651
 20
92.41666169079392
 30
0.0
 40
0.2000000000000028
100
AcDbArc
 50
353.9576715809494
 51
186.0423284190506
  0
LINE
  5
8EE
330
1F
100
AcDbEntity
  8
0
100
AcDbLine
 10
184.3454708829566
 20
92.39560905921498
 30
0.0
 11
184.26591533084
 21
91.64403011184656
 31
0.0
  0
LINE
  5
8EF
330
1F
100
AcDbEntity
  8
0
100
AcDbLine
 10
183.9476931223735
 20
92.39560905921498
 30
0.0
 11
184.0272486744902
 21
91.64403011184656
 31
0.0
  0
LINE
  5
8F0
330
1F
100
AcDbEntity
  8
0
100
AcDbLine
 10
184.1465820026651
 20
93.01666169079394
 30
0.0
 11
185.1465820026651
 21
91.01666169079392
 31
0.0
  0
LINE
  5
8F1
330
1F
100
AcDbEntity
  8
0
100
AcDbLine
 10
184.1465820026651
 20
93.01666169079394
 30
0.0
 11
183.1465820026649
 21
91.01666169079392
 31
0.0
  0
LINE
  5
8F3
330
1F
100
AcDbEntity
  8
0
100
AcDbLine
 10
183.1465820026649
 20
91.01666169079392
 30
0.0
 11
185.1465820026651
 21
91.01666169079392
 31
0.0
  0
CIRCLE
  5
8F4
330
1F
100
AcDbEntity
  8
0
100
AcDbCircle
 10
184.1465820026651
 20
91.25666169079392
 30
0.0
 40
0.1600000000000023
  0
ARC
  5
8F6
330
1F
100
AcDbEntity
  8
0
100
AcDbCircle
 10
184.1465820026651
 20
91.65666169079392
 30
0.0
 40
0.1200000000000017
100
AcDbArc
 50
186.0423284190536
 51
353.9576715809463
  0
LINE
  5
8F8
330
1F
100
AcDbEntity
  8
0
100
AcDbLine
 10
195.8597895095659
 20
72.9644235085108
 30
0.0
 11
200.1038839977549
 21
69.46442350851082
 31
0.0
  0
LINE
  5
8F9
330
1F
100
AcDbEntity
  8
0
100
AcDbLine
 10
200.1038839977549
 20
69.46442350851082
 30
0.0
 11
204.3479784859439
 21
72.9644235085108
 31
0.0
  0
LINE
  5
8FA
330
1F
100
AcDbEntity
  8
0
100
AcDbLine
 10
200.1038839977549
 20
76.46442350851081
 30
0.0
 11
195.8597895095659
 21
72.9644235085108
 31
0.0
  0
LINE
  5
8FC
330
1F
100
AcDbEntity
  8
0
100
AcDbLine
 10
204.3479784859439
 20
72.9644235085108
 30
0.0
 11
200.1038839977549
 21
76.46442350851081
 31
0.0
  0
ARC
  5
902
330
1F
100
AcDbEntity
  8
0
100
AcDbCircle
 10
81.10388399775983
 20
125.9999574144432
 30
0.0
 40
2.5
100
AcDbArc
 50
179.9999999999943
 51
224.9999999999994
1001
GENIUS_GENODEF_13
1002
{
1000
HIER
1070
     0
1002
}
1002
{
1000
MANEDIT
1070
     0
1002
}
1002
{
1000
NOSEL
1070
     0
1002
}
1002
{
1000
BEHIND
1070
     0
1002
}
1002
{
1000
REACTOR
1002
}
1001
GENIUS_GENOBJ-N-FIL_13
1002
{
1000
OWNER
1000
GEN
1002
}
  0
LINE
  5
904
330
1F
100
AcDbEntity
  8
0
100
AcDbLine
 10
96.90388399776095
 20
152.7644235085093
 30
0.0
 11
96.90388399776095
 21
122.1644235085094
 31
0.0
  0
LINE
  5
905
330
1F
100
AcDbEntity
  8
0
100
AcDbLine
 10
96.90388399776095
 20
122.4644235085094
 30
0.0
 11
81.18839003740129
 21
123.288037647308
 31
0.0
  0
LINE
  5
906
330
1F
100
AcDbEntity
  8
0
100
AcDbLine
 10
96.90388399776095
 20
122.1644235085094
 30
0.0
 11
93.90388399775927
 21
122.1644235085094
 31
0.0
  0
LINE
  5
907
330
1F
100
AcDbEntity
  8
0
100
AcDbLine
 10
93.90388399775927
 20
122.6216468463586
 30
0.0
 11
93.90388399775927
 21
122.1644235085094
 31
0.0
  0
ARC
  5
908
330
1F
100
AcDbEntity
  8
0
100
AcDbCircle
 10
81.31922992800864
 20
125.7846114841944
 30
0.0
 40
2.5
100
AcDbArc
 50
224.9999999999994
 51
266.9999999999993
1001
GENIUS_GENODEF_13
1002
{
1000
HIER
1070
     0
1002
}
1002
{
1000
MANEDIT
1070
     0
1002
}
1002
{
1000
NOSEL
1070
     0
1002
}
1002
{
1000
BEHIND
1070
     0
1002
}
1002
{
1000
REACTOR
1002
}
1001
GENIUS_GENOBJ-N-FIL_13
1002
{
1000
OWNER
1000
GEN
1002
}
  0
LINE
  5
909
330
1F
100
AcDbEntity
  8
0
100
AcDbLine
 10
79.33611704479345
 20
124.2321904614768
 30
0.0
 11
79.55146297504228
 21
124.016844531228
 31
0.0
  0
LINE
  5
90A
330
1F
100
AcDbEntity
  8
0
100
AcDbLine
 10
93.90388399776105
 20
152.7644235085094
 30
0.0
 11
93.90388399776098
 21
152.3072001706603
 31
0.0
  0
LINE
  5
90B
330
1F
100
AcDbEntity
  8
0
100
AcDbLine
 10
96.90388399776095
 20
152.4644235085094
 30
0.0
 11
81.18839003740102
 21
151.6408093697109
 31
0.0
  0
LINE
  5
90C
330
1F
100
AcDbEntity
  8
0
100
AcDbLine
 10
78.60388399776218
 20
148.9288896025754
 30
0.0
 11
78.60388399775981
 21
125.9999574144435
 31
0.0
1001
GENIUS_GENODEF_13
1002
{
1000
HIER
1070
     0
1002
}
1002
{
1000
MANEDIT
1070
     0
1002
}
1002
{
1000
NOSEL
1070
     0
1002
}
1002
{
1000
BEHIND
1070
     0
1002
}
1002
{
1000
REACTOR
1002
}
1001
GENIUS_GENOBJ-N-CEN_13
1002
{
1000
OWNER
1000
GEN
1002
}
  0
LINE
  5
90D
330
1F
100
AcDbEntity
  8
0
100
AcDbLine
 10
93.90388399776094
 20
138.4644235085093
 30
0.0
 11
93.90388399776094
 21
136.4644235085093
 31
0.0
  0
LINE
  5
90E
330
1F
100
AcDbEntity
  8
0
100
AcDbLine
 10
93.90388399776094
 20
136.4644235085093
 30
0.0
 11
96.90388399776095
 21
136.4644235085093
 31
0.0
  0
LINE
  5
90F
330
1F
100
AcDbEntity
  8
0
100
AcDbLine
 10
93.90388399776094
 20
138.4644235085093
 30
0.0
 11
96.90388399776095
 21
138.4644235085093
 31
0.0
  0
ARC
  5
910
330
1F
100
AcDbEntity
  8
0
100
AcDbCircle
 10
81.10388399775954
 20
148.9288896025751
 30
0.0
 40
2.5
100
AcDbArc
 50
135.0000000000006
 51
180.0000000000073
1001
GENIUS_GENODEF_13
1002
{
1000
HIER
1070
     0
1002
}
1002
{
1000
MANEDIT
1070
     0
1002
}
1002
{
1000
NOSEL
1070
     0
1002
}
1002
{
1000
BEHIND
1070
     0
1002
}
1002
{
1000
REACTOR
1002
}
1001
GENIUS_GENOBJ-N-FIL_13
1002
{
1000
OWNER
1000
GEN
1002
}
  0
LINE
  5
911
330
1F
100
AcDbEntity
  8
0
100
AcDbLine
 10
79.33611704479315
 20
150.6966565555415
 30
0.0
 11
79.55146297504197
 21
150.9120024857903
 31
0.0
  0
ARC
  5
912
330
1F
100
AcDbEntity
  8
0
100
AcDbCircle
 10
81.31922992800836
 20
149.144235532824
 30
0.0
 40
2.5
100
AcDbArc
 50
93.00000000000236
 51
135.0000000000006
1001
GENIUS_GENODEF_13
1002
{
1000
HIER
1070
     0
1002
}
1002
{
1000
MANEDIT
1070
     0
1002
}
1002
{
1000
NOSEL
1070
     0
1002
}
1002
{
1000
BEHIND
1070
     0
1002
}
1002
{
1000
REACTOR
1002
}
1001
GENIUS_GENOBJ-N-FIL_13
1002
{
1000
OWNER
1000
GEN
1002
}
  0
LINE
  5
913
330
1F
100
AcDbEntity
  8
0
100
AcDbLine
 10
96.90388399776095
 20
152.7644235085093
 30
0.0
 11
93.90388399776105
 21
152.7644235085094
 31
0.0
  0
LINE
  5
914
330
1F
100
AcDbEntity
  8
0
100
AcDbLine
 10
173.0340282819035
 20
92.00625203296629
 30
0.0
 11
176.4090282819035
 21
97.85192350851076
 31
0.0
  0
LINE
  5
915
330
1F
100
AcDbEntity
  8
0
100
AcDbLine
 10
173.6185954294579
 20
92.11875203296632
 30
0.0
 11
176.6038839977548
 21
97.2894235085106
 31
0.0
  0
LINE
  5
916
330
1F
100
AcDbEntity
  8
0
100
AcDbLine
 10
179.591671640811
 20
92.11875203296619
 30
0.0
 11
173.6160963546987
 21
92.11875203296632
 31
0.0
  0
LINE
  5
917
330
1F
100
AcDbEntity
  8
0
100
AcDbLine
 10
179.9788839977547
 20
91.66875203296619
 30
0.0
 11
173.2288839977549
 21
91.66875203296632
 31
0.0
  0
ARC
  5
918
330
1F
100
AcDbEntity
  8
0
100
AcDbCircle
 10
173.2288839977549
 20
91.89375203296631
 30
0.0
 40
0.2249999999999925
100
AcDbArc
 50
149.9999999999968
 51
270.0
1001
GENIUS_GENOBJ-N-FIL_13
1002
{
1000
OWNER
1000
GEN
1002
}
1001
GENIUS_GENODEF_13
1002
{
1000
HIER
1070
     0
1002
}
1002
{
1000
MANEDIT
1070
     0
1002
}
1002
{
1000
NOSEL
1070
     0
1002
}
1002
{
1000
BEHIND
1070
     0
1002
}
1002
{
1000
OTHER
1070
     0
1002
}
1002
{
1000
REACTOR
1002
}
  0
LINE
  5
919
330
1F
100
AcDbEntity
  8
0
100
AcDbLine
 10
180.1737397136062
 20
92.00625203296619
 30
0.0
 11
176.7987397136064
 21
97.85192350851076
 31
0.0
  0
LINE
  5
91A
330
1F
100
AcDbEntity
  8
0
100
AcDbLine
 10
179.5891725660514
 20
92.11875203296619
 30
0.0
 11
178.6192241138131
 21
93.79875203296622
 31
0.0
  0
LINE
  5
91B
330
1F
100
AcDbEntity
  8
0
100
AcDbLine
 10
177.9453740087153
 20
93.01728088979592
 30
0.0
 11
177.9903740087153
 21
93.09522317613657
 31
0.0
  0
LINE
  5
91C
330
1F
100
AcDbEntity
  8
0
100
AcDbLine
 10
177.9453740087153
 20
93.01728088979595
 30
0.0
 11
177.034374063871
 21
93.5432469531835
 31
0.0
  0
LINE
  5
91D
330
1F
100
AcDbEntity
  8
0
100
AcDbLine
 10
177.3145263128473
 20
93.06947010756692
 30
0.0
 11
177.3781659231541
 21
93.13310971787371
 31
0.0
  0
LINE
  5
91E
330
1F
100
AcDbEntity
  8
0
100
AcDbLine
 10
176.9419290327795
 20
93.44206738763469
 30
0.0
 11
177.3145263128473
 21
93.06947010756692
 31
0.0
  0
LINE
  5
91F
330
1F
100
AcDbEntity
  8
0
100
AcDbLine
 10
177.4303551409252
 20
92.50226202200577
 30
0.0
 11
176.9043890775376
 21
93.41326196685001
 31
0.0
  0
LINE
  5
920
330
1F
100
AcDbEntity
  8
0
100
AcDbLine
 10
177.3524128545846
 20
92.45726202200577
 30
0.0
 11
176.826446791197
 21
93.36826196685001
 31
0.0
  0
LINE
  5
921
330
1F
100
AcDbEntity
  8
0
100
AcDbLine
 10
176.7827305874097
 20
93.35015412234579
 30
0.0
 11
176.9191106572955
 21
92.84117677239231
 31
0.0
  0
LINE
  5
922
330
1F
100
AcDbEntity
  8
0
100
AcDbLine
 10
176.6957972630436
 20
93.3268604082866
 30
0.0
 11
176.8321773329295
 21
92.81788305833307
 31
0.0
  0
LINE
  5
923
330
1F
100
AcDbEntity
  8
0
100
AcDbLine
 10
176.6488839977549
 20
92.26875203296623
 30
0.0
 11
176.6488839977549
 21
93.32068415974134
 31
0.0
  0
LINE
  5
924
330
1F
100
AcDbEntity
  8
0
100
AcDbLine
 10
176.5588839977549
 20
92.26875203296623
 30
0.0
 11
176.5588839977549
 21
93.32068415974131
 31
0.0
  0
LINE
  5
925
330
1F
100
AcDbEntity
  8
0
100
AcDbLine
 10
176.511970732466
 20
93.3268604082866
 30
0.0
 11
176.3755906625801
 21
92.81788305833313
 31
0.0
  0
LINE
  5
926
330
1F
100
AcDbEntity
  8
0
100
AcDbLine
 10
176.4250374081
 20
93.35015412234579
 30
0.0
 11
176.2886573382142
 21
92.84117677239231
 31
0.0
  0
LINE
  5
927
330
1F
100
AcDbEntity
  8
0
100
AcDbLine
 10
175.8553551409252
 20
92.4572620220057
 30
0.0
 11
176.3813212043127
 21
93.36826196684995
 31
0.0
  0
LINE
  5
928
330
1F
100
AcDbEntity
  8
0
100
AcDbLine
 10
175.7774128545846
 20
92.50226202200577
 30
0.0
 11
176.3033789179721
 21
93.41326196684995
 31
0.0
  0
LINE
  5
929
330
1F
100
AcDbEntity
  8
0
100
AcDbLine
 10
175.2173939867944
 20
93.0952231761365
 30
0.0
 11
175.2623939867944
 21
93.01728088979592
 31
0.0
  0
LINE
  5
92A
330
1F
100
AcDbEntity
  8
0
100
AcDbLine
 10
175.8296020723556
 20
93.13310971787377
 30
0.0
 11
175.8932416826624
 21
93.06947010756692
 31
0.0
  0
LINE
  5
92B
330
1F
100
AcDbEntity
  8
0
100
AcDbLine
 10
176.2658389627301
 20
93.44206738763469
 30
0.0
 11
175.8932416826624
 21
93.06947010756692
 31
0.0
  0
LINE
  5
92C
330
1F
100
AcDbEntity
  8
0
100
AcDbLine
 10
175.2623939867944
 20
93.01728088979592
 30
0.0
 11
176.1733939316386
 21
93.54324695318345
 31
0.0
  0
LINE
  5
92D
330
1F
100
AcDbEntity
  8
0
100
AcDbLine
 10
176.5588839977549
 20
92.26875203296623
 30
0.0
 11
176.6488839977549
 21
92.26875203296623
 31
0.0
  0
LINE
  5
92E
330
1F
100
AcDbEntity
  8
0
100
AcDbLine
 10
175.7774128545846
 20
92.5022620220057
 30
0.0
 11
175.8553551409252
 21
92.4572620220057
 31
0.0
  0
LINE
  5
92F
330
1F
100
AcDbEntity
  8
0
100
AcDbLine
 10
176.2886573382142
 20
92.84117677239231
 30
0.0
 11
176.3755906625801
 21
92.81788305833313
 31
0.0
  0
LINE
  5
930
330
1F
100
AcDbEntity
  8
0
100
AcDbLine
 10
177.3524128545846
 20
92.45726202200577
 30
0.0
 11
177.4303551409252
 21
92.50226202200577
 31
0.0
  0
LINE
  5
931
330
1F
100
AcDbEntity
  8
0
100
AcDbLine
 10
176.8321773329295
 20
92.81788305833307
 30
0.0
 11
176.9191106572955
 21
92.84117677239231
 31
0.0
  0
ARC
  5
932
330
1F
100
AcDbEntity
  8
0
100
AcDbCircle
 10
179.9788839977547
 20
91.89375203296618
 30
0.0
 40
0.2249999999999925
100
AcDbArc
 50
270.0
 51
30.00000000000077
1001
GENIUS_GENOBJ-N-FIL_13
1002
{
1000
OWNER
1000
GEN
1002
}
1001
GENIUS_GENODEF_13
1002
{
1000
HIER
1070
     0
1002
}
1002
{
1000
MANEDIT
1070
     0
1002
}
1002
{
1000
NOSEL
1070
     0
1002
}
1002
{
1000
BEHIND
1070
     0
1002
}
1002
{
1000
OTHER
1070
     0
1002
}
1002
{
1000
REACTOR
1002
}
  0
LINE
  5
933
330
1F
100
AcDbEntity
  8
0
100
AcDbLine
 10
178.5672625895861
 20
93.88875203296624
 30
0.0
 11
176.6038839977548
 21
97.28942350851101
 31
0.0
  0
LINE
  5
934
330
1F
100
AcDbEntity
  8
0
100
AcDbLine
 10
178.6192241138131
 20
93.79875203296622
 30
0.0
 11
177.1269518709797
 21
93.79875203296622
 31
0.0
  0
LINE
  5
935
330
1F
100
AcDbEntity
  8
0
100
AcDbLine
 10
178.5672625895861
 20
93.88875203296624
 30
0.0
 11
177.1269518709797
 21
93.88875203296624
 31
0.0
  0
LINE
  5
936
330
1F
100
AcDbEntity
  8
0
100
AcDbLine
 10
176.6488839977548
 20
95.41875203296616
 30
0.0
 11
176.6488839977548
 21
94.36681990619106
 31
0.0
  0
LINE
  5
937
330
1F
100
AcDbEntity
  8
0
100
AcDbLine
 10
176.5588839977548
 20
95.41875203296616
 30
0.0
 11
176.5588839977548
 21
94.36681990619106
 31
0.0
  0
LINE
  5
938
330
1F
100
AcDbEntity
  8
0
100
AcDbLine
 10
175.2173939867944
 20
94.59228088979584
 30
0.0
 11
176.1283939316386
 21
94.06631482640831
 31
0.0
  0
LINE
  5
939
330
1F
100
AcDbEntity
  8
0
100
AcDbLine
 10
175.2623939867944
 20
94.67022317613643
 30
0.0
 11
176.1733939316386
 21
94.14425711274892
 31
0.0
  0
LINE
  5
93A
330
1F
100
AcDbEntity
  8
0
100
AcDbLine
 10
176.2021993524233
 20
94.18179706799092
 30
0.0
 11
175.8296020723556
 21
94.55439434805866
 31
0.0
  0
LINE
  5
93B
330
1F
100
AcDbEntity
  8
0
100
AcDbLine
 10
175.2173939867944
 20
93.09522317613652
 30
0.0
 11
176.1283939316386
 21
93.62118923952404
 31
0.0
  0
LINE
  5
93C
330
1F
100
AcDbEntity
  8
0
100
AcDbLine
 10
176.1102860871345
 20
93.66490544331131
 30
0.0
 11
175.601308737181
 21
93.52852537342556
 31
0.0
  0
LINE
  5
93D
330
1F
100
AcDbEntity
  8
0
100
AcDbLine
 10
176.0869923730752
 20
93.75183876767732
 30
0.0
 11
175.5780150231217
 21
93.61545869779158
 31
0.0
  0
LINE
  5
93E
330
1F
100
AcDbEntity
  8
0
100
AcDbLine
 10
175.0288839977549
 20
93.79875203296615
 30
0.0
 11
176.08081612453
 21
93.79875203296615
 31
0.0
  0
LINE
  5
93F
330
1F
100
AcDbEntity
  8
0
100
AcDbLine
 10
175.0288839977549
 20
93.88875203296619
 30
0.0
 11
176.08081612453
 21
93.88875203296619
 31
0.0
  0
LINE
  5
940
330
1F
100
AcDbEntity
  8
0
100
AcDbLine
 10
176.0869923730752
 20
93.93566529825507
 30
0.0
 11
175.5780150231217
 21
94.07204536814084
 31
0.0
  0
LINE
  5
941
330
1F
100
AcDbEntity
  8
0
100
AcDbLine
 10
176.1102860871345
 20
94.02259862262107
 30
0.0
 11
175.601308737181
 21
94.15897869250684
 31
0.0
  0
LINE
  5
942
330
1F
100
AcDbEntity
  8
0
100
AcDbLine
 10
175.5780150231217
 20
93.61545869779158
 30
0.0
 11
175.601308737181
 21
93.52852537342556
 31
0.0
  0
LINE
  5
943
330
1F
100
AcDbEntity
  8
0
100
AcDbLine
 10
175.0288839977549
 20
93.88875203296619
 30
0.0
 11
175.0288839977549
 21
93.79875203296615
 31
0.0
  0
LINE
  5
944
330
1F
100
AcDbEntity
  8
0
100
AcDbLine
 10
175.601308737181
 20
94.15897869250684
 30
0.0
 11
175.5780150231217
 21
94.07204536814084
 31
0.0
  0
ARC
  5
945
330
1F
100
AcDbEntity
  8
0
100
AcDbCircle
 10
176.6038839977549
 20
93.84375203296619
 30
0.0
 40
0.5249999999999826
100
AcDbArc
 50
199.9171003355251
 51
205.0828996644722
  0
ARC
  5
946
330
1F
100
AcDbEntity
  8
0
100
AcDbCircle
 10
176.6038839977549
 20
93.84375203296619
 30
0.0
 40
0.5249999999999826
100
AcDbArc
 50
214.9171003355317
 51
220.0828996644699
  0
LINE
  5
947
330
1F
100
AcDbEntity
  8
0
100
AcDbLine
 10
176.2021993524233
 20
93.50570699794147
 30
0.0
 11
175.8296020723556
 21
93.13310971787377
 31
0.0
  0
ARC
  5
948
330
1F
100
AcDbEntity
  8
0
100
AcDbCircle
 10
176.6038839977549
 20
93.84375203296619
 30
0.0
 40
0.5249999999999826
100
AcDbArc
 50
259.917100335527
 51
265.0828996644709
  0
ARC
  5
949
330
1F
100
AcDbEntity
  8
0
100
AcDbCircle
 10
176.6038839977549
 20
93.84375203296619
 30
0.0
 40
0.5249999999999826
100
AcDbArc
 50
229.9171003355263
 51
235.082899664472
  0
ARC
  5
94A
330
1F
100
AcDbEntity
  8
0
100
AcDbCircle
 10
176.6038839977549
 20
93.84375203296619
 30
0.0
 40
0.5249999999999826
100
AcDbArc
 50
244.9171003355314
 51
250.0828996644687
  0
ARC
  5
94B
330
1F
100
AcDbEntity
  8
0
100
AcDbCircle
 10
176.6038839977549
 20
93.84375203296619
 30
0.0
 40
0.5249999999999826
100
AcDbArc
 50
139.917100335528
 51
145.0828996644758
  0
ARC
  5
94C
330
1F
100
AcDbEntity
  8
0
100
AcDbCircle
 10
176.6038839977549
 20
93.84375203296619
 30
0.0
 40
0.5249999999999826
100
AcDbArc
 50
184.9171003355347
 51
190.0828996644703
  0
ARC
  5
94D
330
1F
100
AcDbEntity
  8
0
100
AcDbCircle
 10
176.6038839977549
 20
93.84375203296619
 30
0.0
 40
0.5249999999999826
100
AcDbArc
 50
169.917100335527
 51
175.0828996644734
  0
ARC
  5
94E
330
1F
100
AcDbEntity
  8
0
100
AcDbCircle
 10
176.6038839977549
 20
93.84375203296619
 30
0.0
 40
0.5249999999999826
100
AcDbArc
 50
154.9171003355327
 51
160.0828996644722
  0
LINE
  5
94F
330
1F
100
AcDbEntity
  8
0
100
AcDbLine
 10
175.2623939867944
 20
94.67022317613643
 30
0.0
 11
175.2173939867944
 21
94.59228088979584
 31
0.0
  0
LINE
  5
950
330
1F
100
AcDbEntity
  8
0
100
AcDbLine
 10
175.7774128545845
 20
95.18524204392663
 30
0.0
 11
176.3033789179721
 21
94.27424209908242
 31
0.0
  0
LINE
  5
951
330
1F
100
AcDbEntity
  8
0
100
AcDbLine
 10
175.8553551409252
 20
95.23024204392664
 30
0.0
 11
176.3813212043127
 21
94.31924209908244
 31
0.0
  0
LINE
  5
952
330
1F
100
AcDbEntity
  8
0
100
AcDbLine
 10
176.511970732466
 20
94.36064365764579
 30
0.0
 11
176.3755906625801
 21
94.8696210075993
 31
0.0
  0
LINE
  5
953
330
1F
100
AcDbEntity
  8
0
100
AcDbLine
 10
176.4250374081
 20
94.33734994358657
 30
0.0
 11
176.2886573382142
 21
94.84632729354007
 31
0.0
  0
LINE
  5
954
330
1F
100
AcDbEntity
  8
0
100
AcDbLine
 10
176.2658389627301
 20
94.24543667829771
 30
0.0
 11
175.8932416826624
 21
94.61803395836545
 31
0.0
  0
LINE
  5
955
330
1F
100
AcDbEntity
  8
0
100
AcDbLine
 10
175.8932416826624
 20
94.61803395836545
 30
0.0
 11
175.8296020723556
 21
94.55439434805866
 31
0.0
  0
ARC
  5
956
330
1F
100
AcDbEntity
  8
0
100
AcDbCircle
 10
176.6038839977549
 20
93.84375203296619
 30
0.0
 40
0.5249999999999826
100
AcDbArc
 50
124.9171003355355
 51
130.0828996644719
  0
ARC
  5
957
330
1F
100
AcDbEntity
  8
0
100
AcDbCircle
 10
176.6038839977549
 20
93.84375203296619
 30
0.0
 40
0.5249999999999826
100
AcDbArc
 50
109.9171003355262
 51
115.0828996644746
  0
ARC
  5
958
330
1F
100
AcDbEntity
  8
0
100
AcDbCircle
 10
176.6038839977549
 20
93.84375203296619
 30
0.0
 40
0.5249999999999826
100
AcDbArc
 50
94.9171003355345
 51
100.0828996644729
  0
LINE
  5
959
330
1F
100
AcDbEntity
  8
0
100
AcDbLine
 10
175.8553551409251
 20
95.23024204392664
 30
0.0
 11
175.7774128545845
 21
95.18524204392663
 31
0.0
  0
LINE
  5
95A
330
1F
100
AcDbEntity
  8
0
100
AcDbLine
 10
176.3755906625801
 20
94.8696210075993
 30
0.0
 11
176.2886573382142
 21
94.84632729354007
 31
0.0
  0
LINE
  5
95B
330
1F
100
AcDbEntity
  8
0
100
AcDbLine
 10
177.0055686430864
 20
94.18179706799092
 30
0.0
 11
177.3781659231541
 21
94.55439434805866
 31
0.0
  0
LINE
  5
95C
330
1F
100
AcDbEntity
  8
0
100
AcDbLine
 10
177.9453740087153
 20
94.67022317613649
 30
0.0
 11
177.034374063871
 21
94.14425711274899
 31
0.0
  0
LINE
  5
95D
330
1F
100
AcDbEntity
  8
0
100
AcDbLine
 10
177.9903740087153
 20
94.59228088979591
 30
0.0
 11
177.0793740638711
 21
94.06631482640838
 31
0.0
  0
LINE
  5
95E
330
1F
100
AcDbEntity
  8
0
100
AcDbLine
 10
177.0974819083752
 20
94.02259862262106
 30
0.0
 11
177.6064592583287
 21
94.15897869250684
 31
0.0
  0
LINE
  5
95F
330
1F
100
AcDbEntity
  8
0
100
AcDbLine
 10
177.1207756224345
 20
93.93566529825504
 30
0.0
 11
177.629752972388
 21
94.07204536814084
 31
0.0
  0
LINE
  5
960
330
1F
100
AcDbEntity
  8
0
100
AcDbLine
 10
177.1207756224345
 20
93.75183876767732
 30
0.0
 11
177.6297529723879
 21
93.61545869779154
 31
0.0
  0
LINE
  5
961
330
1F
100
AcDbEntity
  8
0
100
AcDbLine
 10
177.0974819083752
 20
93.66490544331131
 30
0.0
 11
177.6064592583287
 21
93.52852537342554
 31
0.0
  0
LINE
  5
962
330
1F
100
AcDbEntity
  8
0
100
AcDbLine
 10
177.9903740087153
 20
93.09522317613657
 30
0.0
 11
177.0793740638711
 21
93.62118923952412
 31
0.0
  0
ARC
  5
963
330
1F
100
AcDbEntity
  8
0
100
AcDbCircle
 10
176.6038839977549
 20
93.84375203296619
 30
0.0
 40
0.5249999999999826
100
AcDbArc
 50
334.9171003355327
 51
340.0828996644722
  0
ARC
  5
964
330
1F
100
AcDbEntity
  8
0
100
AcDbCircle
 10
176.6038839977549
 20
93.84375203296619
 30
0.0
 40
0.5249999999999826
100
AcDbArc
 50
319.9171003355281
 51
325.0828996644727
  0
LINE
  5
965
330
1F
100
AcDbEntity
  8
0
100
AcDbLine
 10
177.0055686430864
 20
93.50570699794143
 30
0.0
 11
177.3781659231541
 21
93.13310971787371
 31
0.0
  0
ARC
  5
966
330
1F
100
AcDbEntity
  8
0
100
AcDbCircle
 10
176.6038839977549
 20
93.84375203296619
 30
0.0
 40
0.5249999999999826
100
AcDbArc
 50
274.9171003355345
 51
280.082899664473
  0
ARC
  5
967
330
1F
100
AcDbEntity
  8
0
100
AcDbCircle
 10
176.6038839977549
 20
93.84375203296619
 30
0.0
 40
0.5249999999999826
100
AcDbArc
 50
289.9171003355262
 51
295.0828996644747
  0
ARC
  5
968
330
1F
100
AcDbEntity
  8
0
100
AcDbCircle
 10
176.6038839977549
 20
93.84375203296619
 30
0.0
 40
0.5249999999999826
100
AcDbArc
 50
304.9171003355355
 51
310.0828996644719
  0
ARC
  5
969
330
1F
100
AcDbEntity
  8
0
100
AcDbCircle
 10
176.6038839977549
 20
93.84375203296619
 30
0.0
 40
0.5249999999999826
100
AcDbArc
 50
34.91710033553395
 51
40.08289966447192
  0
ARC
  5
96A
330
1F
100
AcDbEntity
  8
0
100
AcDbCircle
 10
176.6038839977549
 20
93.84375203296619
 30
0.0
 40
0.5249999999999826
100
AcDbArc
 50
349.917100335527
 51
355.0828996644733
  0
ARC
  5
96B
330
1F
100
AcDbEntity
  8
0
100
AcDbCircle
 10
176.6038839977549
 20
93.84375203296619
 30
0.0
 40
0.5249999999999826
100
AcDbArc
 50
4.917100335532023
 51
10.08289966447027
  0
ARC
  5
96C
330
1F
100
AcDbEntity
  8
0
100
AcDbCircle
 10
176.6038839977549
 20
93.84375203296619
 30
0.0
 40
0.5249999999999826
100
AcDbArc
 50
19.91710033552527
 51
25.08289966447466
  0
LINE
  5
96D
330
1F
100
AcDbEntity
  8
0
100
AcDbLine
 10
177.6064592583287
 20
93.52852537342554
 30
0.0
 11
177.6297529723879
 21
93.61545869779154
 31
0.0
  0
LINE
  5
96E
330
1F
100
AcDbEntity
  8
0
100
AcDbLine
 10
177.629752972388
 20
94.07204536814084
 30
0.0
 11
177.6064592583287
 21
94.15897869250684
 31
0.0
  0
LINE
  5
96F
330
1F
100
AcDbEntity
  8
0
100
AcDbLine
 10
176.6957972630436
 20
94.36064365764579
 30
0.0
 11
176.8321773329295
 21
94.8696210075993
 31
0.0
  0
LINE
  5
970
330
1F
100
AcDbEntity
  8
0
100
AcDbLine
 10
176.7827305874097
 20
94.33734994358657
 30
0.0
 11
176.9191106572955
 21
94.84632729354007
 31
0.0
  0
LINE
  5
971
330
1F
100
AcDbEntity
  8
0
100
AcDbLine
 10
177.3524128545845
 20
95.23024204392669
 30
0.0
 11
176.8264467911969
 21
94.31924209908244
 31
0.0
  0
LINE
  5
972
330
1F
100
AcDbEntity
  8
0
100
AcDbLine
 10
177.4303551409251
 20
95.18524204392669
 30
0.0
 11
176.9043890775376
 21
94.27424209908243
 31
0.0
  0
LINE
  5
973
330
1F
100
AcDbEntity
  8
0
100
AcDbLine
 10
176.9419290327795
 20
94.24543667829771
 30
0.0
 11
177.3145263128473
 21
94.61803395836545
 31
0.0
  0
ARC
  5
974
330
1F
100
AcDbEntity
  8
0
100
AcDbCircle
 10
176.6038839977549
 20
93.84375203296619
 30
0.0
 40
0.5249999999999826
100
AcDbArc
 50
49.91710033552632
 51
55.08289966447651
  0
ARC
  5
975
330
1F
100
AcDbEntity
  8
0
100
AcDbCircle
 10
176.6038839977549
 20
93.84375203296619
 30
0.0
 40
0.5249999999999826
100
AcDbArc
 50
64.91710033553632
 51
70.0828996644738
  0
ARC
  5
976
330
1F
100
AcDbEntity
  8
0
100
AcDbCircle
 10
176.6038839977549
 20
93.84375203296619
 30
0.0
 40
0.5249999999999826
100
AcDbArc
 50
79.91710033552705
 51
85.08289966447632
  0
LINE
  5
977
330
1F
100
AcDbEntity
  8
0
100
AcDbLine
 10
177.3781659231541
 20
94.55439434805866
 30
0.0
 11
177.3145263128473
 21
94.61803395836545
 31
0.0
  0
LINE
  5
978
330
1F
100
AcDbEntity
  8
0
100
AcDbLine
 10
176.9191106572955
 20
94.84632729354007
 30
0.0
 11
176.8321773329295
 21
94.8696210075993
 31
0.0
  0
LINE
  5
979
330
1F
100
AcDbEntity
  8
0
100
AcDbLine
 10
177.4303551409251
 20
95.18524204392669
 30
0.0
 11
177.3524128545845
 21
95.23024204392669
 31
0.0
  0
LINE
  5
97A
330
1F
100
AcDbEntity
  8
0
100
AcDbLine
 10
177.9903740087153
 20
94.59228088979591
 30
0.0
 11
177.9453740087153
 21
94.67022317613652
 31
0.0
  0
LINE
  5
97B
330
1F
100
AcDbEntity
  8
0
100
AcDbLine
 10
176.6488839977548
 20
95.41875203296616
 30
0.0
 11
176.5588839977548
 21
95.41875203296616
 31
0.0
  0
ARC
  5
97C
330
1F
100
AcDbEntity
  8
0
100
AcDbCircle
 10
176.6038839977549
 20
97.73942350851077
 30
0.0
 40
0.2249999999999925
100
AcDbArc
 50
30.00000000000077
 51
149.9999999999968
1001
GENIUS_GENOBJ-N-FIL_13
1002
{
1000
OWNER
1000
GEN
1002
}
1001
GENIUS_GENODEF_13
1002
{
1000
HIER
1070
     0
1002
}
1002
{
1000
MANEDIT
1070
     0
1002
}
1002
{
1000
NOSEL
1070
     0
1002
}
1002
{
1000
BEHIND
1070
     0
1002
}
1002
{
1000
OTHER
1070
     0
1002
}
1002
{
1000
REACTOR
1002
}
  0
LINE
  5
97D
330
1F
100
AcDbEntity
  8
0
100
AcDbLine
 10
200.2538839977651
 20
130.8644235085087
 30
0.0
 11
199.8838839977652
 21
130.4244235085087
 31
0.0
  0
LINE
  5
97E
330
1F
100
AcDbEntity
  8
0
100
AcDbLine
 10
199.8838839977652
 20
130.4244235085087
 30
0.0
 11
199.7238839977652
 21
128.5444235085087
 31
0.0
  0
LINE
  5
97F
330
1F
100
AcDbEntity
  8
0
100
AcDbLine
 10
199.7238839977652
 20
128.5444235085087
 30
0.0
 11
199.9138839977652
 21
128.3594235085087
 31
0.0
  0
LINE
  5
980
330
1F
100
AcDbEntity
  8
0
100
AcDbLine
 10
199.9138839977652
 20
128.3594235085087
 30
0.0
 11
200.2538839977651
 21
128.6444235085087
 31
0.0
  0
LINE
  5
981
330
1F
100
AcDbEntity
  8
0
100
AcDbLine
 10
200.2538839977651
 20
128.6444235085087
 30
0.0
 11
200.4138839977652
 21
130.4944235085087
 31
0.0
  0
LINE
  5
982
330
1F
100
AcDbEntity
  8
0
100
AcDbLine
 10
200.4138839977652
 20
130.4944235085087
 30
0.0
 11
200.4188839977651
 21
130.5044235085087
 31
0.0
  0
LINE
  5
983
330
1F
100
AcDbEntity
  8
0
100
AcDbLine
 10
200.4188839977651
 20
130.5044235085087
 30
0.0
 11
200.4138839977652
 21
130.5744235085087
 31
0.0
  0
LINE
  5
984
330
1F
100
AcDbEntity
  8
0
100
AcDbLine
 10
200.4138839977652
 20
130.5744235085087
 30
0.0
 11
200.4038839977651
 21
130.6444235085087
 31
0.0
  0
LINE
  5
985
330
1F
100
AcDbEntity
  8
0
100
AcDbLine
 10
200.4038839977651
 20
130.6444235085087
 30
0.0
 11
200.3788839977652
 21
130.7044235085087
 31
0.0
  0
LINE
  5
986
330
1F
100
AcDbEntity
  8
0
100
AcDbLine
 10
200.3788839977652
 20
130.7044235085087
 30
0.0
 11
200.3488839977653
 21
130.7644235085087
 31
0.0
  0
LINE
  5
987
330
1F
100
AcDbEntity
  8
0
100
AcDbLine
 10
200.3488839977653
 20
130.7644235085087
 30
0.0
 11
200.3088839977651
 21
130.8194235085087
 31
0.0
  0
LINE
  5
988
330
1F
100
AcDbEntity
  8
0
100
AcDbLine
 10
200.3088839977651
 20
130.8194235085087
 30
0.0
 11
200.2588839977651
 21
130.8644235085087
 31
0.0
  0
LINE
  5
989
330
1F
100
AcDbEntity
  8
0
100
AcDbLine
 10
200.2588839977651
 20
130.8644235085087
 30
0.0
 11
200.2538839977651
 21
130.8644235085087
 31
0.0
  0
LINE
  5
98A
330
1F
100
AcDbEntity
  8
0
100
AcDbLine
 10
196.9638839977653
 20
130.8644235085087
 30
0.0
 11
196.5938839977652
 21
130.4244235085087
 31
0.0
  0
LINE
  5
98B
330
1F
100
AcDbEntity
  8
0
100
AcDbLine
 10
196.5938839977652
 20
130.4244235085087
 30
0.0
 11
196.4288839977652
 21
128.5444235085087
 31
0.0
  0
LINE
  5
98C
330
1F
100
AcDbEntity
  8
0
100
AcDbLine
 10
196.4288839977652
 20
128.5444235085087
 30
0.0
 11
196.6188839977652
 21
128.3594235085087
 31
0.0
  0
LINE
  5
98D
330
1F
100
AcDbEntity
  8
0
100
AcDbLine
 10
196.6188839977652
 20
128.3594235085087
 30
0.0
 11
196.9588839977652
 21
128.6444235085087
 31
0.0
  0
LINE
  5
98E
330
1F
100
AcDbEntity
  8
0
100
AcDbLine
 10
196.9588839977652
 20
128.6444235085087
 30
0.0
 11
197.1238839977651
 21
130.4944235085087
 31
0.0
  0
LINE
  5
98F
330
1F
100
AcDbEntity
  8
0
100
AcDbLine
 10
197.1238839977651
 20
130.4944235085087
 30
0.0
 11
197.1288839977651
 21
130.5044235085087
 31
0.0
  0
LINE
  5
990
330
1F
100
AcDbEntity
  8
0
100
AcDbLine
 10
197.1288839977651
 20
130.5044235085087
 30
0.0
 11
197.1238839977651
 21
130.5744235085087
 31
0.0
  0
LINE
  5
991
330
1F
100
AcDbEntity
  8
0
100
AcDbLine
 10
197.1238839977651
 20
130.5744235085087
 30
0.0
 11
197.1138839977652
 21
130.6444235085087
 31
0.0
  0
LINE
  5
992
330
1F
100
AcDbEntity
  8
0
100
AcDbLine
 10
197.1138839977652
 20
130.6444235085087
 30
0.0
 11
197.0888839977653
 21
130.7044235085087
 31
0.0
  0
LINE
  5
993
330
1F
100
AcDbEntity
  8
0
100
AcDbLine
 10
197.0888839977653
 20
130.7044235085087
 30
0.0
 11
197.0588839977652
 21
130.7644235085087
 31
0.0
  0
LINE
  5
994
330
1F
100
AcDbEntity
  8
0
100
AcDbLine
 10
197.0588839977652
 20
130.7644235085087
 30
0.0
 11
197.0188839977651
 21
130.8194235085087
 31
0.0
  0
LINE
  5
995
330
1F
100
AcDbEntity
  8
0
100
AcDbLine
 10
197.0188839977651
 20
130.8194235085087
 30
0.0
 11
196.9688839977652
 21
130.8644235085087
 31
0.0
  0
LINE
  5
996
330
1F
100
AcDbEntity
  8
0
100
AcDbLine
 10
196.9688839977652
 20
130.8644235085087
 30
0.0
 11
196.9638839977653
 21
130.8644235085087
 31
0.0
  0
LINE
  5
997
330
1F
100
AcDbEntity
  8
0
100
AcDbLine
 10
198.4088839977651
 20
130.7194235085087
 30
0.0
 11
198.3688839977651
 21
130.6444235085087
 31
0.0
  0
LINE
  5
998
330
1F
100
AcDbEntity
  8
0
100
AcDbLine
 10
198.3688839977651
 20
130.6444235085087
 30
0.0
 11
198.3438839977652
 21
130.5694235085087
 31
0.0
  0
LINE
  5
999
330
1F
100
AcDbEntity
  8
0
100
AcDbLine
 10
198.3438839977652
 20
130.5694235085087
 30
0.0
 11
198.3288839977652
 21
130.4894235085086
 31
0.0
  0
LINE
  5
99A
330
1F
100
AcDbEntity
  8
0
100
AcDbLine
 10
198.3288839977652
 20
130.4894235085086
 30
0.0
 11
198.3238839977652
 21
130.4894235085086
 31
0.0
  0
LINE
  5
99B
330
1F
100
AcDbEntity
  8
0
100
AcDbLine
 10
198.3238839977652
 20
130.4894235085086
 30
0.0
 11
198.1638839977652
 21
128.6394235085086
 31
0.0
  0
LINE
  5
99C
330
1F
100
AcDbEntity
  8
0
100
AcDbLine
 10
198.1638839977652
 20
128.6394235085086
 30
0.0
 11
198.4488839977652
 21
128.3594235085087
 31
0.0
  0
LINE
  5
99D
330
1F
100
AcDbEntity
  8
0
100
AcDbLine
 10
198.4488839977652
 20
128.3594235085087
 30
0.0
 11
198.6788839977652
 21
128.5544235085086
 31
0.0
  0
LINE
  5
99E
330
1F
100
AcDbEntity
  8
0
100
AcDbLine
 10
198.6788839977652
 20
128.5544235085086
 30
0.0
 11
198.8388839977652
 21
130.3744235085087
 31
0.0
  0
LINE
  5
99F
330
1F
100
AcDbEntity
  8
0
100
AcDbLine
 10
198.8388839977652
 20
130.3744235085087
 30
0.0
 11
198.4388839977652
 21
130.7694235085087
 31
0.0
  0
LINE
  5
9A0
330
1F
100
AcDbEntity
  8
0
100
AcDbLine
 10
198.4388839977652
 20
130.7694235085087
 30
0.0
 11
198.4088839977651
 21
130.7194235085087
 31
0.0
  0
LINE
  5
9A1
330
1F
100
AcDbEntity
  8
0
100
AcDbLine
 10
199.9838839977652
 20
130.9644235085086
 30
0.0
 11
198.8438839977652
 21
130.9644235085086
 31
0.0
  0
LINE
  5
9A2
330
1F
100
AcDbEntity
  8
0
100
AcDbLine
 10
198.8438839977652
 20
130.9644235085086
 30
0.0
 11
198.793883997765
 21
130.9594235085087
 31
0.0
  0
LINE
  5
9A3
330
1F
100
AcDbEntity
  8
0
100
AcDbLine
 10
198.793883997765
 20
130.9594235085087
 30
0.0
 11
198.7138839977652
 21
130.9494235085087
 31
0.0
  0
LINE
  5
9A4
330
1F
100
AcDbEntity
  8
0
100
AcDbLine
 10
198.7138839977652
 20
130.9494235085087
 30
0.0
 11
198.638883997765
 21
130.9194235085087
 31
0.0
  0
LINE
  5
9A5
330
1F
100
AcDbEntity
  8
0
100
AcDbLine
 10
198.638883997765
 20
130.9194235085087
 30
0.0
 11
198.5688839977652
 21
130.8844235085087
 31
0.0
  0
LINE
  5
9A6
330
1F
100
AcDbEntity
  8
0
100
AcDbLine
 10
198.5688839977652
 20
130.8844235085087
 30
0.0
 11
198.5038839977651
 21
130.8344235085087
 31
0.0
  0
LINE
  5
9A7
330
1F
100
AcDbEntity
  8
0
100
AcDbLine
 10
198.5038839977651
 20
130.8344235085087
 30
0.0
 11
198.4988839977651
 21
130.8344235085087
 31
0.0
  0
LINE
  5
9A8
330
1F
100
AcDbEntity
  8
0
100
AcDbLine
 10
198.4988839977651
 20
130.8344235085087
 30
0.0
 11
198.8888839977651
 21
130.4444235085087
 31
0.0
  0
LINE
  5
9A9
330
1F
100
AcDbEntity
  8
0
100
AcDbLine
 10
198.8888839977651
 20
130.4444235085087
 30
0.0
 11
199.7888839977651
 21
130.4444235085087
 31
0.0
  0
LINE
  5
9AA
330
1F
100
AcDbEntity
  8
0
100
AcDbLine
 10
199.7888839977651
 20
130.4444235085087
 30
0.0
 11
200.1838839977652
 21
130.9144235085087
 31
0.0
  0
LINE
  5
9AB
330
1F
100
AcDbEntity
  8
0
100
AcDbLine
 10
200.1838839977652
 20
130.9144235085087
 30
0.0
 11
200.1838839977652
 21
130.9144235085087
 31
0.0
  0
LINE
  5
9AC
330
1F
100
AcDbEntity
  8
0
100
AcDbLine
 10
200.1838839977652
 20
130.9144235085087
 30
0.0
 11
200.1238839977651
 21
130.9394235085087
 31
0.0
  0
LINE
  5
9AD
330
1F
100
AcDbEntity
  8
0
100
AcDbLine
 10
200.1238839977651
 20
130.9394235085087
 30
0.0
 11
200.0538839977652
 21
130.9544235085086
 31
0.0
  0
LINE
  5
9AE
330
1F
100
AcDbEntity
  8
0
100
AcDbLine
 10
200.0538839977652
 20
130.9544235085086
 30
0.0
 11
199.9838839977652
 21
130.9594235085087
 31
0.0
  0
LINE
  5
9AF
330
1F
100
AcDbEntity
  8
0
100
AcDbLine
 10
199.9838839977652
 20
130.9594235085087
 30
0.0
 11
199.9838839977652
 21
130.9644235085086
 31
0.0
  0
LINE
  5
9B0
330
1F
100
AcDbEntity
  8
0
100
AcDbLine
 10
193.6738839977651
 20
130.8644235085087
 30
0.0
 11
193.3038839977652
 21
130.4244235085087
 31
0.0
  0
LINE
  5
9B1
330
1F
100
AcDbEntity
  8
0
100
AcDbLine
 10
193.3038839977652
 20
130.4244235085087
 30
0.0
 11
193.1388839977652
 21
128.5444235085087
 31
0.0
  0
LINE
  5
9B2
330
1F
100
AcDbEntity
  8
0
100
AcDbLine
 10
193.1388839977652
 20
128.5444235085087
 30
0.0
 11
193.3288839977652
 21
128.3594235085087
 31
0.0
  0
LINE
  5
9B3
330
1F
100
AcDbEntity
  8
0
100
AcDbLine
 10
193.3288839977652
 20
128.3594235085087
 30
0.0
 11
193.6688839977652
 21
128.6444235085087
 31
0.0
  0
LINE
  5
9B4
330
1F
100
AcDbEntity
  8
0
100
AcDbLine
 10
193.6688839977652
 20
128.6444235085087
 30
0.0
 11
193.8338839977652
 21
130.4944235085087
 31
0.0
  0
LINE
  5
9B5
330
1F
100
AcDbEntity
  8
0
100
AcDbLine
 10
193.8338839977652
 20
130.4944235085087
 30
0.0
 11
193.8388839977653
 21
130.5044235085087
 31
0.0
  0
LINE
  5
9B6
330
1F
100
AcDbEntity
  8
0
100
AcDbLine
 10
193.8388839977653
 20
130.5044235085087
 30
0.0
 11
193.8338839977652
 21
130.5744235085087
 31
0.0
  0
LINE
  5
9B7
330
1F
100
AcDbEntity
  8
0
100
AcDbLine
 10
193.8338839977652
 20
130.5744235085087
 30
0.0
 11
193.8238839977652
 21
130.6444235085087
 31
0.0
  0
LINE
  5
9B8
330
1F
100
AcDbEntity
  8
0
100
AcDbLine
 10
193.8238839977652
 20
130.6444235085087
 30
0.0
 11
193.7988839977652
 21
130.7044235085087
 31
0.0
  0
LINE
  5
9B9
330
1F
100
AcDbEntity
  8
0
100
AcDbLine
 10
193.7988839977652
 20
130.7044235085087
 30
0.0
 11
193.7688839977651
 21
130.7644235085087
 31
0.0
  0
LINE
  5
9BA
330
1F
100
AcDbEntity
  8
0
100
AcDbLine
 10
193.7688839977651
 20
130.7644235085087
 30
0.0
 11
193.7288839977652
 21
130.8194235085087
 31
0.0
  0
LINE
  5
9BB
330
1F
100
AcDbEntity
  8
0
100
AcDbLine
 10
193.7288839977652
 20
130.8194235085087
 30
0.0
 11
193.678883997765
 21
130.8644235085087
 31
0.0
  0
LINE
  5
9BC
330
1F
100
AcDbEntity
  8
0
100
AcDbLine
 10
193.678883997765
 20
130.8644235085087
 30
0.0
 11
193.6738839977651
 21
130.8644235085087
 31
0.0
  0
LINE
  5
9BD
330
1F
100
AcDbEntity
  8
0
100
AcDbLine
 10
193.3988839977653
 20
130.9644235085086
 30
0.0
 11
192.2638839977652
 21
130.9644235085086
 31
0.0
  0
LINE
  5
9BE
330
1F
100
AcDbEntity
  8
0
100
AcDbLine
 10
192.2638839977652
 20
130.9644235085086
 30
0.0
 11
192.2138839977652
 21
130.9594235085087
 31
0.0
  0
LINE
  5
9BF
330
1F
100
AcDbEntity
  8
0
100
AcDbLine
 10
192.2138839977652
 20
130.9594235085087
 30
0.0
 11
192.133883997765
 21
130.9494235085087
 31
0.0
  0
LINE
  5
9C0
330
1F
100
AcDbEntity
  8
0
100
AcDbLine
 10
192.133883997765
 20
130.9494235085087
 30
0.0
 11
192.0588839977651
 21
130.9194235085087
 31
0.0
  0
LINE
  5
9C1
330
1F
100
AcDbEntity
  8
0
100
AcDbLine
 10
192.0588839977651
 20
130.9194235085087
 30
0.0
 11
191.9888839977652
 21
130.8844235085087
 31
0.0
  0
LINE
  5
9C2
330
1F
100
AcDbEntity
  8
0
100
AcDbLine
 10
191.9888839977652
 20
130.8844235085087
 30
0.0
 11
191.923883997765
 21
130.8344235085087
 31
0.0
  0
LINE
  5
9C3
330
1F
100
AcDbEntity
  8
0
100
AcDbLine
 10
191.923883997765
 20
130.8344235085087
 30
0.0
 11
191.9188839977652
 21
130.8344235085087
 31
0.0
  0
LINE
  5
9C4
330
1F
100
AcDbEntity
  8
0
100
AcDbLine
 10
191.9188839977652
 20
130.8344235085087
 30
0.0
 11
192.3088839977651
 21
130.4444235085087
 31
0.0
  0
LINE
  5
9C5
330
1F
100
AcDbEntity
  8
0
100
AcDbLine
 10
192.3088839977651
 20
130.4444235085087
 30
0.0
 11
193.2038839977652
 21
130.4444235085087
 31
0.0
  0
LINE
  5
9C6
330
1F
100
AcDbEntity
  8
0
100
AcDbLine
 10
193.2038839977652
 20
130.4444235085087
 30
0.0
 11
193.5988839977651
 21
130.9144235085087
 31
0.0
  0
LINE
  5
9C7
330
1F
100
AcDbEntity
  8
0
100
AcDbLine
 10
193.5988839977651
 20
130.9144235085087
 30
0.0
 11
193.5988839977651
 21
130.9144235085087
 31
0.0
  0
LINE
  5
9C8
330
1F
100
AcDbEntity
  8
0
100
AcDbLine
 10
193.5988839977651
 20
130.9144235085087
 30
0.0
 11
193.5388839977652
 21
130.9394235085087
 31
0.0
  0
LINE
  5
9C9
330
1F
100
AcDbEntity
  8
0
100
AcDbLine
 10
193.5388839977652
 20
130.9394235085087
 30
0.0
 11
193.4688839977652
 21
130.9544235085086
 31
0.0
  0
LINE
  5
9CA
330
1F
100
AcDbEntity
  8
0
100
AcDbLine
 10
193.4688839977652
 20
130.9544235085086
 30
0.0
 11
193.3988839977653
 21
130.9594235085087
 31
0.0
  0
LINE
  5
9CB
330
1F
100
AcDbEntity
  8
0
100
AcDbLine
 10
193.3988839977653
 20
130.9594235085087
 30
0.0
 11
193.3988839977653
 21
130.9644235085086
 31
0.0
  0
LINE
  5
9CC
330
1F
100
AcDbEntity
  8
0
100
AcDbLine
 10
191.8238839977652
 20
130.7194235085087
 30
0.0
 11
191.7838839977653
 21
130.6444235085087
 31
0.0
  0
LINE
  5
9CD
330
1F
100
AcDbEntity
  8
0
100
AcDbLine
 10
191.7838839977653
 20
130.6444235085087
 30
0.0
 11
191.7588839977651
 21
130.5694235085087
 31
0.0
  0
LINE
  5
9CE
330
1F
100
AcDbEntity
  8
0
100
AcDbLine
 10
191.7588839977651
 20
130.5694235085087
 30
0.0
 11
191.7438839977652
 21
130.4894235085086
 31
0.0
  0
LINE
  5
9CF
330
1F
100
AcDbEntity
  8
0
100
AcDbLine
 10
191.7438839977652
 20
130.4894235085086
 30
0.0
 11
191.583883997765
 21
128.6394235085086
 31
0.0
  0
LINE
  5
9D0
330
1F
100
AcDbEntity
  8
0
100
AcDbLine
 10
191.583883997765
 20
128.6394235085086
 30
0.0
 11
191.8688839977651
 21
128.3594235085087
 31
0.0
  0
LINE
  5
9D1
330
1F
100
AcDbEntity
  8
0
100
AcDbLine
 10
191.8688839977651
 20
128.3594235085087
 30
0.0
 11
192.0938839977652
 21
128.5544235085086
 31
0.0
  0
LINE
  5
9D2
330
1F
100
AcDbEntity
  8
0
100
AcDbLine
 10
192.0938839977652
 20
128.5544235085086
 30
0.0
 11
192.2538839977651
 21
130.3744235085087
 31
0.0
  0
LINE
  5
9D3
330
1F
100
AcDbEntity
  8
0
100
AcDbLine
 10
192.2538839977651
 20
130.3744235085087
 30
0.0
 11
191.858883997765
 21
130.7694235085087
 31
0.0
  0
LINE
  5
9D4
330
1F
100
AcDbEntity
  8
0
100
AcDbLine
 10
191.858883997765
 20
130.7694235085087
 30
0.0
 11
191.8238839977652
 21
130.7194235085087
 31
0.0
  0
LINE
  5
9D5
330
1F
100
AcDbEntity
  8
0
100
AcDbLine
 10
195.1138839977652
 20
130.7194235085087
 30
0.0
 11
195.0738839977652
 21
130.6444235085087
 31
0.0
  0
LINE
  5
9D6
330
1F
100
AcDbEntity
  8
0
100
AcDbLine
 10
195.0738839977652
 20
130.6444235085087
 30
0.0
 11
195.048883997765
 21
130.5694235085087
 31
0.0
  0
LINE
  5
9D7
330
1F
100
AcDbEntity
  8
0
100
AcDbLine
 10
195.048883997765
 20
130.5694235085087
 30
0.0
 11
195.0338839977651
 21
130.4894235085086
 31
0.0
  0
LINE
  5
9D8
330
1F
100
AcDbEntity
  8
0
100
AcDbLine
 10
195.0338839977651
 20
130.4894235085086
 30
0.0
 11
194.8738839977652
 21
128.6394235085086
 31
0.0
  0
LINE
  5
9D9
330
1F
100
AcDbEntity
  8
0
100
AcDbLine
 10
194.8738839977652
 20
128.6394235085086
 30
0.0
 11
195.1588839977651
 21
128.3594235085087
 31
0.0
  0
LINE
  5
9DA
330
1F
100
AcDbEntity
  8
0
100
AcDbLine
 10
195.1588839977651
 20
128.3594235085087
 30
0.0
 11
195.3838839977651
 21
128.5544235085086
 31
0.0
  0
LINE
  5
9DB
330
1F
100
AcDbEntity
  8
0
100
AcDbLine
 10
195.3838839977651
 20
128.5544235085086
 30
0.0
 11
195.543883997765
 21
130.3744235085087
 31
0.0
  0
LINE
  5
9DC
330
1F
100
AcDbEntity
  8
0
100
AcDbLine
 10
195.543883997765
 20
130.3744235085087
 30
0.0
 11
195.1488839977651
 21
130.7694235085087
 31
0.0
  0
LINE
  5
9DD
330
1F
100
AcDbEntity
  8
0
100
AcDbLine
 10
195.1488839977651
 20
130.7694235085087
 30
0.0
 11
195.1138839977652
 21
130.7194235085087
 31
0.0
  0
LINE
  5
9DE
330
1F
100
AcDbEntity
  8
0
100
AcDbLine
 10
196.6888839977652
 20
130.9644235085086
 30
0.0
 11
195.5538839977652
 21
130.9644235085086
 31
0.0
  0
LINE
  5
9DF
330
1F
100
AcDbEntity
  8
0
100
AcDbLine
 10
195.5538839977652
 20
130.9644235085086
 30
0.0
 11
195.5038839977651
 21
130.9594235085087
 31
0.0
  0
LINE
  5
9E0
330
1F
100
AcDbEntity
  8
0
100
AcDbLine
 10
195.5038839977651
 20
130.9594235085087
 30
0.0
 11
195.4238839977652
 21
130.9494235085087
 31
0.0
  0
LINE
  5
9E1
330
1F
100
AcDbEntity
  8
0
100
AcDbLine
 10
195.4238839977652
 20
130.9494235085087
 30
0.0
 11
195.3488839977652
 21
130.9194235085087
 31
0.0
  0
LINE
  5
9E2
330
1F
100
AcDbEntity
  8
0
100
AcDbLine
 10
195.3488839977652
 20
130.9194235085087
 30
0.0
 11
195.2788839977651
 21
130.8844235085087
 31
0.0
  0
LINE
  5
9E3
330
1F
100
AcDbEntity
  8
0
100
AcDbLine
 10
195.2788839977651
 20
130.8844235085087
 30
0.0
 11
195.2138839977653
 21
130.8344235085087
 31
0.0
  0
LINE
  5
9E4
330
1F
100
AcDbEntity
  8
0
100
AcDbLine
 10
195.2138839977653
 20
130.8344235085087
 30
0.0
 11
195.2088839977653
 21
130.8344235085087
 31
0.0
  0
LINE
  5
9E5
330
1F
100
AcDbEntity
  8
0
100
AcDbLine
 10
195.2088839977653
 20
130.8344235085087
 30
0.0
 11
195.5988839977651
 21
130.4444235085087
 31
0.0
  0
LINE
  5
9E6
330
1F
100
AcDbEntity
  8
0
100
AcDbLine
 10
195.5988839977651
 20
130.4444235085087
 30
0.0
 11
196.4938839977651
 21
130.4444235085087
 31
0.0
  0
LINE
  5
9E7
330
1F
100
AcDbEntity
  8
0
100
AcDbLine
 10
196.4938839977651
 20
130.4444235085087
 30
0.0
 11
196.888883997765
 21
130.9144235085087
 31
0.0
  0
LINE
  5
9E8
330
1F
100
AcDbEntity
  8
0
100
AcDbLine
 10
196.888883997765
 20
130.9144235085087
 30
0.0
 11
196.888883997765
 21
130.9144235085087
 31
0.0
  0
LINE
  5
9E9
330
1F
100
AcDbEntity
  8
0
100
AcDbLine
 10
196.888883997765
 20
130.9144235085087
 30
0.0
 11
196.8288839977652
 21
130.9394235085087
 31
0.0
  0
LINE
  5
9EA
330
1F
100
AcDbEntity
  8
0
100
AcDbLine
 10
196.8288839977652
 20
130.9394235085087
 30
0.0
 11
196.7588839977652
 21
130.9544235085086
 31
0.0
  0
LINE
  5
9EB
330
1F
100
AcDbEntity
  8
0
100
AcDbLine
 10
196.7588839977652
 20
130.9544235085086
 30
0.0
 11
196.6888839977652
 21
130.9594235085087
 31
0.0
  0
LINE
  5
9EC
330
1F
100
AcDbEntity
  8
0
100
AcDbLine
 10
196.6888839977652
 20
130.9594235085087
 30
0.0
 11
196.6888839977652
 21
130.9644235085086
 31
0.0
  0
LINE
  5
9ED
330
1F
100
AcDbEntity
  8
0
100
AcDbLine
 10
199.7888839977651
 20
125.5544235085086
 30
0.0
 11
199.4288839977651
 21
125.9844235085087
 31
0.0
  0
LINE
  5
9EE
330
1F
100
AcDbEntity
  8
0
100
AcDbLine
 10
199.4288839977651
 20
125.9844235085087
 30
0.0
 11
198.5288839977651
 21
125.9844235085087
 31
0.0
  0
LINE
  5
9EF
330
1F
100
AcDbEntity
  8
0
100
AcDbLine
 10
198.5288839977651
 20
125.9844235085087
 30
0.0
 11
198.0988839977652
 21
125.5544235085086
 31
0.0
  0
LINE
  5
9F0
330
1F
100
AcDbEntity
  8
0
100
AcDbLine
 10
198.0988839977652
 20
125.5544235085086
 30
0.0
 11
198.1038839977652
 21
125.5444235085087
 31
0.0
  0
LINE
  5
9F1
330
1F
100
AcDbEntity
  8
0
100
AcDbLine
 10
198.1038839977652
 20
125.5444235085087
 30
0.0
 11
198.1638839977652
 21
125.5094235085087
 31
0.0
  0
LINE
  5
9F2
330
1F
100
AcDbEntity
  8
0
100
AcDbLine
 10
198.1638839977652
 20
125.5094235085087
 30
0.0
 11
198.2238839977652
 21
125.4844235085087
 31
0.0
  0
LINE
  5
9F3
330
1F
100
AcDbEntity
  8
0
100
AcDbLine
 10
198.2238839977652
 20
125.4844235085087
 30
0.0
 11
198.2938839977651
 21
125.4694235085086
 31
0.0
  0
LINE
  5
9F4
330
1F
100
AcDbEntity
  8
0
100
AcDbLine
 10
198.2938839977651
 20
125.4694235085086
 30
0.0
 11
198.3638839977651
 21
125.4644235085087
 31
0.0
  0
LINE
  5
9F5
330
1F
100
AcDbEntity
  8
0
100
AcDbLine
 10
198.3638839977651
 20
125.4644235085087
 30
0.0
 11
198.3588839977652
 21
125.4644235085087
 31
0.0
  0
LINE
  5
9F6
330
1F
100
AcDbEntity
  8
0
100
AcDbLine
 10
198.3588839977652
 20
125.4644235085087
 30
0.0
 11
199.4988839977652
 21
125.4644235085087
 31
0.0
  0
LINE
  5
9F7
330
1F
100
AcDbEntity
  8
0
100
AcDbLine
 10
199.4988839977652
 20
125.4644235085087
 30
0.0
 11
199.5688839977651
 21
125.4694235085086
 31
0.0
  0
LINE
  5
9F8
330
1F
100
AcDbEntity
  8
0
100
AcDbLine
 10
199.5688839977651
 20
125.4694235085086
 30
0.0
 11
199.6488839977651
 21
125.4844235085087
 31
0.0
  0
LINE
  5
9F9
330
1F
100
AcDbEntity
  8
0
100
AcDbLine
 10
199.6488839977651
 20
125.4844235085087
 30
0.0
 11
199.7238839977652
 21
125.5144235085086
 31
0.0
  0
LINE
  5
9FA
330
1F
100
AcDbEntity
  8
0
100
AcDbLine
 10
199.7238839977652
 20
125.5144235085086
 30
0.0
 11
199.7938839977651
 21
125.5544235085086
 31
0.0
  0
LINE
  5
9FB
330
1F
100
AcDbEntity
  8
0
100
AcDbLine
 10
199.7938839977651
 20
125.5544235085086
 30
0.0
 11
199.7888839977651
 21
125.5544235085086
 31
0.0
  0
LINE
  5
9FC
330
1F
100
AcDbEntity
  8
0
100
AcDbLine
 10
194.2138839977652
 20
125.6944235085087
 30
0.0
 11
194.2038839977652
 21
125.7244235085087
 31
0.0
  0
LINE
  5
9FD
330
1F
100
AcDbEntity
  8
0
100
AcDbLine
 10
194.2038839977652
 20
125.7244235085087
 30
0.0
 11
194.1938839977651
 21
125.7544235085087
 31
0.0
  0
LINE
  5
9FE
330
1F
100
AcDbEntity
  8
0
100
AcDbLine
 10
194.1938839977651
 20
125.7544235085087
 30
0.0
 11
194.173883997765
 21
125.7844235085087
 31
0.0
  0
LINE
  5
9FF
330
1F
100
AcDbEntity
  8
0
100
AcDbLine
 10
194.173883997765
 20
125.7844235085087
 30
0.0
 11
194.1538839977653
 21
125.8044235085087
 31
0.0
  0
LINE
  5
A00
330
1F
100
AcDbEntity
  8
0
100
AcDbLine
 10
194.1538839977653
 20
125.8044235085087
 30
0.0
 11
194.133883997765
 21
125.8244235085087
 31
0.0
  0
LINE
  5
A01
330
1F
100
AcDbEntity
  8
0
100
AcDbLine
 10
194.133883997765
 20
125.8244235085087
 30
0.0
 11
194.1038839977652
 21
125.8444235085087
 31
0.0
  0
LINE
  5
A02
330
1F
100
AcDbEntity
  8
0
100
AcDbLine
 10
194.1038839977652
 20
125.8444235085087
 30
0.0
 11
194.0738839977652
 21
125.8544235085087
 31
0.0
  0
LINE
  5
A03
330
1F
100
AcDbEntity
  8
0
100
AcDbLine
 10
194.0738839977652
 20
125.8544235085087
 30
0.0
 11
194.0438839977652
 21
125.8644235085087
 31
0.0
  0
LINE
  5
A04
330
1F
100
AcDbEntity
  8
0
100
AcDbLine
 10
194.0438839977652
 20
125.8644235085087
 30
0.0
 11
194.0138839977652
 21
125.8644235085087
 31
0.0
  0
LINE
  5
A05
330
1F
100
AcDbEntity
  8
0
100
AcDbLine
 10
194.0138839977652
 20
125.8644235085087
 30
0.0
 11
193.9788839977651
 21
125.8644235085087
 31
0.0
  0
LINE
  5
A06
330
1F
100
AcDbEntity
  8
0
100
AcDbLine
 10
193.9788839977651
 20
125.8644235085087
 30
0.0
 11
193.9488839977652
 21
125.8544235085087
 31
0.0
  0
LINE
  5
A07
330
1F
100
AcDbEntity
  8
0
100
AcDbLine
 10
193.9488839977652
 20
125.8544235085087
 30
0.0
 11
193.9188839977652
 21
125.8444235085087
 31
0.0
  0
LINE
  5
A08
330
1F
100
AcDbEntity
  8
0
100
AcDbLine
 10
193.9188839977652
 20
125.8444235085087
 30
0.0
 11
193.8888839977652
 21
125.8244235085087
 31
0.0
  0
LINE
  5
A09
330
1F
100
AcDbEntity
  8
0
100
AcDbLine
 10
193.8888839977652
 20
125.8244235085087
 30
0.0
 11
193.8688839977651
 21
125.8044235085087
 31
0.0
  0
LINE
  5
A0A
330
1F
100
AcDbEntity
  8
0
100
AcDbLine
 10
193.8688839977651
 20
125.8044235085087
 30
0.0
 11
193.8488839977652
 21
125.7844235085087
 31
0.0
  0
LINE
  5
A0B
330
1F
100
AcDbEntity
  8
0
100
AcDbLine
 10
193.8488839977652
 20
125.7844235085087
 30
0.0
 11
193.8288839977652
 21
125.7544235085087
 31
0.0
  0
LINE
  5
A0C
330
1F
100
AcDbEntity
  8
0
100
AcDbLine
 10
193.8288839977652
 20
125.7544235085087
 30
0.0
 11
193.8188839977651
 21
125.7244235085087
 31
0.0
  0
LINE
  5
A0D
330
1F
100
AcDbEntity
  8
0
100
AcDbLine
 10
193.8188839977651
 20
125.7244235085087
 30
0.0
 11
193.8088839977651
 21
125.6944235085087
 31
0.0
  0
LINE
  5
A0E
330
1F
100
AcDbEntity
  8
0
100
AcDbLine
 10
193.8088839977651
 20
125.6944235085087
 30
0.0
 11
193.8088839977651
 21
125.6594235085087
 31
0.0
  0
LINE
  5
A0F
330
1F
100
AcDbEntity
  8
0
100
AcDbLine
 10
193.8088839977651
 20
125.6594235085087
 30
0.0
 11
193.8088839977651
 21
125.6294235085087
 31
0.0
  0
LINE
  5
A10
330
1F
100
AcDbEntity
  8
0
100
AcDbLine
 10
193.8088839977651
 20
125.6294235085087
 30
0.0
 11
193.8188839977651
 21
125.5994235085087
 31
0.0
  0
LINE
  5
A11
330
1F
100
AcDbEntity
  8
0
100
AcDbLine
 10
193.8188839977651
 20
125.5994235085087
 30
0.0
 11
193.8288839977652
 21
125.5694235085087
 31
0.0
  0
LINE
  5
A12
330
1F
100
AcDbEntity
  8
0
100
AcDbLine
 10
193.8288839977652
 20
125.5694235085087
 30
0.0
 11
193.8488839977652
 21
125.5394235085087
 31
0.0
  0
LINE
  5
A13
330
1F
100
AcDbEntity
  8
0
100
AcDbLine
 10
193.8488839977652
 20
125.5394235085087
 30
0.0
 11
193.8688839977651
 21
125.5194235085087
 31
0.0
  0
LINE
  5
A14
330
1F
100
AcDbEntity
  8
0
100
AcDbLine
 10
193.8688839977651
 20
125.5194235085087
 30
0.0
 11
193.8888839977652
 21
125.4994235085087
 31
0.0
  0
LINE
  5
A15
330
1F
100
AcDbEntity
  8
0
100
AcDbLine
 10
193.8888839977652
 20
125.4994235085087
 30
0.0
 11
193.9188839977652
 21
125.4794235085087
 31
0.0
  0
LINE
  5
A16
330
1F
100
AcDbEntity
  8
0
100
AcDbLine
 10
193.9188839977652
 20
125.4794235085087
 30
0.0
 11
193.9488839977652
 21
125.4694235085086
 31
0.0
  0
LINE
  5
A17
330
1F
100
AcDbEntity
  8
0
100
AcDbLine
 10
193.9488839977652
 20
125.4694235085086
 30
0.0
 11
193.9788839977651
 21
125.4594235085086
 31
0.0
  0
LINE
  5
A18
330
1F
100
AcDbEntity
  8
0
100
AcDbLine
 10
193.9788839977651
 20
125.4594235085086
 30
0.0
 11
194.0138839977652
 21
125.4594235085086
 31
0.0
  0
LINE
  5
A19
330
1F
100
AcDbEntity
  8
0
100
AcDbLine
 10
194.0138839977652
 20
125.4594235085086
 30
0.0
 11
194.0438839977652
 21
125.4594235085086
 31
0.0
  0
LINE
  5
A1A
330
1F
100
AcDbEntity
  8
0
100
AcDbLine
 10
194.0438839977652
 20
125.4594235085086
 30
0.0
 11
194.0738839977652
 21
125.4694235085086
 31
0.0
  0
LINE
  5
A1B
330
1F
100
AcDbEntity
  8
0
100
AcDbLine
 10
194.0738839977652
 20
125.4694235085086
 30
0.0
 11
194.1038839977652
 21
125.4794235085087
 31
0.0
  0
LINE
  5
A1C
330
1F
100
AcDbEntity
  8
0
100
AcDbLine
 10
194.1038839977652
 20
125.4794235085087
 30
0.0
 11
194.133883997765
 21
125.4994235085087
 31
0.0
  0
LINE
  5
A1D
330
1F
100
AcDbEntity
  8
0
100
AcDbLine
 10
194.133883997765
 20
125.4994235085087
 30
0.0
 11
194.1538839977653
 21
125.5194235085087
 31
0.0
  0
LINE
  5
A1E
330
1F
100
AcDbEntity
  8
0
100
AcDbLine
 10
194.1538839977653
 20
125.5194235085087
 30
0.0
 11
194.173883997765
 21
125.5394235085087
 31
0.0
  0
LINE
  5
A1F
330
1F
100
AcDbEntity
  8
0
100
AcDbLine
 10
194.173883997765
 20
125.5394235085087
 30
0.0
 11
194.1938839977651
 21
125.5694235085087
 31
0.0
  0
LINE
  5
A20
330
1F
100
AcDbEntity
  8
0
100
AcDbLine
 10
194.1938839977651
 20
125.5694235085087
 30
0.0
 11
194.2038839977652
 21
125.5994235085087
 31
0.0
  0
LINE
  5
A21
330
1F
100
AcDbEntity
  8
0
100
AcDbLine
 10
194.2038839977652
 20
125.5994235085087
 30
0.0
 11
194.2138839977652
 21
125.6294235085087
 31
0.0
  0
LINE
  5
A22
330
1F
100
AcDbEntity
  8
0
100
AcDbLine
 10
194.2138839977652
 20
125.6294235085087
 30
0.0
 11
194.2138839977652
 21
125.6594235085087
 31
0.0
  0
LINE
  5
A23
330
1F
100
AcDbEntity
  8
0
100
AcDbLine
 10
194.2138839977652
 20
125.6594235085087
 30
0.0
 11
194.2138839977652
 21
125.6944235085087
 31
0.0
  0
LINE
  5
A24
330
1F
100
AcDbEntity
  8
0
100
AcDbLine
 10
193.2088839977653
 20
125.5544235085086
 30
0.0
 11
192.8438839977652
 21
125.9844235085087
 31
0.0
  0
LINE
  5
A25
330
1F
100
AcDbEntity
  8
0
100
AcDbLine
 10
192.8438839977652
 20
125.9844235085087
 30
0.0
 11
191.9488839977652
 21
125.9844235085087
 31
0.0
  0
LINE
  5
A26
330
1F
100
AcDbEntity
  8
0
100
AcDbLine
 10
191.9488839977652
 20
125.9844235085087
 30
0.0
 11
191.5138839977652
 21
125.5544235085086
 31
0.0
  0
LINE
  5
A27
330
1F
100
AcDbEntity
  8
0
100
AcDbLine
 10
191.5138839977652
 20
125.5544235085086
 30
0.0
 11
191.5238839977653
 21
125.5444235085087
 31
0.0
  0
LINE
  5
A28
330
1F
100
AcDbEntity
  8
0
100
AcDbLine
 10
191.5238839977653
 20
125.5444235085087
 30
0.0
 11
191.583883997765
 21
125.5094235085087
 31
0.0
  0
LINE
  5
A29
330
1F
100
AcDbEntity
  8
0
100
AcDbLine
 10
191.583883997765
 20
125.5094235085087
 30
0.0
 11
191.6438839977651
 21
125.4844235085087
 31
0.0
  0
LINE
  5
A2A
330
1F
100
AcDbEntity
  8
0
100
AcDbLine
 10
191.6438839977651
 20
125.4844235085087
 30
0.0
 11
191.7138839977653
 21
125.4694235085086
 31
0.0
  0
LINE
  5
A2B
330
1F
100
AcDbEntity
  8
0
100
AcDbLine
 10
191.7138839977653
 20
125.4694235085086
 30
0.0
 11
191.7838839977653
 21
125.4644235085087
 31
0.0
  0
LINE
  5
A2C
330
1F
100
AcDbEntity
  8
0
100
AcDbLine
 10
191.7838839977653
 20
125.4644235085087
 30
0.0
 11
191.7788839977652
 21
125.4644235085087
 31
0.0
  0
LINE
  5
A2D
330
1F
100
AcDbEntity
  8
0
100
AcDbLine
 10
191.7788839977652
 20
125.4644235085087
 30
0.0
 11
192.9138839977651
 21
125.4644235085087
 31
0.0
  0
LINE
  5
A2E
330
1F
100
AcDbEntity
  8
0
100
AcDbLine
 10
192.9138839977651
 20
125.4644235085087
 30
0.0
 11
192.9838839977652
 21
125.4694235085086
 31
0.0
  0
LINE
  5
A2F
330
1F
100
AcDbEntity
  8
0
100
AcDbLine
 10
192.9838839977652
 20
125.4694235085086
 30
0.0
 11
193.0638839977652
 21
125.4844235085087
 31
0.0
  0
LINE
  5
A30
330
1F
100
AcDbEntity
  8
0
100
AcDbLine
 10
193.0638839977652
 20
125.4844235085087
 30
0.0
 11
193.1388839977652
 21
125.5144235085086
 31
0.0
  0
LINE
  5
A31
330
1F
100
AcDbEntity
  8
0
100
AcDbLine
 10
193.1388839977652
 20
125.5144235085086
 30
0.0
 11
193.2088839977653
 21
125.5544235085086
 31
0.0
  0
LINE
  5
A32
330
1F
100
AcDbEntity
  8
0
100
AcDbLine
 10
193.2088839977653
 20
125.5544235085086
 30
0.0
 11
193.2088839977653
 21
125.5544235085086
 31
0.0
  0
LINE
  5
A33
330
1F
100
AcDbEntity
  8
0
100
AcDbLine
 10
196.4988839977651
 20
125.5544235085086
 30
0.0
 11
196.1338839977651
 21
125.9844235085087
 31
0.0
  0
LINE
  5
A34
330
1F
100
AcDbEntity
  8
0
100
AcDbLine
 10
196.1338839977651
 20
125.9844235085087
 30
0.0
 11
195.2388839977651
 21
125.9844235085087
 31
0.0
  0
LINE
  5
A35
330
1F
100
AcDbEntity
  8
0
100
AcDbLine
 10
195.2388839977651
 20
125.9844235085087
 30
0.0
 11
194.803883997765
 21
125.5544235085086
 31
0.0
  0
LINE
  5
A36
330
1F
100
AcDbEntity
  8
0
100
AcDbLine
 10
194.803883997765
 20
125.5544235085086
 30
0.0
 11
194.8138839977652
 21
125.5444235085087
 31
0.0
  0
LINE
  5
A37
330
1F
100
AcDbEntity
  8
0
100
AcDbLine
 10
194.8138839977652
 20
125.5444235085087
 30
0.0
 11
194.8738839977652
 21
125.5094235085087
 31
0.0
  0
LINE
  5
A38
330
1F
100
AcDbEntity
  8
0
100
AcDbLine
 10
194.8738839977652
 20
125.5094235085087
 30
0.0
 11
194.9338839977651
 21
125.4844235085087
 31
0.0
  0
LINE
  5
A39
330
1F
100
AcDbEntity
  8
0
100
AcDbLine
 10
194.9338839977651
 20
125.4844235085087
 30
0.0
 11
195.0038839977652
 21
125.4694235085086
 31
0.0
  0
LINE
  5
A3A
330
1F
100
AcDbEntity
  8
0
100
AcDbLine
 10
195.0038839977652
 20
125.4694235085086
 30
0.0
 11
195.0738839977652
 21
125.4644235085087
 31
0.0
  0
LINE
  5
A3B
330
1F
100
AcDbEntity
  8
0
100
AcDbLine
 10
195.0738839977652
 20
125.4644235085087
 30
0.0
 11
195.0688839977651
 21
125.4644235085087
 31
0.0
  0
LINE
  5
A3C
330
1F
100
AcDbEntity
  8
0
100
AcDbLine
 10
195.0688839977651
 20
125.4644235085087
 30
0.0
 11
196.203883997765
 21
125.4644235085087
 31
0.0
  0
LINE
  5
A3D
330
1F
100
AcDbEntity
  8
0
100
AcDbLine
 10
196.203883997765
 20
125.4644235085087
 30
0.0
 11
196.2738839977651
 21
125.4694235085086
 31
0.0
  0
LINE
  5
A3E
330
1F
100
AcDbEntity
  8
0
100
AcDbLine
 10
196.2738839977651
 20
125.4694235085086
 30
0.0
 11
196.3538839977652
 21
125.4844235085087
 31
0.0
  0
LINE
  5
A3F
330
1F
100
AcDbEntity
  8
0
100
AcDbLine
 10
196.3538839977652
 20
125.4844235085087
 30
0.0
 11
196.4288839977652
 21
125.5144235085086
 31
0.0
  0
LINE
  5
A40
330
1F
100
AcDbEntity
  8
0
100
AcDbLine
 10
196.4288839977652
 20
125.5144235085086
 30
0.0
 11
196.4988839977651
 21
125.5544235085086
 31
0.0
  0
LINE
  5
A41
330
1F
100
AcDbEntity
  8
0
100
AcDbLine
 10
196.4988839977651
 20
125.5544235085086
 30
0.0
 11
196.4988839977651
 21
125.5544235085086
 31
0.0
  0
LINE
  5
A42
330
1F
100
AcDbEntity
  8
0
100
AcDbLine
 10
191.858883997765
 20
128.2444235085087
 30
0.0
 11
191.518883997765
 21
127.9594235085087
 31
0.0
  0
LINE
  5
A43
330
1F
100
AcDbEntity
  8
0
100
AcDbLine
 10
191.518883997765
 20
127.9594235085087
 30
0.0
 11
191.3438839977652
 21
125.9344235085086
 31
0.0
  0
LINE
  5
A44
330
1F
100
AcDbEntity
  8
0
100
AcDbLine
 10
191.3438839977652
 20
125.9344235085086
 30
0.0
 11
191.3438839977652
 21
125.9244235085086
 31
0.0
  0
LINE
  5
A45
330
1F
100
AcDbEntity
  8
0
100
AcDbLine
 10
191.3438839977652
 20
125.9244235085086
 30
0.0
 11
191.3438839977652
 21
125.8544235085087
 31
0.0
  0
LINE
  5
A46
330
1F
100
AcDbEntity
  8
0
100
AcDbLine
 10
191.3438839977652
 20
125.8544235085087
 30
0.0
 11
191.3588839977652
 21
125.7844235085087
 31
0.0
  0
LINE
  5
A47
330
1F
100
AcDbEntity
  8
0
100
AcDbLine
 10
191.3588839977652
 20
125.7844235085087
 30
0.0
 11
191.3788839977651
 21
125.7244235085087
 31
0.0
  0
LINE
  5
A48
330
1F
100
AcDbEntity
  8
0
100
AcDbLine
 10
191.3788839977651
 20
125.7244235085087
 30
0.0
 11
191.4138839977652
 21
125.6644235085087
 31
0.0
  0
LINE
  5
A49
330
1F
100
AcDbEntity
  8
0
100
AcDbLine
 10
191.4138839977652
 20
125.6644235085087
 30
0.0
 11
191.4538839977652
 21
125.6094235085086
 31
0.0
  0
LINE
  5
A4A
330
1F
100
AcDbEntity
  8
0
100
AcDbLine
 10
191.4538839977652
 20
125.6094235085086
 30
0.0
 11
191.8738839977651
 21
126.0344235085087
 31
0.0
  0
LINE
  5
A4B
330
1F
100
AcDbEntity
  8
0
100
AcDbLine
 10
191.8738839977651
 20
126.0344235085087
 30
0.0
 11
192.053883997765
 21
128.0544235085087
 31
0.0
  0
LINE
  5
A4C
330
1F
100
AcDbEntity
  8
0
100
AcDbLine
 10
192.053883997765
 20
128.0544235085087
 30
0.0
 11
191.858883997765
 21
128.2444235085087
 31
0.0
  0
LINE
  5
A4D
330
1F
100
AcDbEntity
  8
0
100
AcDbLine
 10
191.858883997765
 20
128.2444235085087
 30
0.0
 11
191.858883997765
 21
128.2444235085087
 31
0.0
  0
LINE
  5
A4E
330
1F
100
AcDbEntity
  8
0
100
AcDbLine
 10
193.3238839977652
 20
128.2444235085087
 30
0.0
 11
193.0938839977652
 21
128.0544235085087
 31
0.0
  0
LINE
  5
A4F
330
1F
100
AcDbEntity
  8
0
100
AcDbLine
 10
193.0938839977652
 20
128.0544235085087
 30
0.0
 11
192.9188839977652
 21
126.0344235085087
 31
0.0
  0
LINE
  5
A50
330
1F
100
AcDbEntity
  8
0
100
AcDbLine
 10
192.9188839977652
 20
126.0344235085087
 30
0.0
 11
193.2738839977652
 21
125.6094235085086
 31
0.0
  0
LINE
  5
A51
330
1F
100
AcDbEntity
  8
0
100
AcDbLine
 10
193.2738839977652
 20
125.6094235085086
 30
0.0
 11
193.3088839977652
 21
125.6394235085087
 31
0.0
  0
LINE
  5
A52
330
1F
100
AcDbEntity
  8
0
100
AcDbLine
 10
193.3088839977652
 20
125.6394235085087
 30
0.0
 11
193.3538839977652
 21
125.7044235085087
 31
0.0
  0
LINE
  5
A53
330
1F
100
AcDbEntity
  8
0
100
AcDbLine
 10
193.3538839977652
 20
125.7044235085087
 30
0.0
 11
193.3938839977651
 21
125.7794235085087
 31
0.0
  0
LINE
  5
A54
330
1F
100
AcDbEntity
  8
0
100
AcDbLine
 10
193.3938839977651
 20
125.7794235085087
 30
0.0
 11
193.4188839977652
 21
125.8544235085087
 31
0.0
  0
LINE
  5
A55
330
1F
100
AcDbEntity
  8
0
100
AcDbLine
 10
193.4188839977652
 20
125.8544235085087
 30
0.0
 11
193.4338839977651
 21
125.9344235085086
 31
0.0
  0
LINE
  5
A56
330
1F
100
AcDbEntity
  8
0
100
AcDbLine
 10
193.4338839977651
 20
125.9344235085086
 30
0.0
 11
193.6088839977652
 21
127.9644235085086
 31
0.0
  0
LINE
  5
A57
330
1F
100
AcDbEntity
  8
0
100
AcDbLine
 10
193.6088839977652
 20
127.9644235085086
 30
0.0
 11
193.3238839977652
 21
128.2444235085087
 31
0.0
  0
LINE
  5
A58
330
1F
100
AcDbEntity
  8
0
100
AcDbLine
 10
193.3238839977652
 20
128.2444235085087
 30
0.0
 11
193.3238839977652
 21
128.2444235085087
 31
0.0
  0
LINE
  5
A59
330
1F
100
AcDbEntity
  8
0
100
AcDbLine
 10
198.4438839977651
 20
128.2444235085087
 30
0.0
 11
198.1038839977652
 21
127.9594235085087
 31
0.0
  0
LINE
  5
A5A
330
1F
100
AcDbEntity
  8
0
100
AcDbLine
 10
198.1038839977652
 20
127.9594235085087
 30
0.0
 11
197.923883997765
 21
125.9344235085086
 31
0.0
  0
LINE
  5
A5B
330
1F
100
AcDbEntity
  8
0
100
AcDbLine
 10
197.923883997765
 20
125.9344235085086
 30
0.0
 11
197.928883997765
 21
125.9244235085086
 31
0.0
  0
LINE
  5
A5C
330
1F
100
AcDbEntity
  8
0
100
AcDbLine
 10
197.928883997765
 20
125.9244235085086
 30
0.0
 11
197.928883997765
 21
125.8544235085087
 31
0.0
  0
LINE
  5
A5D
330
1F
100
AcDbEntity
  8
0
100
AcDbLine
 10
197.928883997765
 20
125.8544235085087
 30
0.0
 11
197.9438839977651
 21
125.7844235085087
 31
0.0
  0
LINE
  5
A5E
330
1F
100
AcDbEntity
  8
0
100
AcDbLine
 10
197.9438839977651
 20
125.7844235085087
 30
0.0
 11
197.9638839977653
 21
125.7244235085087
 31
0.0
  0
LINE
  5
A5F
330
1F
100
AcDbEntity
  8
0
100
AcDbLine
 10
197.9638839977653
 20
125.7244235085087
 30
0.0
 11
197.9988839977652
 21
125.6644235085087
 31
0.0
  0
LINE
  5
A60
330
1F
100
AcDbEntity
  8
0
100
AcDbLine
 10
197.9988839977652
 20
125.6644235085087
 30
0.0
 11
198.0388839977651
 21
125.6094235085086
 31
0.0
  0
LINE
  5
A61
330
1F
100
AcDbEntity
  8
0
100
AcDbLine
 10
198.0388839977651
 20
125.6094235085086
 30
0.0
 11
198.0338839977651
 21
125.6094235085086
 31
0.0
  0
LINE
  5
A62
330
1F
100
AcDbEntity
  8
0
100
AcDbLine
 10
198.0338839977651
 20
125.6094235085086
 30
0.0
 11
198.4588839977653
 21
126.0344235085087
 31
0.0
  0
LINE
  5
A63
330
1F
100
AcDbEntity
  8
0
100
AcDbLine
 10
198.4588839977653
 20
126.0344235085087
 30
0.0
 11
198.6338839977651
 21
128.0544235085087
 31
0.0
  0
LINE
  5
A64
330
1F
100
AcDbEntity
  8
0
100
AcDbLine
 10
198.6338839977651
 20
128.0544235085087
 30
0.0
 11
198.4438839977651
 21
128.2444235085087
 31
0.0
  0
LINE
  5
A65
330
1F
100
AcDbEntity
  8
0
100
AcDbLine
 10
198.4438839977651
 20
128.2444235085087
 30
0.0
 11
198.4438839977651
 21
128.2444235085087
 31
0.0
  0
LINE
  5
A66
330
1F
100
AcDbEntity
  8
0
100
AcDbLine
 10
196.613883997765
 20
128.2444235085087
 30
0.0
 11
196.3838839977651
 21
128.0544235085087
 31
0.0
  0
LINE
  5
A67
330
1F
100
AcDbEntity
  8
0
100
AcDbLine
 10
196.3838839977651
 20
128.0544235085087
 30
0.0
 11
196.2088839977653
 21
126.0344235085087
 31
0.0
  0
LINE
  5
A68
330
1F
100
AcDbEntity
  8
0
100
AcDbLine
 10
196.2088839977653
 20
126.0344235085087
 30
0.0
 11
196.5638839977652
 21
125.6094235085086
 31
0.0
  0
LINE
  5
A69
330
1F
100
AcDbEntity
  8
0
100
AcDbLine
 10
196.5638839977652
 20
125.6094235085086
 30
0.0
 11
196.5988839977652
 21
125.6394235085087
 31
0.0
  0
LINE
  5
A6A
330
1F
100
AcDbEntity
  8
0
100
AcDbLine
 10
196.5988839977652
 20
125.6394235085087
 30
0.0
 11
196.643883997765
 21
125.7044235085087
 31
0.0
  0
LINE
  5
A6B
330
1F
100
AcDbEntity
  8
0
100
AcDbLine
 10
196.643883997765
 20
125.7044235085087
 30
0.0
 11
196.6838839977652
 21
125.7794235085087
 31
0.0
  0
LINE
  5
A6C
330
1F
100
AcDbEntity
  8
0
100
AcDbLine
 10
196.6838839977652
 20
125.7794235085087
 30
0.0
 11
196.7088839977652
 21
125.8544235085087
 31
0.0
  0
LINE
  5
A6D
330
1F
100
AcDbEntity
  8
0
100
AcDbLine
 10
196.7088839977652
 20
125.8544235085087
 30
0.0
 11
196.7238839977651
 21
125.9344235085086
 31
0.0
  0
LINE
  5
A6E
330
1F
100
AcDbEntity
  8
0
100
AcDbLine
 10
196.7238839977651
 20
125.9344235085086
 30
0.0
 11
196.8988839977651
 21
127.9644235085086
 31
0.0
  0
LINE
  5
A6F
330
1F
100
AcDbEntity
  8
0
100
AcDbLine
 10
196.8988839977651
 20
127.9644235085086
 30
0.0
 11
196.613883997765
 21
128.2444235085087
 31
0.0
  0
LINE
  5
A70
330
1F
100
AcDbEntity
  8
0
100
AcDbLine
 10
196.613883997765
 20
128.2444235085087
 30
0.0
 11
196.613883997765
 21
128.2444235085087
 31
0.0
  0
LINE
  5
A71
330
1F
100
AcDbEntity
  8
0
100
AcDbLine
 10
195.2188839977652
 20
128.2994235085087
 30
0.0
 11
195.4788839977652
 21
128.0394235085087
 31
0.0
  0
LINE
  5
A72
330
1F
100
AcDbEntity
  8
0
100
AcDbLine
 10
195.4788839977652
 20
128.0394235085087
 30
0.0
 11
196.2388839977652
 21
128.0394235085087
 31
0.0
  0
LINE
  5
A73
330
1F
100
AcDbEntity
  8
0
100
AcDbLine
 10
196.2388839977652
 20
128.0394235085087
 30
0.0
 11
196.553883997765
 21
128.3044235085087
 31
0.0
  0
LINE
  5
A74
330
1F
100
AcDbEntity
  8
0
100
AcDbLine
 10
196.553883997765
 20
128.3044235085087
 30
0.0
 11
196.2888839977652
 21
128.5594235085087
 31
0.0
  0
LINE
  5
A75
330
1F
100
AcDbEntity
  8
0
100
AcDbLine
 10
196.2888839977652
 20
128.5594235085087
 30
0.0
 11
195.5338839977651
 21
128.5594235085087
 31
0.0
  0
LINE
  5
A76
330
1F
100
AcDbEntity
  8
0
100
AcDbLine
 10
195.5338839977651
 20
128.5594235085087
 30
0.0
 11
195.2188839977652
 21
128.2994235085087
 31
0.0
  0
LINE
  5
A77
330
1F
100
AcDbEntity
  8
0
100
AcDbLine
 10
195.2188839977652
 20
128.2994235085087
 30
0.0
 11
195.2188839977652
 21
128.2994235085087
 31
0.0
  0
LINE
  5
A78
330
1F
100
AcDbEntity
  8
0
100
AcDbLine
 10
199.9088839977651
 20
128.2444235085087
 30
0.0
 11
199.6788839977652
 21
128.0544235085087
 31
0.0
  0
LINE
  5
A79
330
1F
100
AcDbEntity
  8
0
100
AcDbLine
 10
199.6788839977652
 20
128.0544235085087
 30
0.0
 11
199.5038839977652
 21
126.0344235085087
 31
0.0
  0
LINE
  5
A7A
330
1F
100
AcDbEntity
  8
0
100
AcDbLine
 10
199.5038839977652
 20
126.0344235085087
 30
0.0
 11
199.8588839977652
 21
125.6094235085086
 31
0.0
  0
LINE
  5
A7B
330
1F
100
AcDbEntity
  8
0
100
AcDbLine
 10
199.8588839977652
 20
125.6094235085086
 30
0.0
 11
199.8938839977651
 21
125.6394235085087
 31
0.0
  0
LINE
  5
A7C
330
1F
100
AcDbEntity
  8
0
100
AcDbLine
 10
199.8938839977651
 20
125.6394235085087
 30
0.0
 11
199.9388839977652
 21
125.7044235085087
 31
0.0
  0
LINE
  5
A7D
330
1F
100
AcDbEntity
  8
0
100
AcDbLine
 10
199.9388839977652
 20
125.7044235085087
 30
0.0
 11
199.9788839977652
 21
125.7794235085087
 31
0.0
  0
LINE
  5
A7E
330
1F
100
AcDbEntity
  8
0
100
AcDbLine
 10
199.9788839977652
 20
125.7794235085087
 30
0.0
 11
200.0038839977651
 21
125.8544235085087
 31
0.0
  0
LINE
  5
A7F
330
1F
100
AcDbEntity
  8
0
100
AcDbLine
 10
200.0038839977651
 20
125.8544235085087
 30
0.0
 11
200.0188839977651
 21
125.9344235085086
 31
0.0
  0
LINE
  5
A80
330
1F
100
AcDbEntity
  8
0
100
AcDbLine
 10
200.0188839977651
 20
125.9344235085086
 30
0.0
 11
200.0138839977651
 21
125.9394235085087
 31
0.0
  0
LINE
  5
A81
330
1F
100
AcDbEntity
  8
0
100
AcDbLine
 10
200.0138839977651
 20
125.9394235085087
 30
0.0
 11
200.1888839977652
 21
127.9644235085086
 31
0.0
  0
LINE
  5
A82
330
1F
100
AcDbEntity
  8
0
100
AcDbLine
 10
200.1888839977652
 20
127.9644235085086
 30
0.0
 11
199.9088839977651
 21
128.2444235085087
 31
0.0
  0
LINE
  5
A83
330
1F
100
AcDbEntity
  8
0
100
AcDbLine
 10
199.9088839977651
 20
128.2444235085087
 30
0.0
 11
199.9088839977651
 21
128.2444235085087
 31
0.0
  0
LINE
  5
A84
330
1F
100
AcDbEntity
  8
0
100
AcDbLine
 10
186.9488839977652
 20
127.3344235085086
 30
0.0
 11
186.8388839977652
 21
127.4094235085087
 31
0.0
  0
LINE
  5
A85
330
1F
100
AcDbEntity
  8
0
100
AcDbLine
 10
186.8388839977652
 20
127.4094235085087
 30
0.0
 11
186.7138839977652
 21
127.4644235085087
 31
0.0
  0
LINE
  5
A86
330
1F
100
AcDbEntity
  8
0
100
AcDbLine
 10
186.7138839977652
 20
127.4644235085087
 30
0.0
 11
186.5838839977652
 21
127.5044235085087
 31
0.0
  0
LINE
  5
A87
330
1F
100
AcDbEntity
  8
0
100
AcDbLine
 10
186.5838839977652
 20
127.5044235085087
 30
0.0
 11
186.5838839977652
 21
127.5044235085087
 31
0.0
  0
LINE
  5
A88
330
1F
100
AcDbEntity
  8
0
100
AcDbLine
 10
186.5838839977652
 20
127.5044235085087
 30
0.0
 11
186.5188839977651
 21
127.5144235085087
 31
0.0
  0
LINE
  5
A89
330
1F
100
AcDbEntity
  8
0
100
AcDbLine
 10
186.5188839977651
 20
127.5144235085087
 30
0.0
 11
186.4538839977652
 21
127.5144235085087
 31
0.0
  0
LINE
  5
A8A
330
1F
100
AcDbEntity
  8
0
100
AcDbLine
 10
186.4538839977652
 20
127.5144235085087
 30
0.0
 11
186.3888839977652
 21
127.5044235085087
 31
0.0
  0
LINE
  5
A8B
330
1F
100
AcDbEntity
  8
0
100
AcDbLine
 10
186.3888839977652
 20
127.5044235085087
 30
0.0
 11
186.3288839977652
 21
127.4844235085087
 31
0.0
  0
LINE
  5
A8C
330
1F
100
AcDbEntity
  8
0
100
AcDbLine
 10
186.3288839977652
 20
127.4844235085087
 30
0.0
 11
186.2888839977652
 21
127.4594235085086
 31
0.0
  0
LINE
  5
A8D
330
1F
100
AcDbEntity
  8
0
100
AcDbLine
 10
186.2888839977652
 20
127.4594235085086
 30
0.0
 11
186.2488839977651
 21
127.4244235085087
 31
0.0
  0
LINE
  5
A8E
330
1F
100
AcDbEntity
  8
0
100
AcDbLine
 10
186.2488839977651
 20
127.4244235085087
 30
0.0
 11
186.2138839977652
 21
127.3894235085087
 31
0.0
  0
LINE
  5
A8F
330
1F
100
AcDbEntity
  8
0
100
AcDbLine
 10
186.2138839977652
 20
127.3894235085087
 30
0.0
 11
186.1888839977652
 21
127.3444235085087
 31
0.0
  0
LINE
  5
A90
330
1F
100
AcDbEntity
  8
0
100
AcDbLine
 10
186.1888839977652
 20
127.3444235085087
 30
0.0
 11
186.168883997765
 21
127.2944235085087
 31
0.0
  0
LINE
  5
A91
330
1F
100
AcDbEntity
  8
0
100
AcDbLine
 10
186.168883997765
 20
127.2944235085087
 30
0.0
 11
186.1588839977652
 21
127.2944235085087
 31
0.0
  0
LINE
  5
A92
330
1F
100
AcDbEntity
  8
0
100
AcDbLine
 10
186.1588839977652
 20
127.2944235085087
 30
0.0
 11
186.1538839977652
 21
127.2744235085087
 31
0.0
  0
LINE
  5
A93
330
1F
100
AcDbEntity
  8
0
100
AcDbLine
 10
186.1538839977652
 20
127.2744235085087
 30
0.0
 11
186.1488839977653
 21
127.2544235085087
 31
0.0
  0
LINE
  5
A94
330
1F
100
AcDbEntity
  8
0
100
AcDbLine
 10
186.1488839977653
 20
127.2544235085087
 30
0.0
 11
186.1488839977653
 21
127.2294235085087
 31
0.0
  0
LINE
  5
A95
330
1F
100
AcDbEntity
  8
0
100
AcDbLine
 10
186.1488839977653
 20
127.2294235085087
 30
0.0
 11
186.1488839977653
 21
127.2144235085086
 31
0.0
  0
LINE
  5
A96
330
1F
100
AcDbEntity
  8
0
100
AcDbLine
 10
186.1488839977653
 20
127.2144235085086
 30
0.0
 11
186.1538839977652
 21
127.1944235085087
 31
0.0
  0
LINE
  5
A97
330
1F
100
AcDbEntity
  8
0
100
AcDbLine
 10
186.1538839977652
 20
127.1944235085087
 30
0.0
 11
186.1638839977652
 21
127.1744235085087
 31
0.0
  0
LINE
  5
A98
330
1F
100
AcDbEntity
  8
0
100
AcDbLine
 10
186.1638839977652
 20
127.1744235085087
 30
0.0
 11
186.1738839977652
 21
127.1594235085087
 31
0.0
  0
LINE
  5
A99
330
1F
100
AcDbEntity
  8
0
100
AcDbLine
 10
186.1738839977652
 20
127.1594235085087
 30
0.0
 11
186.1888839977652
 21
127.1444235085086
 31
0.0
  0
LINE
  5
A9A
330
1F
100
AcDbEntity
  8
0
100
AcDbLine
 10
186.1888839977652
 20
127.1444235085086
 30
0.0
 11
186.2038839977652
 21
127.1294235085087
 31
0.0
  0
LINE
  5
A9B
330
1F
100
AcDbEntity
  8
0
100
AcDbLine
 10
186.2038839977652
 20
127.1294235085087
 30
0.0
 11
186.2188839977653
 21
127.1194235085086
 31
0.0
  0
LINE
  5
A9C
330
1F
100
AcDbEntity
  8
0
100
AcDbLine
 10
186.2188839977653
 20
127.1194235085086
 30
0.0
 11
186.2388839977652
 21
127.1144235085087
 31
0.0
  0
LINE
  5
A9D
330
1F
100
AcDbEntity
  8
0
100
AcDbLine
 10
186.2388839977652
 20
127.1144235085087
 30
0.0
 11
186.2588839977652
 21
127.1094235085087
 31
0.0
  0
LINE
  5
A9E
330
1F
100
AcDbEntity
  8
0
100
AcDbLine
 10
186.2588839977652
 20
127.1094235085087
 30
0.0
 11
186.2838839977652
 21
127.1094235085087
 31
0.0
  0
LINE
  5
A9F
330
1F
100
AcDbEntity
  8
0
100
AcDbLine
 10
186.2838839977652
 20
127.1094235085087
 30
0.0
 11
186.2788839977652
 21
127.1144235085087
 31
0.0
  0
LINE
  5
AA0
330
1F
100
AcDbEntity
  8
0
100
AcDbLine
 10
186.2788839977652
 20
127.1144235085087
 30
0.0
 11
186.443883997765
 21
127.1094235085087
 31
0.0
  0
LINE
  5
AA1
330
1F
100
AcDbEntity
  8
0
100
AcDbLine
 10
186.443883997765
 20
127.1094235085087
 30
0.0
 11
186.6038839977652
 21
127.0894235085086
 31
0.0
  0
LINE
  5
AA2
330
1F
100
AcDbEntity
  8
0
100
AcDbLine
 10
186.6038839977652
 20
127.0894235085086
 30
0.0
 11
186.6888839977652
 21
127.0694235085087
 31
0.0
  0
LINE
  5
AA3
330
1F
100
AcDbEntity
  8
0
100
AcDbLine
 10
186.6888839977652
 20
127.0694235085087
 30
0.0
 11
186.7088839977652
 21
127.0444235085087
 31
0.0
  0
LINE
  5
AA4
330
1F
100
AcDbEntity
  8
0
100
AcDbLine
 10
186.7088839977652
 20
127.0444235085087
 30
0.0
 11
186.7238839977652
 21
127.0194235085086
 31
0.0
  0
LINE
  5
AA5
330
1F
100
AcDbEntity
  8
0
100
AcDbLine
 10
186.7238839977652
 20
127.0194235085086
 30
0.0
 11
186.7338839977652
 21
126.9944235085086
 31
0.0
  0
LINE
  5
AA6
330
1F
100
AcDbEntity
  8
0
100
AcDbLine
 10
186.7338839977652
 20
126.9944235085086
 30
0.0
 11
186.7438839977651
 21
126.9694235085087
 31
0.0
  0
LINE
  5
AA7
330
1F
100
AcDbEntity
  8
0
100
AcDbLine
 10
186.7438839977651
 20
126.9694235085087
 30
0.0
 11
186.7438839977651
 21
126.9394235085087
 31
0.0
  0
LINE
  5
AA8
330
1F
100
AcDbEntity
  8
0
100
AcDbLine
 10
186.7438839977651
 20
126.9394235085087
 30
0.0
 11
186.7438839977651
 21
126.9094235085087
 31
0.0
  0
LINE
  5
AA9
330
1F
100
AcDbEntity
  8
0
100
AcDbLine
 10
186.7438839977651
 20
126.9094235085087
 30
0.0
 11
186.7338839977652
 21
126.8794235085087
 31
0.0
  0
LINE
  5
AAA
330
1F
100
AcDbEntity
  8
0
100
AcDbLine
 10
186.7338839977652
 20
126.8794235085087
 30
0.0
 11
186.7238839977652
 21
126.8544235085087
 31
0.0
  0
LINE
  5
AAB
330
1F
100
AcDbEntity
  8
0
100
AcDbLine
 10
186.7238839977652
 20
126.8544235085087
 30
0.0
 11
186.7088839977652
 21
126.8294235085086
 31
0.0
  0
LINE
  5
AAC
330
1F
100
AcDbEntity
  8
0
100
AcDbLine
 10
186.7088839977652
 20
126.8294235085086
 30
0.0
 11
186.6938839977651
 21
126.8094235085087
 31
0.0
  0
LINE
  5
AAD
330
1F
100
AcDbEntity
  8
0
100
AcDbLine
 10
186.6938839977651
 20
126.8094235085087
 30
0.0
 11
186.6688839977652
 21
126.7894235085087
 31
0.0
  0
LINE
  5
AAE
330
1F
100
AcDbEntity
  8
0
100
AcDbLine
 10
186.6688839977652
 20
126.7894235085087
 30
0.0
 11
186.643883997765
 21
126.7744235085086
 31
0.0
  0
LINE
  5
AAF
330
1F
100
AcDbEntity
  8
0
100
AcDbLine
 10
186.643883997765
 20
126.7744235085086
 30
0.0
 11
186.6188839977652
 21
126.7644235085087
 31
0.0
  0
LINE
  5
AB0
330
1F
100
AcDbEntity
  8
0
100
AcDbLine
 10
186.6188839977652
 20
126.7644235085087
 30
0.0
 11
186.4488839977652
 21
126.7644235085087
 31
0.0
  0
LINE
  5
AB1
330
1F
100
AcDbEntity
  8
0
100
AcDbLine
 10
186.4488839977652
 20
126.7644235085087
 30
0.0
 11
186.2388839977652
 21
126.7444235085086
 31
0.0
  0
LINE
  5
AB2
330
1F
100
AcDbEntity
  8
0
100
AcDbLine
 10
186.2388839977652
 20
126.7444235085086
 30
0.0
 11
186.1638839977652
 21
126.7194235085087
 31
0.0
  0
LINE
  5
AB3
330
1F
100
AcDbEntity
  8
0
100
AcDbLine
 10
186.1638839977652
 20
126.7194235085087
 30
0.0
 11
186.0888839977652
 21
126.6894235085087
 31
0.0
  0
LINE
  5
AB4
330
1F
100
AcDbEntity
  8
0
100
AcDbLine
 10
186.0888839977652
 20
126.6894235085087
 30
0.0
 11
186.018883997765
 21
126.6444235085087
 31
0.0
  0
LINE
  5
AB5
330
1F
100
AcDbEntity
  8
0
100
AcDbLine
 10
186.018883997765
 20
126.6444235085087
 30
0.0
 11
185.9538839977652
 21
126.5894235085087
 31
0.0
  0
LINE
  5
AB6
330
1F
100
AcDbEntity
  8
0
100
AcDbLine
 10
185.9538839977652
 20
126.5894235085087
 30
0.0
 11
185.8988839977652
 21
126.5244235085086
 31
0.0
  0
LINE
  5
AB7
330
1F
100
AcDbEntity
  8
0
100
AcDbLine
 10
185.8988839977652
 20
126.5244235085086
 30
0.0
 11
185.8888839977652
 21
126.5044235085087
 31
0.0
  0
LINE
  5
AB8
330
1F
100
AcDbEntity
  8
0
100
AcDbLine
 10
185.8888839977652
 20
126.5044235085087
 30
0.0
 11
185.8788839977652
 21
126.4644235085087
 31
0.0
  0
LINE
  5
AB9
330
1F
100
AcDbEntity
  8
0
100
AcDbLine
 10
185.8788839977652
 20
126.4644235085087
 30
0.0
 11
185.8688839977651
 21
126.4244235085087
 31
0.0
  0
LINE
  5
ABA
330
1F
100
AcDbEntity
  8
0
100
AcDbLine
 10
185.8688839977651
 20
126.4244235085087
 30
0.0
 11
185.8688839977651
 21
126.3744235085087
 31
0.0
  0
LINE
  5
ABB
330
1F
100
AcDbEntity
  8
0
100
AcDbLine
 10
185.8688839977651
 20
126.3744235085087
 30
0.0
 11
185.8738839977652
 21
126.3344235085086
 31
0.0
  0
LINE
  5
ABC
330
1F
100
AcDbEntity
  8
0
100
AcDbLine
 10
185.8738839977652
 20
126.3344235085086
 30
0.0
 11
185.8888839977652
 21
126.2894235085087
 31
0.0
  0
LINE
  5
ABD
330
1F
100
AcDbEntity
  8
0
100
AcDbLine
 10
185.8888839977652
 20
126.2894235085087
 30
0.0
 11
185.9088839977652
 21
126.2544235085087
 31
0.0
  0
LINE
  5
ABE
330
1F
100
AcDbEntity
  8
0
100
AcDbLine
 10
185.9088839977652
 20
126.2544235085087
 30
0.0
 11
185.9338839977652
 21
126.2194235085087
 31
0.0
  0
LINE
  5
ABF
330
1F
100
AcDbEntity
  8
0
100
AcDbLine
 10
185.9338839977652
 20
126.2194235085087
 30
0.0
 11
185.9638839977652
 21
126.1844235085086
 31
0.0
  0
LINE
  5
AC0
330
1F
100
AcDbEntity
  8
0
100
AcDbLine
 10
185.9638839977652
 20
126.1844235085086
 30
0.0
 11
185.9988839977651
 21
126.1594235085087
 31
0.0
  0
LINE
  5
AC1
330
1F
100
AcDbEntity
  8
0
100
AcDbLine
 10
185.9988839977651
 20
126.1594235085087
 30
0.0
 11
186.0388839977652
 21
126.1394235085087
 31
0.0
  0
LINE
  5
AC2
330
1F
100
AcDbEntity
  8
0
100
AcDbLine
 10
186.0388839977652
 20
126.1394235085087
 30
0.0
 11
186.0788839977652
 21
126.1294235085087
 31
0.0
  0
LINE
  5
AC3
330
1F
100
AcDbEntity
  8
0
100
AcDbLine
 10
186.0788839977652
 20
126.1294235085087
 30
0.0
 11
186.1188839977652
 21
126.1194235085087
 31
0.0
  0
LINE
  5
AC4
330
1F
100
AcDbEntity
  8
0
100
AcDbLine
 10
186.1188839977652
 20
126.1194235085087
 30
0.0
 11
186.168883997765
 21
126.1194235085087
 31
0.0
  0
LINE
  5
AC5
330
1F
100
AcDbEntity
  8
0
100
AcDbLine
 10
186.168883997765
 20
126.1194235085087
 30
0.0
 11
186.2088839977652
 21
126.1244235085087
 31
0.0
  0
LINE
  5
AC6
330
1F
100
AcDbEntity
  8
0
100
AcDbLine
 10
186.2088839977652
 20
126.1244235085087
 30
0.0
 11
186.2638839977652
 21
126.1294235085087
 31
0.0
  0
LINE
  5
AC7
330
1F
100
AcDbEntity
  8
0
100
AcDbLine
 10
186.2638839977652
 20
126.1294235085087
 30
0.0
 11
186.3988839977652
 21
126.1544235085086
 31
0.0
  0
LINE
  5
AC8
330
1F
100
AcDbEntity
  8
0
100
AcDbLine
 10
186.3988839977652
 20
126.1544235085086
 30
0.0
 11
186.5288839977652
 21
126.1994235085087
 31
0.0
  0
LINE
  5
AC9
330
1F
100
AcDbEntity
  8
0
100
AcDbLine
 10
186.5288839977652
 20
126.1994235085087
 30
0.0
 11
186.6488839977652
 21
126.2694235085087
 31
0.0
  0
LINE
  5
ACA
330
1F
100
AcDbEntity
  8
0
100
AcDbLine
 10
186.6488839977652
 20
126.2694235085087
 30
0.0
 11
186.7588839977651
 21
126.3494235085087
 31
0.0
  0
LINE
  5
ACB
330
1F
100
AcDbEntity
  8
0
100
AcDbLine
 10
186.7588839977651
 20
126.3494235085087
 30
0.0
 11
186.7538839977652
 21
126.3544235085087
 31
0.0
  0
LINE
  5
ACC
330
1F
100
AcDbEntity
  8
0
100
AcDbLine
 10
186.7538839977652
 20
126.3544235085087
 30
0.0
 11
186.8538839977651
 21
126.0694235085087
 31
0.0
  0
LINE
  5
ACD
330
1F
100
AcDbEntity
  8
0
100
AcDbLine
 10
186.8538839977651
 20
126.0694235085087
 30
0.0
 11
186.8588839977652
 21
126.0644235085087
 31
0.0
  0
LINE
  5
ACE
330
1F
100
AcDbEntity
  8
0
100
AcDbLine
 10
186.8588839977652
 20
126.0644235085087
 30
0.0
 11
186.7038839977652
 21
125.9744235085087
 31
0.0
  0
LINE
  5
ACF
330
1F
100
AcDbEntity
  8
0
100
AcDbLine
 10
186.7038839977652
 20
125.9744235085087
 30
0.0
 11
186.5388839977652
 21
125.9044235085087
 31
0.0
  0
LINE
  5
AD0
330
1F
100
AcDbEntity
  8
0
100
AcDbLine
 10
186.5388839977652
 20
125.9044235085087
 30
0.0
 11
186.5038839977652
 21
125.8944235085087
 31
0.0
  0
LINE
  5
AD1
330
1F
100
AcDbEntity
  8
0
100
AcDbLine
 10
186.5038839977652
 20
125.8944235085087
 30
0.0
 11
186.3688839977652
 21
125.8594235085087
 31
0.0
  0
LINE
  5
AD2
330
1F
100
AcDbEntity
  8
0
100
AcDbLine
 10
186.3688839977652
 20
125.8594235085087
 30
0.0
 11
186.2288839977652
 21
125.8394235085086
 31
0.0
  0
LINE
  5
AD3
330
1F
100
AcDbEntity
  8
0
100
AcDbLine
 10
186.2288839977652
 20
125.8394235085086
 30
0.0
 11
186.0838839977652
 21
125.8344235085087
 31
0.0
  0
LINE
  5
AD4
330
1F
100
AcDbEntity
  8
0
100
AcDbLine
 10
186.0838839977652
 20
125.8344235085087
 30
0.0
 11
185.9438839977651
 21
125.8494235085086
 31
0.0
  0
LINE
  5
AD5
330
1F
100
AcDbEntity
  8
0
100
AcDbLine
 10
185.9438839977651
 20
125.8494235085086
 30
0.0
 11
185.8638839977651
 21
125.8644235085087
 31
0.0
  0
LINE
  5
AD6
330
1F
100
AcDbEntity
  8
0
100
AcDbLine
 10
185.8638839977651
 20
125.8644235085087
 30
0.0
 11
185.7938839977652
 21
125.9044235085087
 31
0.0
  0
LINE
  5
AD7
330
1F
100
AcDbEntity
  8
0
100
AcDbLine
 10
185.7938839977652
 20
125.9044235085087
 30
0.0
 11
185.728883997765
 21
125.9544235085087
 31
0.0
  0
LINE
  5
AD8
330
1F
100
AcDbEntity
  8
0
100
AcDbLine
 10
185.728883997765
 20
125.9544235085087
 30
0.0
 11
185.6688839977652
 21
126.0144235085087
 31
0.0
  0
LINE
  5
AD9
330
1F
100
AcDbEntity
  8
0
100
AcDbLine
 10
185.6688839977652
 20
126.0144235085087
 30
0.0
 11
185.6238839977651
 21
126.0844235085087
 31
0.0
  0
LINE
  5
ADA
330
1F
100
AcDbEntity
  8
0
100
AcDbLine
 10
185.6238839977651
 20
126.0844235085087
 30
0.0
 11
185.5888839977652
 21
126.1594235085087
 31
0.0
  0
LINE
  5
ADB
330
1F
100
AcDbEntity
  8
0
100
AcDbLine
 10
185.5888839977652
 20
126.1594235085087
 30
0.0
 11
185.5638839977652
 21
126.2344235085087
 31
0.0
  0
LINE
  5
ADC
330
1F
100
AcDbEntity
  8
0
100
AcDbLine
 10
185.5638839977652
 20
126.2344235085087
 30
0.0
 11
185.5538839977652
 21
126.3194235085087
 31
0.0
  0
LINE
  5
ADD
330
1F
100
AcDbEntity
  8
0
100
AcDbLine
 10
185.5538839977652
 20
126.3194235085087
 30
0.0
 11
185.5588839977651
 21
126.4044235085086
 31
0.0
  0
LINE
  5
ADE
330
1F
100
AcDbEntity
  8
0
100
AcDbLine
 10
185.5588839977651
 20
126.4044235085086
 30
0.0
 11
185.5738839977652
 21
126.4844235085087
 31
0.0
  0
LINE
  5
ADF
330
1F
100
AcDbEntity
  8
0
100
AcDbLine
 10
185.5738839977652
 20
126.4844235085087
 30
0.0
 11
185.5988839977652
 21
126.5644235085087
 31
0.0
  0
LINE
  5
AE0
330
1F
100
AcDbEntity
  8
0
100
AcDbLine
 10
185.5988839977652
 20
126.5644235085087
 30
0.0
 11
185.6138839977651
 21
126.5944235085087
 31
0.0
  0
LINE
  5
AE1
330
1F
100
AcDbEntity
  8
0
100
AcDbLine
 10
185.6138839977651
 20
126.5944235085087
 30
0.0
 11
185.673883997765
 21
126.6894235085087
 31
0.0
  0
LINE
  5
AE2
330
1F
100
AcDbEntity
  8
0
100
AcDbLine
 10
185.673883997765
 20
126.6894235085087
 30
0.0
 11
185.7438839977652
 21
126.7744235085086
 31
0.0
  0
LINE
  5
AE3
330
1F
100
AcDbEntity
  8
0
100
AcDbLine
 10
185.7438839977652
 20
126.7744235085086
 30
0.0
 11
185.8338839977653
 21
126.8444235085087
 31
0.0
  0
LINE
  5
AE4
330
1F
100
AcDbEntity
  8
0
100
AcDbLine
 10
185.8338839977653
 20
126.8444235085087
 30
0.0
 11
185.9288839977652
 21
126.8994235085086
 31
0.0
  0
LINE
  5
AE5
330
1F
100
AcDbEntity
  8
0
100
AcDbLine
 10
185.9288839977652
 20
126.8994235085086
 30
0.0
 11
186.0338839977652
 21
126.9444235085087
 31
0.0
  0
LINE
  5
AE6
330
1F
100
AcDbEntity
  8
0
100
AcDbLine
 10
186.0338839977652
 20
126.9444235085087
 30
0.0
 11
186.0488839977652
 21
126.9444235085087
 31
0.0
  0
LINE
  5
AE7
330
1F
100
AcDbEntity
  8
0
100
AcDbLine
 10
186.0488839977652
 20
126.9444235085087
 30
0.0
 11
185.9938839977652
 21
126.9894235085087
 31
0.0
  0
LINE
  5
AE8
330
1F
100
AcDbEntity
  8
0
100
AcDbLine
 10
185.9938839977652
 20
126.9894235085087
 30
0.0
 11
185.9488839977652
 21
127.0494235085086
 31
0.0
  0
LINE
  5
AE9
330
1F
100
AcDbEntity
  8
0
100
AcDbLine
 10
185.9488839977652
 20
127.0494235085086
 30
0.0
 11
185.9138839977652
 21
127.1094235085087
 31
0.0
  0
LINE
  5
AEA
330
1F
100
AcDbEntity
  8
0
100
AcDbLine
 10
185.9138839977652
 20
127.1094235085087
 30
0.0
 11
185.8888839977652
 21
127.1744235085087
 31
0.0
  0
LINE
  5
AEB
330
1F
100
AcDbEntity
  8
0
100
AcDbLine
 10
185.8888839977652
 20
127.1744235085087
 30
0.0
 11
185.8738839977652
 21
127.2444235085087
 31
0.0
  0
LINE
  5
AEC
330
1F
100
AcDbEntity
  8
0
100
AcDbLine
 10
185.8738839977652
 20
127.2444235085087
 30
0.0
 11
185.8688839977651
 21
127.3194235085087
 31
0.0
  0
LINE
  5
AED
330
1F
100
AcDbEntity
  8
0
100
AcDbLine
 10
185.8688839977651
 20
127.3194235085087
 30
0.0
 11
185.8788839977652
 21
127.3944235085087
 31
0.0
  0
LINE
  5
AEE
330
1F
100
AcDbEntity
  8
0
100
AcDbLine
 10
185.8788839977652
 20
127.3944235085087
 30
0.0
 11
185.8938839977651
 21
127.4594235085086
 31
0.0
  0
LINE
  5
AEF
330
1F
100
AcDbEntity
  8
0
100
AcDbLine
 10
185.8938839977651
 20
127.4594235085086
 30
0.0
 11
185.9238839977651
 21
127.5294235085086
 31
0.0
  0
LINE
  5
AF0
330
1F
100
AcDbEntity
  8
0
100
AcDbLine
 10
185.9238839977651
 20
127.5294235085086
 30
0.0
 11
185.9638839977652
 21
127.5844235085086
 31
0.0
  0
LINE
  5
AF1
330
1F
100
AcDbEntity
  8
0
100
AcDbLine
 10
185.9638839977652
 20
127.5844235085086
 30
0.0
 11
186.0088839977651
 21
127.6394235085087
 31
0.0
  0
LINE
  5
AF2
330
1F
100
AcDbEntity
  8
0
100
AcDbLine
 10
186.0088839977651
 20
127.6394235085087
 30
0.0
 11
186.018883997765
 21
127.6544235085086
 31
0.0
  0
LINE
  5
AF3
330
1F
100
AcDbEntity
  8
0
100
AcDbLine
 10
186.018883997765
 20
127.6544235085086
 30
0.0
 11
186.0938839977652
 21
127.7144235085087
 31
0.0
  0
LINE
  5
AF4
330
1F
100
AcDbEntity
  8
0
100
AcDbLine
 10
186.0938839977652
 20
127.7144235085087
 30
0.0
 11
186.1788839977652
 21
127.7644235085087
 31
0.0
  0
LINE
  5
AF5
330
1F
100
AcDbEntity
  8
0
100
AcDbLine
 10
186.1788839977652
 20
127.7644235085087
 30
0.0
 11
186.268883997765
 21
127.7994235085087
 31
0.0
  0
LINE
  5
AF6
330
1F
100
AcDbEntity
  8
0
100
AcDbLine
 10
186.268883997765
 20
127.7994235085087
 30
0.0
 11
186.363883997765
 21
127.8244235085087
 31
0.0
  0
LINE
  5
AF7
330
1F
100
AcDbEntity
  8
0
100
AcDbLine
 10
186.363883997765
 20
127.8244235085087
 30
0.0
 11
186.4638839977653
 21
127.8294235085086
 31
0.0
  0
LINE
  5
AF8
330
1F
100
AcDbEntity
  8
0
100
AcDbLine
 10
186.4638839977653
 20
127.8294235085086
 30
0.0
 11
186.4888839977652
 21
127.8294235085086
 31
0.0
  0
LINE
  5
AF9
330
1F
100
AcDbEntity
  8
0
100
AcDbLine
 10
186.4888839977652
 20
127.8294235085086
 30
0.0
 11
186.6638839977651
 21
127.8094235085087
 31
0.0
  0
LINE
  5
AFA
330
1F
100
AcDbEntity
  8
0
100
AcDbLine
 10
186.6638839977651
 20
127.8094235085087
 30
0.0
 11
186.8338839977653
 21
127.7694235085087
 31
0.0
  0
LINE
  5
AFB
330
1F
100
AcDbEntity
  8
0
100
AcDbLine
 10
186.8338839977653
 20
127.7694235085087
 30
0.0
 11
186.9988839977652
 21
127.7144235085087
 31
0.0
  0
LINE
  5
AFC
330
1F
100
AcDbEntity
  8
0
100
AcDbLine
 10
186.9988839977652
 20
127.7144235085087
 30
0.0
 11
187.1588839977652
 21
127.6394235085087
 31
0.0
  0
LINE
  5
AFD
330
1F
100
AcDbEntity
  8
0
100
AcDbLine
 10
187.1588839977652
 20
127.6394235085087
 30
0.0
 11
187.178883997765
 21
127.6244235085087
 31
0.0
  0
LINE
  5
AFE
330
1F
100
AcDbEntity
  8
0
100
AcDbLine
 10
187.178883997765
 20
127.6244235085087
 30
0.0
 11
186.9788839977652
 21
127.3144235085087
 31
0.0
  0
LINE
  5
AFF
330
1F
100
AcDbEntity
  8
0
100
AcDbLine
 10
186.9788839977652
 20
127.3144235085087
 30
0.0
 11
186.9488839977652
 21
127.3344235085086
 31
0.0
  0
LINE
  5
B00
330
1F
100
AcDbEntity
  8
0
100
AcDbLine
 10
188.8138839977652
 20
126.5894235085087
 30
0.0
 11
187.923883997765
 21
126.5894235085087
 31
0.0
  0
LINE
  5
B01
330
1F
100
AcDbEntity
  8
0
100
AcDbLine
 10
187.923883997765
 20
126.5894235085087
 30
0.0
 11
187.9038839977653
 21
126.3794235085087
 31
0.0
  0
LINE
  5
B02
330
1F
100
AcDbEntity
  8
0
100
AcDbLine
 10
187.9038839977653
 20
126.3794235085087
 30
0.0
 11
188.798883997765
 21
126.3794235085087
 31
0.0
  0
LINE
  5
B03
330
1F
100
AcDbEntity
  8
0
100
AcDbLine
 10
188.798883997765
 20
126.3794235085087
 30
0.0
 11
188.8138839977652
 21
126.5894235085087
 31
0.0
  0
LINE
  5
B04
330
1F
100
AcDbEntity
  8
0
100
AcDbLine
 10
188.8138839977652
 20
126.5894235085087
 30
0.0
 11
188.8138839977652
 21
126.5894235085087
 31
0.0
  0
LINE
  5
B05
330
1F
100
AcDbEntity
  8
0
100
AcDbLine
 10
187.9438839977651
 20
126.8494235085087
 30
0.0
 11
188.8388839977652
 21
126.8494235085087
 31
0.0
  0
LINE
  5
B06
330
1F
100
AcDbEntity
  8
0
100
AcDbLine
 10
188.8388839977652
 20
126.8494235085087
 30
0.0
 11
188.8588839977652
 21
127.0594235085086
 31
0.0
  0
LINE
  5
B07
330
1F
100
AcDbEntity
  8
0
100
AcDbLine
 10
188.8588839977652
 20
127.0594235085086
 30
0.0
 11
187.9638839977652
 21
127.0594235085086
 31
0.0
  0
LINE
  5
B08
330
1F
100
AcDbEntity
  8
0
100
AcDbLine
 10
187.9638839977652
 20
127.0594235085086
 30
0.0
 11
187.9438839977651
 21
126.8494235085087
 31
0.0
  0
LINE
  5
B09
330
1F
100
AcDbEntity
  8
0
100
AcDbLine
 10
187.9438839977651
 20
126.8494235085087
 30
0.0
 11
187.9438839977651
 21
126.8494235085087
 31
0.0
  0
LINE
  5
B0A
330
1F
100
AcDbEntity
  8
0
370
    15
100
AcDbLine
 10
200.2834294523067
 20
158.7916962357815
 30
0.0
 11
200.2834294523067
 21
158.137150781236
 31
0.0
  0
LINE
  5
B0B
330
1F
100
AcDbEntity
  8
0
370
    15
100
AcDbLine
 10
203.924338543216
 20
158.7916962357815
 30
0.0
 11
203.9243385432159
 21
158.137150781236
 31
0.0
  0
CIRCLE
  5
B0C
330
1F
100
AcDbEntity
  8
0
100
AcDbCircle
 10
202.1038839977613
 20
158.4644235085088
 30
0.0
 40
2.25
  0
LINE
  5
B0D
330
1F
100
AcDbEntity
  8
0
370
    15
100
AcDbLine
 10
202.4311567250339
 20
158.137150781236
 30
0.0
 11
203.9243385432159
 21
158.137150781236
 31
0.0
  0
LINE
  5
B0E
330
1F
100
AcDbEntity
  8
0
370
    15
100
AcDbLine
 10
202.4311567250339
 20
158.137150781236
 30
0.0
 11
202.431156725034
 21
156.6439689630542
 31
0.0
  0
LINE
  5
B0F
330
1F
100
AcDbEntity
  8
0
370
    15
100
AcDbLine
 10
201.7766112704886
 20
156.6439689630542
 30
0.0
 11
202.431156725034
 21
156.6439689630542
 31
0.0
  0
LINE
  5
B10
330
1F
100
AcDbEntity
  8
0
370
    15
100
AcDbLine
 10
200.2834294523067
 20
158.137150781236
 30
0.0
 11
201.7766112704885
 21
158.137150781236
 31
0.0
  0
LINE
  5
B11
330
1F
100
AcDbEntity
  8
0
370
    15
100
AcDbLine
 10
201.7766112704885
 20
158.137150781236
 30
0.0
 11
201.7766112704886
 21
156.6439689630542
 31
0.0
  0
LINE
  5
B12
330
1F
100
AcDbEntity
  8
0
370
    15
100
AcDbLine
 10
202.431156725034
 20
158.7916962357815
 30
0.0
 11
203.9243385432159
 21
158.7916962357815
 31
0.0
  0
LINE
  5
B13
330
1F
100
AcDbEntity
  8
0
370
    15
100
AcDbLine
 10
200.2834294523067
 20
158.7916962357815
 30
0.0
 11
201.7766112704885
 21
158.7916962357815
 31
0.0
  0
LINE
  5
B14
330
1F
100
AcDbEntity
  8
0
370
    15
100
AcDbLine
 10
202.431156725034
 20
160.2848780539633
 30
0.0
 11
202.4311567250339
 21
158.7916962357815
 31
0.0
  0
LINE
  5
B15
330
1F
100
AcDbEntity
  8
0
370
    15
100
AcDbLine
 10
201.7766112704887
 20
160.2848780539633
 30
0.0
 11
202.431156725034
 21
160.2848780539633
 31
0.0
  0
LINE
  5
B16
330
1F
100
AcDbEntity
  8
0
370
    15
100
AcDbLine
 10
201.7766112704886
 20
160.2848780539633
 30
0.0
 11
201.7766112704885
 21
158.7916962357815
 31
0.0
  0
CIRCLE
  5
B17
330
1F
100
AcDbEntity
  8
0
100
AcDbCircle
 10
29.60388399776265
 20
59.4644235085087
 30
0.0
 40
2.75
  0
LINE
  5
B18
330
1F
100
AcDbEntity
  8
0
100
AcDbLine
 10
29.86189669965466
 20
60.01753239983314
 30
0.0
 11
28.75689669965466
 21
61.93144854219677
 31
0.0
  0
LINE
  5
B19
330
1F
100
AcDbEntity
  8
0
100
AcDbLine
 10
28.99587129587022
 20
59.51753239983315
 30
0.0
 11
27.89087129587022
 21
61.43144854219674
 31
0.0
  0
LINE
  5
B1A
330
1F
100
AcDbEntity
  8
0
100
AcDbLine
 10
30.21189669965465
 20
59.41131461718407
 30
0.0
 11
31.16452464381774
 21
59.96131461718417
 31
0.0
  0
LINE
  5
B1B
330
1F
100
AcDbEntity
  8
0
100
AcDbLine
 10
29.86189669965466
 20
60.01753239983314
 30
0.0
 11
30.81452464381774
 21
60.56753239983327
 31
0.0
  0
LINE
  5
B1C
330
1F
100
AcDbEntity
  8
0
100
AcDbLine
 10
28.39324335170754
 20
58.36131461718417
 30
0.0
 11
29.34587129587022
 21
58.91131461718407
 31
0.0
  0
LINE
  5
B1D
330
1F
100
AcDbEntity
  8
0
100
AcDbLine
 10
28.04324335170754
 20
58.96753239983326
 30
0.0
 11
28.99587129587022
 21
59.51753239983315
 31
0.0
  0
LINE
  5
B1E
330
1F
100
AcDbEntity
  8
0
100
AcDbLine
 10
28.04324335170754
 20
58.96753239983326
 30
0.0
 11
28.39324335170755
 21
58.36131461718415
 31
0.0
  0
LINE
  5
B1F
330
1F
100
AcDbEntity
  8
0
100
AcDbLine
 10
30.81452464381774
 20
60.56753239983327
 30
0.0
 11
31.16452464381774
 21
59.96131461718417
 31
0.0
  0
LINE
  5
B20
330
1F
100
AcDbEntity
  8
0
100
AcDbLine
 10
30.45087129587024
 20
56.99739847482041
 30
0.0
 11
29.34587129587022
 21
58.91131461718407
 31
0.0
  0
LINE
  5
B21
330
1F
100
AcDbEntity
  8
0
100
AcDbLine
 10
31.31689669965467
 20
57.49739847482043
 30
0.0
 11
30.21189669965465
 21
59.41131461718407
 31
0.0
  0
LINE
  5
B22
330
1F
100
AcDbEntity
  8
0
100
AcDbLine
 10
30.45087129587024
 20
56.99739847482042
 30
0.0
 11
31.31689669965467
 21
57.49739847482043
 31
0.0
  0
LINE
  5
B23
330
1F
100
AcDbEntity
  8
0
100
AcDbLine
 10
27.89087129587024
 20
61.43144854219674
 30
0.0
 11
28.75689669965466
 21
61.93144854219672
 31
0.0
  0
LINE
  5
B24
330
1F
100
AcDbEntity
  8
0
370
    15
100
AcDbLine
 10
175.2834294523067
 20
158.7916962357817
 30
0.0
 11
175.2834294523067
 21
158.1371507812361
 31
0.0
  0
LINE
  5
B25
330
1F
100
AcDbEntity
  8
0
370
    15
100
AcDbLine
 10
178.924338543216
 20
158.7916962357817
 30
0.0
 11
178.9243385432159
 21
158.1371507812361
 31
0.0
  0
CIRCLE
  5
B26
330
1F
100
AcDbEntity
  8
0
100
AcDbCircle
 10
177.103883997761
 20
158.464423508509
 30
0.0
 40
2.25
  0
LINE
  5
B27
330
1F
100
AcDbEntity
  8
0
370
    15
100
AcDbLine
 10
177.4311567250338
 20
158.1371507812361
 30
0.0
 11
178.9243385432159
 21
158.1371507812361
 31
0.0
  0
LINE
  5
B28
330
1F
100
AcDbEntity
  8
0
370
    15
100
AcDbLine
 10
177.4311567250338
 20
158.1371507812361
 30
0.0
 11
177.4311567250339
 21
156.6439689630544
 31
0.0
  0
LINE
  5
B29
330
1F
100
AcDbEntity
  8
0
370
    15
100
AcDbLine
 10
176.7766112704885
 20
156.6439689630544
 30
0.0
 11
177.4311567250339
 21
156.6439689630544
 31
0.0
  0
LINE
  5
B2A
330
1F
100
AcDbEntity
  8
0
370
    15
100
AcDbLine
 10
175.2834294523067
 20
158.1371507812361
 30
0.0
 11
176.7766112704884
 21
158.1371507812361
 31
0.0
  0
LINE
  5
B2B
330
1F
100
AcDbEntity
  8
0
370
    15
100
AcDbLine
 10
176.7766112704884
 20
158.1371507812361
 30
0.0
 11
176.7766112704885
 21
156.6439689630544
 31
0.0
  0
LINE
  5
B2C
330
1F
100
AcDbEntity
  8
0
370
    15
100
AcDbLine
 10
177.4311567250339
 20
158.7916962357817
 30
0.0
 11
178.9243385432159
 21
158.7916962357817
 31
0.0
  0
LINE
  5
B2D
330
1F
100
AcDbEntity
  8
0
370
    15
100
AcDbLine
 10
175.2834294523067
 20
158.7916962357817
 30
0.0
 11
176.7766112704884
 21
158.7916962357817
 31
0.0
  0
LINE
  5
B2E
330
1F
100
AcDbEntity
  8
0
370
    15
100
AcDbLine
 10
177.4311567250339
 20
160.2848780539635
 30
0.0
 11
177.4311567250338
 21
158.7916962357817
 31
0.0
  0
LINE
  5
B2F
330
1F
100
AcDbEntity
  8
0
370
    15
100
AcDbLine
 10
176.7766112704886
 20
160.2848780539635
 30
0.0
 11
177.4311567250339
 21
160.2848780539635
 31
0.0
  0
LINE
  5
B30
330
1F
100
AcDbEntity
  8
0
370
    15
100
AcDbLine
 10
176.7766112704885
 20
160.2848780539635
 30
0.0
 11
176.7766112704884
 21
158.7916962357817
 31
0.0
  0
ENDSEC
  0
SECTION
  2
OBJECTS
  0
DICTIONARY
  5
C
330
0
100
AcDbDictionary
281
     1
  3
ACAD_COLOR
350
BE
  3
ACAD_GROUP
350
D
  3
ACAD_LAYOUT
350
1A
  3
ACAD_MATERIAL
350
BD
  3
ACAD_MLINESTYLE
350
17
  3
ACAD_PLOTSETTINGS
350
19
  3
ACAD_PLOTSTYLENAME
350
E
  3
ACAD_TABLESTYLE
350
11A
  3
ACDBHEADERROUNDTRIPXREC
350
DC8
  3
AcDbVariableDictionary
350
94
  3
AcmDictionary
350
5B
  3
AMG
350
41
  3
AMGSNAPSETTINGS
350
1B8
  3
DWGPROPS
350
DC7
  0
DICTIONARY
  5
2D7
330
2
100
AcDbDictionary
280
     1
281
     1
  3
ACAD_LAYERSTATES
360
2D8
  0
DICTIONARY
  5
8F
330
1F
100
AcDbDictionary
280
     1
281
     1
  3
ACAD_SORTENTS
360
8EC
  0
DICTIONARY
  5
BE
102
{ACAD_REACTORS
330
C
102
}
330
C
100
AcDbDictionary
281
     1
  0
DICTIONARY
  5
D
102
{ACAD_REACTORS
330
C
102
}
330
C
100
AcDbDictionary
281
     1
  0
DICTIONARY
  5
1A
102
{ACAD_REACTORS
330
C
102
}
330
C
100
AcDbDictionary
281
     1
  3
Model
350
22
  3
レイアウト1
350
1E
  3
レイアウト2
350
26
  0
DICTIONARY
  5
BD
102
{ACAD_REACTORS
330
C
102
}
330
C
100
AcDbDictionary
281
     1
  0
DICTIONARY
  5
17
102
{ACAD_REACTORS
330
C
102
}
330
C
100
AcDbDictionary
281
     1
  3
Standard
350
18
  0
DICTIONARY
  5
19
102
{ACAD_REACTORS
330
C
102
}
330
C
100
AcDbDictionary
281
     1
  0
ACDBDICTIONARYWDFLT
  5
E
102
{ACAD_REACTORS
330
C
102
}
330
C
100
AcDbDictionary
281
     1
  3
Normal
350
F
100
AcDbDictionaryWithDefault
340
F
  0
DICTIONARY
  5
11A
102
{ACAD_REACTORS
330
C
102
}
330
C
100
AcDbDictionary
281
     1
  3
Standard
350
11B
  0
DICTIONARY
  5
DC8
102
{ACAD_REACTORS
330
C
102
}
330
C
100
AcDbDictionary
281
     1
  0
DICTIONARY
  5
94
102
{ACAD_REACTORS
330
C
102
}
330
C
100
AcDbDictionary
281
     1
  3
CTABLESTYLE
350
138
  3
DIMASSOC
350
96
  3
INDEXCTL
350
95
  3
PROJECTNAME
350
B3D
  0
DICTIONARY
  5
5B
102
{ACAD_REACTORS
330
C
102
}
330
C
100
AcDbDictionary
281
     1
  3
AcmBOM
350
1B5
  3
AcmStdDictionary
350
61
  3
AMDTSECTSYM_ARROWCOLOR
350
123
  0
DICTIONARY
  5
41
102
{ACAD_REACTORS
330
C
102
}
330
C
100
AcDbDictionary
281
     1
  0
DICTIONARY
  5
1B8
102
{ACAD_REACTORS
330
C
102
}
330
C
100
AcDbDictionary
281
     1
  0
XRECORD
  5
DC7
102
{ACAD_REACTORS
330
C
102
}
330
C
100
AcDbXrecord
280
     1
  1
DWGPROPS COOKIE
  2

  3

  4

  6

  7

  8

  9

300
AmdtFileType=84
301
=
302
=
303
=
304
=
305
=
306
=
307
=
308
=
309
=
 40
0.0065397800925926
 41
2456406.474625
 42
2456406.638801991
  1

 90
        1
  0
DICTIONARY
  5
2D8
102
{ACAD_REACTORS
330
2D7
102
}
330
2D7
100
AcDbDictionary
281
     1
  0
SORTENTSTABLE
  5
8EC
102
{ACAD_REACTORS
330
8F
102
}
330
8F
100
AcDbSortentsTable
330
1F
331
650
  5
650
331
61A
  5
61A
331
639
  5
639
331
5FB
  5
5FB
331
B19
  5
6FF
331
B30
  5
6E5
331
ADB
  5
822
331
AFA
  5
841
331
977
  5
B24
331
A86
  5
7CD
331
996
  5
98B
331
AA5
  5
7EC
331
A48
  5
896
331
958
  5
B05
331
A67
  5
869
331
8E4
  5
B2E
331
9F3
  5
90B
331
A12
  5
8EA
331
8A6
  5
A8E
331
9D4
  5
93B
331
887
  5
A72
331
922
  5
ACF
331
9B5
  5
954
331
ABC
  5
803
331
670
  5
670
331
63A
  5
63A
331
651
  5
651
331
5FC
  5
5FC
331
61B
  5
61B
331
AFB
  5
842
331
B1A
  5
700
331
997
  5
975
331
AA6
  5
7ED
331
9B6
  5
955
331
ABD
  5
804
331
959
  5
B06
331
A68
  5
86A
331
978
  5
B25
331
A87
  5
7CE
331
904
  5
751
331
A13
  5
8EE
331
923
  5
AD0
331
9D5
  5
924
331
8E5
  5
B2F
331
9F4
  5
90D
331
8A7
  5
A8F
331
A49
  5
897
331
ADC
  5
823
331
690
  5
690
331
652
  5
652
331
5FD
  5
5FD
331
61C
  5
61C
331
671
  5
671
331
B1B
  5
701
331
9B7
  5
956
331
ABE
  5
805
331
ADD
  5
824
331
979
  5
B26
331
A88
  5
7CF
331
998
  5
976
331
AA7
  5
7EE
331
A4A
  5
898
331
95A
  5
B07
331
A69
  5
86B
331
AFC
  5
843
331
8E6
  5
B30
331
9F5
  5
90E
331
905
  5
752
331
A14
  5
8EF
331
9D6
  5
925
331
924
  5
AD1
331
6B0
  5
6B0
331
672
  5
672
331
691
  5
691
331
63C
  5
63C
331
653
  5
653
331
5FE
  5
5FE
331
61D
  5
61D
331
AFD
  5
844
331
B1C
  5
702
331
999
  5
977
331
ABF
  5
806
331
95B
  5
B08
331
A6A
  5
86D
331
97A
  5
B27
331
A89
  5
7D0
331
906
  5
753
331
A15
  5
8F0
331
925
  5
AD2
331
9D7
  5
926
331
9F6
  5
90F
331
A4B
  5
899
331
ADE
  5
825
331
692
  5
692
331
6B1
  5
6B1
331
654
  5
654
331
673
  5
673
331
5FF
  5
5FF
331
61E
  5
61E
331
63D
  5
63D
331
6C8
  5
6C8
331
B1D
  5
703
331
AC0
  5
807
331
ADF
  5
826
331
97B
  5
B28
331
A8A
  5
7D1
331
99A
  5
978
331
926
  5
AD3
331
A4C
  5
89A
331
9F7
  5
910
331
907
  5
755
331
A16
  5
8F1
331
95C
  5
B09
331
A6B
  5
86E
331
AFE
  5
845
331
6B2
  5
6B2
331
6C9
  5
6C9
331
674
  5
674
331
693
  5
693
331
61F
  5
61F
331
600
  5
600
331
655
  5
655
331
6E8
  5
6F7
331
AE0
  5
827
331
AFF
  5
846
331
99B
  5
979
331
AC1
  5
808
331
95D
  5
B0A
331
A6C
  5
86F
331
97C
  5
B29
331
A8B
  5
7D2
331
B1E
  5
704
331
A17
  5
8F2
331
927
  5
AD4
331
A4D
  5
89B
331
6CA
  5
6CA
331
6E9
  5
6F8
331
694
  5
694
331
6B3
  5
6B3
331
656
  5
656
331
675
  5
675
331
708
  5
77D
331
601
  5
601
331
620
  5
620
331
63F
  5
63F
331
B1F
  5
705
331
AC2
  5
809
331
AE1
  5
828
331
97D
  5
98F
331
A8C
  5
7D3
331
99C
  5
97A
331
A4E
  5
883
331
95E
  5
B0B
331
A6D
  5
870
331
B00
  5
7C1
331
709
  5
77E
331
6B4
  5
6B4
331
6CB
  5
6CB
331
676
  5
676
331
695
  5
695
331
621
  5
621
331
640
  5
640
331
602
  5
602
331
657
  5
657
331
6EA
  5
6F9
331
AE2
  5
829
331
B01
  5
7C3
331
99D
  5
97B
331
AC3
  5
80A
331
A4F
  5
884
331
95F
  5
B0C
331
A6E
  5
871
331
97E
  5
990
331
A8D
  5
7D4
331
6CC
  5
6CC
331
6EB
  5
6FA
331
696
  5
696
331
6B5
  5
6B5
331
641
  5
641
331
658
  5
658
331
603
  5
603
331
622
  5
622
331
677
  5
677
331
70A
  5
77F
331
B02
  5
7C4
331
AC4
  5
80B
331
AE3
  5
82A
331
97F
  5
991
331
A8E
  5
7D5
331
99E
  5
97C
331
A6F
  5
872
331
751
  5
7C8
331
6EC
  5
6FB
331
70B
  5
78D
331
6B6
  5
6B6
331
6CD
  5
6CD
331
678
  5
678
331
697
  5
697
331
623
  5
623
331
642
  5
642
331
604
  5
604
331
659
  5
659
331
AE4
  5
82B
331
B03
  5
7C5
331
99F
  5
97D
331
AC5
  5
80C
331
A8F
  5
7D6
331
73B
  5
7A9
331
752
  5
7C9
331
6CE
  5
6CE
331
698
  5
698
331
6B7
  5
6B7
331
643
  5
643
331
65A
  5
65A
331
605
  5
605
331
624
  5
624
331
679
  5
679
331
70C
  5
793
331
B04
  5
7C6
331
AC6
  5
80D
331
AE5
  5
82C
331
799
  5
973
331
753
  5
7CA
331
7B8
  5
9AD
331
6EE
  5
70A
331
70D
  5
794
331
6B8
  5
6B8
331
6CF
  5
6CF
331
65B
  5
65B
331
67A
  5
67A
331
625
  5
625
331
644
  5
644
331
606
  5
606
331
699
  5
699
331
73C
  5
7AA
331
AE6
  5
82D
331
B05
  5
7BC
331
AC7
  5
80E
331
77B
  5
92D
331
70E
  5
795
331
73D
  5
7AC
331
6D0
  5
6D0
331
6EF
  5
70B
331
79A
  5
974
331
69A
  5
69A
331
6B9
  5
6B9
331
645
  5
645
331
65C
  5
65C
331
607
  5
607
331
626
  5
626
331
67B
  5
67B
331
B06
  5
7BD
331
AE7
  5
82E
331
7BA
  5
9AE
331
70F
  5
797
331
6BA
  5
6BA
331
6D1
  5
6D1
331
77C
  5
92E
331
65D
  5
65D
331
67C
  5
67C
331
627
  5
627
331
646
  5
646
331
608
  5
608
331
69B
  5
69B
331
B07
  5
7BE
331
7BB
  5
9AF
331
77D
  5
92F
331
710
  5
799
331
73F
  5
7AD
331
6D2
  5
6D2
331
6F1
  5
73B
331
67D
  5
67D
331
69C
  5
69C
331
647
  5
647
331
65E
  5
65E
331
609
  5
609
331
628
  5
628
331
6BB
  5
6BB
331
756
  5
847
331
7BC
  5
9B0
331
740
  5
7AF
331
757
  5
848
331
6F2
  5
73C
331
711
  5
79A
331
6BC
  5
6BC
331
6D3
  5
6D3
331
77E
  5
930
331
65F
  5
65F
331
67E
  5
67E
331
629
  5
629
331
648
  5
648
331
60A
  5
60A
331
69D
  5
69D
331
7BD
  5
9B1
331
77F
  5
931
331
712
  5
79F
331
741
  5
7B1
331
6D4
  5
6D4
331
6F3
  5
73D
331
67F
  5
67F
331
69E
  5
69E
331
649
  5
649
331
660
  5
660
331
60B
  5
60B
331
62A
  5
62A
331
6BD
  5
6BD
331
758
  5
849
331
7BE
  5
9B2
331
742
  5
7B2
331
6F4
  5
73F
331
69F
  5
69F
331
6BE
  5
6BE
331
661
  5
661
331
680
  5
680
331
713
  5
7A0
331
62B
  5
62B
331
64A
  5
64A
331
780
  5
932
331
60C
  5
60C
331
7BF
  5
9B3
331
75A
  5
84A
331
714
  5
7A1
331
743
  5
7B5
331
6D6
  5
6D6
331
6F5
  5
740
331
7A0
  5
98C
331
681
  5
681
331
6A0
  5
6A0
331
64B
  5
64B
331
662
  5
662
331
60D
  5
60D
331
62C
  5
62C
331
6BF
  5
6BF
331
7A1
  5
98D
331
744
  5
7B6
331
75B
  5
84B
331
6F6
  5
741
331
6A1
  5
6A1
331
6C0
  5
6C0
331
663
  5
663
331
682
  5
682
331
715
  5
7A2
331
7C0
  5
9B4
331
60E
  5
60E
331
62D
  5
62D
331
64C
  5
64C
331
7C1
  5
9B5
331
75C
  5
84C
331
745
  5
7B7
331
6C1
  5
6C1
331
6D8
  5
6E6
331
683
  5
683
331
6A2
  5
6A2
331
64D
  5
64D
331
664
  5
664
331
6F7
  5
742
331
7A2
  5
98E
331
60F
  5
60F
331
62E
  5
62E
331
6F8
  5
743
331
75D
  5
84D
331
6A3
  5
6A3
331
6C2
  5
6C2
331
665
  5
665
331
684
  5
684
331
610
  5
610
331
62F
  5
62F
331
5F1
  5
5F1
331
64E
  5
64E
331
6D9
  5
6E7
331
7C3
  5
9B6
331
75E
  5
84E
331
785
  5
93C
331
6C3
  5
6C3
331
6DA
  5
6E8
331
685
  5
685
331
6A4
  5
6A4
331
630
  5
630
331
64F
  5
64F
331
5F2
  5
5F2
331
611
  5
611
331
666
  5
666
331
6F9
  5
744
331
786
  5
93D
331
7A5
  5
99C
331
6FA
  5
745
331
6A5
  5
6A5
331
6C4
  5
6C4
331
75F
  5
84F
331
667
  5
667
331
612
  5
612
331
631
  5
631
331
5F3
  5
5F3
331
686
  5
686
331
7C4
  5
9B7
331
7A6
  5
99D
331
7C5
  5
9B8
331
760
  5
850
331
787
  5
93E
331
6C5
  5
6C5
331
6DC
  5
6E9
331
687
  5
687
331
6A6
  5
6A6
331
632
  5
632
331
5F4
  5
5F4
331
613
  5
613
331
668
  5
668
331
6FB
  5
74A
331
788
  5
93F
331
74A
  5
7BA
331
6DD
  5
6EA
331
6FC
  5
74B
331
7A7
  5
99E
331
6A7
  5
6A7
331
6C6
  5
6C6
331
669
  5
669
331
614
  5
614
331
633
  5
633
331
5F5
  5
5F5
331
688
  5
688
331
7C6
  5
9B9
331
7A8
  5
99F
331
6C7
  5
6C7
331
6DE
  5
6EB
331
689
  5
689
331
6A8
  5
6A8
331
74B
  5
7BB
331
634
  5
634
331
5F6
  5
5F6
331
615
  5
615
331
66A
  5
66A
331
7C8
  5
9BA
331
6DF
  5
6EC
331
6A9
  5
6A9
331
6FE
  5
76A
331
7A9
  5
9A0
331
66B
  5
66B
331
616
  5
616
331
635
  5
635
331
5F7
  5
5F7
331
68A
  5
68A
331
7AA
  5
9A1
331
6FF
  5
76B
331
726
  5
7A6
331
7C9
  5
9BB
331
6E0
  5
6EE
331
7D0
  5
9C2
331
66C
  5
66C
331
636
  5
636
331
68B
  5
68B
331
617
  5
617
331
6AA
  5
6AA
331
7CA
  5
9BC
331
7D1
  5
9C3
331
6E1
  5
6EF
331
6AB
  5
6AB
331
700
  5
76E
331
7F0
  5
9E2
331
66D
  5
66D
331
68C
  5
68C
331
7F1
  5
9E3
331
810
  5
A02
331
7AC
  5
9A2
331
7CB
  5
9BD
331
701
  5
772
331
6E2
  5
6F1
331
78D
  5
95C
331
7D2
  5
9C4
331
66E
  5
66E
331
68D
  5
68D
331
6AC
  5
6AC
331
811
  5
A03
331
830
  5
A22
331
7CC
  5
9BE
331
7D3
  5
9C5
331
78E
  5
95D
331
6E3
  5
6F2
331
68E
  5
68E
331
6AD
  5
6AD
331
66F
  5
66F
331
702
  5
773
331
7AD
  5
9A3
331
7F2
  5
9E4
331
831
  5
A23
331
848
  5
A3A
331
7F3
  5
9E5
331
812
  5
A04
331
7CD
  5
9BF
331
703
  5
775
331
6E4
  5
6F3
331
78F
  5
95E
331
7D4
  5
9C6
331
68F
  5
68F
331
6AE
  5
6AE
331
849
  5
A3B
331
868
  5
A56
331
813
  5
A05
331
832
  5
A24
331
7CE
  5
9C0
331
7D5
  5
9C7
331
790
  5
95F
331
6E5
  5
6F4
331
6AF
  5
6AF
331
704
  5
778
331
7AF
  5
9A4
331
7F4
  5
9E6
331
833
  5
A25
331
84A
  5
A3C
331
7F5
  5
9E7
331
814
  5
A06
331
7B0
  5
9A5
331
7CF
  5
9C1
331
705
  5
77A
331
772
  5
8C2
331
6E6
  5
6F5
331
791
  5
960
331
7D6
  5
9C8
331
869
  5
A57
331
8A8
  5
A90
331
84B
  5
A3D
331
86A
  5
A58
331
815
  5
A07
331
834
  5
A26
331
7D7
  5
9C9
331
72D
  5
7A7
331
6E7
  5
6F6
331
706
  5
77B
331
7B1
  5
9A6
331
7F6
  5
9E8
331
889
  5
A73
331
8C8
  5
AA9
331
86B
  5
A59
331
88A
  5
A74
331
835
  5
A27
331
84C
  5
A3E
331
7F7
  5
9E9
331
816
  5
A08
331
8A9
  5
A91
331
9B8
  5
957
331
7B2
  5
9A7
331
707
  5
77C
331
72E
  5
7A8
331
793
  5
961
331
7D8
  5
9CA
331
8AA
  5
A92
331
9B9
  5
958
331
8C9
  5
AAA
331
9D8
  5
927
331
84D
  5
A3F
331
817
  5
A09
331
836
  5
A28
331
7D9
  5
9CB
331
794
  5
962
331
7B3
  5
9A8
331
7F8
  5
9EA
331
88B
  5
A75
331
908
  5
756
331
8CA
  5
AAB
331
9D9
  5
928
331
9F8
  5
911
331
86D
  5
A5A
331
88C
  5
A76
331
837
  5
A29
331
84E
  5
A40
331
7DA
  5
9CC
331
795
  5
963
331
7B4
  5
9A9
331
7F9
  5
9EB
331
818
  5
A0A
331
8AB
  5
A93
331
9BA
  5
959
331
928
  5
AD5
331
9F9
  5
912
331
909
  5
757
331
A18
  5
8F3
331
88D
  5
A77
331
8AC
  5
A94
331
9BB
  5
95A
331
84F
  5
A41
331
86E
  5
A5B
331
819
  5
A0B
331
838
  5
A2A
331
8CB
  5
AAC
331
9DA
  5
929
331
7DB
  5
9CD
331
7B5
  5
9AA
331
7FA
  5
9EC
331
940
  5
AED
331
90A
  5
758
331
A19
  5
8F6
331
929
  5
AD6
331
A30
  5
8BF
331
8CC
  5
AAD
331
9DB
  5
92A
331
9FA
  5
913
331
86F
  5
A5C
331
88E
  5
A78
331
839
  5
A2B
331
850
  5
A42
331
7DC
  5
9CE
331
7B6
  5
9AB
331
7FB
  5
9ED
331
81A
  5
A0C
331
8AD
  5
A95
331
9BC
  5
95B
331
92A
  5
AD7
331
A31
  5
8C0
331
941
  5
AEE
331
A50
  5
885
331
9FB
  5
914
331
90B
  5
75A
331
A1A
  5
8F7
331
8AE
  5
A96
331
9BD
  5
940
331
870
  5
A5D
331
7FC
  5
9EE
331
81B
  5
A0D
331
7B7
  5
9AC
331
7DD
  5
9CF
331
83A
  5
A2C
331
8CD
  5
AAE
331
9DC
  5
92B
331
960
  5
B0D
331
942
  5
AEF
331
A51
  5
886
331
961
  5
B0E
331
A70
  5
874
331
90C
  5
75B
331
A1B
  5
8F8
331
92B
  5
AD8
331
A32
  5
8C1
331
8AF
  5
A97
331
9BE
  5
941
331
8CE
  5
AAF
331
9DD
  5
92C
331
871
  5
A5E
331
890
  5
A79
331
83B
  5
A2D
331
852
  5
A43
331
8ED
  5
A9F
331
9FC
  5
8C4
331
980
  5
992
331
7DE
  5
9D0
331
7FD
  5
9EF
331
81C
  5
A0E
331
962
  5
B0F
331
A71
  5
861
331
981
  5
993
331
A90
  5
7D7
331
92C
  5
AD9
331
A33
  5
89C
331
943
  5
AF0
331
A52
  5
887
331
8EE
  5
AA0
331
9FD
  5
8C5
331
90D
  5
75C
331
A1C
  5
8F9
331
9A0
  5
97E
331
9BF
  5
942
331
891
  5
A7A
331
8B0
  5
A98
331
872
  5
A5F
331
7FE
  5
9F0
331
81D
  5
A0F
331
7DF
  5
9D1
331
83C
  5
A2E
331
8CF
  5
AB0
331
9DE
  5
915
331
9A1
  5
964
331
AA8
  5
7EF
331
944
  5
AF1
331
A53
  5
889
331
963
  5
B10
331
A72
  5
862
331
90E
  5
75D
331
A1D
  5
8FA
331
92D
  5
ADA
331
A34
  5
89D
331
8B1
  5
A99
331
9C0
  5
943
331
8D0
  5
AB1
331
9DF
  5
916
331
892
  5
A7B
331
81E
  5
A10
331
83D
  5
A2F
331
7E0
  5
9D2
331
7FF
  5
9F1
331
854
  5
A44
331
8EF
  5
AA1
331
9FE
  5
8C7
331
982
  5
994
331
A91
  5
7D8
331
AC8
  5
80F
331
964
  5
B11
331
A73
  5
863
331
983
  5
995
331
A92
  5
7D9
331
92E
  5
ADB
331
A35
  5
89F
331
945
  5
AF2
331
A54
  5
88A
331
8D1
  5
AB2
331
9E0
  5
917
331
8F0
  5
AA2
331
9FF
  5
8C8
331
893
  5
A7C
331
8B2
  5
A9A
331
9C1
  5
944
331
855
  5
A45
331
874
  5
A60
331
90F
  5
75E
331
A1E
  5
8FB
331
9A2
  5
965
331
AA9
  5
7F0
331
800
  5
9F2
331
81F
  5
A11
331
7E1
  5
9D3
331
83E
  5
A30
331
AE8
  5
82F
331
984
  5
996
331
A93
  5
7DA
331
9A3
  5
966
331
AAA
  5
7F1
331
946
  5
AF3
331
A55
  5
88B
331
965
  5
B12
331
A74
  5
864
331
910
  5
75F
331
A1F
  5
8FC
331
92F
  5
ADC
331
A36
  5
8A0
331
AC9
  5
810
331
8B3
  5
A9B
331
9C2
  5
945
331
8D2
  5
AB3
331
9E1
  5
918
331
894
  5
A7D
331
820
  5
A12
331
83F
  5
A31
331
7E2
  5
9D4
331
801
  5
9F3
331
856
  5
A46
331
8F1
  5
AA3
331
A00
  5
8C9
331
B08
  5
7BF
331
ACA
  5
811
331
AE9
  5
830
331
966
  5
B13
331
A75
  5
865
331
985
  5
997
331
A94
  5
7DB
331
930
  5
ADD
331
A37
  5
8A1
331
947
  5
AF4
331
A56
  5
88C
331
8D3
  5
AB4
331
9E2
  5
919
331
A01
  5
8D2
331
895
  5
A7E
331
8B4
  5
A9C
331
9C3
  5
946
331
840
  5
A32
331
857
  5
A47
331
802
  5
9F4
331
821
  5
A13
331
7E3
  5
9D5
331
876
  5
A61
331
911
  5
760
331
A20
  5
8FD
331
9A4
  5
967
331
AAB
  5
7F2
331
B20
  5
706
331
AEA
  5
831
331
B09
  5
7C0
331
986
  5
998
331
A95
  5
7DC
331
9A5
  5
968
331
AAC
  5
7F3
331
948
  5
AF5
331
A57
  5
88D
331
967
  5
B14
331
A76
  5
866
331
8F3
  5
AA4
331
A02
  5
8D3
331
912
  5
761
331
A21
  5
902
331
9C4
  5
947
331
8D4
  5
AB5
331
9E3
  5
91A
331
877
  5
A62
331
896
  5
A7F
331
931
  5
ADE
331
A38
  5
8A2
331
ACB
  5
812
331
822
  5
A14
331
841
  5
A33
331
7E4
  5
9D6
331
803
  5
9F5
331
858
  5
A48
331
B0A
  5
70C
331
B21
  5
707
331
9A6
  5
969
331
AAD
  5
7F4
331
ACC
  5
813
331
968
  5
B15
331
A77
  5
867
331
987
  5
999
331
A96
  5
7DD
331
932
  5
ADF
331
A39
  5
8A3
331
949
  5
AF6
331
A58
  5
88E
331
AEB
  5
832
331
8D5
  5
AB6
331
9E4
  5
91B
331
8F4
  5
AA5
331
A03
  5
8D4
331
897
  5
A80
331
9C5
  5
948
331
842
  5
A34
331
859
  5
A49
331
804
  5
9F6
331
823
  5
A15
331
7E5
  5
9D7
331
878
  5
A63
331
913
  5
763
331
A22
  5
903
331
B22
  5
708
331
AEC
  5
833
331
B0B
  5
70D
331
988
  5
99A
331
A97
  5
7DE
331
9A7
  5
96A
331
AAE
  5
7F5
331
94A
  5
AF7
331
A59
  5
876
331
969
  5
B16
331
A78
  5
852
331
A04
  5
8D5
331
914
  5
AC1
331
A23
  5
904
331
8B7
  5
A9D
331
9C6
  5
949
331
9E5
  5
91C
331
879
  5
A64
331
824
  5
A16
331
843
  5
A35
331
7E6
  5
9D8
331
805
  5
9F7
331
898
  5
A81
331
933
  5
AE0
331
A3A
  5
8A4
331
ACD
  5
814
331
B0C
  5
70E
331
B23
  5
709
331
9A8
  5
96B
331
AAF
  5
7F6
331
ACE
  5
815
331
96A
  5
B17
331
A79
  5
854
331
989
  5
99B
331
A98
  5
7DF
331
915
  5
AC2
331
A24
  5
8AC
331
934
  5
AE1
331
A3B
  5
8A5
331
8D7
  5
ABB
331
9E6
  5
91D
331
8F6
  5
AA6
331
A05
  5
8D6
331
899
  5
A82
331
8B8
  5
A9E
331
9C7
  5
94A
331
94B
  5
AF8
331
A5A
  5
877
331
AED
  5
834
331
844
  5
A36
331
806
  5
9F8
331
825
  5
A17
331
7E7
  5
9D9
331
87A
  5
A65
331
B24
  5
6D8
331
ACF
  5
816
331
AEE
  5
835
331
98A
  5
97F
331
A99
  5
7E0
331
9A9
  5
96C
331
AB0
  5
7F7
331
94C
  5
AF9
331
A5B
  5
878
331
96B
  5
B18
331
A7A
  5
855
331
B0D
  5
70F
331
A06
  5
8D7
331
916
  5
AC3
331
A25
  5
8AD
331
9C8
  5
94B
331
8D8
  5
ABC
331
9E7
  5
91E
331
85C
  5
A4A
331
87B
  5
A66
331
826
  5
A18
331
845
  5
A37
331
7E8
  5
9DA
331
807
  5
9F9
331
89A
  5
A83
331
935
  5
AE2
331
A3C
  5
8A6
331
B0E
  5
710
331
B25
  5
6D9
331
9AA
  5
96D
331
AB1
  5
7F8
331
AD0
  5
817
331
96C
  5
B19
331
A7B
  5
856
331
98B
  5
980
331
A9A
  5
7E1
331
917
  5
AC4
331
A26
  5
8AE
331
936
  5
AE3
331
A3D
  5
8A7
331
8D9
  5
ABD
331
9E8
  5
91F
331
8F8
  5
AB7
331
A07
  5
8D8
331
87C
  5
A67
331
89B
  5
A84
331
846
  5
A38
331
85D
  5
A4B
331
808
  5
9FA
331
827
  5
A19
331
9C9
  5
94C
331
94D
  5
AFA
331
A5C
  5
879
331
7E9
  5
9DB
331
AEF
  5
836
331
B26
  5
6DA
331
AD1
  5
818
331
AF0
  5
837
331
98C
  5
981
331
A9B
  5
7E2
331
9AB
  5
96E
331
AB2
  5
7F9
331
937
  5
AE4
331
A3E
  5
8A8
331
94E
  5
AFB
331
A5D
  5
87A
331
8F9
  5
AB8
331
A08
  5
8D9
331
918
  5
AC5
331
A27
  5
8AF
331
9CA
  5
94D
331
8DA
  5
ABE
331
9E9
  5
920
331
96D
  5
B1A
331
A7C
  5
857
331
B0F
  5
711
331
85E
  5
A4C
331
87D
  5
A68
331
828
  5
A1A
331
847
  5
A39
331
7EA
  5
9DC
331
809
  5
9FB
331
89C
  5
A85
331
AF1
  5
838
331
B10
  5
712
331
9AC
  5
96F
331
AB3
  5
7FA
331
AD2
  5
819
331
96E
  5
B1B
331
A7D
  5
858
331
98D
  5
982
331
A9C
  5
7E3
331
B27
  5
6DC
331
919
  5
AC6
331
A28
  5
8B0
331
938
  5
AE5
331
A3F
  5
8A9
331
8DB
  5
ABF
331
9EA
  5
921
331
8FA
  5
AB9
331
A09
  5
8DA
331
87E
  5
A69
331
89D
  5
A86
331
85F
  5
A4D
331
7EB
  5
9DD
331
80A
  5
9FC
331
829
  5
A1B
331
9CB
  5
94E
331
94F
  5
AFC
331
A5E
  5
87B
331
B28
  5
6DD
331
AD3
  5
81A
331
AF2
  5
839
331
98E
  5
983
331
A9D
  5
7E4
331
9AD
  5
970
331
AB4
  5
7FB
331
939
  5
AE6
331
A40
  5
8AA
331
950
  5
AFD
331
A5F
  5
87C
331
A0A
  5
8DB
331
91A
  5
AC7
331
A29
  5
8B1
331
9CC
  5
933
331
860
  5
A4E
331
82A
  5
A1C
331
87F
  5
A6A
331
8DC
  5
AC0
331
9EB
  5
922
331
96F
  5
B1C
331
A7E
  5
859
331
7EC
  5
9DE
331
80B
  5
9FD
331
B11
  5
713
331
AF3
  5
83A
331
B12
  5
714
331
9AE
  5
971
331
AB5
  5
7FC
331
AD4
  5
81B
331
951
  5
AFE
331
A60
  5
87D
331
970
  5
B1D
331
A7F
  5
85C
331
91B
  5
AC8
331
A2A
  5
8B2
331
93A
  5
AE7
331
A41
  5
8AB
331
9EC
  5
923
331
8FC
  5
ABA
331
A0B
  5
8DC
331
98F
  5
984
331
A9E
  5
7E5
331
B29
  5
6DE
331
880
  5
A6B
331
89F
  5
A87
331
861
  5
A4F
331
7ED
  5
9DF
331
80C
  5
9FE
331
82B
  5
A1D
331
8BE
  5
AA7
331
9CD
  5
934
331
B13
  5
715
331
B2A
  5
6DF
331
AD5
  5
81C
331
AF4
  5
83B
331
990
  5
985
331
A9F
  5
7E6
331
9AF
  5
972
331
AB6
  5
7FD
331
93B
  5
AE8
331
A42
  5
890
331
952
  5
AFF
331
A61
  5
87E
331
A0C
  5
8DF
331
91C
  5
AC9
331
A2B
  5
8B3
331
8A0
  5
A88
331
8BF
  5
AA8
331
9CE
  5
935
331
862
  5
A50
331
80D
  5
9FF
331
82C
  5
A1E
331
7EE
  5
9E0
331
881
  5
A6C
331
8DE
  5
B2A
331
9ED
  5
905
331
971
  5
B1E
331
A80
  5
85D
331
AF5
  5
83C
331
B14
  5
726
331
9B0
  5
94F
331
AB7
  5
7FE
331
AD6
  5
81D
331
953
  5
B00
331
A62
  5
87F
331
972
  5
B1F
331
A81
  5
85E
331
91D
  5
ACA
331
A2C
  5
8B4
331
93C
  5
AE9
331
A43
  5
891
331
9CF
  5
936
331
8DF
  5
B2B
331
9EE
  5
906
331
882
  5
A6D
331
8A1
  5
A89
331
863
  5
A51
331
A0D
  5
8E2
331
991
  5
986
331
AA0
  5
7E7
331
7EF
  5
9E1
331
80E
  5
A00
331
82D
  5
A1F
331
B2B
  5
6E0
331
B15
  5
72D
331
B2C
  5
6E1
331
AD7
  5
81E
331
AF6
  5
83D
331
973
  5
B20
331
A82
  5
85F
331
992
  5
987
331
AA1
  5
7E8
331
93D
  5
AEA
331
A44
  5
892
331
954
  5
B01
331
A63
  5
880
331
A0E
  5
8E3
331
91E
  5
ACB
331
A2D
  5
8B7
331
9B1
  5
950
331
AB8
  5
7FF
331
8A2
  5
A8A
331
9D0
  5
937
331
864
  5
A52
331
80F
  5
A01
331
82E
  5
A20
331
883
  5
A6E
331
9EF
  5
907
331
5F8
  5
5F8
331
B2D
  5
6E2
331
AF7
  5
83E
331
B16
  5
72E
331
9B2
  5
951
331
AB9
  5
800
331
AD8
  5
81F
331
955
  5
B02
331
A64
  5
881
331
974
  5
B21
331
A83
  5
860
331
91F
  5
ACC
331
A2E
  5
8B8
331
93E
  5
AEB
331
A45
  5
893
331
9D1
  5
938
331
9F0
  5
908
331
884
  5
A6F
331
8A3
  5
A8B
331
82F
  5
A21
331
865
  5
A53
331
A0F
  5
8E6
331
993
  5
988
331
AA2
  5
7E9
331
618
  5
618
331
5F9
  5
5F9
331
B17
  5
6FC
331
B2E
  5
6E3
331
AD9
  5
820
331
AF8
  5
83F
331
975
  5
B22
331
A84
  5
7CB
331
994
  5
989
331
AA3
  5
7EA
331
93F
  5
AEC
331
A46
  5
894
331
956
  5
B03
331
A65
  5
882
331
8E2
  5
B2C
331
9F1
  5
909
331
A10
  5
8E7
331
8A4
  5
A8C
331
9D2
  5
939
331
866
  5
A54
331
885
  5
A70
331
920
  5
ACD
331
A2F
  5
8BE
331
9B3
  5
952
331
ABA
  5
801
331
638
  5
638
331
5FA
  5
5FA
331
619
  5
619
331
B2F
  5
6E4
331
AF9
  5
840
331
B18
  5
6FE
331
995
  5
98A
331
AA4
  5
7EB
331
9B4
  5
953
331
ABB
  5
802
331
957
  5
B04
331
A66
  5
868
331
976
  5
B23
331
A85
  5
7CC
331
921
  5
ACE
331
A47
  5
895
331
ADA
  5
821
331
9D3
  5
93A
331
8E3
  5
B2D
331
9F2
  5
90A
331
886
  5
A71
331
8A5
  5
A8D
331
867
  5
A55
331
902
  5
74D
331
A11
  5
8E8
  0
LAYOUT
  5
22
102
{ACAD_XDICTIONARY
360
DCB
102
}
102
{ACAD_REACTORS
330
1A
102
}
330
1A
100
AcDbPlotSettings
  1

  2

  4

  6

 40
0.0
 41
0.0
 42
0.0
 43
0.0
 44
0.0
 45
0.0
 46
0.0
 47
0.0
 48
0.0
 49
0.0
140
0.0
141
0.0
142
1.0
143
1.0
 70
  1712
 72
     0
 73
     0
 74
     0
  7

 75
     0
147
1.0
148
0.0
149
0.0
100
AcDbLayout
  1
Model
 70
     1
 71
     0
 10
0.0
 20
0.0
 11
12.0
 21
9.0
 12
0.0
 22
0.0
 32
0.0
 14
0.0
 24
0.0
 34
0.0
 15
0.0
 25
0.0
 35
0.0
146
0.0
 13
0.0
 23
0.0
 33
0.0
 16
1.0
 26
0.0
 36
0.0
 17
0.0
 27
1.0
 37
0.0
 76
     0
330
1F
  0
LAYOUT
  5
1E
102
{ACAD_XDICTIONARY
360
DC9
102
}
102
{ACAD_REACTORS
330
1A
102
}
330
1A
100
AcDbPlotSettings
  1

  2

  4

  6

 40
0.0
 41
0.0
 42
0.0
 43
0.0
 44
0.0
 45
0.0
 46
0.0
 47
0.0
 48
0.0
 49
0.0
140
0.0
141
0.0
142
1.0
143
1.0
 70
   688
 72
     0
 73
     0
 74
     5
  7

 75
    16
147
1.0
148
0.0
149
0.0
100
AcDbLayout
  1
レイアウト1
 70
     1
 71
     1
 10
0.0
 20
0.0
 11
420.0
 21
297.0
 12
0.0
 22
0.0
 32
0.0
 14
1.000000000000000E+20
 24
1.000000000000000E+20
 34
1.000000000000000E+20
 15
-1.000000000000000E+20
 25
-1.000000000000000E+20
 35
-1.000000000000000E+20
146
0.0
 13
0.0
 23
0.0
 33
0.0
 16
1.0
 26
0.0
 36
0.0
 17
0.0
 27
1.0
 37
0.0
 76
     0
330
1B
  0
LAYOUT
  5
26
102
{ACAD_XDICTIONARY
360
DCD
102
}
102
{ACAD_REACTORS
330
1A
102
}
330
1A
100
AcDbPlotSettings
  1

  2

  4

  6

 40
0.0
 41
0.0
 42
0.0
 43
0.0
 44
0.0
 45
0.0
 46
0.0
 47
0.0
 48
0.0
 49
0.0
140
0.0
141
0.0
142
1.0
143
1.0
 70
   688
 72
     0
 73
     0
 74
     5
  7

 75
    16
147
1.0
148
0.0
149
0.0
100
AcDbLayout
  1
レイアウト2
 70
     1
 71
     2
 10
0.0
 20
0.0
 11
12.0
 21
9.0
 12
0.0
 22
0.0
 32
0.0
 14
0.0
 24
0.0
 34
0.0
 15
0.0
 25
0.0
 35
0.0
146
0.0
 13
0.0
 23
0.0
 33
0.0
 16
1.0
 26
0.0
 36
0.0
 17
0.0
 27
1.0
 37
0.0
 76
     0
330
23
  0
MLINESTYLE
  5
18
102
{ACAD_REACTORS
330
17
102
}
330
17
100
AcDbMlineStyle
  2
STANDARD
 70
     0
  3

 62
   256
 51
90.0
 52
90.0
 71
     2
 49
0.5
 62
   256
  6
BYLAYER
 49
-0.5
 62
   256
  6
BYLAYER
  0
ACDBPLACEHOLDER
  5
F
102
{ACAD_REACTORS
330
E
102
}
330
E
  0
TABLESTYLE
  5
11B
102
{ACAD_REACTORS
330
11A
102
}
330
11A
100
AcDbTableStyle
  3
Standard
 70
     0
 71
     0
 40
1.5
 41
1.5
280
     0
281
     0
  7
STANDARD
140
4.5
170
     2
 62
     0
 63
     7
283
     0
274
    -2
284
     1
 64
     0
275
    -2
285
     1
 65
     0
276
    -2
286
     1
 66
     0
277
    -2
287
     1
 67
     0
278
    -2
288
     1
 68
     0
279
    -2
289
     1
 69
     0
  7
STANDARD
140
6.0
170
     5
 62
     0
 63
     7
283
     0
274
    -2
284
     1
 64
     0
275
    -2
285
     1
 65
     0
276
    -2
286
     1
 66
     0
277
    -2
287
     1
 67
     0
278
    -2
288
     1
 68
     0
279
    -2
289
     1
 69
     0
  7
STANDARD
140
4.5
170
     5
 62
     0
 63
     7
283
     0
274
    -2
284
     1
 64
     0
275
    -2
285
     1
 65
     0
276
    -2
286
     1
 66
     0
277
    -2
287
     1
 67
     0
278
    -2
288
     1
 68
     0
279
    -2
289
     1
 69
     0
  0
DICTIONARYVAR
  5
138
102
{ACAD_REACTORS
330
94
102
}
330
94
100
DictionaryVariables
280
     0
  1
STANDARD
  0
DICTIONARYVAR
  5
96
102
{ACAD_REACTORS
330
94
102
}
330
94
100
DictionaryVariables
280
     0
  1
2
  0
DICTIONARYVAR
  5
95
102
{ACAD_REACTORS
330
94
102
}
330
94
100
DictionaryVariables
280
     0
  1
0
  0
DICTIONARYVAR
  5
B3D
102
{ACAD_REACTORS
330
94
102
}
330
94
100
DictionaryVariables
280
     0
  1

  0
DICTIONARY
  5
1B5
102
{ACAD_REACTORS
330
5B
102
}
330
5B
100
AcDbDictionary
281
     1
  0
DICTIONARY
  5
61
102
{ACAD_REACTORS
330
5B
102
}
330
5B
100
AcDbDictionary
281
     1
  0
XRECORD
  5
123
102
{ACAD_REACTORS
330
5B
102
}
330
5B
100
AcDbXrecord
280
     1
 90
-1023410169
  0
DICTIONARY
  5
DCB
330
22
100
AcDbDictionary
280
     1
281
     1
  3
ACAD_XREC_ROUNDTRIP
360
DCC
  0
DICTIONARY
  5
DC9
330
1E
100
AcDbDictionary
280
     1
281
     1
  3
ACAD_XREC_ROUNDTRIP
360
DCA
  0
DICTIONARY
  5
DCD
330
26
100
AcDbDictionary
280
     1
281
     1
  3
ACAD_XREC_ROUNDTRIP
360
DCE
  0
XRECORD
  5
DCC
102
{ACAD_REACTORS
330
DCB
102
}
330
DCB
100
AcDbXrecord
280
     1
102
SHADEPLOT
 70
     0
102
SHADEPLOTRESLEVEL
 70
     2
102
SHADEPLOTCUSTOMDPI
 70
   300
  0
XRECORD
  5
DCA
102
{ACAD_REACTORS
330
DC9
102
}
330
DC9
100
AcDbXrecord
280
     1
102
SHADEPLOT
 70
     0
102
SHADEPLOTRESLEVEL
 70
     2
102
SHADEPLOTCUSTOMDPI
 70
   300
  0
XRECORD
  5
DCE
102
{ACAD_REACTORS
330
DCD
102
}
330
DCD
100
AcDbXrecord
280
     1
102
SHADEPLOT
 70
     0
102
SHADEPLOTRESLEVEL
 70
     2
102
SHADEPLOTCUSTOMDPI
 70
   300
  0
ENDSEC
  0
EOF
