  0
SECTION
  2
HEADER
  9
$ACADVER
  1
AC1015
  9
$ACADMAINTVER
 70
    20
  9
$DWGCODEPAGE
  3
ANSI_932
  9
$INSBASE
 10
0.0
 20
0.0
 30
0.0
  9
$EXTMIN
 10
-2.01287743543844
 20
0.7160346278874386
 30
-0.0015258207003583
  9
$EXTMAX
 10
275.5170296229387
 20
199.0075841955929
 30
0.0000000349246037
  9
$LIMMIN
 10
0.0
 20
0.0
  9
$LIMMAX
 10
420.0
 20
297.0
  9
$ORTHOMODE
 70
     0
  9
$REGENMODE
 70
     1
  9
$FILLMODE
 70
     1
  9
$QTEXTMODE
 70
     0
  9
$MIRRTEXT
 70
     1
  9
$LTSCALE
 40
1.0
  9
$ATTMODE
 70
     1
  9
$TEXTSIZE
 40
1.5
  9
$TRACEWID
 40
1.0
  9
$TEXTSTYLE
  7
COURIER_NEW
  9
$CLAYER
  8
0
  9
$CELTYPE
  6
BYLAYER
  9
$CECOLOR
 62
   256
  9
$CELTSCALE
 40
1.0
  9
$DISPSILH
 70
     0
  9
$DIMSCALE
 40
1.0
  9
$DIMASZ
 40
2.5
  9
$DIMEXO
 40
0.625
  9
$DIMDLI
 40
3.75
  9
$DIMRND
 40
0.0
  9
$DIMDLE
 40
0.0
  9
$DIMEXE
 40
1.25
  9
$DIMTP
 40
0.0
  9
$DIMTM
 40
0.0
  9
$DIMTXT
 40
2.5
  9
$DIMCEN
 40
2.5
  9
$DIMTSZ
 40
0.0
  9
$DIMTOL
 70
     0
  9
$DIMLIM
 70
     0
  9
$DIMTIH
 70
     0
  9
$DIMTOH
 70
     0
  9
$DIMSE1
 70
     0
  9
$DIMSE2
 70
     0
  9
$DIMTAD
 70
     1
  9
$DIMZIN
 70
     8
  9
$DIMBLK
  1

  9
$DIMASO
 70
     1
  9
$DIMSHO
 70
     1
  9
$DIMPOST
  1

  9
$DIMAPOST
  1

  9
$DIMALT
 70
     0
  9
$DIMALTD
 70
     4
  9
$DIMALTF
 40
0.0394
  9
$DIMLFAC
 40
1.0
  9
$DIMTOFL
 70
     1
  9
$DIMTVP
 40
0.0
  9
$DIMTIX
 70
     0
  9
$DIMSOXD
 70
     0
  9
$DIMSAH
 70
     0
  9
$DIMBLK1
  1

  9
$DIMBLK2
  1

  9
$DIMSTYLE
  2
STANDARD
  9
$DIMCLRD
 70
     0
  9
$DIMCLRE
 70
     0
  9
$DIMCLRT
 70
     0
  9
$DIMTFAC
 40
1.0
  9
$DIMGAP
 40
0.625
  9
$DIMJUST
 70
     0
  9
$DIMSD1
 70
     0
  9
$DIMSD2
 70
     0
  9
$DIMTOLJ
 70
     1
  9
$DIMTZIN
 70
     0
  9
$DIMALTZ
 70
     0
  9
$DIMALTTZ
 70
     0
  9
$DIMUPT
 70
     0
  9
$DIMDEC
 70
     4
  9
$DIMTDEC
 70
     4
  9
$DIMALTU
 70
     8
  9
$DIMALTTD
 70
     4
  9
$DIMTXSTY
  7
STANDARD
  9
$DIMAUNIT
 70
     0
  9
$DIMADEC
 70
     0
  9
$DIMALTRND
 40
0.0
  9
$DIMAZIN
 70
     0
  9
$DIMDSEP
 70
    46
  9
$DIMATFIT
 70
     3
  9
$DIMFRAC
 70
     0
  9
$DIMLDRBLK
  1

  9
$DIMLUNIT
 70
     6
  9
$DIMLWD
 70
    -2
  9
$DIMLWE
 70
    -2
  9
$DIMTMOVE
 70
     0
  9
$LUNITS
 70
     2
  9
$LUPREC
 70
     4
  9
$SKETCHINC
 40
1.0
  9
$FILLETRAD
 40
10.0
  9
$AUNITS
 70
     0
  9
$AUPREC
 70
     0
  9
$MENU
  1
acad
  9
$ELEVATION
 40
0.0
  9
$PELEVATION
 40
0.0
  9
$THICKNESS
 40
0.0
  9
$LIMCHECK
 70
     0
  9
$CHAMFERA
 40
10.0
  9
$CHAMFERB
 40
10.0
  9
$CHAMFERC
 40
20.0
  9
$CHAMFERD
 40
0.0
  9
$SKPOLY
 70
     0
  9
$TDCREATE
 40
2451017.441550116
  9
$TDUCREATE
 40
2451017.066550116
  9
$TDUPDATE
 40
2456728.688854468
  9
$TDUUPDATE
 40
2456728.313854468
  9
$TDINDWG
 40
0.0638979282
  9
$TDUSRTIMER
 40
0.0638979282
  9
$USRTIMER
 70
     1
  9
$ANGBASE
 50
0.0
  9
$ANGDIR
 70
     0
  9
$PDMODE
 70
     0
  9
$PDSIZE
 40
0.0
  9
$PLINEWID
 40
0.0
  9
$SPLFRAME
 70
     0
  9
$SPLINETYPE
 70
     6
  9
$SPLINESEGS
 70
     8
  9
$HANDSEED
  5
5BB
  9
$SURFTAB1
 70
     6
  9
$SURFTAB2
 70
     6
  9
$SURFTYPE
 70
     6
  9
$SURFU
 70
     6
  9
$SURFV
 70
     6
  9
$UCSBASE
  2

  9
$UCSNAME
  2

  9
$UCSORG
 10
0.0
 20
0.0
 30
0.0
  9
$UCSXDIR
 10
1.0
 20
0.0
 30
0.0
  9
$UCSYDIR
 10
0.0
 20
1.0
 30
0.0
  9
$UCSORTHOREF
  2

  9
$UCSORTHOVIEW
 70
     0
  9
$UCSORGTOP
 10
0.0
 20
0.0
 30
0.0
  9
$UCSORGBOTTOM
 10
0.0
 20
0.0
 30
0.0
  9
$UCSORGLEFT
 10
0.0
 20
0.0
 30
0.0
  9
$UCSORGRIGHT
 10
0.0
 20
0.0
 30
0.0
  9
$UCSORGFRONT
 10
0.0
 20
0.0
 30
0.0
  9
$UCSORGBACK
 10
0.0
 20
0.0
 30
0.0
  9
$PUCSBASE
  2

  9
$PUCSNAME
  2

  9
$PUCSORG
 10
0.0
 20
0.0
 30
0.0
  9
$PUCSXDIR
 10
1.0
 20
0.0
 30
0.0
  9
$PUCSYDIR
 10
0.0
 20
1.0
 30
0.0
  9
$PUCSORTHOREF
  2

  9
$PUCSORTHOVIEW
 70
     0
  9
$PUCSORGTOP
 10
0.0
 20
0.0
 30
0.0
  9
$PUCSORGBOTTOM
 10
0.0
 20
0.0
 30
0.0
  9
$PUCSORGLEFT
 10
0.0
 20
0.0
 30
0.0
  9
$PUCSORGRIGHT
 10
0.0
 20
0.0
 30
0.0
  9
$PUCSORGFRONT
 10
0.0
 20
0.0
 30
0.0
  9
$PUCSORGBACK
 10
0.0
 20
0.0
 30
0.0
  9
$USERI1
 70
     0
  9
$USERI2
 70
     0
  9
$USERI3
 70
     0
  9
$USERI4
 70
     0
  9
$USERI5
 70
     0
  9
$USERR1
 40
0.0
  9
$USERR2
 40
0.0
  9
$USERR3
 40
0.0
  9
$USERR4
 40
0.0
  9
$USERR5
 40
0.0
  9
$WORLDVIEW
 70
     1
  9
$SHADEDGE
 70
     3
  9
$SHADEDIF
 70
    70
  9
$TILEMODE
 70
     1
  9
$MAXACTVP
 70
    48
  9
$PINSBASE
 10
0.0
 20
0.0
 30
0.0
  9
$PLIMCHECK
 70
     0
  9
$PEXTMIN
 10
1.000000000000000E+20
 20
1.000000000000000E+20
 30
1.000000000000000E+20
  9
$PEXTMAX
 10
-1.000000000000000E+20
 20
-1.000000000000000E+20
 30
-1.000000000000000E+20
  9
$PLIMMIN
 10
0.0
 20
0.0
  9
$PLIMMAX
 10
420.0
 20
297.0
  9
$UNITMODE
 70
     0
  9
$VISRETAIN
 70
     1
  9
$PLINEGEN
 70
     0
  9
$PSLTSCALE
 70
     1
  9
$TREEDEPTH
 70
  3020
  9
$CMLSTYLE
  2
STANDARD
  9
$CMLJUST
 70
     0
  9
$CMLSCALE
 40
20.0
  9
$PROXYGRAPHICS
 70
     1
  9
$MEASUREMENT
 70
     1
  9
$CELWEIGHT
370
    -1
  9
$ENDCAPS
280
     0
  9
$JOINSTYLE
280
     0
  9
$LWDISPLAY
290
     0
  9
$INSUNITS
 70
     0
  9
$HYPERLINKBASE
  1

  9
$STYLESHEET
  1

  9
$XEDIT
290
     1
  9
$CEPSNTYPE
380
     0
  9
$PSTYLEMODE
290
     1
  9
$FINGERPRINTGUID
  2
{EFFC7518-37C4-4A65-9CD4-0BBA4A28514B}
  9
$VERSIONGUID
  2
{35D63DD0-BCD1-42D7-88BC-17A751D4B953}
  9
$EXTNAMES
290
     1
  9
$PSVPSCALE
 40
0.0
  9
$OLESTARTUP
290
     0
  0
ENDSEC
  0
SECTION
  2
CLASSES
  0
CLASS
  1
ACDBDICTIONARYWDFLT
  2
AcDbDictionaryWithDefault
  3
ObjectDBX Classes
 90
        0
280
     0
281
     0
  0
CLASS
  1
MATERIAL
  2
AcDbMaterial
  3
ObjectDBX Classes
 90
     1153
280
     0
281
     0
  0
CLASS
  1
VISUALSTYLE
  2
AcDbVisualStyle
  3
ObjectDBX Classes
 90
     4095
280
     0
281
     0
  0
CLASS
  1
TABLESTYLE
  2
AcDbTableStyle
  3
ObjectDBX Classes
 90
     4095
280
     0
281
     0
  0
CLASS
  1
SCALE
  2
AcDbScale
  3
ObjectDBX Classes
 90
     1153
280
     0
281
     0
  0
CLASS
  1
MLEADERSTYLE
  2
AcDbMLeaderStyle
  3
ACDB_MLEADERSTYLE_CLASS
 90
     4095
280
     0
281
     0
  0
CLASS
  1
CELLSTYLEMAP
  2
AcDbCellStyleMap
  3
ObjectDBX Classes
 90
     1152
280
     0
281
     0
  0
CLASS
  1
DICTIONARYVAR
  2
AcDbDictionaryVar
  3
ObjectDBX Classes
 90
        0
280
     0
281
     0
  0
CLASS
  1
ACDBPLACEHOLDER
  2
AcDbPlaceHolder
  3
ObjectDBX Classes
 90
        0
280
     0
281
     0
  0
CLASS
  1
LAYOUT
  2
AcDbLayout
  3
ObjectDBX Classes
 90
        0
280
     0
281
     0
  0
ENDSEC
  0
SECTION
  2
TABLES
  0
TABLE
  2
VPORT
  5
8
330
0
100
AcDbSymbolTable
 70
     1
  0
VPORT
  5
529
330
8
100
AcDbSymbolTableRecord
100
AcDbViewportTableRecord
  2
*ACTIVE
 70
     0
 10
0.0
 20
0.0
 11
1.0
 21
1.0
 12
253.8395340946774
 22
54.72393079204437
 13
0.0
 23
0.0
 14
0.5
 24
0.5
 15
10.0
 25
10.0
 16
0.0
 26
0.0
 36
1.0
 17
0.0
 27
0.0
 37
0.0
 40
632.3846225290601
 41
1.31768953068592
 42
50.0
 43
0.0
 44
0.0
 50
0.0
 51
0.0
 71
     0
 72
   100
 73
     1
 74
     1
 75
     1
 76
     0
 77
     0
 78
     0
281
     0
 65
     1
110
0.0
120
0.0
130
0.0
111
1.0
121
0.0
131
0.0
112
0.0
122
1.0
132
0.0
 79
     0
146
0.0
  0
ENDTAB
  0
TABLE
  2
LTYPE
  5
5
330
0
100
AcDbSymbolTable
 70
     2
  0
LTYPE
  5
12
330
5
100
AcDbSymbolTableRecord
100
AcDbLinetypeTableRecord
  2
BYBLOCK
 70
     0
  3

 72
    65
 73
     0
 40
0.0
  0
LTYPE
  5
13
330
5
100
AcDbSymbolTableRecord
100
AcDbLinetypeTableRecord
  2
BYLAYER
 70
     0
  3

 72
    65
 73
     0
 40
0.0
  0
LTYPE
  5
14
330
5
100
AcDbSymbolTableRecord
100
AcDbLinetypeTableRecord
  2
CONTINUOUS
 70
     0
  3
Solid line
 72
    65
 73
     0
 40
0.0
  0
LTYPE
  5
1FD
330
5
100
AcDbSymbolTableRecord
100
AcDbLinetypeTableRecord
  2
BORDER
 70
     0
  3
__ __ . __ __ . __ __ . __ __ . __ __ . __ _
 72
    65
 73
     6
 40
1.75
 49
0.5
 74
     0
 49
-0.25
 74
     0
 49
0.5
 74
     0
 49
-0.25
 74
     0
 49
0.0
 74
     0
 49
-0.25
 74
     0
  0
ENDTAB
  0
TABLE
  2
LAYER
  5
2
330
0
100
AcDbSymbolTable
 70
     7
  0
LAYER
  5
E
102
{ACAD_XDICTIONARY
360
587
102
}
330
2
100
AcDbSymbolTableRecord
100
AcDbLayerTableRecord
  2
0
 70
     0
 62
     7
  6
CONTINUOUS
370
    -3
390
52C
  0
LAYER
  5
1FF
102
{ACAD_XDICTIONARY
360
589
102
}
330
2
100
AcDbSymbolTableRecord
100
AcDbLayerTableRecord
  2
100
 70
     0
 62
     6
  6
CONTINUOUS
370
    -3
390
52C
  0
LAYER
  5
200
102
{ACAD_XDICTIONARY
360
58B
102
}
330
2
100
AcDbSymbolTableRecord
100
AcDbLayerTableRecord
  2
原紙枠
 70
     4
 62
     2
  6
CONTINUOUS
370
    -3
390
52C
  0
LAYER
  5
201
102
{ACAD_XDICTIONARY
360
58D
102
}
330
2
100
AcDbSymbolTableRecord
100
AcDbLayerTableRecord
  2
原紙文字
 70
     4
 62
     4
  6
CONTINUOUS
370
    -3
390
52C
  0
LAYER
  5
202
102
{ACAD_XDICTIONARY
360
58F
102
}
330
2
100
AcDbSymbolTableRecord
100
AcDbLayerTableRecord
  2
GRID
 70
     4
 62
    -5
  6
CONTINUOUS
370
    -3
390
52C
  0
LAYER
  5
208
102
{ACAD_XDICTIONARY
360
591
102
}
330
2
100
AcDbSymbolTableRecord
100
AcDbLayerTableRecord
  2
DIM
 70
     0
 62
     4
  6
CONTINUOUS
370
    -3
390
52C
  0
LAYER
  5
20D
102
{ACAD_XDICTIONARY
360
593
102
}
330
2
100
AcDbSymbolTableRecord
100
AcDbLayerTableRecord
  2
COMMENT
 70
     0
 62
     4
  6
CONTINUOUS
370
    -3
390
52C
  0
ENDTAB
  0
TABLE
  2
STYLE
  5
3
330
0
100
AcDbSymbolTable
 70
     5
  0
STYLE
  5
F
330
3
100
AcDbSymbolTableRecord
100
AcDbTextStyleTableRecord
  2
STANDARD
 70
     0
 40
0.0
 41
1.0
 50
0.0
 71
     0
 42
2.5
  3

  4

1001
ACAD
1000
MS Gothic
1071
    32817
  0
STYLE
  5
20E
330
3
100
AcDbSymbolTableRecord
100
AcDbTextStyleTableRecord
  2
SIMPLEX
 70
     0
 40
0.0
 41
1.0
 50
0.0
 71
     0
 42
0.2
  3
SIMPLEX
  4

  0
STYLE
  5
20F
330
3
100
AcDbSymbolTableRecord
100
AcDbTextStyleTableRecord
  2
ＭＳ明朝
 70
     0
 40
0.0
 41
1.0
 50
0.0
 71
     0
 42
1.5
  3

  4

1001
ACAD
1000
MS Mincho
1071
    32785
  0
STYLE
  5
210
330
3
100
AcDbSymbolTableRecord
100
AcDbTextStyleTableRecord
  2
COURIER_NEW
 70
     0
 40
0.0
 41
1.0
 50
0.0
 71
     0
 42
1.5
  3
cour.ttf
  4

1001
ACAD
1000
Courier New
1071
       49
  0
ENDTAB
  0
TABLE
  2
VIEW
  5
6
330
0
100
AcDbSymbolTable
 70
     0
  0
ENDTAB
  0
TABLE
  2
UCS
  5
7
330
0
100
AcDbSymbolTable
 70
     0
  0
ENDTAB
  0
TABLE
  2
APPID
  5
9
330
0
100
AcDbSymbolTable
 70
     5
  0
APPID
  5
10
330
9
100
AcDbSymbolTableRecord
100
AcDbRegAppTableRecord
  2
ACAD
 70
     0
  0
APPID
  5
211
330
9
100
AcDbSymbolTableRecord
100
AcDbRegAppTableRecord
  2
CONTENTTABDATA
 70
     0
  0
APPID
  5
212
330
9
100
AcDbSymbolTableRecord
100
AcDbRegAppTableRecord
  2
CONTENTCURRENTTAB
 70
     0
  0
APPID
  5
57E
330
9
100
AcDbSymbolTableRecord
100
AcDbRegAppTableRecord
  2
ACAD_MLEADERVER
 70
     0
  0
APPID
  5
5A4
330
9
100
AcDbSymbolTableRecord
100
AcDbRegAppTableRecord
  2
ACAD_PSEXT
 70
     0
  0
ENDTAB
  0
TABLE
  2
DIMSTYLE
  5
A
330
0
100
AcDbSymbolTable
 70
     2
100
AcDbDimStyleTable
 71
     1
340
1D
  0
DIMSTYLE
105
1D
330
A
100
AcDbSymbolTableRecord
100
AcDbDimStyleTableRecord
  2
STANDARD
 70
     0
340
F
  0
ENDTAB
  0
TABLE
  2
BLOCK_RECORD
  5
1
330
0
100
AcDbSymbolTable
 70
     3
  0
BLOCK_RECORD
  5
18
330
1
100
AcDbSymbolTableRecord
100
AcDbBlockTableRecord
  2
*MODEL_SPACE
340
581
  0
BLOCK_RECORD
  5
15
330
1
100
AcDbSymbolTableRecord
100
AcDbBlockTableRecord
  2
*PAPER_SPACE
340
582
  0
BLOCK_RECORD
  5
20
330
1
100
AcDbSymbolTableRecord
100
AcDbBlockTableRecord
  2
*X0
340
0
102
{BLKREFS
331
1FA
102
}
  0
BLOCK_RECORD
  5
139
330
1
100
AcDbSymbolTableRecord
100
AcDbBlockTableRecord
  2
JLOGO
340
0
  0
ENDTAB
  0
ENDSEC
  0
SECTION
  2
BLOCKS
  0
BLOCK
  5
19
330
18
100
AcDbEntity
  8
0
100
AcDbBlockBegin
  2
*MODEL_SPACE
 70
     0
 10
0.0
 20
0.0
 30
0.0
  3
*MODEL_SPACE
  1

  0
ENDBLK
  5
1A
330
18
100
AcDbEntity
  8
0
100
AcDbBlockEnd
  0
BLOCK
  5
16
330
15
100
AcDbEntity
 67
     1
  8
0
100
AcDbBlockBegin
  2
*PAPER_SPACE
 70
     0
 10
0.0
 20
0.0
 30
0.0
  3
*PAPER_SPACE
  1

  0
ENDBLK
  5
17
330
15
100
AcDbEntity
 67
     1
  8
0
100
AcDbBlockEnd
  0
BLOCK
  5
137
330
20
100
AcDbEntity
  8
0
100
AcDbBlockBegin
  2
*X0
 70
     1
 10
0.0
 20
0.0
 30
0.0
  3
*X0
  1

  0
LINE
  5
21
330
20
100
AcDbEntity
  8
0
 62
     0
100
AcDbLine
 10
9.100775715553666
 20
0.1205195944845138
 30
0.0
 11
9.413275715553664
 21
0.4330195944845147
 31
0.0
  0
LINE
  5
22
330
20
100
AcDbEntity
  8
0
 62
     0
100
AcDbLine
 10
10.39353619373113
 20
1.413280072661983
 30
0.0
 11
10.88827571555363
 21
1.908019594484477
 31
0.0
  0
LINE
  5
23
330
20
100
AcDbEntity
  8
0
 62
     0
100
AcDbLine
 10
9.807209933521905
 20
0.8269538124527526
 30
0.0
 11
9.963275715553649
 21
0.9830195944844973
 31
0.0
  0
LINE
  5
24
330
20
100
AcDbEntity
  8
0
 62
     0
100
AcDbLine
 10
9.100775715553666
 20
0.3450259975112426
 30
0.0
 11
9.413275715553664
 21
0.6575259975112423
 31
0.0
  0
LINE
  5
25
330
20
100
AcDbEntity
  8
0
 62
     0
100
AcDbLine
 10
10.57577571555363
 20
1.820025997511207
 30
0.0
 11
10.88827571555363
 21
2.132525997511206
 31
0.0
  0
LINE
  5
26
330
20
100
AcDbEntity
  8
0
 62
     0
100
AcDbLine
 10
9.664046430142542
 20
0.9082967121001196
 30
0.0
 11
9.861208601698329
 21
1.105458883655906
 31
0.0
  0
LINE
  5
27
330
20
100
AcDbEntity
  8
0
 62
     0
100
AcDbLine
 10
10.16902979070441
 20
1.413280072661983
 30
0.0
 11
10.3815297907044
 21
1.625780072661974
 31
0.0
  0
LINE
  5
28
330
20
100
AcDbEntity
  8
0
 62
     0
100
AcDbLine
 10
9.100775715553666
 20
0.5695324005379701
 30
0.0
 11
9.413275715553664
 21
0.8820324005379699
 31
0.0
  0
LINE
  5
29
330
20
100
AcDbEntity
  8
0
 62
     0
100
AcDbLine
 10
10.57577571555363
 20
2.044532400537935
 30
0.0
 11
10.88827571555363
 21
2.357032400537933
 31
0.0
  0
LINE
  5
2A
330
20
100
AcDbEntity
  8
0
 62
     0
100
AcDbLine
 10
9.520882926763182
 20
0.9896396117474866
 30
0.0
 11
9.71501838577395
 21
1.183775070758254
 31
0.0
  0
LINE
  5
2B
330
20
100
AcDbEntity
  8
0
 62
     0
100
AcDbLine
 10
9.988275715553653
 20
1.457032400537958
 30
0.0
 11
10.15702338767767
 21
1.625780072661974
 31
0.0
  0
LINE
  5
2C
330
20
100
AcDbEntity
  8
0
 62
     0
100
AcDbLine
 10
8.30751698465094
 20
0.0007800726619749
 30
0.0
 11
8.375775715553643
 21
0.0690388035646781
 31
0.0
  0
LINE
  5
2D
330
20
100
AcDbEntity
  8
0
 62
     0
100
AcDbLine
 10
10.57577571555363
 20
2.269038803564664
 30
0.0
 11
10.75751698465095
 21
2.450780072661984
 31
0.0
  0
LINE
  5
2E
330
20
100
AcDbEntity
  8
0
 62
     0
100
AcDbLine
 10
9.100775715553666
 20
0.7940388035646989
 30
0.0
 11
9.690985887263382
 21
1.384248975274416
 31
0.0
  0
LINE
  5
2F
330
20
100
AcDbEntity
  8
0
 62
     0
100
AcDbLine
 10
8.083010581624209
 20
0.0007800726619749
 30
0.0
 11
8.297539693733146
 21
0.2153091847709087
 31
0.0
  0
LINE
  5
30
330
20
100
AcDbEntity
  8
0
 62
     0
100
AcDbLine
 10
8.907640485413624
 20
0.8254099764513876
 30
0.0
 11
9.84731135225696
 21
1.765080843294724
 31
0.0
  0
LINE
  5
31
330
20
100
AcDbEntity
  8
0
 62
     0
100
AcDbLine
 10
7.858504178597482
 20
0.0007800726619749
 30
0.0
 11
8.152770771860749
 21
0.2950466659252405
 31
0.0
  0
LINE
  5
32
330
20
100
AcDbEntity
  8
0
 62
     0
100
AcDbLine
 10
9.544724824506253
 20
1.687000718570744
 30
0.0
 11
9.87823562115682
 21
2.020511515221312
 31
0.0
  0
LINE
  5
33
330
20
100
AcDbEntity
  8
0
 62
     0
100
AcDbLine
 10
8.70077571555363
 20
0.8430516096181229
 30
0.0
 11
8.947369258044215
 21
1.089645152108707
 31
0.0
  0
LINE
  5
34
330
20
100
AcDbEntity
  8
0
 62
     0
100
AcDbLine
 10
7.633997775570754
 20
0.0007800726619749
 30
0.0
 11
7.834230260701231
 21
0.2010125577924498
 31
0.0
  0
LINE
  5
35
330
20
100
AcDbEntity
  8
0
 62
     0
100
AcDbLine
 10
9.53399777557076
 20
1.90078007266198
 30
0.0
 11
9.733997775570763
 21
2.100780072661983
 31
0.0
  0
LINE
  5
36
330
20
100
AcDbEntity
  8
0
 62
     0
100
AcDbLine
 10
7.844216598871622
 20
0.2109988959628426
 30
0.0
 11
8.038138217384231
 21
0.4049205144754517
 31
0.0
  0
LINE
  5
37
330
20
100
AcDbEntity
  8
0
 62
     0
100
AcDbLine
 10
8.446497775570755
 20
0.8132800726619747
 30
0.0
 11
8.463275715553647
 21
0.8300580126448679
 31
0.0
  0
LINE
  5
38
330
20
100
AcDbEntity
  8
0
 62
     0
100
AcDbLine
 10
7.409491372544024
 20
0.0007800726619749
 30
0.0
 11
7.609723857674501
 21
0.2010125577924498
 31
0.0
  0
LINE
  5
39
330
20
100
AcDbEntity
  8
0
 62
     0
100
AcDbLine
 10
9.309491372544032
 20
1.90078007266198
 30
0.0
 11
9.509491372544031
 21
2.100780072661983
 31
0.0
  0
LINE
  5
3A
330
20
100
AcDbEntity
  8
0
 62
     0
100
AcDbLine
 10
7.750818665101427
 20
0.3421073652193767
 30
0.0
 11
7.953118183364989
 21
0.544406883482939
 31
0.0
  0
LINE
  5
3B
330
20
100
AcDbEntity
  8
0
 62
     0
100
AcDbLine
 10
8.221991372544025
 20
0.8132800726619747
 30
0.0
 11
8.421991372544029
 21
1.013280072661977
 31
0.0
  0
LINE
  5
3C
330
20
100
AcDbEntity
  8
0
 62
     0
100
AcDbLine
 10
7.184984969517296
 20
0.0007800726619749
 30
0.0
 11
7.385217454647772
 21
0.2010125577924498
 31
0.0
  0
LINE
  5
3D
330
20
100
AcDbEntity
  8
0
 62
     0
100
AcDbLine
 10
9.084984969517304
 20
1.90078007266198
 30
0.0
 11
9.425775715553651
 21
2.241570818698329
 31
0.0
  0
LINE
  5
3E
330
20
100
AcDbEntity
  8
0
 62
     0
100
AcDbLine
 10
7.67938831929868
 20
0.4951834224433576
 30
0.0
 11
7.904610987087195
 21
0.7204060902318723
 31
0.0
  0
LINE
  5
3F
330
20
100
AcDbEntity
  8
0
 62
     0
100
AcDbLine
 10
7.997484969517297
 20
0.8132800726619747
 30
0.0
 11
8.197484969517299
 21
1.013280072661977
 31
0.0
  0
LINE
  5
40
330
20
100
AcDbEntity
  8
0
 62
     0
100
AcDbLine
 10
6.960478566490566
 20
0.0007800726619749
 30
0.0
 11
7.160711051621043
 21
0.2010125577924498
 31
0.0
  0
LINE
  5
41
330
20
100
AcDbEntity
  8
0
 62
     0
100
AcDbLine
 10
9.100775715553664
 20
2.141077221725071
 30
0.0
 11
9.397978566490561
 21
2.438280072661967
 31
0.0
  0
LINE
  5
42
330
20
100
AcDbEntity
  8
0
 62
     0
100
AcDbLine
 10
7.635165827732668
 20
0.6754673339040755
 30
0.0
 11
7.972978566490571
 21
1.013280072661977
 31
0.0
  0
LINE
  5
43
330
20
100
AcDbEntity
  8
0
 62
     0
100
AcDbLine
 10
8.860478566490574
 20
1.90078007266198
 30
0.0
 11
9.060478566490575
 21
2.100780072661982
 31
0.0
  0
LINE
  5
44
330
20
100
AcDbEntity
  8
0
 62
     0
100
AcDbLine
 10
6.735972163463839
 20
0.0007800726619749
 30
0.0
 11
6.936204648594315
 21
0.2010125577924498
 31
0.0
  0
LINE
  5
45
330
20
100
AcDbEntity
  8
0
 62
     0
100
AcDbLine
 10
9.100775715553664
 20
2.3655836247518
 30
0.0
 11
9.173472163463832
 21
2.438280072661967
 31
0.0
  0
LINE
  5
46
330
20
100
AcDbEntity
  8
0
 62
     0
100
AcDbLine
 10
7.54847216346384
 20
0.8132800726619748
 30
0.0
 11
7.748472163463842
 21
1.013280072661977
 31
0.0
  0
LINE
  5
47
330
20
100
AcDbEntity
  8
0
 62
     0
100
AcDbLine
 10
8.713275715553649
 20
1.978083624751783
 30
0.0
 11
8.835972163463846
 21
2.100780072661982
 31
0.0
  0
LINE
  5
48
330
20
100
AcDbEntity
  8
0
 62
     0
100
AcDbLine
 10
8.110515220626648
 20
1.375323129824785
 30
0.0
 11
8.307858066472523
 21
1.572665975670659
 31
0.0
  0
LINE
  5
49
330
20
100
AcDbEntity
  8
0
 62
     0
100
AcDbLine
 10
6.51146576043711
 20
0.0007800726619749
 30
0.0
 11
6.711698245567585
 21
0.2010125577924498
 31
0.0
  0
LINE
  5
4A
330
20
100
AcDbEntity
  8
0
 62
     0
100
AcDbLine
 10
8.348965760437117
 20
1.83828007266198
 30
0.0
 11
8.450775715553632
 21
1.940090027778496
 31
0.0
  0
LINE
  5
4B
330
20
100
AcDbEntity
  8
0
 62
     0
100
AcDbLine
 10
7.32396576043711
 20
0.8132800726619748
 30
0.0
 11
7.523965760437112
 21
1.013280072661977
 31
0.0
  0
LINE
  5
4C
330
20
100
AcDbEntity
  8
0
 62
     0
100
AcDbLine
 10
7.88600881759992
 20
1.375323129824785
 30
0.0
 11
8.083351663445794
 21
1.572665975670659
 31
0.0
  0
LINE
  5
4D
330
20
100
AcDbEntity
  8
0
 62
     0
100
AcDbLine
 10
6.28695935741038
 20
0.0007800726619749
 30
0.0
 11
6.487191842540858
 21
0.2010125577924498
 31
0.0
  0
LINE
  5
4E
330
20
100
AcDbEntity
  8
0
 62
     0
100
AcDbLine
 10
8.124459357410389
 20
1.83828007266198
 30
0.0
 11
8.32445935741039
 21
2.038280072661983
 31
0.0
  0
LINE
  5
4F
330
20
100
AcDbEntity
  8
0
 62
     0
100
AcDbLine
 10
7.099459357410382
 20
0.8132800726619748
 30
0.0
 11
7.299459357410385
 21
1.013280072661977
 31
0.0
  0
LINE
  5
50
330
20
100
AcDbEntity
  8
0
 62
     0
100
AcDbLine
 10
7.661502414573191
 20
1.375323129824785
 30
0.0
 11
7.858845260419065
 21
1.572665975670659
 31
0.0
  0
LINE
  5
51
330
20
100
AcDbEntity
  8
0
 62
     0
100
AcDbLine
 10
6.062452954383652
 20
0.0007800726619749
 30
0.0
 11
6.65730439266772
 21
0.5956315109460432
 31
0.0
  0
LINE
  5
52
330
20
100
AcDbEntity
  8
0
 62
     0
100
AcDbLine
 10
7.899952954383659
 20
1.83828007266198
 30
0.0
 11
8.099952954383661
 21
2.038280072661983
 31
0.0
  0
LINE
  5
53
330
20
100
AcDbEntity
  8
0
 62
     0
100
AcDbLine
 10
6.874952954383653
 20
0.8132800726619748
 30
0.0
 11
7.074952954383656
 21
1.013280072661977
 31
0.0
  0
LINE
  5
54
330
20
100
AcDbEntity
  8
0
 62
     0
100
AcDbLine
 10
7.436996011546463
 20
1.375323129824785
 30
0.0
 11
7.634338857392337
 21
1.572665975670659
 31
0.0
  0
LINE
  5
55
330
20
100
AcDbEntity
  8
0
 62
     0
100
AcDbLine
 10
5.900775715553646
 20
0.0636092368586967
 30
0.0
 11
6.126676313830793
 21
0.2895098351358445
 31
0.0
  0
LINE
  5
56
330
20
100
AcDbEntity
  8
0
 62
     0
100
AcDbLine
 10
7.67544655135693
 20
1.83828007266198
 30
0.0
 11
7.875446551356932
 21
2.038280072661983
 31
0.0
  0
LINE
  5
57
330
20
100
AcDbEntity
  8
0
 62
     0
100
AcDbLine
 10
6.318376338892639
 20
0.4812098601976911
 30
0.0
 11
6.850446551356927
 21
1.013280072661977
 31
0.0
  0
LINE
  5
58
330
20
100
AcDbEntity
  8
0
 62
     0
100
AcDbLine
 10
7.212489608519733
 20
1.375323129824785
 30
0.0
 11
7.409832454365608
 21
1.572665975670659
 31
0.0
  0
LINE
  5
59
330
20
100
AcDbEntity
  8
0
 62
     0
100
AcDbLine
 10
6.396826144882931
 20
0.7841660692147105
 30
0.0
 11
6.625940148330197
 21
1.013280072661977
 31
0.0
  0
LINE
  5
5A
330
20
100
AcDbEntity
  8
0
 62
     0
100
AcDbLine
 10
7.463800255378664
 20
1.851140179710445
 30
0.0
 11
7.650940148330203
 21
2.038280072661983
 31
0.0
  0
LINE
  5
5B
330
20
100
AcDbEntity
  8
0
 62
     0
100
AcDbLine
 10
6.987983205493005
 20
1.375323129824785
 30
0.0
 11
7.185326051338879
 21
1.572665975670659
 31
0.0
  0
LINE
  5
5C
330
20
100
AcDbEntity
  8
0
 62
     0
100
AcDbLine
 10
5.434539011802741
 20
0.0463853391612499
 30
0.0
 11
5.560467540182788
 21
0.1723138675412963
 31
0.0
  0
LINE
  5
5D
330
20
100
AcDbEntity
  8
0
 62
     0
100
AcDbLine
 10
7.320482509656635
 20
1.932328837015143
 30
0.0
 11
7.474835483587917
 21
2.086681810946425
 31
0.0
  0
LINE
  5
5E
330
20
100
AcDbEntity
  8
0
 62
     0
100
AcDbLine
 10
6.201433745303467
 20
0.8132800726619748
 30
0.0
 11
6.40143374530347
 21
1.013280072661977
 31
0.0
  0
LINE
  5
5F
330
20
100
AcDbEntity
  8
0
 62
     0
100
AcDbLine
 10
6.763476802466276
 20
1.375323129824785
 30
0.0
 11
6.96081964831215
 21
1.572665975670659
 31
0.0
  0
LINE
  5
60
330
20
100
AcDbEntity
  8
0
 62
     0
100
AcDbLine
 10
5.283375854064364
 20
0.1197285844496019
 30
0.0
 11
5.465248007711629
 21
0.3016007380968666
 31
0.0
  0
LINE
  5
61
330
20
100
AcDbEntity
  8
0
 62
     0
100
AcDbLine
 10
7.210962511015274
 20
2.047315241400513
 30
0.0
 11
7.358847505054544
 21
2.195200235439783
 31
0.0
  0
LINE
  5
62
330
20
100
AcDbEntity
  8
0
 62
     0
100
AcDbLine
 10
5.976927342276738
 20
0.8132800726619748
 30
0.0
 11
6.176927342276741
 21
1.013280072661977
 31
0.0
  0
LINE
  5
63
330
20
100
AcDbEntity
  8
0
 62
     0
100
AcDbLine
 10
6.538970399439548
 20
1.375323129824785
 30
0.0
 11
6.736313245285422
 21
1.572665975670659
 31
0.0
  0
LINE
  5
64
330
20
100
AcDbEntity
  8
0
 62
     0
100
AcDbLine
 10
5.145854765629221
 20
0.2067138990411883
 30
0.0
 11
5.325172045816678
 21
0.3860311792286458
 31
0.0
  0
LINE
  5
65
330
20
100
AcDbEntity
  8
0
 62
     0
100
AcDbLine
 10
6.777420939250013
 20
1.83828007266198
 30
0.0
 11
7.292721920668696
 21
2.353581054080662
 31
0.0
  0
LINE
  5
66
330
20
100
AcDbEntity
  8
0
 62
     0
100
AcDbLine
 10
5.825775715553629
 20
0.8866348489655969
 30
0.0
 11
5.952420939250011
 21
1.013280072661977
 31
0.0
  0
LINE
  5
67
330
20
100
AcDbEntity
  8
0
 62
     0
100
AcDbLine
 10
6.314463996412817
 20
1.375323129824785
 30
0.0
 11
6.511806842258692
 21
1.572665975670659
 31
0.0
  0
LINE
  5
68
330
20
100
AcDbEntity
  8
0
 62
     0
100
AcDbLine
 10
5.020981355513528
 20
0.3063468919522236
 30
0.0
 11
5.201713965080191
 21
0.4870795015188869
 31
0.0
  0
LINE
  5
69
330
20
100
AcDbEntity
  8
0
 62
     0
100
AcDbLine
 10
7.033289221852577
 20
2.318654758291273
 30
0.0
 11
7.177914536223276
 21
2.463280072661973
 31
0.0
  0
LINE
  5
6A
330
20
100
AcDbEntity
  8
0
 62
     0
100
AcDbLine
 10
6.08995759338609
 20
1.375323129824785
 30
0.0
 11
6.287300439231963
 21
1.572665975670659
 31
0.0
  0
LINE
  5
6B
330
20
100
AcDbEntity
  8
0
 62
     0
100
AcDbLine
 10
6.552914536223286
 20
1.83828007266198
 30
0.0
 11
6.752914536223288
 21
2.038280072661983
 31
0.0
  0
LINE
  5
6C
330
20
100
AcDbEntity
  8
0
 62
     0
100
AcDbLine
 10
4.908295480311925
 20
0.4181674197773494
 30
0.0
 11
5.09416799403596
 21
0.6040399335013851
 31
0.0
  0
LINE
  5
6D
330
20
100
AcDbEntity
  8
0
 62
     0
100
AcDbLine
 10
6.328408133196556
 20
1.83828007266198
 30
0.0
 11
6.528408133196558
 21
2.038280072661983
 31
0.0
  0
LINE
  5
6E
330
20
100
AcDbEntity
  8
0
 62
     0
100
AcDbLine
 10
5.899220603797415
 20
1.409092543262839
 30
0.0
 11
6.062794036205235
 21
1.572665975670659
 31
0.0
  0
LINE
  5
6F
330
20
100
AcDbEntity
  8
0
 62
     0
100
AcDbLine
 10
4.80778176819926
 20
0.5421601106914123
 30
0.0
 11
5.002825554359662
 21
0.7372038968518151
 31
0.0
  0
LINE
  5
70
330
20
100
AcDbEntity
  8
0
 62
     0
100
AcDbLine
 10
6.103901730169828
 20
1.83828007266198
 30
0.0
 11
6.30390173016983
 21
2.038280072661983
 31
0.0
  0
LINE
  5
71
330
20
100
AcDbEntity
  8
0
 62
     0
100
AcDbLine
 10
4.18385355046117
 20
0.1427382959800514
 30
0.0
 11
4.310122267173083
 21
0.2690070126919652
 31
0.0
  0
LINE
  5
72
330
20
100
AcDbEntity
  8
0
 62
     0
100
AcDbLine
 10
5.879395327143098
 20
1.83828007266198
 30
0.0
 11
6.079395327143101
 21
2.038280072661983
 31
0.0
  0
LINE
  5
73
330
20
100
AcDbEntity
  8
0
 62
     0
100
AcDbLine
 10
4.719866763987249
 20
0.6787515095061315
 30
0.0
 11
4.929073174838062
 21
0.8879579203569452
 31
0.0
  0
LINE
  5
74
330
20
100
AcDbEntity
  8
0
 62
     0
100
AcDbLine
 10
3.817388924116364
 20
0.0007800726619749
 30
0.0
 11
4.453687200410772
 21
0.6370783489563829
 31
0.0
  0
LINE
  5
75
330
20
100
AcDbEntity
  8
0
 62
     0
100
AcDbLine
 10
5.825775715553629
 20
2.009166864099239
 30
0.0
 11
5.854888924116372
 21
2.038280072661983
 31
0.0
  0
LINE
  5
76
330
20
100
AcDbEntity
  8
0
 62
     0
100
AcDbLine
 10
4.645501364285504
 20
0.8288925128311152
 30
0.0
 11
4.875921554367773
 21
1.059312702913383
 31
0.0
  0
LINE
  5
77
330
20
100
AcDbEntity
  8
0
 62
     0
100
AcDbLine
 10
3.592882521089635
 20
0.0007800726619749
 30
0.0
 11
3.825775715553629
 21
0.2336732671259688
 31
0.0
  0
LINE
  5
78
330
20
100
AcDbEntity
  8
0
 62
     0
100
AcDbLine
 10
5.417882521089638
 20
1.825780072661977
 30
0.0
 11
5.538275715553663
 21
1.946173267126002
 31
0.0
  0
LINE
  5
79
330
20
100
AcDbEntity
  8
0
 62
     0
100
AcDbLine
 10
4.21948288222315
 20
0.627380433795489
 30
0.0
 11
4.230382521089638
 21
0.6382800726619778
 31
0.0
  0
LINE
  5
7A
330
20
100
AcDbEntity
  8
0
 62
     0
100
AcDbLine
 10
4.586369400230545
 20
0.9942669518028854
 30
0.0
 11
4.850775715553664
 21
1.258673267126003
 31
0.0
  0
LINE
  5
7B
330
20
100
AcDbEntity
  8
0
 62
     0
100
AcDbLine
 10
3.368376118062907
 20
0.0007800726619749
 30
0.0
 11
3.825775715553629
 21
0.4581796701526971
 31
0.0
  0
LINE
  5
7C
330
20
100
AcDbEntity
  8
0
 62
     0
100
AcDbLine
 10
5.19337611806291
 20
1.825780072661977
 30
0.0
 11
5.405876118062916
 21
2.038280072661983
 31
0.0
  0
LINE
  5
7D
330
20
100
AcDbEntity
  8
0
 62
     0
100
AcDbLine
 10
4.545347235045203
 20
1.177751189644271
 30
0.0
 11
4.850775715553664
 21
1.483179670152732
 31
0.0
  0
LINE
  5
7E
330
20
100
AcDbEntity
  8
0
 62
     0
100
AcDbLine
 10
3.143869715036177
 20
0.0007800726619749
 30
0.0
 11
3.356369715036184
 21
0.2132800726619806
 31
0.0
  0
LINE
  5
7F
330
20
100
AcDbEntity
  8
0
 62
     0
100
AcDbLine
 10
5.430786616320856
 20
2.287696973946651
 30
0.0
 11
5.552602075549698
 21
2.409512433175494
 31
0.0
  0
LINE
  5
80
330
20
100
AcDbEntity
  8
0
 62
     0
100
AcDbLine
 10
3.51327571555363
 20
0.3701860731794266
 30
0.0
 11
3.825775715553629
 21
0.6826860731794259
 31
0.0
  0
LINE
  5
81
330
20
100
AcDbEntity
  8
0
 62
     0
100
AcDbLine
 10
4.968869715036181
 20
1.825780072661977
 30
0.0
 11
5.181369715036186
 21
2.038280072661983
 31
0.0
  0
LINE
  5
82
330
20
100
AcDbEntity
  8
0
 62
     0
100
AcDbLine
 10
4.538275715553663
 20
1.39518607317946
 30
0.0
 11
4.850775715553664
 21
1.707686073179461
 31
0.0
  0
LINE
  5
83
330
20
100
AcDbEntity
  8
0
 62
     0
100
AcDbLine
 10
3.075775715553629
 20
0.157192476206155
 30
0.0
 11
3.131863312009455
 21
0.2132800726619806
 31
0.0
  0
LINE
  5
84
330
20
100
AcDbEntity
  8
0
 62
     0
100
AcDbLine
 10
5.206280213294126
 20
2.287696973946651
 30
0.0
 11
5.406482815337772
 21
2.487899575990297
 31
0.0
  0
LINE
  5
85
330
20
100
AcDbEntity
  8
0
 62
     0
100
AcDbLine
 10
3.51327571555363
 20
0.5946924762061557
 30
0.0
 11
3.825775715553629
 21
0.9071924762061549
 31
0.0
  0
LINE
  5
86
330
20
100
AcDbEntity
  8
0
 62
     0
100
AcDbLine
 10
4.538275715553663
 20
1.619692476206189
 30
0.0
 11
4.956863312009458
 21
2.038280072661983
 31
0.0
  0
LINE
  5
87
330
20
100
AcDbEntity
  8
0
 62
     0
100
AcDbLine
 10
4.106863312009449
 20
1.188280072661974
 30
0.0
 11
4.225775715553663
 21
1.307192476206188
 31
0.0
  0
LINE
  5
88
330
20
100
AcDbEntity
  8
0
 62
     0
100
AcDbLine
 10
2.751916103075454
 20
0.0578392667547076
 30
0.0
 11
2.850775715553664
 21
0.1566988792329179
 31
0.0
  0
LINE
  5
89
330
20
100
AcDbEntity
  8
0
 62
     0
100
AcDbLine
 10
5.12800553737601
 20
2.433928701055264
 30
0.0
 11
5.181976412311043
 21
2.487899575990297
 31
0.0
  0
LINE
  5
8A
330
20
100
AcDbEntity
  8
0
 62
     0
100
AcDbLine
 10
3.51327571555363
 20
0.8191988792328842
 30
0.0
 11
3.825775715553629
 21
1.131698879232883
 31
0.0
  0
LINE
  5
8B
330
20
100
AcDbEntity
  8
0
 62
     0
100
AcDbLine
 10
4.519856908982723
 20
1.825780072661977
 30
0.0
 11
4.838275715553646
 21
2.1441988792329
 31
0.0
  0
LINE
  5
8C
330
20
100
AcDbEntity
  8
0
 62
     0
100
AcDbLine
 10
3.88235690898272
 20
1.188280072661974
 30
0.0
 11
4.082356908982723
 21
1.388280072661977
 31
0.0
  0
LINE
  5
8D
330
20
100
AcDbEntity
  8
0
 62
     0
100
AcDbLine
 10
2.621586952178523
 20
0.152016518884506
 30
0.0
 11
2.784003909595091
 21
0.314433476301075
 31
0.0
  0
LINE
  5
8E
330
20
100
AcDbEntity
  8
0
 62
     0
100
AcDbLine
 10
4.538275715553663
 20
2.068705282259647
 30
0.0
 11
4.838275715553646
 21
2.368705282259629
 31
0.0
  0
LINE
  5
8F
330
20
100
AcDbEntity
  8
0
 62
     0
100
AcDbLine
 10
3.51327571555363
 20
1.043705282259613
 30
0.0
 11
3.857850505955994
 21
1.388280072661977
 31
0.0
  0
LINE
  5
90
330
20
100
AcDbEntity
  8
0
 62
     0
100
AcDbLine
 10
4.295350505955994
 20
1.825780072661977
 30
0.0
 11
4.507850505956
 21
2.038280072661983
 31
0.0
  0
LINE
  5
91
330
20
100
AcDbEntity
  8
0
 62
     0
100
AcDbLine
 10
2.517942896289548
 20
0.2728788660222613
 30
0.0
 11
2.696515409730604
 21
0.4514513794633168
 31
0.0
  0
LINE
  5
92
330
20
100
AcDbEntity
  8
0
 62
     0
100
AcDbLine
 10
4.538275715553663
 20
2.293211685286376
 30
0.0
 11
4.733344102929266
 21
2.488280072661979
 31
0.0
  0
LINE
  5
93
330
20
100
AcDbEntity
  8
0
 62
     0
100
AcDbLine
 10
3.433344102929261
 20
1.188280072661974
 30
0.0
 11
3.633344102929265
 21
1.388280072661977
 31
0.0
  0
LINE
  5
94
330
20
100
AcDbEntity
  8
0
 62
     0
100
AcDbLine
 10
4.070844102929266
 20
1.825780072661977
 30
0.0
 11
4.283344102929271
 21
2.038280072661983
 31
0.0
  0
LINE
  5
95
330
20
100
AcDbEntity
  8
0
 62
     0
100
AcDbLine
 10
2.021337699902534
 20
0.0007800726619749
 30
0.0
 11
2.200775715553629
 21
0.1802180883130707
 31
0.0
  0
LINE
  5
96
330
20
100
AcDbEntity
  8
0
 62
     0
100
AcDbLine
 10
3.846337699902536
 20
1.825780072661977
 30
0.0
 11
4.058837699902543
 21
2.038280072661983
 31
0.0
  0
LINE
  5
97
330
20
100
AcDbEntity
  8
0
 62
     0
100
AcDbLine
 10
2.442568254010052
 20
0.4220106267694927
 30
0.0
 11
2.642109473096193
 21
0.621551845855635
 31
0.0
  0
LINE
  5
98
330
20
100
AcDbEntity
  8
0
 62
     0
100
AcDbLine
 10
3.208837699902534
 20
1.188280072661974
 30
0.0
 11
3.408837699902536
 21
1.388280072661977
 31
0.0
  0
LINE
  5
99
330
20
100
AcDbEntity
  8
0
 62
     0
100
AcDbLine
 10
1.888275715553629
 20
0.0922244913397993
 30
0.0
 11
2.200775715553629
 21
0.4047244913397992
 31
0.0
  0
LINE
  5
9A
330
20
100
AcDbEntity
  8
0
 62
     0
100
AcDbLine
 10
3.621831296875808
 20
1.825780072661977
 30
0.0
 11
3.834331296875814
 21
2.038280072661983
 31
0.0
  0
LINE
  5
9B
330
20
100
AcDbEntity
  8
0
 62
     0
100
AcDbLine
 10
2.406353732899574
 20
0.610302508685744
 30
0.0
 11
2.612881273685867
 21
0.8168300494720369
 31
0.0
  0
LINE
  5
9C
330
20
100
AcDbEntity
  8
0
 62
     0
100
AcDbLine
 10
3.163275715553663
 20
1.367224491339833
 30
0.0
 11
3.184331296875808
 21
1.388280072661977
 31
0.0
  0
LINE
  5
9D
330
20
100
AcDbEntity
  8
0
 62
     0
100
AcDbLine
 10
1.888275715553629
 20
0.3167308943665282
 30
0.0
 11
2.200775715553629
 21
0.6292308943665281
 31
0.0
  0
LINE
  5
9E
330
20
100
AcDbEntity
  8
0
 62
     0
100
AcDbLine
 10
3.397324893849079
 20
1.825780072661977
 30
0.0
 11
3.609824893849085
 21
2.038280072661983
 31
0.0
  0
LINE
  5
9F
330
20
100
AcDbEntity
  8
0
 62
     0
100
AcDbLine
 10
2.37801295999686
 20
0.8064681388097591
 30
0.0
 11
2.59043063338319
 21
1.018885812196089
 31
0.0
  0
LINE
  5
A0
330
20
100
AcDbEntity
  8
0
 62
     0
100
AcDbLine
 10
2.759824893849077
 20
1.188280072661975
 30
0.0
 11
2.850775715553663
 21
1.279230894366562
 31
0.0
  0
LINE
  5
A1
330
20
100
AcDbEntity
  8
0
 62
     0
100
AcDbLine
 10
1.442158449081581
 20
0.0951200309212086
 30
0.0
 11
1.57963217280871
 21
0.232593754648337
 31
0.0
  0
LINE
  5
A2
330
20
100
AcDbEntity
  8
0
 62
     0
100
AcDbLine
 10
3.172818490822351
 20
1.825780072661977
 30
0.0
 11
3.385318490822356
 21
2.038280072661983
 31
0.0
  0
LINE
  5
A3
330
20
100
AcDbEntity
  8
0
 62
     0
100
AcDbLine
 10
1.888275715553629
 20
0.541237297393257
 30
0.0
 11
2.200775715553629
 21
0.8537372973932569
 31
0.0
  0
LINE
  5
A4
330
20
100
AcDbEntity
  8
0
 62
     0
100
AcDbLine
 10
2.349672187094147
 20
1.002633768933774
 30
0.0
 11
2.735318490822351
 21
1.388280072661977
 31
0.0
  0
LINE
  5
A5
330
20
100
AcDbEntity
  8
0
 62
     0
100
AcDbLine
 10
1.175775715553652
 20
0.0532437004200084
 30
0.0
 11
1.707641622493141
 21
0.5851096073594979
 31
0.0
  0
LINE
  5
A6
330
20
100
AcDbEntity
  8
0
 62
     0
100
AcDbLine
 10
3.075775715553629
 20
1.953243700419985
 30
0.0
 11
3.160812087795627
 21
2.038280072661983
 31
0.0
  0
LINE
  5
A7
330
20
100
AcDbEntity
  8
0
 62
     0
100
AcDbLine
 10
1.888275715553629
 20
0.7657437004199861
 30
0.0
 11
2.200775715553629
 21
1.078243700419985
 31
0.0
  0
LINE
  5
A8
330
20
100
AcDbEntity
  8
0
 62
     0
100
AcDbLine
 10
2.310812087795618
 20
1.188280072661974
 30
0.0
 11
2.510812087795621
 21
1.388280072661977
 31
0.0
  0
LINE
  5
A9
330
20
100
AcDbEntity
  8
0
 62
     0
100
AcDbLine
 10
1.435267152920713
 20
0.5372415408137985
 30
0.0
 11
1.742661274529742
 21
0.8446356624228268
 31
0.0
  0
LINE
  5
AA
330
20
100
AcDbEntity
  8
0
 62
     0
100
AcDbLine
 10
2.731631083395935
 20
1.83360547128902
 30
0.0
 11
2.838275715553647
 21
1.940250103446732
 31
0.0
  0
LINE
  5
AB
330
20
100
AcDbEntity
  8
0
 62
     0
100
AcDbLine
 10
1.888275715553629
 20
0.9902501034467146
 30
0.0
 11
2.286305684768892
 21
1.388280072661977
 31
0.0
  0
LINE
  5
AC
330
20
100
AcDbEntity
  8
0
 62
     0
100
AcDbLine
 10
0.6742992817421614
 20
0.0007800726619749
 30
0.0
 11
0.8257757155536296
 21
0.1522565064734432
 31
0.0
  0
LINE
  5
AD
330
20
100
AcDbEntity
  8
0
 62
     0
100
AcDbLine
 10
2.507124680369206
 20
1.83360547128902
 30
0.0
 11
2.725823036966616
 21
2.052303827886429
 31
0.0
  0
LINE
  5
AE
330
20
100
AcDbEntity
  8
0
 62
     0
100
AcDbLine
 10
1.48115177538973
 20
0.8076325663095438
 30
0.0
 11
1.767606430421591
 21
1.094087221341405
 31
0.0
  0
LINE
  5
AF
330
20
100
AcDbEntity
  8
0
 62
     0
100
AcDbLine
 10
1.849299281742172
 20
1.175780072661986
 30
0.0
 11
2.200775715553629
 21
1.527256506473442
 31
0.0
  0
LINE
  5
B0
330
20
100
AcDbEntity
  8
0
 62
     0
100
AcDbLine
 10
0.5007757155536411
 20
0.0517629095001834
 30
0.0
 11
0.8257757155536296
 21
0.3767629095001721
 31
0.0
  0
LINE
  5
B1
330
20
100
AcDbEntity
  8
0
 62
     0
100
AcDbLine
 10
2.282618277342477
 20
1.83360547128902
 30
0.0
 11
2.501316633939886
 21
2.052303827886429
 31
0.0
  0
LINE
  5
B2
330
20
100
AcDbEntity
  8
0
 62
     0
100
AcDbLine
 10
1.155235155292631
 20
0.706222349239174
 30
0.0
 11
1.238275715553652
 21
0.789262909500195
 31
0.0
  0
LINE
  5
B3
330
20
100
AcDbEntity
  8
0
 62
     0
100
AcDbLine
 10
1.888275715553629
 20
1.439262909500172
 30
0.0
 11
2.200775715553629
 21
1.751762909500171
 31
0.0
  0
LINE
  5
B4
330
20
100
AcDbEntity
  8
0
 62
     0
100
AcDbLine
 10
1.512118175807197
 20
1.063105369753739
 30
0.0
 11
1.837292878715435
 21
1.388280072661977
 31
0.0
  0
LINE
  5
B5
330
20
100
AcDbEntity
  8
0
 62
     0
100
AcDbLine
 10
0.5007757155536411
 20
0.2762693125269122
 30
0.0
 11
0.8257757155536296
 21
0.6012693125269009
 31
0.0
  0
LINE
  5
B6
330
20
100
AcDbEntity
  8
0
 62
     0
100
AcDbLine
 10
1.888275715553629
 20
1.6637693125269
 30
0.0
 11
2.276810230913158
 21
2.052303827886429
 31
0.0
  0
LINE
  5
B7
330
20
100
AcDbEntity
  8
0
 62
     0
100
AcDbLine
 10
1.031756633627928
 20
0.8072502306011998
 30
0.0
 11
1.18478950723844
 21
0.960283104211712
 31
0.0
  0
LINE
  5
B8
330
20
100
AcDbEntity
  8
0
 62
     0
100
AcDbLine
 10
1.400286475688715
 20
1.175780072661986
 30
0.0
 11
1.612786475688706
 21
1.388280072661977
 31
0.0
  0
LINE
  5
B9
330
20
100
AcDbEntity
  8
0
 62
     0
100
AcDbLine
 10
0.5007757155536411
 20
0.5007757155536411
 30
0.0
 11
0.8257757155536296
 21
0.8257757155536296
 31
0.0
  0
LINE
  5
BA
330
20
100
AcDbEntity
  8
0
 62
     0
100
AcDbLine
 10
1.835129177619022
 20
1.835129177619022
 30
0.0
 11
2.200775715553629
 21
2.200775715553629
 31
0.0
  0
LINE
  5
BB
330
20
100
AcDbEntity
  8
0
 62
     0
100
AcDbLine
 10
0.9082781119632256
 20
0.9082781119632256
 30
0.0
 11
1.065294163691952
 21
1.065294163691952
 31
0.0
  0
LINE
  5
BC
330
20
100
AcDbEntity
  8
0
 62
     0
100
AcDbLine
 10
1.175780072661986
 20
1.175780072661986
 30
0.0
 11
1.388280072661977
 21
1.388280072661977
 31
0.0
  0
LINE
  5
BD
330
20
100
AcDbEntity
  8
0
 62
     0
100
AcDbLine
 10
0.5007757155536411
 20
0.7252821185803699
 30
0.0
 11
0.9457988201454645
 21
1.170305223172193
 31
0.0
  0
LINE
  5
BE
330
20
100
AcDbEntity
  8
0
 62
     0
100
AcDbLine
 10
1.88827571555363
 20
2.112782118580358
 30
0.0
 11
2.200775715553629
 21
2.425282118580358
 31
0.0
  0
LINE
  5
BF
330
20
100
AcDbEntity
  8
0
 62
     0
100
AcDbLine
 10
1.161211095879082
 20
1.385717498905811
 30
0.0
 11
1.163773669635248
 21
1.388280072661977
 31
0.0
  0
LINE
  5
C0
330
20
100
AcDbEntity
  8
0
 62
     0
100
AcDbLine
 10
1.610622774592293
 20
1.835129177619022
 30
0.0
 11
1.8277974248597
 21
2.052303827886429
 31
0.0
  0
LINE
  5
C1
330
20
100
AcDbEntity
  8
0
 62
     0
100
AcDbLine
 10
1.377143865311155
 20
1.601650268337884
 30
0.0
 11
1.533256280854114
 21
1.757762683880843
 31
0.0
  0
LINE
  5
C2
330
20
100
AcDbEntity
  8
0
 62
     0
100
AcDbLine
 10
0.000775715553641
 20
0.4497885216070987
 30
0.0
 11
0.3399833069626248
 21
0.7889961130160824
 31
0.0
  0
LINE
  5
C3
330
20
100
AcDbEntity
  8
0
 62
     0
100
AcDbLine
 10
1.88827571555363
 20
2.337288521607087
 30
0.0
 11
2.039267266608521
 21
2.488280072661979
 31
0.0
  0
LINE
  5
C4
330
20
100
AcDbEntity
  8
0
 62
     0
100
AcDbLine
 10
0.5007757155536411
 20
0.9497885216070987
 30
0.0
 11
0.8263034765989763
 21
1.275316282652434
 31
0.0
  0
LINE
  5
C5
330
20
100
AcDbEntity
  8
0
 62
     0
100
AcDbLine
 10
1.163275715553663
 20
1.612288521607121
 30
0.0
 11
1.617148046028672
 21
2.06616085208213
 31
0.0
  0
LINE
  5
C6
330
20
100
AcDbEntity
  8
0
 62
     0
100
AcDbLine
 10
0.1702449755824023
 20
0.8437641846625886
 30
0.0
 11
0.3763426271620097
 21
1.049861836242196
 31
0.0
  0
LINE
  5
C7
330
20
100
AcDbEntity
  8
0
 62
     0
100
AcDbLine
 10
1.391751096954478
 20
2.065270306034665
 30
0.0
 11
1.653358756194274
 21
2.32687796527446
 31
0.0
  0
LINE
  5
C8
330
20
100
AcDbEntity
  8
0
 62
     0
100
AcDbLine
 10
0.5007757155536411
 20
1.174294924633827
 30
0.0
 11
0.8257757155536296
 21
1.499294924633816
 31
0.0
  0
LINE
  5
C9
330
20
100
AcDbEntity
  8
0
 62
     0
100
AcDbLine
 10
0.2262332696990799
 20
1.124258881805995
 30
0.0
 11
0.8257757155536296
 21
1.723801327660544
 31
0.0
  0
LINE
  5
CA
330
20
100
AcDbEntity
  8
0
 62
     0
100
AcDbLine
 10
1.428157540688536
 20
2.326183152795451
 30
0.0
 11
1.590254460555064
 21
2.488280072661979
 31
0.0
  0
LINE
  5
CB
330
20
100
AcDbEntity
  8
0
 62
     0
100
AcDbLine
 10
0.9402544605550653
 20
1.83828007266198
 30
0.0
 11
1.088275715553646
 21
1.986301327660561
 31
0.0
  0
LINE
  5
CC
330
20
100
AcDbEntity
  8
0
 62
     0
100
AcDbLine
 10
0.2584068107207251
 20
1.380938825854369
 30
0.0
 11
0.9288840870125078
 21
2.051416102146151
 31
0.0
  0
LINE
  5
CD
330
20
100
AcDbEntity
  8
0
 62
     0
100
AcDbLine
 10
0.2905288576597476
 20
1.63756727582012
 30
0.0
 11
0.8257306480493186
 21
2.172769066209692
 31
0.0
  0
LINE
  5
CE
330
20
100
AcDbEntity
  8
0
 62
     0
100
AcDbLine
 10
0.2667352514748788
 20
1.83828007266198
 30
0.0
 11
0.4792352514748845
 21
2.050780072661986
 31
0.0
  0
LINE
  5
CF
330
20
100
AcDbEntity
  8
0
 62
     0
100
AcDbLine
 10
0.5007757155536411
 20
2.072320536740742
 30
0.0
 11
0.8257306480493186
 21
2.39727546923642
 31
0.0
  0
LINE
  5
D0
330
20
100
AcDbEntity
  8
0
 62
     0
100
AcDbLine
 10
0.0422288484481499
 20
1.83828007266198
 30
0.0
 11
0.2547288484481559
 21
2.050780072661986
 31
0.0
  0
LINE
  5
D1
330
20
100
AcDbEntity
  8
0
 62
     0
100
AcDbLine
 10
0.5007757155536411
 20
2.296826939767471
 30
0.0
 11
0.6922288484481484
 21
2.488280072661979
 31
0.0
  0
LINE
  5
D2
330
20
100
AcDbEntity
  8
0
 62
     0
100
AcDbLine
 10
0.0132757155536297
 20
2.033833342794188
 30
0.0
 11
0.0302224454214273
 21
2.050780072661986
 31
0.0
  0
LINE
  5
D3
330
20
100
AcDbEntity
  8
0
 62
     0
100
AcDbLine
 10
9.205542596757856
 20
0.0007800726619749
 30
0.0
 11
9.413275715553664
 21
0.2085131914577834
 31
0.0
  0
LINE
  5
D4
330
20
100
AcDbEntity
  8
0
 62
     0
100
AcDbLine
 10
10.57577571555363
 20
1.37101319145775
 30
0.0
 11
10.88827571555363
 21
1.683513191457748
 31
0.0
  0
LINE
  5
D5
330
20
100
AcDbEntity
  8
0
 62
     0
100
AcDbLine
 10
9.950373436901267
 20
0.7456109128053847
 30
0.0
 11
9.963275715553649
 21
0.7585131914577668
 31
0.0
  0
LINE
  5
D6
330
20
100
AcDbEntity
  8
0
 62
     0
100
AcDbLine
 10
10.57577571555363
 20
1.146506788431022
 30
0.0
 11
11.05504899978458
 21
1.625780072661974
 31
0.0
  0
LINE
  5
D7
330
20
100
AcDbEntity
  8
0
 62
     0
100
AcDbLine
 10
12.48000879222009
 20
3.050739865097487
 30
0.0
 11
12.51754899978458
 21
3.088280072661973
 31
0.0
  0
LINE
  5
D8
330
20
100
AcDbEntity
  8
0
 62
     0
100
AcDbLine
 10
10.57577571555363
 20
0.9220003854042925
 30
0.0
 11
10.88827571555363
 21
1.234500385404291
 31
0.0
  0
LINE
  5
D9
330
20
100
AcDbEntity
  8
0
 62
     0
100
AcDbLine
 10
12.20204848371084
 20
2.548273153561503
 30
0.0
 11
12.74205540281131
 21
3.088280072661973
 31
0.0
  0
LINE
  5
DA
330
20
100
AcDbEntity
  8
0
 62
     0
100
AcDbLine
 10
11.06705540281132
 20
1.413280072661983
 30
0.0
 11
11.27955540281131
 21
1.625780072661974
 31
0.0
  0
LINE
  5
DB
330
20
100
AcDbEntity
  8
0
 62
     0
100
AcDbLine
 10
9.900775715553647
 20
0.0224939823775806
 30
0.0
 11
10.07906180583804
 21
0.2007800726619777
 31
0.0
  0
LINE
  5
DC
330
20
100
AcDbEntity
  8
0
 62
     0
100
AcDbLine
 10
12.37906180583803
 20
2.500780072661967
 30
0.0
 11
12.96656180583804
 21
3.088280072661973
 31
0.0
  0
LINE
  5
DD
330
20
100
AcDbEntity
  8
0
 62
     0
100
AcDbLine
 10
10.57577571555363
 20
0.6974939823775653
 30
0.0
 11
10.88827571555363
 21
1.009993982377563
 31
0.0
  0
LINE
  5
DE
330
20
100
AcDbEntity
  8
0
 62
     0
100
AcDbLine
 10
11.29156180583805
 20
1.413280072661983
 30
0.0
 11
11.43827571555364
 21
1.559993982377574
 31
0.0
  0
LINE
  5
DF
330
20
100
AcDbEntity
  8
0
 62
     0
100
AcDbLine
 10
10.09106820886478
 20
-0.0117199273380138
 30
0.0
 11
10.30356820886477
 21
0.2007800726619777
 31
0.0
  0
LINE
  5
E0
330
20
100
AcDbEntity
  8
0
 62
     0
100
AcDbLine
 10
12.60356820886477
 20
2.500780072661967
 30
0.0
 11
13.19106820886477
 21
3.088280072661973
 31
0.0
  0
LINE
  5
E1
330
20
100
AcDbEntity
  8
0
 62
     0
100
AcDbLine
 10
10.57577571555363
 20
0.4729875793508338
 30
0.0
 11
10.88827571555363
 21
0.7854875793508328
 31
0.0
  0
LINE
  5
E2
330
20
100
AcDbEntity
  8
0
 62
     0
100
AcDbLine
 10
10.31557461189151
 20
-0.0117199273380138
 30
0.0
 11
10.5280746118915
 21
0.2007800726619777
 31
0.0
  0
LINE
  5
E3
330
20
100
AcDbEntity
  8
0
 62
     0
100
AcDbLine
 10
12.82807461189149
 20
2.500780072661967
 30
0.0
 11
13.4155746118915
 21
3.088280072661973
 31
0.0
  0
LINE
  5
E4
330
20
100
AcDbEntity
  8
0
 62
     0
100
AcDbLine
 10
10.57577571555363
 20
0.2484811763241064
 30
0.0
 11
10.88827571555363
 21
0.5609811763241056
 31
0.0
  0
LINE
  5
E5
330
20
100
AcDbEntity
  8
0
 62
     0
100
AcDbLine
 10
12.15077571555364
 20
1.823481176324122
 30
0.0
 11
12.24057461189151
 21
1.913280072661983
 31
0.0
  0
LINE
  5
E6
330
20
100
AcDbEntity
  8
0
 62
     0
100
AcDbLine
 10
10.54008101491824
 20
-0.0117199273380138
 30
0.0
 11
10.88827571555363
 21
0.3364747732973765
 31
0.0
  0
LINE
  5
E7
330
20
100
AcDbEntity
  8
0
 62
     0
100
AcDbLine
 10
13.05258101491822
 20
2.500780072661967
 30
0.0
 11
13.64008101491823
 21
3.088280072661973
 31
0.0
  0
LINE
  5
E8
330
20
100
AcDbEntity
  8
0
 62
     0
100
AcDbLine
 10
12.15077571555364
 20
1.598974773297394
 30
0.0
 11
12.46508101491824
 21
1.913280072661983
 31
0.0
  0
LINE
  5
E9
330
20
100
AcDbEntity
  8
0
 62
     0
100
AcDbLine
 10
10.76458741794497
 20
-0.0117199273380138
 30
0.0
 11
10.97708741794496
 21
0.2007800726619777
 31
0.0
  0
LINE
  5
EA
330
20
100
AcDbEntity
  8
0
 62
     0
100
AcDbLine
 10
13.27708741794495
 20
2.500780072661967
 30
0.0
 11
13.86458741794496
 21
3.088280072661973
 31
0.0
  0
LINE
  5
EB
330
20
100
AcDbEntity
  8
0
 62
     0
100
AcDbLine
 10
12.15077571555364
 20
1.374468370270663
 30
0.0
 11
12.68958741794496
 21
1.913280072661983
 31
0.0
  0
LINE
  5
EC
330
20
100
AcDbEntity
  8
0
 62
     0
100
AcDbLine
 10
10.9890938209717
 20
-0.0117199273380138
 30
0.0
 11
11.20159382097169
 21
0.2007800726619777
 31
0.0
  0
LINE
  5
ED
330
20
100
AcDbEntity
  8
0
 62
     0
100
AcDbLine
 10
13.50159382097168
 20
2.500780072661967
 30
0.0
 11
14.08909382097168
 21
3.088280072661973
 31
0.0
  0
LINE
  5
EE
330
20
100
AcDbEntity
  8
0
 62
     0
100
AcDbLine
 10
12.33909382097169
 20
1.33828007266198
 30
0.0
 11
12.91409382097169
 21
1.913280072661983
 31
0.0
  0
LINE
  5
EF
330
20
100
AcDbEntity
  8
0
 62
     0
100
AcDbLine
 10
11.21360022399843
 20
-0.0117199273380138
 30
0.0
 11
11.42610022399842
 21
0.2007800726619777
 31
0.0
  0
LINE
  5
F0
330
20
100
AcDbEntity
  8
0
 62
     0
100
AcDbLine
 10
13.72610022399841
 20
2.500780072661967
 30
0.0
 11
14.31360022399841
 21
3.088280072661973
 31
0.0
  0
LINE
  5
F1
330
20
100
AcDbEntity
  8
0
 62
     0
100
AcDbLine
 10
12.56360022399842
 20
1.33828007266198
 30
0.0
 11
13.13860022399842
 21
1.913280072661983
 31
0.0
  0
LINE
  5
F2
330
20
100
AcDbEntity
  8
0
 62
     0
100
AcDbLine
 10
11.43810662702515
 20
-0.0117199273380138
 30
0.0
 11
11.51327571555363
 21
0.0634491611904618
 31
0.0
  0
LINE
  5
F3
330
20
100
AcDbEntity
  8
0
 62
     0
100
AcDbLine
 10
13.92577571555365
 20
2.475949161190486
 30
0.0
 11
14.53810662702514
 21
3.088280072661973
 31
0.0
  0
LINE
  5
F4
330
20
100
AcDbEntity
  8
0
 62
     0
100
AcDbLine
 10
12.78810662702515
 20
1.33828007266198
 30
0.0
 11
13.36310662702515
 21
1.913280072661983
 31
0.0
  0
LINE
  5
F5
330
20
100
AcDbEntity
  8
0
 62
     0
100
AcDbLine
 10
13.01261303005188
 20
1.33828007266198
 30
0.0
 11
13.58761303005188
 21
1.913280072661983
 31
0.0
  0
LINE
  5
F6
330
20
100
AcDbEntity
  8
0
 62
     0
100
AcDbLine
 10
13.92577571555365
 20
2.251442758163756
 30
0.0
 11
14.76261303005187
 21
3.088280072661973
 31
0.0
  0
LINE
  5
F7
330
20
100
AcDbEntity
  8
0
 62
     0
100
AcDbLine
 10
13.23711943307861
 20
1.33828007266198
 30
0.0
 11
13.81211943307861
 21
1.913280072661983
 31
0.0
  0
LINE
  5
F8
330
20
100
AcDbEntity
  8
0
 62
     0
100
AcDbLine
 10
13.92577571555365
 20
2.026936355137028
 30
0.0
 11
14.99437486079283
 21
3.095535500376202
 31
0.0
  0
LINE
  5
F9
330
20
100
AcDbEntity
  8
0
 62
     0
100
AcDbLine
 10
12.27159080191049
 20
0.1482450384671376
 30
0.0
 11
12.71162583610533
 21
0.5882800726619806
 31
0.0
  0
LINE
  5
FA
330
20
100
AcDbEntity
  8
0
 62
     0
100
AcDbLine
 10
13.46162583610533
 20
1.33828007266198
 30
0.0
 11
15.26612278687025
 21
3.142777023426898
 31
0.0
  0
LINE
  5
FB
330
20
100
AcDbEntity
  8
0
 62
     0
100
AcDbLine
 10
12.33613223913207
 20
-0.0117199273380138
 30
0.0
 11
12.93613223913206
 21
0.5882800726619806
 31
0.0
  0
LINE
  5
FC
330
20
100
AcDbEntity
  8
0
 62
     0
100
AcDbLine
 10
14.86287518752506
 20
2.515023021054982
 30
0.0
 11
15.58533372740372
 21
3.237481560933642
 31
0.0
  0
LINE
  5
FD
330
20
100
AcDbEntity
  8
0
 62
     0
100
AcDbLine
 10
13.68613223913206
 20
1.33828007266198
 30
0.0
 11
14.82577571555363
 21
2.477923549083545
 31
0.0
  0
LINE
  5
FE
330
20
100
AcDbEntity
  8
0
 62
     0
100
AcDbLine
 10
12.5606386421588
 20
-0.0117199273380138
 30
0.0
 11
13.16063864215879
 21
0.5882800726619806
 31
0.0
  0
LINE
  5
FF
330
20
100
AcDbEntity
  8
0
 62
     0
100
AcDbLine
 10
15.10491272393492
 20
2.532554154438107
 30
0.0
 11
15.93827571555364
 21
3.36591714605683
 31
0.0
  0
LINE
  5
100
330
20
100
AcDbEntity
  8
0
 62
     0
100
AcDbLine
 10
13.91063864215879
 20
1.33828007266198
 30
0.0
 11
14.82577571555363
 21
2.253417146056816
 31
0.0
  0
LINE
  5
101
330
20
100
AcDbEntity
  8
0
 62
     0
100
AcDbLine
 10
12.78514504518553
 20
-0.0117199273380138
 30
0.0
 11
13.38514504518552
 21
0.5882800726619806
 31
0.0
  0
LINE
  5
102
330
20
100
AcDbEntity
  8
0
 62
     0
100
AcDbLine
 10
15.3919948956705
 20
2.595129923146958
 30
0.0
 11
15.93827571555364
 21
3.141410743030102
 31
0.0
  0
LINE
  5
103
330
20
100
AcDbEntity
  8
0
 62
     0
100
AcDbLine
 10
13.92577571555365
 20
1.128910743030111
 30
0.0
 11
14.82577571555363
 21
2.028910743030087
 31
0.0
  0
LINE
  5
104
330
20
100
AcDbEntity
  8
0
 62
     0
100
AcDbLine
 10
13.00965144821226
 20
-0.0117199273380138
 30
0.0
 11
13.60965144821225
 21
0.5882800726619806
 31
0.0
  0
LINE
  5
105
330
20
100
AcDbEntity
  8
0
 62
     0
100
AcDbLine
 10
15.78625840832402
 20
2.764887032773756
 30
0.0
 11
15.93827571555364
 21
2.916904340003373
 31
0.0
  0
LINE
  5
106
330
20
100
AcDbEntity
  8
0
 62
     0
100
AcDbLine
 10
13.92577571555365
 20
0.904404340003383
 30
0.0
 11
14.93465144821225
 21
1.913280072661983
 31
0.0
  0
LINE
  5
107
330
20
100
AcDbEntity
  8
0
 62
     0
100
AcDbLine
 10
13.23415785123899
 20
-0.0117199273380138
 30
0.0
 11
15.15915785123898
 21
1.913280072661983
 31
0.0
  0
LINE
  5
108
330
20
100
AcDbEntity
  8
0
 62
     0
100
AcDbLine
 10
13.45866425426571
 20
-0.0117199273380138
 30
0.0
 11
15.38366425426571
 21
1.913280072661983
 31
0.0
  0
LINE
  5
109
330
20
100
AcDbEntity
  8
0
 62
     0
100
AcDbLine
 10
13.68317065729244
 20
-0.0117199273380138
 30
0.0
 11
14.82577571555363
 21
1.130885130923174
 31
0.0
  0
LINE
  5
10A
330
20
100
AcDbEntity
  8
0
 62
     0
100
AcDbLine
 10
15.03317065729244
 20
1.33828007266198
 30
0.0
 11
15.60817065729244
 21
1.913280072661983
 31
0.0
  0
LINE
  5
10B
330
20
100
AcDbEntity
  8
0
 62
     0
100
AcDbLine
 10
13.90767706031917
 20
-0.0117199273380138
 30
0.0
 11
14.82652450114274
 21
0.9071275134855559
 31
0.0
  0
LINE
  5
10C
330
20
100
AcDbEntity
  8
0
 62
     0
100
AcDbLine
 10
15.25767706031917
 20
1.33828007266198
 30
0.0
 11
15.83267706031916
 21
1.913280072661983
 31
0.0
  0
LINE
  5
10D
330
20
100
AcDbEntity
  8
0
 62
     0
100
AcDbLine
 10
14.16026249226849
 20
0.0163591015845772
 30
0.0
 11
14.79519542237482
 21
0.651292031690905
 31
0.0
  0
LINE
  5
10E
330
20
100
AcDbEntity
  8
0
 62
     0
100
AcDbLine
 10
15.48218346334589
 20
1.33828007266198
 30
0.0
 11
15.96327571555364
 21
1.819372324869727
 31
0.0
  0
LINE
  5
10F
330
20
100
AcDbEntity
  8
0
 62
     0
100
AcDbLine
 10
15.70668986637262
 20
1.33828007266198
 30
0.0
 11
15.96327571555364
 21
1.594865921842999
 31
0.0
  0
LINE
  5
110
330
20
100
AcDbEntity
  8
0
 62
     0
100
AcDbLine
 10
15.93119626939935
 20
1.33828007266198
 30
0.0
 11
15.96327571555364
 21
1.370359518816273
 31
0.0
  0
LINE
  5
111
330
20
100
AcDbEntity
  8
0
 62
     0
100
AcDbLine
 10
17.80077571555365
 20
3.207859518816278
 30
0.0
 11
17.95619626939935
 21
3.363280072661979
 31
0.0
  0
LINE
  5
112
330
20
100
AcDbEntity
  8
0
 62
     0
100
AcDbLine
 10
17.80077571555365
 20
2.98335311578955
 30
0.0
 11
18.18070267242608
 21
3.363280072661979
 31
0.0
  0
LINE
  5
113
330
20
100
AcDbEntity
  8
0
 62
     0
100
AcDbLine
 10
15.62053629021827
 20
0.5786072874274351
 30
0.0
 11
15.63020907545281
 21
0.5882800726619806
 31
0.0
  0
LINE
  5
114
330
20
100
AcDbEntity
  8
0
 62
     0
100
AcDbLine
 10
17.80077571555365
 20
2.758846712762822
 30
0.0
 11
18.40520907545281
 21
3.363280072661979
 31
0.0
  0
LINE
  5
115
330
20
100
AcDbEntity
  8
0
 62
     0
100
AcDbLine
 10
15.35521054118669
 20
0.088775135369132
 30
0.0
 11
15.85471547847953
 21
0.5882800726619806
 31
0.0
  0
LINE
  5
116
330
20
100
AcDbEntity
  8
0
 62
     0
100
AcDbLine
 10
17.80077571555365
 20
2.534340309736092
 30
0.0
 11
18.62971547847954
 21
3.363280072661979
 31
0.0
  0
LINE
  5
117
330
20
100
AcDbEntity
  8
0
 62
     0
100
AcDbLine
 10
15.47922188150627
 20
-0.0117199273380138
 30
0.0
 11
16.07922188150627
 21
0.5882800726619806
 31
0.0
  0
LINE
  5
118
330
20
100
AcDbEntity
  8
0
 62
     0
100
AcDbLine
 10
17.80077571555365
 20
2.309833906709363
 30
0.0
 11
18.70077571555363
 21
3.209833906709344
 31
0.0
  0
LINE
  5
119
330
20
100
AcDbEntity
  8
0
 62
     0
100
AcDbLine
 10
15.703728284533
 20
-0.0117199273380138
 30
0.0
 11
16.303728284533
 21
0.5882800726619806
 31
0.0
  0
LINE
  5
11A
330
20
100
AcDbEntity
  8
0
 62
     0
100
AcDbLine
 10
17.80077571555365
 20
2.085327503682635
 30
0.0
 11
18.70077571555363
 21
2.985327503682615
 31
0.0
  0
LINE
  5
11B
330
20
100
AcDbEntity
  8
0
 62
     0
100
AcDbLine
 10
15.92823468755973
 20
-0.0117199273380138
 30
0.0
 11
16.52823468755972
 21
0.5882800726619806
 31
0.0
  0
LINE
  5
11C
330
20
100
AcDbEntity
  8
0
 62
     0
100
AcDbLine
 10
17.80077571555365
 20
1.860821100655907
 30
0.0
 11
18.70077571555363
 21
2.760821100655888
 31
0.0
  0
LINE
  5
11D
330
20
100
AcDbEntity
  8
0
 62
     0
100
AcDbLine
 10
16.15274109058646
 20
-0.0117199273380138
 30
0.0
 11
16.75274109058645
 21
0.5882800726619806
 31
0.0
  0
LINE
  5
11E
330
20
100
AcDbEntity
  8
0
 62
     0
100
AcDbLine
 10
17.80077571555365
 20
1.636314697629179
 30
0.0
 11
18.70077571555363
 21
2.536314697629161
 31
0.0
  0
LINE
  5
11F
330
20
100
AcDbEntity
  8
0
 62
     0
100
AcDbLine
 10
16.37724749361318
 20
-0.0117199273380138
 30
0.0
 11
16.97724749361318
 21
0.5882800726619806
 31
0.0
  0
LINE
  5
120
330
20
100
AcDbEntity
  8
0
 62
     0
100
AcDbLine
 10
17.80077571555365
 20
1.411808294602449
 30
0.0
 11
18.70077571555363
 21
2.311808294602431
 31
0.0
  0
LINE
  5
121
330
20
100
AcDbEntity
  8
0
 62
     0
100
AcDbLine
 10
16.60175389663991
 20
-0.0117199273380138
 30
0.0
 11
17.20045010235006
 21
0.5869762783721258
 31
0.0
  0
LINE
  5
122
330
20
100
AcDbEntity
  8
0
 62
     0
100
AcDbLine
 10
17.80125783892376
 20
1.187784014945828
 30
0.0
 11
18.70077571555363
 21
2.087301891575703
 31
0.0
  0
LINE
  5
123
330
20
100
AcDbEntity
  8
0
 62
     0
100
AcDbLine
 10
16.82626029966664
 20
-0.0117199273380138
 30
0.0
 11
17.49468246680281
 21
0.6567022397981531
 31
0.0
  0
LINE
  5
124
330
20
100
AcDbEntity
  8
0
 62
     0
100
AcDbLine
 10
17.73153187749773
 20
0.8935516504930724
 30
0.0
 11
18.70077571555363
 21
1.862795488548974
 31
0.0
  0
LINE
  5
125
330
20
100
AcDbEntity
  8
0
 62
     0
100
AcDbLine
 10
17.05076670269338
 20
-0.0117199273380138
 30
0.0
 11
18.70077571555363
 21
1.638289085522246
 31
0.0
  0
LINE
  5
126
330
20
100
AcDbEntity
  8
0
 62
     0
100
AcDbLine
 10
17.2752731057201
 20
-0.0117199273380138
 30
0.0
 11
18.70091059116904
 21
1.413917558110924
 31
0.0
  0
LINE
  5
127
330
20
100
AcDbEntity
  8
0
 62
     0
100
AcDbLine
 10
19.09599263258617
 20
1.808999599528052
 30
0.0
 11
19.29988444939114
 21
2.012891416333026
 31
0.0
  0
LINE
  5
128
330
20
100
AcDbEntity
  8
0
 62
     0
100
AcDbLine
 10
17.50674941745495
 20
-0.0047500186298901
 30
0.0
 11
18.68853677260651
 21
1.177037336521665
 31
0.0
  0
LINE
  5
129
330
20
100
AcDbEntity
  8
0
 62
     0
100
AcDbLine
 10
19.09599263258617
 20
1.584493196501323
 30
0.0
 11
19.52439085241787
 21
2.012891416333026
 31
0.0
  0
LINE
  5
12A
330
20
100
AcDbEntity
  8
0
 62
     0
100
AcDbLine
 10
17.80847476606757
 20
0.0724689269559979
 30
0.0
 11
18.61131782702062
 21
0.8753119879090467
 31
0.0
  0
LINE
  5
12B
330
20
100
AcDbEntity
  8
0
 62
     0
100
AcDbLine
 10
19.15686970131694
 20
1.420863862205365
 30
0.0
 11
19.7488972554446
 21
2.012891416333026
 31
0.0
  0
LINE
  5
12C
330
20
100
AcDbEntity
  8
0
 62
     0
100
AcDbLine
 10
19.38137610434366
 20
1.420863862205365
 30
0.0
 11
19.97340365847133
 21
2.012891416333026
 31
0.0
  0
LINE
  5
12D
330
20
100
AcDbEntity
  8
0
 62
     0
100
AcDbLine
 10
19.6058825073704
 20
1.420863862205365
 30
0.0
 11
20.19791006149806
 21
2.012891416333026
 31
0.0
  0
LINE
  5
12E
330
20
100
AcDbEntity
  8
0
 62
     0
100
AcDbLine
 10
19.83038891039712
 20
1.420863862205365
 30
0.0
 11
20.42241646452479
 21
2.012891416333026
 31
0.0
  0
LINE
  5
12F
330
20
100
AcDbEntity
  8
0
 62
     0
100
AcDbLine
 10
20.05489531342385
 20
1.420863862205365
 30
0.0
 11
20.64692286755152
 21
2.012891416333026
 31
0.0
  0
LINE
  5
130
330
20
100
AcDbEntity
  8
0
 62
     0
100
AcDbLine
 10
20.27940171645058
 20
1.420863862205365
 30
0.0
 11
20.87142927057824
 21
2.012891416333026
 31
0.0
  0
LINE
  5
131
330
20
100
AcDbEntity
  8
0
 62
     0
100
AcDbLine
 10
20.50390811947731
 20
1.420863862205365
 30
0.0
 11
21.09593567360497
 21
2.012891416333026
 31
0.0
  0
LINE
  5
132
330
20
100
AcDbEntity
  8
0
 62
     0
100
AcDbLine
 10
20.72841452250404
 20
1.420863862205365
 30
0.0
 11
21.3204420766317
 21
2.012891416333026
 31
0.0
  0
LINE
  5
133
330
20
100
AcDbEntity
  8
0
 62
     0
100
AcDbLine
 10
20.95292092553077
 20
1.420863862205365
 30
0.0
 11
21.54494847965843
 21
2.012891416333026
 31
0.0
  0
LINE
  5
134
330
20
100
AcDbEntity
  8
0
 62
     0
100
AcDbLine
 10
21.1774273285575
 20
1.420863862205365
 30
0.0
 11
21.76875657842943
 21
2.012193112077298
 31
0.0
  0
LINE
  5
135
330
20
100
AcDbEntity
  8
0
 62
     0
100
AcDbLine
 10
21.40193373158423
 20
1.420863862205365
 30
0.0
 11
21.76875657842943
 21
1.787686709050567
 31
0.0
  0
LINE
  5
136
330
20
100
AcDbEntity
  8
0
 62
     0
100
AcDbLine
 10
21.62644013461096
 20
1.420863862205365
 30
0.0
 11
21.76875657842943
 21
1.563180306023837
 31
0.0
  0
ENDBLK
  5
138
330
20
100
AcDbEntity
  8
0
100
AcDbBlockEnd
  0
BLOCK
  5
1FB
330
139
100
AcDbEntity
  8
0
100
AcDbBlockBegin
  2
JLOGO
 70
     0
 10
0.0
 20
0.0
 30
0.0
  3
JLOGO
  1

  0
ARC
  5
13A
330
139
100
AcDbEntity
  8
原紙文字
100
AcDbCircle
 10
0.6049410839905063
 20
1.61085587760112
 30
0.0
 40
0.3155448412842113
100
AcDbArc
 50
133.8848074402765
 51
175.3389261929414
1001
ACAD
1000
ASC_BOUNDS
1002
{
1070
    19
1005
1FA
1002
}
  0
LINE
  5
13B
330
139
100
AcDbEntity
  8
原紙文字
  6
Continuous
100
AcDbLine
 10
12.15077571555364
 20
1.913280072661983
 30
0.0
 11
13.92577571555365
 21
1.913280072661983
 31
0.0
1001
ACAD
1000
ASC_BOUNDS
1002
{
1070
    19
1005
1FA
1002
}
  0
LINE
  5
13C
330
139
100
AcDbEntity
  8
原紙文字
  6
Continuous
100
AcDbLine
 10
13.92577571555365
 20
1.913280072661983
 30
0.0
 11
13.92577571555365
 21
2.500780072661967
 31
0.0
1001
ACAD
1000
ASC_BOUNDS
1002
{
1070
    19
1005
1FA
1002
}
  0
LINE
  5
13D
330
139
100
AcDbEntity
  8
原紙文字
  6
Continuous
100
AcDbLine
 10
13.92577571555365
 20
2.500780072661967
 30
0.0
 11
12.17577571555365
 21
2.500780072661967
 31
0.0
1001
ACAD
1000
ASC_BOUNDS
1002
{
1070
    19
1005
1FA
1002
}
  0
LINE
  5
13E
330
139
100
AcDbEntity
  8
原紙文字
  6
Continuous
100
AcDbLine
 10
12.17577571555365
 20
2.500780072661967
 30
0.0
 11
12.50077571555364
 21
3.088280072661973
 31
0.0
1001
ACAD
1000
ASC_BOUNDS
1002
{
1070
    19
1005
1FA
1002
}
  0
LINE
  5
13F
330
139
100
AcDbEntity
  8
原紙文字
  6
Continuous
100
AcDbLine
 10
12.50077571555364
 20
3.088280072661973
 30
0.0
 11
14.92644189941921
 21
3.088280072661973
 31
0.0
1001
ACAD
1000
ASC_BOUNDS
1002
{
1070
    19
1005
1FA
1002
}
  0
LINE
  5
140
330
139
100
AcDbEntity
  8
原紙文字
  6
Continuous
100
AcDbLine
 10
15.93827571555364
 20
3.397676865302634
 30
0.0
 11
15.93827571555364
 21
2.86198539259241
 31
0.0
1001
ACAD
1000
ASC_BOUNDS
1002
{
1070
    19
1005
1FA
1002
}
  0
LINE
  5
141
330
139
100
AcDbEntity
  8
原紙文字
  6
Continuous
100
AcDbLine
 10
14.82577571555363
 20
2.515093014847671
 30
0.0
 11
14.82577571555363
 21
1.913280072661983
 31
0.0
1001
ACAD
1000
ASC_BOUNDS
1002
{
1070
    19
1005
1FA
1002
}
  0
LINE
  5
142
330
139
100
AcDbEntity
  8
原紙文字
  6
Continuous
100
AcDbLine
 10
14.82577571555363
 20
1.913280072661983
 30
0.0
 11
15.96327571555364
 21
1.913280072661983
 31
0.0
1001
ACAD
1000
ASC_BOUNDS
1002
{
1070
    19
1005
1FA
1002
}
  0
LINE
  5
143
330
139
100
AcDbEntity
  8
原紙文字
  6
Continuous
100
AcDbLine
 10
15.96327571555364
 20
1.913280072661983
 30
0.0
 11
15.96327571555365
 21
1.33828007266198
 31
0.0
1001
ACAD
1000
ASC_BOUNDS
1002
{
1070
    19
1005
1FA
1002
}
  0
LINE
  5
144
330
139
100
AcDbEntity
  8
原紙文字
  6
Continuous
100
AcDbLine
 10
15.96327571555365
 20
1.33828007266198
 30
0.0
 11
14.82577571555363
 21
1.33828007266198
 31
0.0
1001
ACAD
1000
ASC_BOUNDS
1002
{
1070
    19
1005
1FA
1002
}
  0
LINE
  5
145
330
139
100
AcDbEntity
  8
原紙文字
  6
Continuous
100
AcDbLine
 10
14.82577571555363
 20
1.33828007266198
 30
0.0
 11
14.82577571555363
 21
0.9293595810360139
 31
0.0
1001
ACAD
1000
ASC_BOUNDS
1002
{
1070
    19
1005
1FA
1002
}
  0
LINE
  5
146
330
139
100
AcDbEntity
  8
原紙文字
  6
Continuous
100
AcDbLine
 10
14.00263298185253
 20
-0.0117199273380138
 30
0.0
 11
12.18827571555364
 21
-0.0117199273380138
 31
0.0
1001
ACAD
1000
ASC_BOUNDS
1002
{
1070
    19
1005
1FA
1002
}
  0
LINE
  5
147
330
139
100
AcDbEntity
  8
原紙文字
  6
Continuous
100
AcDbLine
 10
12.18827571555364
 20
-0.0117199273380138
 30
0.0
 11
12.50077571555364
 21
0.5882800726619806
 31
0.0
1001
ACAD
1000
ASC_BOUNDS
1002
{
1070
    19
1005
1FA
1002
}
  0
LINE
  5
148
330
139
100
AcDbEntity
  8
原紙文字
  6
Continuous
100
AcDbLine
 10
12.50077571555364
 20
0.5882800726619806
 30
0.0
 11
13.61727473847795
 21
0.5882800726619806
 31
0.0
1001
ACAD
1000
ASC_BOUNDS
1002
{
1070
    19
1005
1FA
1002
}
  0
LINE
  5
149
330
139
100
AcDbEntity
  8
原紙文字
  6
Continuous
100
AcDbLine
 10
13.92577571555365
 20
0.8654947123803825
 30
0.0
 11
13.92577571555365
 21
1.33828007266198
 31
0.0
1001
ACAD
1000
ASC_BOUNDS
1002
{
1070
    19
1005
1FA
1002
}
  0
LINE
  5
14A
330
139
100
AcDbEntity
  8
原紙文字
  6
Continuous
100
AcDbLine
 10
13.92577571555365
 20
1.33828007266198
 30
0.0
 11
12.15077571555364
 21
1.33828007266198
 31
0.0
1001
ACAD
1000
ASC_BOUNDS
1002
{
1070
    19
1005
1FA
1002
}
  0
LINE
  5
14B
330
139
100
AcDbEntity
  8
原紙文字
  6
Continuous
100
AcDbLine
 10
12.15077571555364
 20
1.33828007266198
 30
0.0
 11
12.15077571555364
 21
1.913280072661983
 31
0.0
1001
ACAD
1000
ASC_BOUNDS
1002
{
1070
    19
1005
1FA
1002
}
  0
LINE
  5
14C
330
139
100
AcDbEntity
  8
原紙文字
  6
Continuous
100
AcDbLine
 10
0.5007757155536411
 20
2.488280072661979
 30
0.0
 11
0.8257306480493184
 21
2.488280072661979
 31
0.0
1001
ACAD
1000
ASC_BOUNDS
1002
{
1070
    19
1005
1FA
1002
}
  0
LINE
  5
14D
330
139
100
AcDbEntity
  8
原紙文字
  6
Continuous
100
AcDbLine
 10
1.088275715553646
 20
2.051416102146152
 30
0.0
 11
1.088275715553646
 21
1.83828007266198
 31
0.0
1001
ACAD
1000
ASC_BOUNDS
1002
{
1070
    19
1005
1FA
1002
}
  0
LINE
  5
14E
330
139
100
AcDbEntity
  8
原紙文字
  6
Continuous
100
AcDbLine
 10
1.088275715553646
 20
1.83828007266198
 30
0.0
 11
0.8257757155536296
 21
1.83828007266198
 31
0.0
1001
ACAD
1000
ASC_BOUNDS
1002
{
1070
    19
1005
1FA
1002
}
  0
LINE
  5
14F
330
139
100
AcDbEntity
  8
原紙文字
  6
Continuous
100
AcDbLine
 10
0.8257757155536296
 20
1.83828007266198
 30
0.0
 11
0.8257757155536296
 21
1.27578007266198
 31
0.0
1001
ACAD
1000
ASC_BOUNDS
1002
{
1070
    19
1005
1FA
1002
}
  0
LINE
  5
150
330
139
100
AcDbEntity
  8
原紙文字
  6
Continuous
100
AcDbLine
 10
0.8257757155536296
 20
1.27578007266198
 30
0.0
 11
1.238275715553652
 21
0.9132800726619834
 31
0.0
1001
ACAD
1000
ASC_BOUNDS
1002
{
1070
    19
1005
1FA
1002
}
  0
LINE
  5
151
330
139
100
AcDbEntity
  8
原紙文字
  6
Continuous
100
AcDbLine
 10
1.238275715553652
 20
0.9132800726619834
 30
0.0
 11
1.238275715553652
 21
0.6382800726619778
 31
0.0
1001
ACAD
1000
ASC_BOUNDS
1002
{
1070
    19
1005
1FA
1002
}
  0
LINE
  5
152
330
139
100
AcDbEntity
  8
原紙文字
  6
Continuous
100
AcDbLine
 10
1.238275715553652
 20
0.6382800726619778
 30
0.0
 11
0.8257757155536296
 21
0.9757800726619834
 31
0.0
1001
ACAD
1000
ASC_BOUNDS
1002
{
1070
    19
1005
1FA
1002
}
  0
LINE
  5
153
330
139
100
AcDbEntity
  8
原紙文字
  6
Continuous
100
AcDbLine
 10
0.8257757155536296
 20
0.9757800726619834
 30
0.0
 11
0.8257757155536296
 21
0.0007800726619749
 31
0.0
1001
ACAD
1000
ASC_BOUNDS
1002
{
1070
    19
1005
1FA
1002
}
  0
LINE
  5
154
330
139
100
AcDbEntity
  8
原紙文字
  6
Continuous
100
AcDbLine
 10
0.8257757155536296
 20
0.0007800726619749
 30
0.0
 11
0.5007757155536411
 21
0.0007800726619749
 31
0.0
1001
ACAD
1000
ASC_BOUNDS
1002
{
1070
    19
1005
1FA
1002
}
  0
LINE
  5
155
330
139
100
AcDbEntity
  8
原紙文字
  6
Continuous
100
AcDbLine
 10
0.5007757155536411
 20
0.0007800726619749
 30
0.0
 11
0.5007757155536411
 21
1.385223483502729
 31
0.0
1001
ACAD
1000
ASC_BOUNDS
1002
{
1070
    19
1005
1FA
1002
}
  0
LINE
  5
156
330
139
100
AcDbEntity
  8
原紙文字
  6
Continuous
100
AcDbLine
 10
0.3992674844527151
 20
1.214920808735276
 30
0.0
 11
0.3496949015089927
 21
0.8579982115404725
 31
0.0
1001
ACAD
1000
ASC_BOUNDS
1002
{
1070
    19
1005
1FA
1002
}
  0
LINE
  5
157
330
139
100
AcDbEntity
  8
原紙文字
  6
Continuous
100
AcDbLine
 10
0.000775715553641
 20
0.4257800726619863
 30
0.0
 11
0.000775715553641
 21
0.6632800726619834
 31
0.0
1001
ACAD
1000
ASC_BOUNDS
1002
{
1070
    19
1005
1FA
1002
}
  0
LINE
  5
158
330
139
100
AcDbEntity
  8
原紙文字
  6
Continuous
100
AcDbLine
 10
0.3862020102931034
 20
1.83828007266198
 30
0.0
 11
0.0132757155536297
 21
1.83828007266198
 31
0.0
1001
ACAD
1000
ASC_BOUNDS
1002
{
1070
    19
1005
1FA
1002
}
  0
LINE
  5
159
330
139
100
AcDbEntity
  8
原紙文字
  6
Continuous
100
AcDbLine
 10
0.0132757155536297
 20
1.83828007266198
 30
0.0
 11
0.0132757155536297
 21
2.050780072661986
 31
0.0
1001
ACAD
1000
ASC_BOUNDS
1002
{
1070
    19
1005
1FA
1002
}
  0
LINE
  5
15A
330
139
100
AcDbEntity
  8
原紙文字
  6
Continuous
100
AcDbLine
 10
0.0132757155536297
 20
2.050780072661986
 30
0.0
 11
0.5007757155536411
 21
2.050780072661986
 31
0.0
1001
ACAD
1000
ASC_BOUNDS
1002
{
1070
    19
1005
1FA
1002
}
  0
LINE
  5
15B
330
139
100
AcDbEntity
  8
原紙文字
  6
Continuous
100
AcDbLine
 10
0.5007757155536411
 20
2.050780072661986
 30
0.0
 11
0.5007757155536411
 21
2.488280072661979
 31
0.0
1001
ACAD
1000
ASC_BOUNDS
1002
{
1070
    19
1005
1FA
1002
}
  0
LINE
  5
15C
330
139
100
AcDbEntity
  8
原紙文字
  6
Continuous
100
AcDbLine
 10
1.888275715553629
 20
2.488280072661979
 30
0.0
 11
2.200775715553629
 21
2.488280072661979
 31
0.0
1001
ACAD
1000
ASC_BOUNDS
1002
{
1070
    19
1005
1FA
1002
}
  0
LINE
  5
15D
330
139
100
AcDbEntity
  8
原紙文字
  6
Continuous
100
AcDbLine
 10
2.200775715553629
 20
2.488280072661979
 30
0.0
 11
2.200775715553629
 21
2.052303827886429
 31
0.0
1001
ACAD
1000
ASC_BOUNDS
1002
{
1070
    19
1005
1FA
1002
}
  0
LINE
  5
15E
330
139
100
AcDbEntity
  8
原紙文字
  6
Continuous
100
AcDbLine
 10
2.200775715553629
 20
2.052303827886429
 30
0.0
 11
2.838275715553647
 21
2.052303827886429
 31
0.0
1001
ACAD
1000
ASC_BOUNDS
1002
{
1070
    19
1005
1FA
1002
}
  0
LINE
  5
15F
330
139
100
AcDbEntity
  8
原紙文字
  6
Continuous
100
AcDbLine
 10
2.838275715553647
 20
2.052303827886429
 30
0.0
 11
2.838275715553646
 21
1.83360547128902
 31
0.0
1001
ACAD
1000
ASC_BOUNDS
1002
{
1070
    19
1005
1FA
1002
}
  0
LINE
  5
160
330
139
100
AcDbEntity
  8
原紙文字
  6
Continuous
100
AcDbLine
 10
2.838275715553646
 20
1.83360547128902
 30
0.0
 11
2.200775715553629
 21
1.83360547128902
 31
0.0
1001
ACAD
1000
ASC_BOUNDS
1002
{
1070
    19
1005
1FA
1002
}
  0
LINE
  5
161
330
139
100
AcDbEntity
  8
原紙文字
  6
Continuous
100
AcDbLine
 10
2.200775715553629
 20
1.83360547128902
 30
0.0
 11
2.200775715553629
 21
1.388280072661977
 31
0.0
1001
ACAD
1000
ASC_BOUNDS
1002
{
1070
    19
1005
1FA
1002
}
  0
LINE
  5
162
330
139
100
AcDbEntity
  8
原紙文字
  6
Continuous
100
AcDbLine
 10
2.200775715553629
 20
1.388280072661977
 30
0.0
 11
2.850775715553663
 21
1.388280072661977
 31
0.0
1001
ACAD
1000
ASC_BOUNDS
1002
{
1070
    19
1005
1FA
1002
}
  0
LINE
  5
163
330
139
100
AcDbEntity
  8
原紙文字
  6
Continuous
100
AcDbLine
 10
2.850775715553663
 20
1.388280072661977
 30
0.0
 11
2.850775715553663
 21
1.188280072661974
 31
0.0
1001
ACAD
1000
ASC_BOUNDS
1002
{
1070
    19
1005
1FA
1002
}
  0
LINE
  5
164
330
139
100
AcDbEntity
  8
原紙文字
  6
Continuous
100
AcDbLine
 10
2.850775715553663
 20
1.188280072661974
 30
0.0
 11
2.575775715553629
 21
1.188280072661974
 31
0.0
1001
ACAD
1000
ASC_BOUNDS
1002
{
1070
    19
1005
1FA
1002
}
  0
LINE
  5
165
330
139
100
AcDbEntity
  8
原紙文字
  6
Continuous
100
AcDbLine
 10
2.575775715553629
 20
1.188280072661974
 30
0.0
 11
2.588275715553646
 21
1.038280072661983
 31
0.0
1001
ACAD
1000
ASC_BOUNDS
1002
{
1070
    19
1005
1FA
1002
}
  0
LINE
  5
166
330
139
100
AcDbEntity
  8
原紙文字
  6
Continuous
100
AcDbLine
 10
2.588275715553646
 20
1.038280072661983
 30
0.0
 11
2.613275715553652
 21
0.8132800726619748
 31
0.0
1001
ACAD
1000
ASC_BOUNDS
1002
{
1070
    19
1005
1FA
1002
}
  0
LINE
  5
167
330
139
100
AcDbEntity
  8
原紙文字
  6
Continuous
100
AcDbLine
 10
2.613275715553652
 20
0.8132800726619748
 30
0.0
 11
2.638275715553629
 21
0.6382800726619778
 31
0.0
1001
ACAD
1000
ASC_BOUNDS
1002
{
1070
    19
1005
1FA
1002
}
  0
LINE
  5
168
330
139
100
AcDbEntity
  8
原紙文字
  6
Continuous
100
AcDbLine
 10
2.850775715553663
 20
0.2448124350361377
 30
0.0
 11
2.850775715553663
 21
0.0132800726619777
 31
0.0
1001
ACAD
1000
ASC_BOUNDS
1002
{
1070
    19
1005
1FA
1002
}
  0
LINE
  5
169
330
139
100
AcDbEntity
  8
原紙文字
  6
Continuous
100
AcDbLine
 10
2.322851180117222
 20
1.188280072661974
 30
0.0
 11
2.200775715553629
 21
1.188280072661974
 31
0.0
1001
ACAD
1000
ASC_BOUNDS
1002
{
1070
    19
1005
1FA
1002
}
  0
LINE
  5
16A
330
139
100
AcDbEntity
  8
原紙文字
  6
Continuous
100
AcDbLine
 10
2.200775715553629
 20
1.188280072661974
 30
0.0
 11
2.200775715553629
 21
0.0007800726619749
 31
0.0
1001
ACAD
1000
ASC_BOUNDS
1002
{
1070
    19
1005
1FA
1002
}
  0
LINE
  5
16B
330
139
100
AcDbEntity
  8
原紙文字
  6
Continuous
100
AcDbLine
 10
2.200775715553629
 20
0.0007800726619749
 30
0.0
 11
1.888275715553629
 21
0.0007800726619749
 31
0.0
1001
ACAD
1000
ASC_BOUNDS
1002
{
1070
    19
1005
1FA
1002
}
  0
LINE
  5
16C
330
139
100
AcDbEntity
  8
原紙文字
  6
Continuous
100
AcDbLine
 10
1.888275715553629
 20
0.0007800726619749
 30
0.0
 11
1.888275715553629
 21
1.175780072661986
 31
0.0
1001
ACAD
1000
ASC_BOUNDS
1002
{
1070
    19
1005
1FA
1002
}
  0
LINE
  5
16D
330
139
100
AcDbEntity
  8
原紙文字
  6
Continuous
100
AcDbLine
 10
1.888275715553629
 20
1.175780072661986
 30
0.0
 11
1.775775715553646
 21
1.175780072661986
 31
0.0
1001
ACAD
1000
ASC_BOUNDS
1002
{
1070
    19
1005
1FA
1002
}
  0
LINE
  5
16E
330
139
100
AcDbEntity
  8
原紙文字
  6
Continuous
100
AcDbLine
 10
1.775775715553646
 20
1.175780072661986
 30
0.0
 11
1.725775715553663
 21
0.6757800726619865
 31
0.0
1001
ACAD
1000
ASC_BOUNDS
1002
{
1070
    19
1005
1FA
1002
}
  0
LINE
  5
16F
330
139
100
AcDbEntity
  8
原紙文字
  6
Continuous
100
AcDbLine
 10
1.725775715553663
 20
0.6757800726619865
 30
0.0
 11
1.704387177398223
 21
0.568837381884932
 31
0.0
1001
ACAD
1000
ASC_BOUNDS
1002
{
1070
    19
1005
1FA
1002
}
  0
LINE
  5
170
330
139
100
AcDbEntity
  8
原紙文字
  6
Continuous
100
AcDbLine
 10
1.175775715553652
 20
0.0392514507455805
 30
0.0
 11
1.175775715553652
 21
0.2507800726619749
 31
0.0
1001
ACAD
1000
ASC_BOUNDS
1002
{
1070
    19
1005
1FA
1002
}
  0
LINE
  5
171
330
139
100
AcDbEntity
  8
原紙文字
  6
Continuous
100
AcDbLine
 10
1.4196438935393
 20
0.466936873597369
 30
0.0
 11
1.438275715553641
 21
0.5507800726619863
 31
0.0
1001
ACAD
1000
ASC_BOUNDS
1002
{
1070
    19
1005
1FA
1002
}
  0
LINE
  5
172
330
139
100
AcDbEntity
  8
原紙文字
  6
Continuous
100
AcDbLine
 10
1.438275715553641
 20
0.5507800726619863
 30
0.0
 11
1.475775715553663
 21
0.7632800726619778
 31
0.0
1001
ACAD
1000
ASC_BOUNDS
1002
{
1070
    19
1005
1FA
1002
}
  0
LINE
  5
173
330
139
100
AcDbEntity
  8
原紙文字
  6
Continuous
100
AcDbLine
 10
1.475775715553663
 20
0.7632800726619778
 30
0.0
 11
1.525775715553646
 21
1.175780072661986
 31
0.0
1001
ACAD
1000
ASC_BOUNDS
1002
{
1070
    19
1005
1FA
1002
}
  0
LINE
  5
174
330
139
100
AcDbEntity
  8
原紙文字
  6
Continuous
100
AcDbLine
 10
1.525775715553646
 20
1.175780072661986
 30
0.0
 11
1.161211095879082
 21
1.175780072661986
 31
0.0
1001
ACAD
1000
ASC_BOUNDS
1002
{
1070
    19
1005
1FA
1002
}
  0
LINE
  5
175
330
139
100
AcDbEntity
  8
原紙文字
  6
Continuous
100
AcDbLine
 10
1.161211095879082
 20
1.388280072661977
 30
0.0
 11
1.888275715553629
 21
1.388280072661977
 31
0.0
1001
ACAD
1000
ASC_BOUNDS
1002
{
1070
    19
1005
1FA
1002
}
  0
LINE
  5
176
330
139
100
AcDbEntity
  8
原紙文字
  6
Continuous
100
AcDbLine
 10
1.888275715553629
 20
1.388280072661977
 30
0.0
 11
1.888275715553629
 21
1.835129177619022
 31
0.0
1001
ACAD
1000
ASC_BOUNDS
1002
{
1070
    19
1005
1FA
1002
}
  0
LINE
  5
177
330
139
100
AcDbEntity
  8
原紙文字
  6
Continuous
100
AcDbLine
 10
1.888275715553629
 20
1.835129177619022
 30
0.0
 11
1.573841790606346
 21
1.835129177619022
 31
0.0
1001
ACAD
1000
ASC_BOUNDS
1002
{
1070
    19
1005
1FA
1002
}
  0
LINE
  5
178
330
139
100
AcDbEntity
  8
原紙文字
  6
Continuous
100
AcDbLine
 10
1.163275715553663
 20
1.524800792411664
 30
0.0
 11
1.163275715553663
 21
1.751631366702761
 31
0.0
1001
ACAD
1000
ASC_BOUNDS
1002
{
1070
    19
1005
1FA
1002
}
  0
LINE
  5
179
330
139
100
AcDbEntity
  8
原紙文字
  6
Continuous
100
AcDbLine
 10
1.377638103848793
 20
1.964127188777239
 30
0.0
 11
1.450775715553629
 21
2.488280072661979
 31
0.0
1001
ACAD
1000
ASC_BOUNDS
1002
{
1070
    19
1005
1FA
1002
}
  0
LINE
  5
17A
330
139
100
AcDbEntity
  8
原紙文字
  6
Continuous
100
AcDbLine
 10
1.450775715553629
 20
2.488280072661979
 30
0.0
 11
1.675775715553652
 21
2.488280072661979
 31
0.0
1001
ACAD
1000
ASC_BOUNDS
1002
{
1070
    19
1005
1FA
1002
}
  0
LINE
  5
17B
330
139
100
AcDbEntity
  8
原紙文字
  6
Continuous
100
AcDbLine
 10
1.675775715553652
 20
2.488280072661979
 30
0.0
 11
1.615223459334825
 21
2.052303827886429
 31
0.0
1001
ACAD
1000
ASC_BOUNDS
1002
{
1070
    19
1005
1FA
1002
}
  0
LINE
  5
17C
330
139
100
AcDbEntity
  8
原紙文字
  6
Continuous
100
AcDbLine
 10
1.615223459334825
 20
2.052303827886429
 30
0.0
 11
1.888275715553629
 21
2.052303827886429
 31
0.0
1001
ACAD
1000
ASC_BOUNDS
1002
{
1070
    19
1005
1FA
1002
}
  0
LINE
  5
17D
330
139
100
AcDbEntity
  8
原紙文字
  6
Continuous
100
AcDbLine
 10
1.888275715553629
 20
2.052303827886429
 30
0.0
 11
1.888275715553629
 21
2.488280072661979
 31
0.0
1001
ACAD
1000
ASC_BOUNDS
1002
{
1070
    19
1005
1FA
1002
}
  0
LINE
  5
17E
330
139
100
AcDbEntity
  8
原紙文字
  6
Continuous
100
AcDbLine
 10
3.075775715553629
 20
2.038280072661983
 30
0.0
 11
4.538275715553663
 21
2.038280072661983
 31
0.0
1001
ACAD
1000
ASC_BOUNDS
1002
{
1070
    19
1005
1FA
1002
}
  0
LINE
  5
17F
330
139
100
AcDbEntity
  8
原紙文字
  6
Continuous
100
AcDbLine
 10
4.538275715553663
 20
2.038280072661983
 30
0.0
 11
4.538275715553663
 21
2.488280072661979
 31
0.0
1001
ACAD
1000
ASC_BOUNDS
1002
{
1070
    19
1005
1FA
1002
}
  0
LINE
  5
180
330
139
100
AcDbEntity
  8
原紙文字
  6
Continuous
100
AcDbLine
 10
4.538275715553663
 20
2.488280072661979
 30
0.0
 11
4.838275715553646
 21
2.488280072661979
 31
0.0
1001
ACAD
1000
ASC_BOUNDS
1002
{
1070
    19
1005
1FA
1002
}
  0
LINE
  5
181
330
139
100
AcDbEntity
  8
原紙文字
  6
Continuous
100
AcDbLine
 10
4.838275715553646
 20
2.488280072661979
 30
0.0
 11
4.838275715553646
 21
2.038280072661983
 31
0.0
1001
ACAD
1000
ASC_BOUNDS
1002
{
1070
    19
1005
1FA
1002
}
  0
LINE
  5
182
330
139
100
AcDbEntity
  8
原紙文字
  6
Continuous
100
AcDbLine
 10
4.838275715553646
 20
2.038280072661983
 30
0.0
 11
5.538275715553663
 21
2.038280072661983
 31
0.0
1001
ACAD
1000
ASC_BOUNDS
1002
{
1070
    19
1005
1FA
1002
}
  0
LINE
  5
183
330
139
100
AcDbEntity
  8
原紙文字
  6
Continuous
100
AcDbLine
 10
5.538275715553663
 20
2.038280072661983
 30
0.0
 11
5.538275715553663
 21
1.825780072661977
 31
0.0
1001
ACAD
1000
ASC_BOUNDS
1002
{
1070
    19
1005
1FA
1002
}
  0
LINE
  5
184
330
139
100
AcDbEntity
  8
原紙文字
  6
Continuous
100
AcDbLine
 10
5.538275715553663
 20
1.825780072661977
 30
0.0
 11
4.850775715553663
 21
1.825780072661977
 31
0.0
1001
ACAD
1000
ASC_BOUNDS
1002
{
1070
    19
1005
1FA
1002
}
  0
LINE
  5
185
330
139
100
AcDbEntity
  8
原紙文字
  6
Continuous
100
AcDbLine
 10
4.850775715553663
 20
1.825780072661977
 30
0.0
 11
4.850775715553663
 21
1.23471546108085
 31
0.0
1001
ACAD
1000
ASC_BOUNDS
1002
{
1070
    19
1005
1FA
1002
}
  0
LINE
  5
186
330
139
100
AcDbEntity
  8
原紙文字
  6
Continuous
100
AcDbLine
 10
4.538275715553663
 20
1.228375218384325
 30
0.0
 11
4.538275715553663
 21
1.825780072661977
 31
0.0
1001
ACAD
1000
ASC_BOUNDS
1002
{
1070
    19
1005
1FA
1002
}
  0
LINE
  5
187
330
139
100
AcDbEntity
  8
原紙文字
  6
Continuous
100
AcDbLine
 10
4.538275715553663
 20
1.825780072661977
 30
0.0
 11
3.075775715553629
 21
1.825780072661977
 31
0.0
1001
ACAD
1000
ASC_BOUNDS
1002
{
1070
    19
1005
1FA
1002
}
  0
LINE
  5
188
330
139
100
AcDbEntity
  8
原紙文字
  6
Continuous
100
AcDbLine
 10
3.075775715553629
 20
1.825780072661977
 30
0.0
 11
3.075775715553629
 21
2.038280072661983
 31
0.0
1001
ACAD
1000
ASC_BOUNDS
1002
{
1070
    19
1005
1FA
1002
}
  0
LINE
  5
189
330
139
100
AcDbEntity
  8
原紙文字
  6
Continuous
100
AcDbLine
 10
3.163275715553663
 20
1.388280072661977
 30
0.0
 11
4.225775715553663
 21
1.388280072661977
 31
0.0
1001
ACAD
1000
ASC_BOUNDS
1002
{
1070
    19
1005
1FA
1002
}
  0
LINE
  5
18A
330
139
100
AcDbEntity
  8
原紙文字
  6
Continuous
100
AcDbLine
 10
4.225775715553663
 20
1.388280072661977
 30
0.0
 11
4.225775715553663
 21
1.188280072661974
 31
0.0
1001
ACAD
1000
ASC_BOUNDS
1002
{
1070
    19
1005
1FA
1002
}
  0
LINE
  5
18B
330
139
100
AcDbEntity
  8
原紙文字
  6
Continuous
100
AcDbLine
 10
4.225775715553663
 20
1.188280072661974
 30
0.0
 11
3.825775715553629
 21
1.188280072661974
 31
0.0
1001
ACAD
1000
ASC_BOUNDS
1002
{
1070
    19
1005
1FA
1002
}
  0
LINE
  5
18C
330
139
100
AcDbEntity
  8
原紙文字
  6
Continuous
100
AcDbLine
 10
3.825775715553629
 20
1.188280072661974
 30
0.0
 11
3.825775715553629
 21
0.2277726166126162
 31
0.0
1001
ACAD
1000
ASC_BOUNDS
1002
{
1070
    19
1005
1FA
1002
}
  0
LINE
  5
18D
330
139
100
AcDbEntity
  8
原紙文字
  6
Continuous
100
AcDbLine
 10
4.221582301416577
 20
0.6382800726619778
 30
0.0
 11
4.453789940176211
 21
0.6382800726619778
 31
0.0
1001
ACAD
1000
ASC_BOUNDS
1002
{
1070
    19
1005
1FA
1002
}
  0
LINE
  5
18E
330
139
100
AcDbEntity
  8
原紙文字
  6
Continuous
100
AcDbLine
 10
3.832145239887656
 20
0.0007800726619749
 30
0.0
 11
3.075775715553629
 21
0.0007800726619749
 31
0.0
1001
ACAD
1000
ASC_BOUNDS
1002
{
1070
    19
1005
1FA
1002
}
  0
LINE
  5
18F
330
139
100
AcDbEntity
  8
原紙文字
  6
Continuous
100
AcDbLine
 10
3.075775715553629
 20
0.0007800726619749
 30
0.0
 11
3.075775715553629
 21
0.2132800726619806
 31
0.0
1001
ACAD
1000
ASC_BOUNDS
1002
{
1070
    19
1005
1FA
1002
}
  0
LINE
  5
190
330
139
100
AcDbEntity
  8
原紙文字
  6
Continuous
100
AcDbLine
 10
3.075775715553629
 20
0.2132800726619806
 30
0.0
 11
3.513275715553629
 21
0.2132800726619806
 31
0.0
1001
ACAD
1000
ASC_BOUNDS
1002
{
1070
    19
1005
1FA
1002
}
  0
LINE
  5
191
330
139
100
AcDbEntity
  8
原紙文字
  6
Continuous
100
AcDbLine
 10
3.513275715553629
 20
0.2132800726619806
 30
0.0
 11
3.513275715553629
 21
1.188280072661974
 31
0.0
1001
ACAD
1000
ASC_BOUNDS
1002
{
1070
    19
1005
1FA
1002
}
  0
LINE
  5
192
330
139
100
AcDbEntity
  8
原紙文字
  6
Continuous
100
AcDbLine
 10
3.513275715553629
 20
1.188280072661974
 30
0.0
 11
3.163275715553663
 21
1.188280072661974
 31
0.0
1001
ACAD
1000
ASC_BOUNDS
1002
{
1070
    19
1005
1FA
1002
}
  0
LINE
  5
193
330
139
100
AcDbEntity
  8
原紙文字
  6
Continuous
100
AcDbLine
 10
3.163275715553663
 20
1.188280072661974
 30
0.0
 11
3.163275715553663
 21
1.388280072661977
 31
0.0
1001
ACAD
1000
ASC_BOUNDS
1002
{
1070
    19
1005
1FA
1002
}
  0
LINE
  5
194
330
139
100
AcDbEntity
  8
原紙文字
  6
Continuous
100
AcDbLine
 10
5.128005537376009
 20
2.487899575990297
 30
0.0
 11
5.128005537376009
 21
2.287696973946651
 31
0.0
1001
ACAD
1000
ASC_BOUNDS
1002
{
1070
    19
1005
1FA
1002
}
  0
LINE
  5
195
330
139
100
AcDbEntity
  8
原紙文字
  6
Continuous
100
AcDbLine
 10
5.128005537376009
 20
2.287696973946651
 30
0.0
 11
5.552602075549697
 21
2.287696973946651
 31
0.0
1001
ACAD
1000
ASC_BOUNDS
1002
{
1070
    19
1005
1FA
1002
}
  0
LINE
  5
196
330
139
100
AcDbEntity
  8
原紙文字
  6
Continuous
100
AcDbLine
 10
5.552602075549697
 20
2.287696973946651
 30
0.0
 11
5.552602075549697
 21
2.487899575990297
 31
0.0
1001
ACAD
1000
ASC_BOUNDS
1002
{
1070
    19
1005
1FA
1002
}
  0
LINE
  5
197
330
139
100
AcDbEntity
  8
原紙文字
  6
Continuous
100
AcDbLine
 10
5.552602075549697
 20
2.487899575990297
 30
0.0
 11
5.128005537376009
 21
2.487899575990297
 31
0.0
1001
ACAD
1000
ASC_BOUNDS
1002
{
1070
    19
1005
1FA
1002
}
  0
LINE
  5
198
330
139
100
AcDbEntity
  8
原紙文字
  6
Continuous
100
AcDbLine
 10
10.57577571555363
 20
2.450780072661984
 30
0.0
 11
10.88827571555363
 21
2.450780072661984
 31
0.0
1001
ACAD
1000
ASC_BOUNDS
1002
{
1070
    19
1005
1FA
1002
}
  0
LINE
  5
199
330
139
100
AcDbEntity
  8
原紙文字
  6
Continuous
100
AcDbLine
 10
10.88827571555363
 20
2.450780072661984
 30
0.0
 11
10.88827571555363
 21
1.625780072661974
 31
0.0
1001
ACAD
1000
ASC_BOUNDS
1002
{
1070
    19
1005
1FA
1002
}
  0
LINE
  5
19A
330
139
100
AcDbEntity
  8
原紙文字
  6
Continuous
100
AcDbLine
 10
10.88827571555363
 20
1.625780072661974
 30
0.0
 11
11.43827571555364
 21
1.625780072661974
 31
0.0
1001
ACAD
1000
ASC_BOUNDS
1002
{
1070
    19
1005
1FA
1002
}
  0
LINE
  5
19B
330
139
100
AcDbEntity
  8
原紙文字
  6
Continuous
100
AcDbLine
 10
11.43827571555364
 20
1.625780072661974
 30
0.0
 11
11.43827571555364
 21
1.413280072661983
 31
0.0
1001
ACAD
1000
ASC_BOUNDS
1002
{
1070
    19
1005
1FA
1002
}
  0
LINE
  5
19C
330
139
100
AcDbEntity
  8
原紙文字
  6
Continuous
100
AcDbLine
 10
11.43827571555364
 20
1.413280072661983
 30
0.0
 11
10.88827571555363
 21
1.413280072661983
 31
0.0
1001
ACAD
1000
ASC_BOUNDS
1002
{
1070
    19
1005
1FA
1002
}
  0
LINE
  5
19D
330
139
100
AcDbEntity
  8
原紙文字
  6
Continuous
100
AcDbLine
 10
10.88827571555363
 20
1.413280072661983
 30
0.0
 11
10.88827571555363
 21
0.2007800726619777
 31
0.0
1001
ACAD
1000
ASC_BOUNDS
1002
{
1070
    19
1005
1FA
1002
}
  0
LINE
  5
19E
330
139
100
AcDbEntity
  8
原紙文字
  6
Continuous
100
AcDbLine
 10
10.88827571555363
 20
0.2007800726619777
 30
0.0
 11
11.51327571555363
 21
0.2007800726619777
 31
0.0
1001
ACAD
1000
ASC_BOUNDS
1002
{
1070
    19
1005
1FA
1002
}
  0
LINE
  5
19F
330
139
100
AcDbEntity
  8
原紙文字
  6
Continuous
100
AcDbLine
 10
11.51327571555363
 20
0.2007800726619777
 30
0.0
 11
11.51327571555363
 21
-0.0117199273380138
 31
0.0
1001
ACAD
1000
ASC_BOUNDS
1002
{
1070
    19
1005
1FA
1002
}
  0
LINE
  5
1A0
330
139
100
AcDbEntity
  8
原紙文字
  6
Continuous
100
AcDbLine
 10
11.51327571555363
 20
-0.0117199273380138
 30
0.0
 11
9.900775715553647
 21
-0.0117199273380138
 31
0.0
1001
ACAD
1000
ASC_BOUNDS
1002
{
1070
    19
1005
1FA
1002
}
  0
LINE
  5
1A1
330
139
100
AcDbEntity
  8
原紙文字
  6
Continuous
100
AcDbLine
 10
9.900775715553647
 20
-0.0117199273380138
 30
0.0
 11
9.900775715553647
 21
0.2007800726619777
 31
0.0
1001
ACAD
1000
ASC_BOUNDS
1002
{
1070
    19
1005
1FA
1002
}
  0
LINE
  5
1A2
330
139
100
AcDbEntity
  8
原紙文字
  6
Continuous
100
AcDbLine
 10
9.900775715553647
 20
0.2007800726619777
 30
0.0
 11
10.57577571555363
 21
0.2007800726619777
 31
0.0
1001
ACAD
1000
ASC_BOUNDS
1002
{
1070
    19
1005
1FA
1002
}
  0
LINE
  5
1A3
330
139
100
AcDbEntity
  8
原紙文字
  6
Continuous
100
AcDbLine
 10
10.57577571555363
 20
0.2007800726619777
 30
0.0
 11
10.57577571555363
 21
1.413280072661983
 31
0.0
1001
ACAD
1000
ASC_BOUNDS
1002
{
1070
    19
1005
1FA
1002
}
  0
LINE
  5
1A4
330
139
100
AcDbEntity
  8
原紙文字
  6
Continuous
100
AcDbLine
 10
10.57577571555363
 20
1.413280072661983
 30
0.0
 11
9.988275715553653
 21
1.413280072661983
 31
0.0
1001
ACAD
1000
ASC_BOUNDS
1002
{
1070
    19
1005
1FA
1002
}
  0
LINE
  5
1A5
330
139
100
AcDbEntity
  8
原紙文字
  6
Continuous
100
AcDbLine
 10
9.988275715553653
 20
1.413280072661983
 30
0.0
 11
9.988275715553653
 21
1.625780072661974
 31
0.0
1001
ACAD
1000
ASC_BOUNDS
1002
{
1070
    19
1005
1FA
1002
}
  0
LINE
  5
1A6
330
139
100
AcDbEntity
  8
原紙文字
  6
Continuous
100
AcDbLine
 10
9.988275715553653
 20
1.625780072661974
 30
0.0
 11
10.57577571555363
 21
1.625780072661974
 31
0.0
1001
ACAD
1000
ASC_BOUNDS
1002
{
1070
    19
1005
1FA
1002
}
  0
LINE
  5
1A7
330
139
100
AcDbEntity
  8
原紙文字
  6
Continuous
100
AcDbLine
 10
10.57577571555363
 20
1.625780072661974
 30
0.0
 11
10.57577571555363
 21
2.450780072661984
 31
0.0
1001
ACAD
1000
ASC_BOUNDS
1002
{
1070
    19
1005
1FA
1002
}
  0
LINE
  5
1A8
330
139
100
AcDbEntity
  8
原紙文字
  6
Continuous
100
AcDbLine
 10
5.825775715553629
 20
1.013280072661977
 30
0.0
 11
8.463275715553647
 21
1.013280072661977
 31
0.0
1001
ACAD
1000
ASC_BOUNDS
1002
{
1070
    19
1005
1FA
1002
}
  0
LINE
  5
1A9
330
139
100
AcDbEntity
  8
原紙文字
  6
Continuous
100
AcDbLine
 10
8.463275715553647
 20
1.013280072661977
 30
0.0
 11
8.463275715553647
 21
0.8132800726619748
 31
0.0
1001
ACAD
1000
ASC_BOUNDS
1002
{
1070
    19
1005
1FA
1002
}
  0
LINE
  5
1AA
330
139
100
AcDbEntity
  8
原紙文字
  6
Continuous
100
AcDbLine
 10
8.463275715553647
 20
0.8132800726619748
 30
0.0
 11
7.900219201077603
 21
0.8132800726619748
 31
0.0
1001
ACAD
1000
ASC_BOUNDS
1002
{
1070
    19
1005
1FA
1002
}
  0
LINE
  5
1AB
330
139
100
AcDbEntity
  8
原紙文字
  6
Continuous
100
AcDbLine
 10
8.375775715553642
 20
0.1907133203409924
 30
0.0
 11
8.375775715553642
 21
0.0007800726619749
 31
0.0
1001
ACAD
1000
ASC_BOUNDS
1002
{
1070
    19
1005
1FA
1002
}
  0
LINE
  5
1AC
330
139
100
AcDbEntity
  8
原紙文字
  6
Continuous
100
AcDbLine
 10
8.375775715553642
 20
0.0007800726619749
 30
0.0
 11
5.900775715553646
 21
0.0007800726619749
 31
0.0
1001
ACAD
1000
ASC_BOUNDS
1002
{
1070
    19
1005
1FA
1002
}
  0
LINE
  5
1AD
330
139
100
AcDbEntity
  8
原紙文字
  6
Continuous
100
AcDbLine
 10
5.900775715553646
 20
0.0007800726619749
 30
0.0
 11
5.900775715553646
 21
0.21393649224712
 31
0.0
1001
ACAD
1000
ASC_BOUNDS
1002
{
1070
    19
1005
1FA
1002
}
  0
LINE
  5
1AE
330
139
100
AcDbEntity
  8
原紙文字
  6
Continuous
100
AcDbLine
 10
6.395124096738744
 20
0.8132800726619748
 30
0.0
 11
5.825775715553629
 21
0.8132800726619748
 31
0.0
1001
ACAD
1000
ASC_BOUNDS
1002
{
1070
    19
1005
1FA
1002
}
  0
LINE
  5
1AF
330
139
100
AcDbEntity
  8
原紙文字
  6
Continuous
100
AcDbLine
 10
5.825775715553629
 20
0.8132800726619748
 30
0.0
 11
5.825775715553629
 21
1.013280072661977
 31
0.0
1001
ACAD
1000
ASC_BOUNDS
1002
{
1070
    19
1005
1FA
1002
}
  0
LINE
  5
1B0
330
139
100
AcDbEntity
  8
原紙文字
  6
Continuous
100
AcDbLine
 10
9.100775715553664
 20
2.438280072661967
 30
0.0
 11
9.425775715553653
 21
2.438280072661967
 31
0.0
1001
ACAD
1000
ASC_BOUNDS
1002
{
1070
    19
1005
1FA
1002
}
  0
LINE
  5
1B1
330
139
100
AcDbEntity
  8
原紙文字
  6
Continuous
100
AcDbLine
 10
9.425775715553653
 20
2.438280072661967
 30
0.0
 11
9.425775715553653
 21
2.100780072661983
 31
0.0
1001
ACAD
1000
ASC_BOUNDS
1002
{
1070
    19
1005
1FA
1002
}
  0
LINE
  5
1B2
330
139
100
AcDbEntity
  8
原紙文字
  6
Continuous
100
AcDbLine
 10
9.425775715553653
 20
2.100780072661983
 30
0.0
 11
9.875775715553642
 21
2.100780072661983
 31
0.0
1001
ACAD
1000
ASC_BOUNDS
1002
{
1070
    19
1005
1FA
1002
}
  0
LINE
  5
1B3
330
139
100
AcDbEntity
  8
原紙文字
  6
Continuous
100
AcDbLine
 10
9.593791737579408
 20
1.248717918005331
 30
0.0
 11
9.963275715553647
 21
1.050780072661986
 31
0.0
1001
ACAD
1000
ASC_BOUNDS
1002
{
1070
    19
1005
1FA
1002
}
  0
LINE
  5
1B4
330
139
100
AcDbEntity
  8
原紙文字
  6
Continuous
100
AcDbLine
 10
9.963275715553647
 20
1.050780072661986
 30
0.0
 11
9.963275715553647
 21
0.7382800726619863
 31
0.0
1001
ACAD
1000
ASC_BOUNDS
1002
{
1070
    19
1005
1FA
1002
}
  0
LINE
  5
1B5
330
139
100
AcDbEntity
  8
原紙文字
  6
Continuous
100
AcDbLine
 10
9.963275715553647
 20
0.7382800726619863
 30
0.0
 11
9.413275715553664
 21
1.050780072661986
 31
0.0
1001
ACAD
1000
ASC_BOUNDS
1002
{
1070
    19
1005
1FA
1002
}
  0
LINE
  5
1B6
330
139
100
AcDbEntity
  8
原紙文字
  6
Continuous
100
AcDbLine
 10
9.413275715553664
 20
1.050780072661986
 30
0.0
 11
9.413275715553664
 21
0.0007800726619749
 31
0.0
1001
ACAD
1000
ASC_BOUNDS
1002
{
1070
    19
1005
1FA
1002
}
  0
LINE
  5
1B7
330
139
100
AcDbEntity
  8
原紙文字
  6
Continuous
100
AcDbLine
 10
9.413275715553664
 20
0.0007800726619749
 30
0.0
 11
9.100775715553664
 21
0.0007800726619749
 31
0.0
1001
ACAD
1000
ASC_BOUNDS
1002
{
1070
    19
1005
1FA
1002
}
  0
LINE
  5
1B8
330
139
100
AcDbEntity
  8
原紙文字
  6
Continuous
100
AcDbLine
 10
9.100775715553664
 20
0.0007800726619749
 30
0.0
 11
9.100775715553664
 21
0.8862157419650184
 31
0.0
1001
ACAD
1000
ASC_BOUNDS
1002
{
1070
    19
1005
1FA
1002
}
  0
LINE
  5
1B9
330
139
100
AcDbEntity
  8
原紙文字
  6
Continuous
100
AcDbLine
 10
8.70077571555363
 20
0.8007800726619862
 30
0.0
 11
8.70077571555363
 21
1.049867964023137
 31
0.0
1001
ACAD
1000
ASC_BOUNDS
1002
{
1070
    19
1005
1FA
1002
}
  0
LINE
  5
1BA
330
139
100
AcDbEntity
  8
原紙文字
  6
Continuous
100
AcDbLine
 10
9.588275715553647
 20
1.90078007266198
 30
0.0
 11
8.713275715553647
 21
1.90078007266198
 31
0.0
1001
ACAD
1000
ASC_BOUNDS
1002
{
1070
    19
1005
1FA
1002
}
  0
LINE
  5
1BB
330
139
100
AcDbEntity
  8
原紙文字
  6
Continuous
100
AcDbLine
 10
8.713275715553647
 20
1.90078007266198
 30
0.0
 11
8.713275715553647
 21
2.100780072661983
 31
0.0
1001
ACAD
1000
ASC_BOUNDS
1002
{
1070
    19
1005
1FA
1002
}
  0
LINE
  5
1BC
330
139
100
AcDbEntity
  8
原紙文字
  6
Continuous
100
AcDbLine
 10
8.713275715553647
 20
2.100780072661983
 30
0.0
 11
9.100775715553664
 21
2.100780072661983
 31
0.0
1001
ACAD
1000
ASC_BOUNDS
1002
{
1070
    19
1005
1FA
1002
}
  0
LINE
  5
1BD
330
139
100
AcDbEntity
  8
原紙文字
  6
Continuous
100
AcDbLine
 10
9.100775715553664
 20
2.100780072661983
 30
0.0
 11
9.100775715553664
 21
2.438280072661967
 31
0.0
1001
ACAD
1000
ASC_BOUNDS
1002
{
1070
    19
1005
1FA
1002
}
  0
LINE
  5
1BE
330
139
100
AcDbEntity
  8
原紙文字
  6
Continuous
100
AcDbLine
 10
5.899220603797414
 20
1.572665975670659
 30
0.0
 11
5.899220603797414
 21
1.375323129824785
 31
0.0
1001
ACAD
1000
ASC_BOUNDS
1002
{
1070
    19
1005
1FA
1002
}
  0
LINE
  5
1BF
330
139
100
AcDbEntity
  8
原紙文字
  6
Continuous
100
AcDbLine
 10
5.899220603797414
 20
1.375323129824785
 30
0.0
 11
8.329005874745474
 21
1.375323129824785
 31
0.0
1001
ACAD
1000
ASC_BOUNDS
1002
{
1070
    19
1005
1FA
1002
}
  0
LINE
  5
1C0
330
139
100
AcDbEntity
  8
原紙文字
  6
Continuous
100
AcDbLine
 10
8.329005874745474
 20
1.375323129824785
 30
0.0
 11
8.329005874745474
 21
1.572665975670659
 31
0.0
1001
ACAD
1000
ASC_BOUNDS
1002
{
1070
    19
1005
1FA
1002
}
  0
LINE
  5
1C1
330
139
100
AcDbEntity
  8
原紙文字
  6
Continuous
100
AcDbLine
 10
8.329005874745474
 20
1.572665975670659
 30
0.0
 11
5.899220603797414
 21
1.572665975670659
 31
0.0
1001
ACAD
1000
ASC_BOUNDS
1002
{
1070
    19
1005
1FA
1002
}
  0
LINE
  5
1C2
330
139
100
AcDbEntity
  8
原紙文字
  6
Continuous
100
AcDbLine
 10
5.825775715553629
 20
2.038280072661983
 30
0.0
 11
6.758747496902568
 21
2.038280072661983
 31
0.0
1001
ACAD
1000
ASC_BOUNDS
1002
{
1070
    19
1005
1FA
1002
}
  0
LINE
  5
1C3
330
139
100
AcDbEntity
  8
原紙文字
  6
Continuous
100
AcDbLine
 10
7.05520526137751
 20
2.463280072661973
 30
0.0
 11
7.288808086344868
 21
2.463280072661973
 31
0.0
1001
ACAD
1000
ASC_BOUNDS
1002
{
1070
    19
1005
1FA
1002
}
  0
LINE
  5
1C4
330
139
100
AcDbEntity
  8
原紙文字
  6
Continuous
100
AcDbLine
 10
7.594660121161024
 20
2.038280072661983
 30
0.0
 11
8.45077571555363
 21
2.038280072661983
 31
0.0
1001
ACAD
1000
ASC_BOUNDS
1002
{
1070
    19
1005
1FA
1002
}
  0
LINE
  5
1C5
330
139
100
AcDbEntity
  8
原紙文字
  6
Continuous
100
AcDbLine
 10
8.45077571555363
 20
2.038280072661983
 30
0.0
 11
8.45077571555363
 21
1.83828007266198
 31
0.0
1001
ACAD
1000
ASC_BOUNDS
1002
{
1070
    19
1005
1FA
1002
}
  0
LINE
  5
1C6
330
139
100
AcDbEntity
  8
原紙文字
  6
Continuous
100
AcDbLine
 10
8.45077571555363
 20
1.83828007266198
 30
0.0
 11
7.501405430269433
 21
1.83828007266198
 31
0.0
1001
ACAD
1000
ASC_BOUNDS
1002
{
1070
    19
1005
1FA
1002
}
  0
LINE
  5
1C7
330
139
100
AcDbEntity
  8
原紙文字
  6
Continuous
100
AcDbLine
 10
6.810410660608231
 20
1.83828007266198
 30
0.0
 11
5.825775715553629
 21
1.83828007266198
 31
0.0
1001
ACAD
1000
ASC_BOUNDS
1002
{
1070
    19
1005
1FA
1002
}
  0
LINE
  5
1C8
330
139
100
AcDbEntity
  8
原紙文字
  6
Continuous
100
AcDbLine
 10
5.825775715553629
 20
1.83828007266198
 30
0.0
 11
5.825775715553629
 21
2.038280072661983
 31
0.0
1001
ACAD
1000
ASC_BOUNDS
1002
{
1070
    19
1005
1FA
1002
}
  0
LINE
  5
1C9
330
139
100
AcDbEntity
  8
原紙文字
  6
Continuous
100
AcDbLine
 10
19.09599263258617
 20
2.012891416333026
 30
0.0
 11
19.09599263258617
 21
1.420863862205365
 31
0.0
1001
ACAD
1000
ASC_BOUNDS
1002
{
1070
    19
1005
1FA
1002
}
  0
LINE
  5
1CA
330
139
100
AcDbEntity
  8
原紙文字
  6
Continuous
100
AcDbLine
 10
19.09599263258617
 20
1.420863862205365
 30
0.0
 11
21.76875657842943
 21
1.420863862205365
 31
0.0
1001
ACAD
1000
ASC_BOUNDS
1002
{
1070
    19
1005
1FA
1002
}
  0
LINE
  5
1CB
330
139
100
AcDbEntity
  8
原紙文字
  6
Continuous
100
AcDbLine
 10
21.76875657842943
 20
1.420863862205365
 30
0.0
 11
21.76875657842943
 21
2.012891416333026
 31
0.0
1001
ACAD
1000
ASC_BOUNDS
1002
{
1070
    19
1005
1FA
1002
}
  0
LINE
  5
1CC
330
139
100
AcDbEntity
  8
原紙文字
  6
Continuous
100
AcDbLine
 10
21.76875657842943
 20
2.012891416333026
 30
0.0
 11
19.09599263258617
 21
2.012891416333026
 31
0.0
1001
ACAD
1000
ASC_BOUNDS
1002
{
1070
    19
1005
1FA
1002
}
  0
LINE
  5
1CD
330
139
100
AcDbEntity
  8
原紙文字
  6
Continuous
100
AcDbLine
 10
17.80077571555365
 20
3.363280072661979
 30
0.0
 11
18.70077571555363
 21
3.363280072661979
 31
0.0
1001
ACAD
1000
ASC_BOUNDS
1002
{
1070
    19
1005
1FA
1002
}
  0
LINE
  5
1CE
330
139
100
AcDbEntity
  8
原紙文字
  6
Continuous
100
AcDbLine
 10
18.70077571555363
 20
3.363280072661979
 30
0.0
 11
18.70077571555363
 21
1.417778487969727
 31
0.0
1001
ACAD
1000
ASC_BOUNDS
1002
{
1070
    19
1005
1FA
1002
}
  0
LINE
  5
1CF
330
139
100
AcDbEntity
  8
原紙文字
  6
Continuous
100
AcDbLine
 10
17.44704058141319
 20
-0.0117199273380138
 30
0.0
 11
15.30077571555365
 21
-0.0117199273380138
 31
0.0
1001
ACAD
1000
ASC_BOUNDS
1002
{
1070
    19
1005
1FA
1002
}
  0
LINE
  5
1D0
330
139
100
AcDbEntity
  8
原紙文字
  6
Continuous
100
AcDbLine
 10
15.30077571555365
 20
-0.0117199273380138
 30
0.0
 11
15.62577571555364
 21
0.5882800726619806
 31
0.0
1001
ACAD
1000
ASC_BOUNDS
1002
{
1070
    19
1005
1FA
1002
}
  0
LINE
  5
1D1
330
139
100
AcDbEntity
  8
原紙文字
  6
Continuous
100
AcDbLine
 10
15.62577571555364
 20
0.5882800726619806
 30
0.0
 11
17.17493476316678
 21
0.5882800726619806
 31
0.0
1001
ACAD
1000
ASC_BOUNDS
1002
{
1070
    19
1005
1FA
1002
}
  0
LINE
  5
1D2
330
139
100
AcDbEntity
  8
原紙文字
  6
Continuous
100
AcDbLine
 10
17.80077571555365
 20
1.199951169552771
 30
0.0
 11
17.80077571555365
 21
3.363280072661979
 31
0.0
1001
ACAD
1000
ASC_BOUNDS
1002
{
1070
    19
1005
1FA
1002
}
  0
ARC
  5
1D3
330
139
100
AcDbEntity
  8
原紙文字
100
AcDbCircle
 10
-0.2171300142065057
 20
1.031433369880771
 30
0.0
 40
0.4304405949656852
100
AcDbArc
 50
300.1599194835803
 51
358.4695171901738
1001
ACAD
1000
ASC_BOUNDS
1002
{
1070
    19
1005
1FA
1002
}
  0
ARC
  5
1D4
330
139
100
AcDbEntity
  8
原紙文字
100
AcDbCircle
 10
-0.1288577745033907
 20
0.8901669030915812
 30
0.0
 40
0.4796326598916338
100
AcDbArc
 50
285.4766235590557
 51
356.1543175735927
1001
ACAD
1000
ASC_BOUNDS
1002
{
1070
    19
1005
1FA
1002
}
  0
LINE
  5
1D5
330
139
100
AcDbEntity
  8
原紙文字
100
AcDbLine
 10
0.8257306480493184
 20
2.051416102146152
 30
0.0
 11
0.8257306480493184
 21
2.488280072661979
 31
0.0
1001
ACAD
1000
ASC_BOUNDS
1002
{
1070
    19
1005
1FA
1002
}
  0
LINE
  5
1D6
330
139
100
AcDbEntity
  8
原紙文字
100
AcDbLine
 10
0.8257306480493184
 20
2.051416102146152
 30
0.0
 11
1.088275715553646
 21
2.051416102146152
 31
0.0
1001
ACAD
1000
ASC_BOUNDS
1002
{
1070
    19
1005
1FA
1002
}
  0
LINE
  5
1D7
330
139
100
AcDbEntity
  8
原紙文字
100
AcDbLine
 10
0.2904398047083574
 20
1.636497488138875
 30
0.0
 11
0.2131570239599712
 21
1.019936823428302
 31
0.0
1001
ACAD
1000
ASC_BOUNDS
1002
{
1070
    19
1005
1FA
1002
}
  0
ARC
  5
1D8
330
139
100
AcDbEntity
  8
原紙文字
100
AcDbCircle
 10
0.6134841452761158
 20
1.20264094696392
 30
0.0
 40
0.2145683405804583
100
AcDbArc
 50
121.6870857730031
 51
176.7191390082451
1001
ACAD
1000
ASC_BOUNDS
1002
{
1070
    19
1005
1FA
1002
}
  0
ARC
  5
1D9
330
139
100
AcDbEntity
  8
原紙文字
100
AcDbCircle
 10
1.028333033954116
 20
2.102129972938294
 30
0.0
 40
0.3755779550111113
100
AcDbArc
 50
291.0568078384539
 51
338.4421092146552
1001
ACAD
1000
ASC_BOUNDS
1002
{
1070
    19
1005
1FA
1002
}
  0
ARC
  5
1DA
330
139
100
AcDbEntity
  8
原紙文字
100
AcDbCircle
 10
1.101124035473665
 20
2.033782513718333
 30
0.0
 40
0.5127623464735556
100
AcDbArc
 50
276.9619127920651
 51
337.2060683028843
1001
ACAD
1000
ASC_BOUNDS
1002
{
1070
    19
1005
1FA
1002
}
  0
LINE
  5
1DB
330
139
100
AcDbEntity
  8
原紙文字
100
AcDbLine
 10
1.161211095879082
 20
1.388280072661977
 30
0.0
 11
1.161211095879082
 21
1.175780072661986
 31
0.0
1001
ACAD
1000
ASC_BOUNDS
1002
{
1070
    19
1005
1FA
1002
}
  0
ARC
  5
1DC
330
139
100
AcDbEntity
  8
原紙文字
100
AcDbCircle
 10
1.043614191449516
 20
0.6394265854196681
 30
0.0
 40
0.4137040458326114
100
AcDbArc
 50
288.8224976994769
 51
335.3584610138949
1001
ACAD
1000
ASC_BOUNDS
1002
{
1070
    19
1005
1FA
1002
}
  0
ARC
  5
1DD
330
139
100
AcDbEntity
  8
原紙文字
100
AcDbCircle
 10
1.220828173733646
 20
0.487434176089113
 30
0.0
 40
0.4504414271405511
100
AcDbArc
 50
264.2597664727053
 51
313.3574143536697
1001
ACAD
1000
ASC_BOUNDS
1002
{
1070
    19
1005
1FA
1002
}
  0
ARC
  5
1DE
330
139
100
AcDbEntity
  8
原紙文字
100
AcDbCircle
 10
0.7932147381734502
 20
0.7156402469067169
 30
0.0
 40
0.9229226918769677
100
AcDbArc
 50
322.9777179487304
 51
350.8474856032652
1001
ACAD
1000
ASC_BOUNDS
1002
{
1070
    19
1005
1FA
1002
}
  0
ARC
  5
1DF
330
139
100
AcDbEntity
  8
原紙文字
100
AcDbCircle
 10
3.293338978318293
 20
0.7360939415055038
 30
0.0
 40
0.6612259524154242
100
AcDbArc
 50
188.1972843372132
 51
227.9863866035142
1001
ACAD
1000
ASC_BOUNDS
1002
{
1070
    19
1005
1FA
1002
}
  0
ARC
  5
1E0
330
139
100
AcDbEntity
  8
原紙文字
100
AcDbCircle
 10
3.081635244767317
 20
0.6513959452851034
 30
0.0
 40
0.6789876604372525
100
AcDbArc
 50
195.0158016698875
 51
250.0805089911945
1001
ACAD
1000
ASC_BOUNDS
1002
{
1070
    19
1005
1FA
1002
}
  0
LINE
  5
1E1
330
139
100
AcDbEntity
  8
原紙文字
100
AcDbLine
 10
2.322851180117222
 20
1.188280072661974
 30
0.0
 11
2.425832018904642
 21
0.4754801359496009
 31
0.0
1001
ACAD
1000
ASC_BOUNDS
1002
{
1070
    19
1005
1FA
1002
}
  0
ARC
  5
1E2
330
139
100
AcDbEntity
  8
原紙文字
100
AcDbCircle
 10
3.715581121281831
 20
0.7300907975442162
 30
0.0
 40
0.5142629711549906
100
AcDbArc
 50
282.3730988493211
 51
349.7159246862069
1001
ACAD
1000
ASC_BOUNDS
1002
{
1070
    19
1005
1FA
1002
}
  0
ARC
  5
1E3
330
139
100
AcDbEntity
  8
原紙文字
100
AcDbCircle
 10
3.755485103478331
 20
0.6973754596748034
 30
0.0
 40
0.7008009059082677
100
AcDbArc
 50
276.280113903583
 51
355.162760368332
1001
ACAD
1000
ASC_BOUNDS
1002
{
1070
    19
1005
1FA
1002
}
  0
ARC
  5
1E4
330
139
100
AcDbEntity
  8
原紙文字
100
AcDbCircle
 10
6.001292664202345
 20
1.406933775593243
 30
0.0
 40
1.473873044188621
100
AcDbArc
 50
186.9584314718157
 51
252.5968646910155
1001
ACAD
1000
ASC_BOUNDS
1002
{
1070
    19
1005
1FA
1002
}
  0
LINE
  5
1E5
330
139
100
AcDbEntity
  8
原紙文字
100
AcDbLine
 10
5.560467540182788
 20
0.000528798206228
 30
0.0
 11
5.560467540182788
 21
0.258683485851971
 31
0.0
1001
ACAD
1000
ASC_BOUNDS
1002
{
1070
    19
1005
1FA
1002
}
  0
ARC
  5
1E6
330
139
100
AcDbEntity
  8
原紙文字
100
AcDbCircle
 10
5.975431010204538
 20
1.306442841544861
 30
0.0
 40
1.126940259683039
100
AcDbArc
 50
183.6492227209364
 51
248.3940345783173
1001
ACAD
1000
ASC_BOUNDS
1002
{
1070
    19
1005
1FA
1002
}
  0
ARC
  5
1E7
330
139
100
AcDbEntity
  8
原紙文字
100
AcDbCircle
 10
7.680101025677597
 20
2.422321268199672
 30
0.0
 40
0.3934307919248661
100
AcDbArc
 50
174.0242944502166
 51
257.4572010646211
1001
ACAD
1000
ASC_BOUNDS
1002
{
1070
    19
1005
1FA
1002
}
  0
ARC
  5
1E8
330
139
100
AcDbEntity
  8
原紙文字
100
AcDbCircle
 10
6.612130832301912
 20
2.456448900146742
 30
0.0
 40
0.443127086306624
100
AcDbArc
 50
289.3214805962677
 51
0.8832970731406586
1001
ACAD
1000
ASC_BOUNDS
1002
{
1070
    19
1005
1FA
1002
}
  0
ARC
  5
1E9
330
139
100
AcDbEntity
  8
原紙文字
100
AcDbCircle
 10
6.693469129356008
 20
2.335963285413507
 30
0.0
 40
0.5112376179295594
100
AcDbArc
 50
283.223021192741
 51
336.9475195209532
1001
ACAD
1000
ASC_BOUNDS
1002
{
1070
    19
1005
1FA
1002
}
  0
ARC
  5
1EA
330
139
100
AcDbEntity
  8
原紙文字
100
AcDbCircle
 10
7.660966509181453
 20
2.366276303065759
 30
0.0
 40
0.5515793299464474
100
AcDbArc
 50
204.701553963013
 51
253.1851215859795
1001
ACAD
1000
ASC_BOUNDS
1002
{
1070
    19
1005
1FA
1002
}
  0
ARC
  5
1EB
330
139
100
AcDbEntity
  8
原紙文字
100
AcDbCircle
 10
8.53223958274423
 20
0.799948091156992
 30
0.0
 40
0.9056692447338614
100
AcDbArc
 50
179.1565421177077
 51
221.4004820624308
1001
ACAD
1000
ASC_BOUNDS
1002
{
1070
    19
1005
1FA
1002
}
  0
ARC
  5
1EC
330
139
100
AcDbEntity
  8
原紙文字
100
AcDbCircle
 10
8.523143248394935
 20
0.7961958146079475
 30
0.0
 40
0.623158278930376
100
AcDbArc
 50
178.429004993305
 51
256.320830375474
1001
ACAD
1000
ASC_BOUNDS
1002
{
1070
    19
1005
1FA
1002
}
  0
ARC
  5
1ED
330
139
100
AcDbEntity
  8
原紙文字
100
AcDbCircle
 10
5.841574208801945
 20
0.7663119652265385
 30
0.0
 40
0.555538910924253
100
AcDbArc
 50
276.1173925478759
 51
4.849868376173379
1001
ACAD
1000
ASC_BOUNDS
1002
{
1070
    19
1005
1FA
1002
}
  0
ARC
  5
1EE
330
139
100
AcDbEntity
  8
原紙文字
100
AcDbCircle
 10
5.908622521886667
 20
0.7733572324804558
 30
0.0
 40
0.7694874760066878
100
AcDbArc
 50
311.9438809454313
 51
2.973976531480823
1001
ACAD
1000
ASC_BOUNDS
1002
{
1070
    19
1005
1FA
1002
}
  0
LINE
  5
1EF
330
139
100
AcDbEntity
  8
原紙文字
100
AcDbLine
 10
6.422949800073839
 20
0.2010125577924498
 30
0.0
 11
7.852892096011456
 21
0.2010125577924498
 31
0.0
1001
ACAD
1000
ASC_BOUNDS
1002
{
1070
    19
1005
1FA
1002
}
  0
LINE
  5
1F0
330
139
100
AcDbEntity
  8
原紙文字
  6
Continuous
100
AcDbLine
 10
7.626668470613354
 20
0.8132800726619748
 30
0.0
 11
6.677073654075946
 21
0.8132800726619748
 31
0.0
1001
ACAD
1000
ASC_BOUNDS
1002
{
1070
    19
1005
1FA
1002
}
  0
ARC
  5
1F1
330
139
100
AcDbEntity
  8
原紙文字
100
AcDbCircle
 10
8.681643538121084
 20
1.952726438493876
 30
0.0
 40
0.903061163563653
100
AcDbArc
 50
271.2139543628669
 51
356.8121410925718
1001
ACAD
1000
ASC_BOUNDS
1002
{
1070
    19
1005
1FA
1002
}
  0
ARC
  5
1F2
330
139
100
AcDbEntity
  8
原紙文字
100
AcDbCircle
 10
8.630769968539519
 20
2.041951360168829
 30
0.0
 40
1.247649879337657
100
AcDbArc
 50
273.2714058466022
 51
292.1302173084525
1001
ACAD
1000
ASC_BOUNDS
1002
{
1070
    19
1005
1FA
1002
}
  0
ARC
  5
1F3
330
139
100
AcDbEntity
  8
原紙文字
100
AcDbCircle
 10
8.630769968539519
 20
2.041951360168829
 30
0.0
 40
1.247649879337657
100
AcDbArc
 50
320.521985554933
 51
2.648667626253745
1001
ACAD
1000
ASC_BOUNDS
1002
{
1070
    19
1005
1FA
1002
}
  0
ARC
  5
1F4
330
139
100
AcDbEntity
  8
原紙文字
100
AcDbCircle
 10
13.64840672606506
 20
0.8639010000203475
 30
0.0
 40
0.2773735680432085
100
AcDbArc
 50
263.555629737735
 51
0.3292076280530087
1001
ACAD
1000
ASC_BOUNDS
1002
{
1070
    19
1005
1FA
1002
}
  0
ARC
  5
1F5
330
139
100
AcDbEntity
  8
原紙文字
100
AcDbCircle
 10
13.92370569244262
 20
0.88784883151678
 30
0.0
 40
0.9030246225442374
100
AcDbArc
 50
275.0142356090604
 51
2.634733453844436
1001
ACAD
1000
ASC_BOUNDS
1002
{
1070
    19
1005
1FA
1002
}
  0
ARC
  5
1F6
330
139
100
AcDbEntity
  8
原紙文字
100
AcDbCircle
 10
14.84788461402694
 20
4.401554575553095
 30
0.0
 40
1.886591111876355
100
AcDbArc
 50
269.3285372963851
 51
305.3078164860199
1001
ACAD
1000
ASC_BOUNDS
1002
{
1070
    19
1005
1FA
1002
}
  0
ARC
  5
1F7
330
139
100
AcDbEntity
  8
原紙文字
100
AcDbCircle
 10
14.68228737581666
 20
5.695969764083709
 30
0.0
 40
2.619094682928194
100
AcDbArc
 50
275.3489339659982
 51
298.6560529401054
1001
ACAD
1000
ASC_BOUNDS
1002
{
1070
    19
1005
1FA
1002
}
  0
ARC
  5
1F8
330
139
100
AcDbEntity
  8
原紙文字
100
AcDbCircle
 10
17.21748881428768
 20
1.170745303008203
 30
0.0
 40
0.584017629724544
100
AcDbArc
 50
265.8214786090541
 51
2.866473660563216
1001
ACAD
1000
ASC_BOUNDS
1002
{
1070
    19
1005
1FA
1002
}
  0
ARC
  5
1F9
330
139
100
AcDbEntity
  8
原紙文字
100
AcDbCircle
 10
17.31630541622063
 20
1.367481337755992
 30
0.0
 40
1.385383633891644
100
AcDbArc
 50
275.4149156531112
 51
2.080613498082262
1001
ACAD
1000
ASC_BOUNDS
1002
{
1070
    19
1005
1FA
1002
}
  0
INSERT
  5
1FA
330
139
100
AcDbEntity
  8
原紙文字
100
AcDbBlockReference
  2
*X0
 10
0.0
 20
0.0
 30
0.0
1001
ACAD
1000
HATCH
1002
{
1070
    19
1000
ANSI31
1040
0.05
1040
0.0
1000
ASC_BOUNDS
1070
     1
1070
     2
1070
   192
1005
1F9
1005
1F8
1005
1F7
1005
1F6
1005
1F5
1005
1F4
1005
1F3
1005
1F2
1005
1F1
1005
1F0
1005
1EF
1005
1EE
1005
1ED
1005
1EC
1005
1EB
1005
1EA
1005
1E9
1005
1E8
1005
1E7
1005
1E6
1005
1E5
1005
1E4
1005
1E3
1005
1E2
1005
1E1
1005
1E0
1005
1DF
1005
1DE
1005
1DD
1005
1DC
1005
1DB
1005
1DA
1005
1D9
1005
1D8
1005
1D7
1005
1D6
1005
1D5
1005
1D4
1005
1D3
1005
1D2
1005
1D1
1005
1D0
1005
1CF
1005
1CE
1005
1CD
1005
1CC
1005
1CB
1005
1CA
1005
1C9
1005
1C8
1005
1C7
1005
1C6
1005
1C5
1005
1C4
1005
1C3
1005
1C2
1005
1C1
1005
1C0
1005
1BF
1005
1BE
1005
1BD
1005
1BC
1005
1BB
1005
1BA
1005
1B9
1005
1B8
1005
1B7
1005
1B6
1005
1B5
1005
1B4
1005
1B3
1005
1B2
1005
1B1
1005
1B0
1005
1AF
1005
1AE
1005
1AD
1005
1AC
1005
1AB
1005
1AA
1005
1A9
1005
1A8
1005
1A7
1005
1A6
1005
1A5
1005
1A4
1005
1A3
1005
1A2
1005
1A1
1005
1A0
1005
19F
1005
19E
1005
19D
1005
19C
1005
19B
1005
19A
1005
199
1005
198
1005
197
1005
196
1005
195
1005
194
1005
193
1005
192
1005
191
1005
190
1005
18F
1005
18E
1005
18D
1005
18C
1005
18B
1005
18A
1005
189
1005
188
1005
187
1005
186
1005
185
1005
184
1005
183
1005
182
1005
181
1005
180
1005
17F
1005
17E
1005
17D
1005
17C
1005
17B
1005
17A
1005
179
1005
178
1005
177
1005
176
1005
175
1005
174
1005
173
1005
172
1005
171
1005
170
1005
16F
1005
16E
1005
16D
1005
16C
1005
16B
1005
16A
1005
169
1005
168
1005
167
1005
166
1005
165
1005
164
1005
163
1005
162
1005
161
1005
160
1005
15F
1005
15E
1005
15D
1005
15C
1005
15B
1005
15A
1005
159
1005
158
1005
157
1005
156
1005
155
1005
154
1005
153
1005
152
1005
151
1005
150
1005
14F
1005
14E
1005
14D
1005
14C
1005
14B
1005
14A
1005
149
1005
148
1005
147
1005
146
1005
145
1005
144
1005
143
1005
142
1005
141
1005
140
1005
13F
1005
13E
1005
13D
1005
13C
1005
13B
1005
13A
1000
ASC_SEEDPOINT
1011
0.0
1021
0.0
1031
0.0
1002
}
  0
ENDBLK
  5
1FC
330
139
100
AcDbEntity
  8
0
100
AcDbBlockEnd
  0
ENDSEC
  0
SECTION
  2
ENTITIES
  0
TEXT
  5
215
330
18
100
AcDbEntity
  8
COMMENT
  6
Continuous
100
AcDbText
 10
32.13402547836305
 20
10.55101318359374
 30
0.0
 40
3.0
  1
杉
  7
ＭＳ明朝
100
AcDbText
  0
TEXT
  5
216
330
18
100
AcDbEntity
  8
COMMENT
  6
Continuous
100
AcDbText
 10
34.52214860916138
 20
6.551013183593738
 30
0.0
 40
3.0
  1
山
  7
ＭＳ明朝
100
AcDbText
  0
TEXT
  5
217
330
18
100
AcDbEntity
  8
COMMENT
  6
Continuous
100
AcDbText
 10
69.53383631706238
 20
10.939208984375
 30
0.0
 40
2.8881157502532
  1
'94, 11, 14
  7
ＭＳ明朝
100
AcDbText
  0
TEXT
  5
21C
330
18
100
AcDbEntity
  8
COMMENT
  6
Continuous
100
AcDbText
 10
120.445316696167
 20
5.607012176513649
 30
0.0
 40
4.0
  1
パネルメータ(IR-GBH)外形図
  7
ＭＳ明朝
100
AcDbText
  0
TEXT
  5
222
330
18
100
AcDbEntity
  8
COMMENT
  6
Continuous
100
AcDbText
 10
213.7158212661743
 20
7.607012176513649
 30
0.0
 40
4.0
  1
IRB
  7
ＭＳ明朝
100
AcDbText
  0
TEXT
  5
223
330
18
100
AcDbEntity
  8
COMMENT
  6
Continuous
100
AcDbText
 10
234.0666278839111
 20
7.607012176513649
 30
0.0
 40
4.0
  1
01302
  7
ＭＳ明朝
100
AcDbText
  0
LINE
  5
22F
330
18
100
AcDbEntity
  8
0
  6
Continuous
 62
     7
100
AcDbLine
 10
7.000121593475341
 20
115.9989391326904
 30
0.0
 11
103.0001242637634
 21
115.9989391326904
 31
0.0
  0
LINE
  5
230
330
18
100
AcDbEntity
  8
0
  6
Continuous
 62
     7
100
AcDbLine
 10
103.0001242637634
 20
115.9989391326904
 30
0.0
 11
103.0001242637634
 21
163.9989162445068
 31
0.0
  0
LINE
  5
231
330
18
100
AcDbEntity
  8
0
  6
Continuous
 62
     7
100
AcDbLine
 10
103.0001242637634
 20
163.9989162445068
 30
0.0
 11
7.000121593475341
 21
163.9989162445068
 31
0.0
  0
LINE
  5
232
330
18
100
AcDbEntity
  8
0
  6
Continuous
 62
     7
100
AcDbLine
 10
7.000121593475341
 20
163.9989162445068
 30
0.0
 11
7.000121593475341
 21
115.9989391326904
 31
0.0
  0
LINE
  5
233
330
18
100
AcDbEntity
  8
DIM
  6
BORDER
 48
10.0
100
AcDbLine
 10
55.00014715194703
 20
168.9988533020019
 30
0.0
 11
55.00014715194703
 21
110.9990020751953
 31
0.0
  0
LINE
  5
234
330
18
100
AcDbEntity
  8
0
  6
Continuous
 62
     7
100
AcDbLine
 10
9.000241756439208
 20
161.9988929748534
 30
0.0
 11
101.0000525474548
 21
161.9988929748534
 31
0.0
  0
LINE
  5
235
330
18
100
AcDbEntity
  8
0
  6
Continuous
 62
     7
100
AcDbLine
 10
101.0000525474548
 20
117.9989624023437
 30
0.0
 11
9.000241756439208
 21
117.9989624023437
 31
0.0
  0
LINE
  5
236
330
18
100
AcDbEntity
  8
0
  6
Continuous
 62
     7
100
AcDbLine
 10
9.000241756439208
 20
117.9989624023437
 30
0.0
 11
9.000241756439208
 21
161.9988929748534
 31
0.0
  0
LINE
  5
237
330
18
100
AcDbEntity
  8
0
  6
Continuous
 62
     7
100
AcDbLine
 10
9.000241756439208
 20
142.4989204406738
 30
0.0
 11
10.50024709701539
 21
142.4989204406738
 31
0.0
  0
LINE
  5
238
330
18
100
AcDbEntity
  8
0
  6
Continuous
 62
     7
100
AcDbLine
 10
10.50024709701539
 20
142.4989204406738
 30
0.0
 11
10.50024709701539
 21
146.4989185333252
 31
0.0
  0
LINE
  5
239
330
18
100
AcDbEntity
  8
0
  6
Continuous
 62
     7
100
AcDbLine
 10
10.50024709701539
 20
146.4989185333252
 30
0.0
 11
9.000241756439208
 21
146.4989185333252
 31
0.0
  0
LINE
  5
23A
330
18
100
AcDbEntity
  8
0
  6
Continuous
 62
     7
100
AcDbLine
 10
10.00022916793824
 20
146.4989185333252
 30
0.0
 11
10.00022916793824
 21
161.9988929748534
 31
0.0
  0
LINE
  5
23B
330
18
100
AcDbEntity
  8
0
  6
Continuous
 62
     7
100
AcDbLine
 10
9.000241756439208
 20
137.4989349365233
 30
0.0
 11
10.50024709701539
 21
137.4989349365233
 31
0.0
  0
LINE
  5
23C
330
18
100
AcDbEntity
  8
0
  6
Continuous
 62
     7
100
AcDbLine
 10
10.50024709701539
 20
137.4989349365233
 30
0.0
 11
10.50024709701539
 21
133.498936843872
 31
0.0
  0
LINE
  5
23D
330
18
100
AcDbEntity
  8
0
  6
Continuous
 62
     7
100
AcDbLine
 10
10.50024709701539
 20
133.498936843872
 30
0.0
 11
9.000241756439208
 21
133.498936843872
 31
0.0
  0
LINE
  5
23E
330
18
100
AcDbEntity
  8
0
  6
Continuous
 62
     7
100
AcDbLine
 10
10.00022916793824
 20
133.498936843872
 30
0.0
 11
10.00022916793824
 21
117.9989624023437
 31
0.0
  0
LINE
  5
23F
330
18
100
AcDbEntity
  8
0
  6
Continuous
 62
     7
100
AcDbLine
 10
9.500211238861083
 20
142.4989204406738
 30
0.0
 11
9.500211238861083
 21
137.4989349365233
 31
0.0
  0
LINE
  5
240
330
18
100
AcDbEntity
  8
0
  6
Continuous
 62
     7
100
AcDbLine
 10
101.0000525474548
 20
117.9989624023437
 30
0.0
 11
101.0000525474548
 21
161.9988929748534
 31
0.0
  0
LINE
  5
241
330
18
100
AcDbEntity
  8
0
  6
Continuous
 62
     7
100
AcDbLine
 10
101.0000525474548
 20
142.4989204406738
 30
0.0
 11
99.50004720687866
 21
142.4989204406738
 31
0.0
  0
LINE
  5
242
330
18
100
AcDbEntity
  8
0
  6
Continuous
 62
     7
100
AcDbLine
 10
99.50004720687866
 20
142.4989204406738
 30
0.0
 11
99.50004720687866
 21
146.4989185333252
 31
0.0
  0
LINE
  5
243
330
18
100
AcDbEntity
  8
0
  6
Continuous
 62
     7
100
AcDbLine
 10
99.50004720687866
 20
146.4989185333252
 30
0.0
 11
101.0000525474548
 21
146.4989185333252
 31
0.0
  0
LINE
  5
244
330
18
100
AcDbEntity
  8
0
  6
Continuous
 62
     7
100
AcDbLine
 10
100.0000651359558
 20
146.4989185333252
 30
0.0
 11
100.0000651359558
 21
161.9988929748534
 31
0.0
  0
LINE
  5
245
330
18
100
AcDbEntity
  8
0
  6
Continuous
 62
     7
100
AcDbLine
 10
101.0000525474548
 20
137.4989349365233
 30
0.0
 11
99.50004720687866
 21
137.4989349365233
 31
0.0
  0
LINE
  5
246
330
18
100
AcDbEntity
  8
0
  6
Continuous
 62
     7
100
AcDbLine
 10
99.50004720687866
 20
137.4989349365233
 30
0.0
 11
99.50004720687866
 21
133.498936843872
 31
0.0
  0
LINE
  5
247
330
18
100
AcDbEntity
  8
0
  6
Continuous
 62
     7
100
AcDbLine
 10
99.50004720687866
 20
133.498936843872
 30
0.0
 11
101.0000525474548
 21
133.498936843872
 31
0.0
  0
LINE
  5
248
330
18
100
AcDbEntity
  8
0
  6
Continuous
 62
     7
100
AcDbLine
 10
100.0000651359558
 20
133.498936843872
 30
0.0
 11
100.0000651359558
 21
117.9989624023437
 31
0.0
  0
LINE
  5
249
330
18
100
AcDbEntity
  8
0
  6
Continuous
 62
     7
100
AcDbLine
 10
100.5000346183777
 20
142.4989204406738
 30
0.0
 11
100.5000346183777
 21
137.4989349365233
 31
0.0
  0
LINE
  5
24A
330
18
100
AcDbEntity
  8
0
  6
Continuous
 62
     7
100
AcDbLine
 10
123.9999901056289
 20
163.9988677978515
 30
0.0
 11
117.4999992609024
 21
162.9988803863525
 31
0.0
  0
LINE
  5
24B
330
18
100
AcDbEntity
  8
DIM
  6
BORDER
 48
10.0
100
AcDbLine
 10
105.000059723854
 20
139.9989276885986
 30
0.0
 11
2.50025091171264
 21
139.9989276885986
 31
0.0
  0
LINE
  5
24C
330
18
100
AcDbEntity
  8
0
  6
Continuous
 62
     7
100
AcDbLine
 10
123.9999901056289
 20
115.9989875793457
 30
0.0
 11
117.4999992609024
 21
116.9989749908446
 31
0.0
  0
LINE
  5
24D
330
18
100
AcDbEntity
  8
0
  6
Continuous
 62
     7
100
AcDbLine
 10
124.0000385522842
 20
115.9989875793457
 30
0.0
 11
124.0000385522842
 21
163.9988677978515
 31
0.0
  0
LINE
  5
24E
330
18
100
AcDbEntity
  8
0
  6
Continuous
 62
     7
100
AcDbLine
 10
117.4999992609024
 20
116.9989749908446
 30
0.0
 11
117.4999992609024
 21
162.9988803863525
 31
0.0
  0
LINE
  5
24F
330
18
100
AcDbEntity
  8
0
  6
Continuous
 62
     7
100
AcDbLine
 10
248.5000003814697
 20
161.9988929748534
 30
0.0
 11
123.9999901056289
 21
161.9988929748534
 31
0.0
  0
LINE
  5
250
330
18
100
AcDbEntity
  8
0
  6
Continuous
 62
     7
100
AcDbLine
 10
248.5000003814697
 20
117.9989624023437
 30
0.0
 11
123.9999901056289
 21
117.9989624023437
 31
0.0
  0
LINE
  5
251
330
18
100
AcDbEntity
  8
0
  6
Continuous
 62
     7
100
AcDbLine
 10
138.9999950647354
 20
156.498889541626
 30
0.0
 11
151.4999588251114
 21
156.498889541626
 31
0.0
  0
LINE
  5
252
330
18
100
AcDbEntity
  8
0
  6
Continuous
 62
     7
100
AcDbLine
 10
151.4999588251114
 20
156.498889541626
 30
0.0
 11
151.4999588251114
 21
153.9988967895507
 31
0.0
  0
LINE
  5
253
330
18
100
AcDbEntity
  8
0
  6
Continuous
 62
     7
100
AcDbLine
 10
151.4999588251114
 20
153.9988967895507
 30
0.0
 11
138.9999950647354
 21
153.9988967895507
 31
0.0
  0
LINE
  5
254
330
18
100
AcDbEntity
  8
0
  6
Continuous
 62
     7
100
AcDbLine
 10
138.9999950647354
 20
153.9988967895507
 30
0.0
 11
138.9999950647354
 21
156.498889541626
 31
0.0
  0
LINE
  5
255
330
18
100
AcDbEntity
  8
0
  6
Continuous
 62
     7
100
AcDbLine
 10
138.9999950647354
 20
151.4989040374755
 30
0.0
 11
151.4999588251114
 21
151.4989040374755
 31
0.0
  0
LINE
  5
256
330
18
100
AcDbEntity
  8
0
  6
Continuous
 62
     7
100
AcDbLine
 10
151.4999588251114
 20
151.4989040374755
 30
0.0
 11
151.4999588251114
 21
148.9989112854003
 31
0.0
  0
LINE
  5
257
330
18
100
AcDbEntity
  8
0
  6
Continuous
 62
     7
100
AcDbLine
 10
151.4999588251114
 20
148.9989112854003
 30
0.0
 11
138.9999950647354
 21
148.9989112854003
 31
0.0
  0
LINE
  5
258
330
18
100
AcDbEntity
  8
0
  6
Continuous
 62
     7
100
AcDbLine
 10
138.9999950647354
 20
148.9989112854003
 30
0.0
 11
138.9999950647354
 21
151.4989040374755
 31
0.0
  0
LINE
  5
259
330
18
100
AcDbEntity
  8
0
  6
Continuous
 62
     7
100
AcDbLine
 10
138.9999950647354
 20
146.4989185333252
 30
0.0
 11
151.4999588251114
 21
146.4989185333252
 31
0.0
  0
LINE
  5
25A
330
18
100
AcDbEntity
  8
0
  6
Continuous
 62
     7
100
AcDbLine
 10
154.9998905420303
 20
156.498889541626
 30
0.0
 11
167.4999027490616
 21
156.498889541626
 31
0.0
  0
LINE
  5
25B
330
18
100
AcDbEntity
  8
0
  6
Continuous
 62
     7
100
AcDbLine
 10
167.4999027490616
 20
156.498889541626
 30
0.0
 11
167.4999027490616
 21
153.9988967895507
 31
0.0
  0
LINE
  5
25C
330
18
100
AcDbEntity
  8
0
  6
Continuous
 62
     7
100
AcDbLine
 10
167.4999027490616
 20
153.9988967895507
 30
0.0
 11
154.9998905420303
 21
153.9988967895507
 31
0.0
  0
LINE
  5
25D
330
18
100
AcDbEntity
  8
0
  6
Continuous
 62
     7
100
AcDbLine
 10
154.9998905420303
 20
153.9988967895507
 30
0.0
 11
154.9998905420303
 21
156.498889541626
 31
0.0
  0
LINE
  5
25E
330
18
100
AcDbEntity
  8
0
  6
Continuous
 62
     7
100
AcDbLine
 10
154.9998905420303
 20
151.4989040374755
 30
0.0
 11
167.4999027490616
 21
151.4989040374755
 31
0.0
  0
LINE
  5
25F
330
18
100
AcDbEntity
  8
0
  6
Continuous
 62
     7
100
AcDbLine
 10
167.4999027490616
 20
151.4989040374755
 30
0.0
 11
167.4999027490616
 21
148.9989112854003
 31
0.0
  0
LINE
  5
260
330
18
100
AcDbEntity
  8
0
  6
Continuous
 62
     7
100
AcDbLine
 10
167.4999027490616
 20
148.9989112854003
 30
0.0
 11
154.9998905420303
 21
148.9989112854003
 31
0.0
  0
LINE
  5
261
330
18
100
AcDbEntity
  8
0
  6
Continuous
 62
     7
100
AcDbLine
 10
154.9998905420303
 20
148.9989112854003
 30
0.0
 11
154.9998905420303
 21
151.4989040374755
 31
0.0
  0
LINE
  5
262
330
18
100
AcDbEntity
  8
0
  6
Continuous
 62
     7
100
AcDbLine
 10
170.9998829126358
 20
156.498889541626
 30
0.0
 11
183.499895119667
 21
156.498889541626
 31
0.0
  0
LINE
  5
263
330
18
100
AcDbEntity
  8
0
  6
Continuous
 62
     7
100
AcDbLine
 10
183.499895119667
 20
156.498889541626
 30
0.0
 11
183.499895119667
 21
153.9988967895507
 31
0.0
  0
LINE
  5
264
330
18
100
AcDbEntity
  8
0
  6
Continuous
 62
     7
100
AcDbLine
 10
183.499895119667
 20
153.9988967895507
 30
0.0
 11
170.9998829126358
 21
153.9988967895507
 31
0.0
  0
LINE
  5
265
330
18
100
AcDbEntity
  8
0
  6
Continuous
 62
     7
100
AcDbLine
 10
170.9998829126358
 20
153.9988967895507
 30
0.0
 11
170.9998829126358
 21
156.498889541626
 31
0.0
  0
LINE
  5
266
330
18
100
AcDbEntity
  8
0
  6
Continuous
 62
     7
100
AcDbLine
 10
170.9998829126358
 20
151.4989040374755
 30
0.0
 11
183.499895119667
 21
151.4989040374755
 31
0.0
  0
LINE
  5
267
330
18
100
AcDbEntity
  8
0
  6
Continuous
 62
     7
100
AcDbLine
 10
183.499895119667
 20
151.4989040374755
 30
0.0
 11
183.499895119667
 21
148.9989112854003
 31
0.0
  0
LINE
  5
268
330
18
100
AcDbEntity
  8
0
  6
Continuous
 62
     7
100
AcDbLine
 10
183.499895119667
 20
148.9989112854003
 30
0.0
 11
170.9998829126358
 21
148.9989112854003
 31
0.0
  0
LINE
  5
269
330
18
100
AcDbEntity
  8
0
  6
Continuous
 62
     7
100
AcDbLine
 10
170.9998829126358
 20
148.9989112854003
 30
0.0
 11
170.9998829126358
 21
151.4989040374755
 31
0.0
  0
LINE
  5
26A
330
18
100
AcDbEntity
  8
0
  6
Continuous
 62
     7
100
AcDbLine
 10
186.9998783111572
 20
156.498889541626
 30
0.0
 11
199.4998420715332
 21
156.498889541626
 31
0.0
  0
LINE
  5
26B
330
18
100
AcDbEntity
  8
0
  6
Continuous
 62
     7
100
AcDbLine
 10
199.4998420715332
 20
156.498889541626
 30
0.0
 11
199.4998420715332
 21
153.9988967895507
 31
0.0
  0
LINE
  5
26C
330
18
100
AcDbEntity
  8
0
  6
Continuous
 62
     7
100
AcDbLine
 10
199.4998420715332
 20
153.9988967895507
 30
0.0
 11
186.9998783111572
 21
153.9988967895507
 31
0.0
  0
LINE
  5
26D
330
18
100
AcDbEntity
  8
0
  6
Continuous
 62
     7
100
AcDbLine
 10
186.9998783111572
 20
153.9988967895507
 30
0.0
 11
186.9998783111572
 21
156.498889541626
 31
0.0
  0
LINE
  5
26E
330
18
100
AcDbEntity
  8
0
  6
Continuous
 62
     7
100
AcDbLine
 10
186.9998783111572
 20
151.4989040374755
 30
0.0
 11
199.4998420715332
 21
151.4989040374755
 31
0.0
  0
LINE
  5
26F
330
18
100
AcDbEntity
  8
0
  6
Continuous
 62
     7
100
AcDbLine
 10
199.4998420715332
 20
151.4989040374755
 30
0.0
 11
199.4998420715332
 21
148.9989112854003
 31
0.0
  0
LINE
  5
270
330
18
100
AcDbEntity
  8
0
  6
Continuous
 62
     7
100
AcDbLine
 10
199.4998420715332
 20
148.9989112854003
 30
0.0
 11
186.9998783111572
 21
148.9989112854003
 31
0.0
  0
LINE
  5
271
330
18
100
AcDbEntity
  8
0
  6
Continuous
 62
     7
100
AcDbLine
 10
186.9998783111572
 20
148.9989112854003
 30
0.0
 11
186.9998783111572
 21
151.4989040374755
 31
0.0
  0
LINE
  5
272
330
18
100
AcDbEntity
  8
0
  6
Continuous
 62
     7
100
AcDbLine
 10
202.9998222351074
 20
156.498889541626
 30
0.0
 11
215.4997859954834
 21
156.498889541626
 31
0.0
  0
LINE
  5
273
330
18
100
AcDbEntity
  8
0
  6
Continuous
 62
     7
100
AcDbLine
 10
215.4997859954834
 20
156.498889541626
 30
0.0
 11
215.4997859954834
 21
153.9988967895507
 31
0.0
  0
LINE
  5
274
330
18
100
AcDbEntity
  8
0
  6
Continuous
 62
     7
100
AcDbLine
 10
215.4997859954834
 20
153.9988967895507
 30
0.0
 11
202.9998222351074
 21
153.9988967895507
 31
0.0
  0
LINE
  5
275
330
18
100
AcDbEntity
  8
0
  6
Continuous
 62
     7
100
AcDbLine
 10
202.9998222351074
 20
153.9988967895507
 30
0.0
 11
202.9998222351074
 21
156.498889541626
 31
0.0
  0
LINE
  5
276
330
18
100
AcDbEntity
  8
0
  6
Continuous
 62
     7
100
AcDbLine
 10
202.9998222351074
 20
151.4989040374755
 30
0.0
 11
215.4997859954834
 21
151.4989040374755
 31
0.0
  0
LINE
  5
277
330
18
100
AcDbEntity
  8
0
  6
Continuous
 62
     7
100
AcDbLine
 10
215.4997859954834
 20
151.4989040374755
 30
0.0
 11
215.4997859954834
 21
148.9989112854003
 31
0.0
  0
LINE
  5
278
330
18
100
AcDbEntity
  8
0
  6
Continuous
 62
     7
100
AcDbLine
 10
215.4997859954834
 20
148.9989112854003
 30
0.0
 11
202.9998222351074
 21
148.9989112854003
 31
0.0
  0
LINE
  5
279
330
18
100
AcDbEntity
  8
0
  6
Continuous
 62
     7
100
AcDbLine
 10
202.9998222351074
 20
148.9989112854003
 30
0.0
 11
202.9998222351074
 21
151.4989040374755
 31
0.0
  0
LINE
  5
27A
330
18
100
AcDbEntity
  8
0
  6
Continuous
 62
     7
100
AcDbLine
 10
218.9997661590576
 20
156.498889541626
 30
0.0
 11
231.4997783660889
 21
156.498889541626
 31
0.0
  0
LINE
  5
27B
330
18
100
AcDbEntity
  8
0
  6
Continuous
 62
     7
100
AcDbLine
 10
231.4997783660889
 20
156.498889541626
 30
0.0
 11
231.4997783660889
 21
153.9988967895507
 31
0.0
  0
LINE
  5
27C
330
18
100
AcDbEntity
  8
0
  6
Continuous
 62
     7
100
AcDbLine
 10
231.4997783660889
 20
153.9988967895507
 30
0.0
 11
218.9997661590576
 21
153.9988967895507
 31
0.0
  0
LINE
  5
27D
330
18
100
AcDbEntity
  8
0
  6
Continuous
 62
     7
100
AcDbLine
 10
218.9997661590576
 20
153.9988967895507
 30
0.0
 11
218.9997661590576
 21
156.498889541626
 31
0.0
  0
LINE
  5
27E
330
18
100
AcDbEntity
  8
0
  6
Continuous
 62
     7
100
AcDbLine
 10
218.9997661590576
 20
151.4989040374755
 30
0.0
 11
231.4997783660889
 21
151.4989040374755
 31
0.0
  0
LINE
  5
27F
330
18
100
AcDbEntity
  8
0
  6
Continuous
 62
     7
100
AcDbLine
 10
231.4997783660889
 20
151.4989040374755
 30
0.0
 11
231.4997783660889
 21
148.9989112854003
 31
0.0
  0
LINE
  5
280
330
18
100
AcDbEntity
  8
0
  6
Continuous
 62
     7
100
AcDbLine
 10
231.4997783660889
 20
148.9989112854003
 30
0.0
 11
218.9997661590576
 21
148.9989112854003
 31
0.0
  0
LINE
  5
281
330
18
100
AcDbEntity
  8
0
  6
Continuous
 62
     7
100
AcDbLine
 10
218.9997661590576
 20
148.9989112854003
 30
0.0
 11
218.9997661590576
 21
151.4989040374755
 31
0.0
  0
LINE
  5
282
330
18
100
AcDbEntity
  8
0
  6
Continuous
 62
     7
100
AcDbLine
 10
126.0000133752823
 20
144.998913192749
 30
0.0
 11
126.0000133752823
 21
135.4989601135254
 31
0.0
  0
LINE
  5
283
330
18
100
AcDbEntity
  8
0
  6
Continuous
 62
     7
100
AcDbLine
 10
138.9999950647354
 20
144.998913192749
 30
0.0
 11
138.9999950647354
 21
146.4989185333252
 31
0.0
  0
LINE
  5
284
330
18
100
AcDbEntity
  8
0
  6
Continuous
 62
     7
100
AcDbLine
 10
151.4999588251114
 20
144.998913192749
 30
0.0
 11
151.4999588251114
 21
146.4989185333252
 31
0.0
  0
LINE
  5
285
330
18
100
AcDbEntity
  8
0
  6
Continuous
 62
     7
100
AcDbLine
 10
154.9998905420303
 20
146.4989185333252
 30
0.0
 11
167.4999027490616
 21
146.4989185333252
 31
0.0
  0
LINE
  5
286
330
18
100
AcDbEntity
  8
0
  6
Continuous
 62
     7
100
AcDbLine
 10
154.9998905420303
 20
144.998913192749
 30
0.0
 11
154.9998905420303
 21
146.4989185333252
 31
0.0
  0
LINE
  5
287
330
18
100
AcDbEntity
  8
0
  6
Continuous
 62
     7
100
AcDbLine
 10
167.4999027490616
 20
144.998913192749
 30
0.0
 11
167.4999027490616
 21
146.4989185333252
 31
0.0
  0
LINE
  5
288
330
18
100
AcDbEntity
  8
0
  6
Continuous
 62
     7
100
AcDbLine
 10
170.9998829126358
 20
146.4989185333252
 30
0.0
 11
183.499895119667
 21
146.4989185333252
 31
0.0
  0
LINE
  5
289
330
18
100
AcDbEntity
  8
0
  6
Continuous
 62
     7
100
AcDbLine
 10
170.9998829126358
 20
144.998913192749
 30
0.0
 11
170.9998829126358
 21
146.4989185333252
 31
0.0
  0
LINE
  5
28A
330
18
100
AcDbEntity
  8
0
  6
Continuous
 62
     7
100
AcDbLine
 10
183.499895119667
 20
144.998913192749
 30
0.0
 11
183.499895119667
 21
146.4989185333252
 31
0.0
  0
LINE
  5
28B
330
18
100
AcDbEntity
  8
0
  6
Continuous
 62
     7
100
AcDbLine
 10
186.9998298645019
 20
146.4989185333252
 30
0.0
 11
199.4997936248779
 21
146.4989185333252
 31
0.0
  0
LINE
  5
28C
330
18
100
AcDbEntity
  8
0
  6
Continuous
 62
     7
100
AcDbLine
 10
186.9998298645019
 20
144.998913192749
 30
0.0
 11
186.9998298645019
 21
146.4989185333252
 31
0.0
  0
LINE
  5
28D
330
18
100
AcDbEntity
  8
0
  6
Continuous
 62
     7
100
AcDbLine
 10
199.4997936248779
 20
144.998913192749
 30
0.0
 11
199.4997936248779
 21
146.4989185333252
 31
0.0
  0
LINE
  5
28E
330
18
100
AcDbEntity
  8
0
  6
Continuous
 62
     7
100
AcDbLine
 10
202.9997737884522
 20
146.4989185333252
 30
0.0
 11
215.4997859954834
 21
146.4989185333252
 31
0.0
  0
LINE
  5
28F
330
18
100
AcDbEntity
  8
0
  6
Continuous
 62
     7
100
AcDbLine
 10
202.9997737884522
 20
144.998913192749
 30
0.0
 11
202.9997737884522
 21
146.4989185333252
 31
0.0
  0
LINE
  5
290
330
18
100
AcDbEntity
  8
0
  6
Continuous
 62
     7
100
AcDbLine
 10
215.4997859954834
 20
144.998913192749
 30
0.0
 11
215.4997859954834
 21
146.4989185333252
 31
0.0
  0
LINE
  5
291
330
18
100
AcDbEntity
  8
0
  6
Continuous
 62
     7
100
AcDbLine
 10
218.9997661590576
 20
146.4989185333252
 30
0.0
 11
231.4997783660889
 21
146.4989185333252
 31
0.0
  0
LINE
  5
292
330
18
100
AcDbEntity
  8
0
  6
Continuous
 62
     7
100
AcDbLine
 10
218.9997661590576
 20
144.998913192749
 30
0.0
 11
218.9997661590576
 21
146.4989185333252
 31
0.0
  0
LINE
  5
293
330
18
100
AcDbEntity
  8
0
  6
Continuous
 62
     7
100
AcDbLine
 10
231.4997783660889
 20
144.998913192749
 30
0.0
 11
231.4997783660889
 21
146.4989185333252
 31
0.0
  0
LINE
  5
294
330
18
100
AcDbEntity
  8
0
  6
Continuous
 62
     7
100
AcDbLine
 10
250.500023651123
 20
144.998913192749
 30
0.0
 11
123.9999901056289
 21
144.998913192749
 31
0.0
  0
LINE
  5
295
330
18
100
AcDbEntity
  8
0
  6
Continuous
 62
     7
100
AcDbLine
 10
138.9999950647354
 20
123.4989658355713
 30
0.0
 11
151.4999588251114
 21
123.4989658355713
 31
0.0
  0
LINE
  5
296
330
18
100
AcDbEntity
  8
0
  6
Continuous
 62
     7
100
AcDbLine
 10
151.4999588251114
 20
123.4989658355713
 30
0.0
 11
151.4999588251114
 21
125.9989585876465
 31
0.0
  0
LINE
  5
297
330
18
100
AcDbEntity
  8
0
  6
Continuous
 62
     7
100
AcDbLine
 10
151.4999588251114
 20
125.9989585876465
 30
0.0
 11
138.9999950647354
 21
125.9989585876465
 31
0.0
  0
LINE
  5
298
330
18
100
AcDbEntity
  8
0
  6
Continuous
 62
     7
100
AcDbLine
 10
138.9999950647354
 20
125.9989585876465
 30
0.0
 11
138.9999950647354
 21
123.4989658355713
 31
0.0
  0
LINE
  5
299
330
18
100
AcDbEntity
  8
0
  6
Continuous
 62
     7
100
AcDbLine
 10
138.9999950647354
 20
128.4989513397216
 30
0.0
 11
151.4999588251114
 21
128.4989513397216
 31
0.0
  0
LINE
  5
29A
330
18
100
AcDbEntity
  8
0
  6
Continuous
 62
     7
100
AcDbLine
 10
151.4999588251114
 20
128.4989513397216
 30
0.0
 11
151.4999588251114
 21
130.9989440917968
 31
0.0
  0
LINE
  5
29B
330
18
100
AcDbEntity
  8
0
  6
Continuous
 62
     7
100
AcDbLine
 10
151.4999588251114
 20
130.9989440917968
 30
0.0
 11
138.9999950647354
 21
130.9989440917968
 31
0.0
  0
LINE
  5
29C
330
18
100
AcDbEntity
  8
0
  6
Continuous
 62
     7
100
AcDbLine
 10
138.9999950647354
 20
130.9989440917968
 30
0.0
 11
138.9999950647354
 21
128.4989513397216
 31
0.0
  0
LINE
  5
29D
330
18
100
AcDbEntity
  8
0
  6
Continuous
 62
     7
100
AcDbLine
 10
138.9999950647354
 20
133.498936843872
 30
0.0
 11
151.4999588251114
 21
133.498936843872
 31
0.0
  0
LINE
  5
29E
330
18
100
AcDbEntity
  8
0
  6
Continuous
 62
     7
100
AcDbLine
 10
154.9998905420303
 20
123.4989658355713
 30
0.0
 11
167.4999027490616
 21
123.4989658355713
 31
0.0
  0
LINE
  5
29F
330
18
100
AcDbEntity
  8
0
  6
Continuous
 62
     7
100
AcDbLine
 10
167.4999027490616
 20
123.4989658355713
 30
0.0
 11
167.4999027490616
 21
125.9989585876465
 31
0.0
  0
LINE
  5
2A0
330
18
100
AcDbEntity
  8
0
  6
Continuous
 62
     7
100
AcDbLine
 10
167.4999027490616
 20
125.9989585876465
 30
0.0
 11
154.9998905420303
 21
125.9989585876465
 31
0.0
  0
LINE
  5
2A1
330
18
100
AcDbEntity
  8
0
  6
Continuous
 62
     7
100
AcDbLine
 10
154.9998905420303
 20
125.9989585876465
 30
0.0
 11
154.9998905420303
 21
123.4989658355713
 31
0.0
  0
LINE
  5
2A2
330
18
100
AcDbEntity
  8
0
  6
Continuous
 62
     7
100
AcDbLine
 10
154.9998905420303
 20
128.4989513397216
 30
0.0
 11
167.4999027490616
 21
128.4989513397216
 31
0.0
  0
LINE
  5
2A3
330
18
100
AcDbEntity
  8
0
  6
Continuous
 62
     7
100
AcDbLine
 10
167.4999027490616
 20
128.4989513397216
 30
0.0
 11
167.4999027490616
 21
130.9989440917968
 31
0.0
  0
LINE
  5
2A4
330
18
100
AcDbEntity
  8
0
  6
Continuous
 62
     7
100
AcDbLine
 10
167.4999027490616
 20
130.9989440917968
 30
0.0
 11
154.9998905420303
 21
130.9989440917968
 31
0.0
  0
LINE
  5
2A5
330
18
100
AcDbEntity
  8
0
  6
Continuous
 62
     7
100
AcDbLine
 10
154.9998905420303
 20
130.9989440917968
 30
0.0
 11
154.9998905420303
 21
128.4989513397216
 31
0.0
  0
LINE
  5
2A6
330
18
100
AcDbEntity
  8
0
  6
Continuous
 62
     7
100
AcDbLine
 10
170.9998829126358
 20
123.4989658355713
 30
0.0
 11
183.499895119667
 21
123.4989658355713
 31
0.0
  0
LINE
  5
2A7
330
18
100
AcDbEntity
  8
0
  6
Continuous
 62
     7
100
AcDbLine
 10
183.499895119667
 20
123.4989658355713
 30
0.0
 11
183.499895119667
 21
125.9989585876465
 31
0.0
  0
LINE
  5
2A8
330
18
100
AcDbEntity
  8
0
  6
Continuous
 62
     7
100
AcDbLine
 10
183.499895119667
 20
125.9989585876465
 30
0.0
 11
170.9998829126358
 21
125.9989585876465
 31
0.0
  0
LINE
  5
2A9
330
18
100
AcDbEntity
  8
0
  6
Continuous
 62
     7
100
AcDbLine
 10
170.9998829126358
 20
125.9989585876465
 30
0.0
 11
170.9998829126358
 21
123.4989658355713
 31
0.0
  0
LINE
  5
2AA
330
18
100
AcDbEntity
  8
0
  6
Continuous
 62
     7
100
AcDbLine
 10
170.9998829126358
 20
128.4989513397216
 30
0.0
 11
183.499895119667
 21
128.4989513397216
 31
0.0
  0
LINE
  5
2AB
330
18
100
AcDbEntity
  8
0
  6
Continuous
 62
     7
100
AcDbLine
 10
183.499895119667
 20
128.4989513397216
 30
0.0
 11
183.499895119667
 21
130.9989440917968
 31
0.0
  0
LINE
  5
2AC
330
18
100
AcDbEntity
  8
0
  6
Continuous
 62
     7
100
AcDbLine
 10
183.499895119667
 20
130.9989440917968
 30
0.0
 11
170.9998829126358
 21
130.9989440917968
 31
0.0
  0
LINE
  5
2AD
330
18
100
AcDbEntity
  8
0
  6
Continuous
 62
     7
100
AcDbLine
 10
170.9998829126358
 20
130.9989440917968
 30
0.0
 11
170.9998829126358
 21
128.4989513397216
 31
0.0
  0
LINE
  5
2AE
330
18
100
AcDbEntity
  8
0
  6
Continuous
 62
     7
100
AcDbLine
 10
186.9998783111572
 20
123.4989658355713
 30
0.0
 11
199.4998420715332
 21
123.4989658355713
 31
0.0
  0
LINE
  5
2AF
330
18
100
AcDbEntity
  8
0
  6
Continuous
 62
     7
100
AcDbLine
 10
199.4998420715332
 20
123.4989658355713
 30
0.0
 11
199.4998420715332
 21
125.9989585876465
 31
0.0
  0
LINE
  5
2B0
330
18
100
AcDbEntity
  8
0
  6
Continuous
 62
     7
100
AcDbLine
 10
199.4998420715332
 20
125.9989585876465
 30
0.0
 11
186.9998783111572
 21
125.9989585876465
 31
0.0
  0
LINE
  5
2B1
330
18
100
AcDbEntity
  8
0
  6
Continuous
 62
     7
100
AcDbLine
 10
186.9998783111572
 20
125.9989585876465
 30
0.0
 11
186.9998783111572
 21
123.4989658355713
 31
0.0
  0
LINE
  5
2B2
330
18
100
AcDbEntity
  8
0
  6
Continuous
 62
     7
100
AcDbLine
 10
186.9998783111572
 20
128.4989513397216
 30
0.0
 11
199.4998420715332
 21
128.4989513397216
 31
0.0
  0
LINE
  5
2B3
330
18
100
AcDbEntity
  8
0
  6
Continuous
 62
     7
100
AcDbLine
 10
199.4998420715332
 20
128.4989513397216
 30
0.0
 11
199.4998420715332
 21
130.9989440917968
 31
0.0
  0
LINE
  5
2B4
330
18
100
AcDbEntity
  8
0
  6
Continuous
 62
     7
100
AcDbLine
 10
199.4998420715332
 20
130.9989440917968
 30
0.0
 11
186.9998783111572
 21
130.9989440917968
 31
0.0
  0
LINE
  5
2B5
330
18
100
AcDbEntity
  8
0
  6
Continuous
 62
     7
100
AcDbLine
 10
186.9998783111572
 20
130.9989440917968
 30
0.0
 11
186.9998783111572
 21
128.4989513397216
 31
0.0
  0
LINE
  5
2B6
330
18
100
AcDbEntity
  8
0
  6
Continuous
 62
     7
100
AcDbLine
 10
202.9998222351074
 20
123.4989658355713
 30
0.0
 11
215.4997859954834
 21
123.4989658355713
 31
0.0
  0
LINE
  5
2B7
330
18
100
AcDbEntity
  8
0
  6
Continuous
 62
     7
100
AcDbLine
 10
215.4997859954834
 20
123.4989658355713
 30
0.0
 11
215.4997859954834
 21
125.9989585876465
 31
0.0
  0
LINE
  5
2B8
330
18
100
AcDbEntity
  8
0
  6
Continuous
 62
     7
100
AcDbLine
 10
215.4997859954834
 20
125.9989585876465
 30
0.0
 11
202.9998222351074
 21
125.9989585876465
 31
0.0
  0
LINE
  5
2B9
330
18
100
AcDbEntity
  8
0
  6
Continuous
 62
     7
100
AcDbLine
 10
202.9998222351074
 20
125.9989585876465
 30
0.0
 11
202.9998222351074
 21
123.4989658355713
 31
0.0
  0
LINE
  5
2BA
330
18
100
AcDbEntity
  8
0
  6
Continuous
 62
     7
100
AcDbLine
 10
202.9998222351074
 20
128.4989513397216
 30
0.0
 11
215.4997859954834
 21
128.4989513397216
 31
0.0
  0
LINE
  5
2BB
330
18
100
AcDbEntity
  8
0
  6
Continuous
 62
     7
100
AcDbLine
 10
215.4997859954834
 20
128.4989513397216
 30
0.0
 11
215.4997859954834
 21
130.9989440917968
 31
0.0
  0
LINE
  5
2BC
330
18
100
AcDbEntity
  8
0
  6
Continuous
 62
     7
100
AcDbLine
 10
215.4997859954834
 20
130.9989440917968
 30
0.0
 11
202.9998222351074
 21
130.9989440917968
 31
0.0
  0
LINE
  5
2BD
330
18
100
AcDbEntity
  8
0
  6
Continuous
 62
     7
100
AcDbLine
 10
202.9998222351074
 20
130.9989440917968
 30
0.0
 11
202.9998222351074
 21
128.4989513397216
 31
0.0
  0
LINE
  5
2BE
330
18
100
AcDbEntity
  8
0
  6
Continuous
 62
     7
100
AcDbLine
 10
218.9997661590576
 20
123.4989658355713
 30
0.0
 11
231.4997783660889
 21
123.4989658355713
 31
0.0
  0
LINE
  5
2BF
330
18
100
AcDbEntity
  8
0
  6
Continuous
 62
     7
100
AcDbLine
 10
231.4997783660889
 20
123.4989658355713
 30
0.0
 11
231.4997783660889
 21
125.9989585876465
 31
0.0
  0
LINE
  5
2C0
330
18
100
AcDbEntity
  8
0
  6
Continuous
 62
     7
100
AcDbLine
 10
231.4997783660889
 20
125.9989585876465
 30
0.0
 11
218.9997661590576
 21
125.9989585876465
 31
0.0
  0
LINE
  5
2C1
330
18
100
AcDbEntity
  8
0
  6
Continuous
 62
     7
100
AcDbLine
 10
218.9997661590576
 20
125.9989585876465
 30
0.0
 11
218.9997661590576
 21
123.4989658355713
 31
0.0
  0
LINE
  5
2C2
330
18
100
AcDbEntity
  8
0
  6
Continuous
 62
     7
100
AcDbLine
 10
218.9997661590576
 20
128.4989513397216
 30
0.0
 11
231.4997783660889
 21
128.4989513397216
 31
0.0
  0
LINE
  5
2C3
330
18
100
AcDbEntity
  8
0
  6
Continuous
 62
     7
100
AcDbLine
 10
231.4997783660889
 20
128.4989513397216
 30
0.0
 11
231.4997783660889
 21
130.9989440917968
 31
0.0
  0
LINE
  5
2C4
330
18
100
AcDbEntity
  8
0
  6
Continuous
 62
     7
100
AcDbLine
 10
231.4997783660889
 20
130.9989440917968
 30
0.0
 11
218.9997661590576
 21
130.9989440917968
 31
0.0
  0
LINE
  5
2C5
330
18
100
AcDbEntity
  8
0
  6
Continuous
 62
     7
100
AcDbLine
 10
218.9997661590576
 20
130.9989440917968
 30
0.0
 11
218.9997661590576
 21
128.4989513397216
 31
0.0
  0
LINE
  5
2C6
330
18
100
AcDbEntity
  8
0
  6
Continuous
 62
     7
100
AcDbLine
 10
138.9999950647354
 20
134.9989421844482
 30
0.0
 11
138.9999950647354
 21
133.498936843872
 31
0.0
  0
LINE
  5
2C7
330
18
100
AcDbEntity
  8
0
  6
Continuous
 62
     7
100
AcDbLine
 10
151.4999588251114
 20
134.9989421844482
 30
0.0
 11
151.4999588251114
 21
133.498936843872
 31
0.0
  0
LINE
  5
2C8
330
18
100
AcDbEntity
  8
0
  6
Continuous
 62
     7
100
AcDbLine
 10
154.9998905420303
 20
133.498936843872
 30
0.0
 11
167.4999027490616
 21
133.498936843872
 31
0.0
  0
LINE
  5
2C9
330
18
100
AcDbEntity
  8
0
  6
Continuous
 62
     7
100
AcDbLine
 10
154.9998905420303
 20
134.9989421844482
 30
0.0
 11
154.9998905420303
 21
133.498936843872
 31
0.0
  0
LINE
  5
2CA
330
18
100
AcDbEntity
  8
0
  6
Continuous
 62
     7
100
AcDbLine
 10
167.4999027490616
 20
134.9989421844482
 30
0.0
 11
167.4999027490616
 21
133.498936843872
 31
0.0
  0
LINE
  5
2CB
330
18
100
AcDbEntity
  8
0
  6
Continuous
 62
     7
100
AcDbLine
 10
170.9998829126358
 20
133.498936843872
 30
0.0
 11
183.499895119667
 21
133.498936843872
 31
0.0
  0
LINE
  5
2CC
330
18
100
AcDbEntity
  8
0
  6
Continuous
 62
     7
100
AcDbLine
 10
170.9998829126358
 20
134.9989421844482
 30
0.0
 11
170.9998829126358
 21
133.498936843872
 31
0.0
  0
LINE
  5
2CD
330
18
100
AcDbEntity
  8
0
  6
Continuous
 62
     7
100
AcDbLine
 10
183.499895119667
 20
134.9989421844482
 30
0.0
 11
183.499895119667
 21
133.498936843872
 31
0.0
  0
LINE
  5
2CE
330
18
100
AcDbEntity
  8
0
  6
Continuous
 62
     7
100
AcDbLine
 10
186.9998298645019
 20
133.498936843872
 30
0.0
 11
199.4997936248779
 21
133.498936843872
 31
0.0
  0
LINE
  5
2CF
330
18
100
AcDbEntity
  8
0
  6
Continuous
 62
     7
100
AcDbLine
 10
186.9998298645019
 20
134.9989421844482
 30
0.0
 11
186.9998298645019
 21
133.498936843872
 31
0.0
  0
LINE
  5
2D0
330
18
100
AcDbEntity
  8
0
  6
Continuous
 62
     7
100
AcDbLine
 10
199.4997936248779
 20
134.9989421844482
 30
0.0
 11
199.4997936248779
 21
133.498936843872
 31
0.0
  0
LINE
  5
2D1
330
18
100
AcDbEntity
  8
0
  6
Continuous
 62
     7
100
AcDbLine
 10
202.9997737884522
 20
133.498936843872
 30
0.0
 11
215.4997859954834
 21
133.498936843872
 31
0.0
  0
LINE
  5
2D2
330
18
100
AcDbEntity
  8
0
  6
Continuous
 62
     7
100
AcDbLine
 10
202.9997737884522
 20
134.9989421844482
 30
0.0
 11
202.9997737884522
 21
133.498936843872
 31
0.0
  0
LINE
  5
2D3
330
18
100
AcDbEntity
  8
0
  6
Continuous
 62
     7
100
AcDbLine
 10
215.4997859954834
 20
134.9989421844482
 30
0.0
 11
215.4997859954834
 21
133.498936843872
 31
0.0
  0
LINE
  5
2D4
330
18
100
AcDbEntity
  8
0
  6
Continuous
 62
     7
100
AcDbLine
 10
218.9997661590576
 20
133.498936843872
 30
0.0
 11
231.4997783660889
 21
133.498936843872
 31
0.0
  0
LINE
  5
2D5
330
18
100
AcDbEntity
  8
0
  6
Continuous
 62
     7
100
AcDbLine
 10
218.9997661590576
 20
134.9989421844482
 30
0.0
 11
218.9997661590576
 21
133.498936843872
 31
0.0
  0
LINE
  5
2D6
330
18
100
AcDbEntity
  8
0
  6
Continuous
 62
     7
100
AcDbLine
 10
231.4997783660889
 20
134.9989421844482
 30
0.0
 11
231.4997783660889
 21
133.498936843872
 31
0.0
  0
LINE
  5
2D7
330
18
100
AcDbEntity
  8
0
  6
Continuous
 62
     7
100
AcDbLine
 10
250.500023651123
 20
134.9989421844482
 30
0.0
 11
123.9999901056289
 21
134.9989421844482
 31
0.0
  0
LINE
  5
2D8
330
18
100
AcDbEntity
  8
0
  6
Continuous
 62
     7
100
AcDbLine
 10
250.500023651123
 20
134.9989421844482
 30
0.0
 11
250.500023651123
 21
144.998913192749
 31
0.0
  0
LINE
  5
2D9
330
18
100
AcDbEntity
  8
0
  6
Continuous
 62
     7
100
AcDbLine
 10
245.9997653961182
 20
144.998913192749
 30
0.0
 11
245.9997653961182
 21
161.9988929748534
 31
0.0
  0
LINE
  5
2DA
330
18
100
AcDbEntity
  8
0
  6
Continuous
 62
     7
100
AcDbLine
 10
245.9997653961182
 20
134.9989421844482
 30
0.0
 11
245.9997653961182
 21
117.9989624023437
 31
0.0
  0
LINE
  5
2DB
330
18
100
AcDbEntity
  8
0
  6
Continuous
 62
     7
100
AcDbLine
 10
248.5000003814697
 20
144.998913192749
 30
0.0
 11
248.5000003814697
 21
161.9988929748534
 31
0.0
  0
LINE
  5
2DC
330
18
100
AcDbEntity
  8
0
  6
Continuous
 62
     7
100
AcDbLine
 10
248.5000003814697
 20
134.9989421844482
 30
0.0
 11
248.5000003814697
 21
117.9989624023437
 31
0.0
  0
LINE
  5
2DD
330
18
100
AcDbEntity
  8
0
  6
Continuous
 62
     7
100
AcDbLine
 10
145.499985909462
 20
141.2489482879638
 30
0.0
 11
145.499985909462
 21
138.7489070892334
 31
0.0
  0
LINE
  5
2DE
330
18
100
AcDbEntity
  8
0
  6
Continuous
 62
     7
100
AcDbLine
 10
132.9999737024307
 20
138.7489070892334
 30
0.0
 11
132.9999737024307
 21
141.2489482879638
 31
0.0
  0
LINE
  5
2DF
330
18
100
AcDbEntity
  8
0
  6
Continuous
 62
     7
100
AcDbLine
 10
147.9999302148819
 20
141.2489482879638
 30
0.0
 11
132.9999737024307
 21
141.2489482879638
 31
0.0
  0
LINE
  5
2E0
330
18
100
AcDbEntity
  8
0
  6
Continuous
 62
     7
100
AcDbLine
 10
147.9999302148819
 20
138.7489070892334
 30
0.0
 11
132.9999737024307
 21
138.7489070892334
 31
0.0
  0
LINE
  5
2E1
330
18
100
AcDbEntity
  8
0
  6
Continuous
 62
     7
100
AcDbLine
 10
147.9999302148819
 20
141.2489482879638
 30
0.0
 11
147.9999302148819
 21
138.7489070892334
 31
0.0
  0
LINE
  5
2E2
330
18
100
AcDbEntity
  8
0
  6
Continuous
 62
     7
100
AcDbLine
 10
201.4998653411865
 20
141.2489482879638
 30
0.0
 11
201.4998653411865
 21
138.7489070892334
 31
0.0
  0
LINE
  5
2E3
330
18
100
AcDbEntity
  8
0
  6
Continuous
 62
     7
100
AcDbLine
 10
188.9998531341553
 20
138.7489070892334
 30
0.0
 11
188.9998531341553
 21
141.2489482879638
 31
0.0
  0
LINE
  5
2E4
330
18
100
AcDbEntity
  8
0
  6
Continuous
 62
     7
100
AcDbLine
 10
203.9998096466064
 20
141.2489482879638
 30
0.0
 11
188.9998531341553
 21
141.2489482879638
 31
0.0
  0
LINE
  5
2E5
330
18
100
AcDbEntity
  8
0
  6
Continuous
 62
     7
100
AcDbLine
 10
203.9998096466064
 20
138.7489070892334
 30
0.0
 11
188.9998531341553
 21
138.7489070892334
 31
0.0
  0
LINE
  5
2E6
330
18
100
AcDbEntity
  8
0
  6
Continuous
 62
     7
100
AcDbLine
 10
203.9998096466064
 20
141.2489482879638
 30
0.0
 11
203.9998096466064
 21
138.7489070892334
 31
0.0
  0
LINE
  5
2E7
330
18
100
AcDbEntity
  8
0
  6
Continuous
 62
     7
100
AcDbLine
 10
250.4997814178467
 20
141.4989330291747
 30
0.0
 11
250.9997509002686
 21
141.4989330291747
 31
0.0
  0
LINE
  5
2E8
330
18
100
AcDbEntity
  8
0
  6
Continuous
 62
     7
100
AcDbLine
 10
250.4997814178467
 20
138.4989223480224
 30
0.0
 11
250.9997509002686
 21
138.4989223480224
 31
0.0
  0
LINE
  5
2E9
330
18
100
AcDbEntity
  8
0
  6
Continuous
 62
     7
100
AcDbLine
 10
250.9997509002686
 20
138.4989223480224
 30
0.0
 11
250.9997509002686
 21
141.4989330291747
 31
0.0
  0
LINE
  5
2EA
330
18
100
AcDbEntity
  8
0
  6
Continuous
 62
     7
100
AcDbLine
 10
250.9997509002686
 20
141.9989025115966
 30
0.0
 11
250.9997509002686
 21
137.9989528656006
 31
0.0
  0
LINE
  5
2EB
330
18
100
AcDbEntity
  8
0
  6
Continuous
 62
     7
100
AcDbLine
 10
250.9997509002686
 20
141.9989025115966
 30
0.0
 11
251.4997203826904
 21
141.9989025115966
 31
0.0
  0
ARC
  5
2EC
330
18
100
AcDbEntity
  8
0
  6
Continuous
 62
     7
100
AcDbCircle
 10
251.4997868446083
 20
140.9989331174065
 30
0.0
 40
0.9999693963987693
100
AcDbArc
 50
359.9989676526474
 51
90.00380810393767
  0
LINE
  5
2ED
330
18
100
AcDbEntity
  8
0
  6
Continuous
 62
     7
100
AcDbLine
 10
252.4997562408447
 20
140.9989151000976
 30
0.0
 11
252.4997562408447
 21
138.9989402770995
 31
0.0
  0
ARC
  5
2EE
330
18
100
AcDbEntity
  8
0
  6
Continuous
 62
     7
100
AcDbCircle
 10
251.4997868446083
 20
138.9989222597906
 30
0.0
 40
0.9999693963987283
100
AcDbArc
 50
269.9961918960623
 51
0.0010323473526077
  0
LINE
  5
2EF
330
18
100
AcDbEntity
  8
0
  6
Continuous
 62
     7
100
AcDbLine
 10
250.9997509002686
 20
137.9989528656006
 30
0.0
 11
251.4997203826904
 21
137.9989528656006
 31
0.0
  0
LINE
  5
2F0
330
18
100
AcDbEntity
  8
0
  6
Continuous
 62
     7
100
AcDbLine
 10
248.4997581481934
 20
134.9989421844482
 30
0.0
 11
255.9997364044189
 21
133.498936843872
 31
0.0
  0
LINE
  5
2F1
330
18
100
AcDbEntity
  8
0
  6
Continuous
 62
     7
100
AcDbLine
 10
248.4997581481934
 20
131.9989315032959
 30
0.0
 11
258.9997470855713
 21
131.9989315032959
 31
0.0
  0
LINE
  5
2F2
330
18
100
AcDbEntity
  8
0
  6
Continuous
 62
     7
100
AcDbLine
 10
258.9997470855713
 20
131.9989315032959
 30
0.0
 11
258.9997470855713
 21
119.998985671997
 31
0.0
  0
LINE
  5
2F3
330
18
100
AcDbEntity
  8
0
  6
Continuous
 62
     7
100
AcDbLine
 10
258.9997470855713
 20
119.998985671997
 30
0.0
 11
248.4997581481934
 21
119.998985671997
 31
0.0
  0
LINE
  5
2F4
330
18
100
AcDbEntity
  8
0
  6
Continuous
 62
     7
100
AcDbLine
 10
255.9997364044189
 20
131.9989315032959
 30
0.0
 11
255.9997364044189
 21
133.498936843872
 31
0.0
  0
LINE
  5
2F5
330
18
100
AcDbEntity
  8
0
  6
Continuous
 62
     4
100
AcDbLine
 10
257.4997417449951
 20
133.498936843872
 30
0.0
 11
257.4997417449951
 21
118.4989803314208
 31
0.0
  0
LINE
  5
2F6
330
18
100
AcDbEntity
  8
0
  6
Continuous
 62
     4
100
AcDbLine
 10
257.4997417449951
 20
118.4989803314208
 30
0.0
 11
259.9997344970703
 21
118.4989803314208
 31
0.0
  0
LINE
  5
2F7
330
18
100
AcDbEntity
  8
0
  6
Continuous
 62
     4
100
AcDbLine
 10
259.9997344970703
 20
133.498936843872
 30
0.0
 11
257.4997417449951
 21
133.498936843872
 31
0.0
  0
ARC
  5
2F8
330
18
100
AcDbEntity
  8
0
  6
Continuous
 62
     4
100
AcDbCircle
 10
241.9999126426503
 20
125.9989585876465
 30
0.0
 40
19.49982719499621
100
AcDbArc
 50
337.3799927034347
 51
22.62000729656539
  0
TEXT
  5
2F9
330
18
100
AcDbEntity
  8
COMMENT
  6
Continuous
100
AcDbText
 10
214.2497842788696
 20
65.74905090332027
 30
0.0
 40
2.5
  1
No.
  7
ＭＳ明朝
100
AcDbText
  0
TEXT
  5
2FC
330
18
100
AcDbEntity
  8
COMMENT
  6
Continuous
100
AcDbText
 10
224.7497785568238
 20
65.74905090332027
 30
0.0
 40
2.5
  1
記号
  7
ＭＳ明朝
100
AcDbText
  0
TEXT
  5
2FE
330
18
100
AcDbEntity
  8
COMMENT
  6
Continuous
100
AcDbText
 10
236.7497728347778
 20
65.74905090332027
 30
0.0
 40
2.5
  1
内容
  7
ＭＳ明朝
100
AcDbText
  0
TEXT
  5
300
330
18
100
AcDbEntity
  8
COMMENT
  6
Continuous
100
AcDbText
 10
215.749794960022
 20
61.99908599853512
 30
0.0
 40
2.5
  1
1
  7
ＭＳ明朝
100
AcDbText
  0
TEXT
  5
301
330
18
100
AcDbEntity
  8
COMMENT
  6
Continuous
100
AcDbText
 10
225.7497892379761
 20
61.99908599853512
 30
0.0
 40
2.5
  1
＋
  7
ＭＳ明朝
100
AcDbText
  0
TEXT
  5
302
330
18
100
AcDbEntity
  8
COMMENT
  6
Continuous
100
AcDbText
 10
235.2497728347779
 20
61.99908599853512
 30
0.0
 40
2.5
  1
入力
  7
ＭＳ明朝
100
AcDbText
  0
TEXT
  5
304
330
18
100
AcDbEntity
  8
COMMENT
  6
Continuous
100
AcDbText
 10
215.749794960022
 20
58.24907264709469
 30
0.0
 40
2.5
  1
2
  7
ＭＳ明朝
100
AcDbText
  0
TEXT
  5
305
330
18
100
AcDbEntity
  8
COMMENT
  6
Continuous
100
AcDbText
 10
225.7497892379761
 20
58.24907264709469
 30
0.0
 40
2.5
  1
－
  7
ＭＳ明朝
100
AcDbText
  0
TEXT
  5
306
330
18
100
AcDbEntity
  8
COMMENT
  6
Continuous
100
AcDbText
 10
215.749794960022
 20
54.49910774230954
 30
0.0
 40
2.5
  1
3
  7
ＭＳ明朝
100
AcDbText
  0
TEXT
  5
307
330
18
100
AcDbEntity
  8
COMMENT
  6
Continuous
100
AcDbText
 10
225.7497892379761
 20
54.49910774230954
 30
0.0
 40
2.5
  1
＋
  7
ＭＳ明朝
100
AcDbText
  0
TEXT
  5
308
330
18
100
AcDbEntity
  8
COMMENT
  6
Continuous
100
AcDbText
 10
235.2497728347779
 20
54.49910774230954
 30
0.0
 40
2.5
  1
センサー電源
  7
ＭＳ明朝
100
AcDbText
  0
TEXT
  5
30E
330
18
100
AcDbEntity
  8
COMMENT
  6
Continuous
100
AcDbText
 10
215.749794960022
 20
50.74909439086912
 30
0.0
 40
2.5
  1
4
  7
ＭＳ明朝
100
AcDbText
  0
TEXT
  5
30F
330
18
100
AcDbEntity
  8
COMMENT
  6
Continuous
100
AcDbText
 10
225.7497892379761
 20
50.74909439086912
 30
0.0
 40
2.5
  1
－
  7
ＭＳ明朝
100
AcDbText
  0
TEXT
  5
310
330
18
100
AcDbEntity
  8
COMMENT
  6
Continuous
100
AcDbText
 10
215.749794960022
 20
46.99912948608397
 30
0.0
 40
2.5
  1
5
  7
ＭＳ明朝
100
AcDbText
  0
TEXT
  5
311
330
18
100
AcDbEntity
  8
COMMENT
  6
Continuous
100
AcDbText
 10
235.2497728347779
 20
46.99912948608397
 30
0.0
 40
2.5
  1
データホールド
  7
ＭＳ明朝
100
AcDbText
  0
TEXT
  5
318
330
18
100
AcDbEntity
  8
COMMENT
  6
Continuous
100
AcDbText
 10
215.749794960022
 20
43.24911613464354
 30
0.0
 40
2.5
  1
6
  7
ＭＳ明朝
100
AcDbText
  0
TEXT
  5
319
330
18
100
AcDbEntity
  8
COMMENT
  6
Continuous
100
AcDbText
 10
222.7497785568238
 20
43.24911613464354
 30
0.0
 40
2.5
  1
ＣＯＭ
  7
ＭＳ明朝
100
AcDbText
  0
TEXT
  5
31C
330
18
100
AcDbEntity
  8
COMMENT
  6
Continuous
100
AcDbText
 10
215.749794960022
 20
39.4991512298584
 30
0.0
 40
2.5
  1
7
  7
ＭＳ明朝
100
AcDbText
  0
TEXT
  5
31D
330
18
100
AcDbEntity
  8
COMMENT
  6
Continuous
100
AcDbText
 10
225.7497892379761
 20
39.4991512298584
 30
0.0
 40
2.5
  1
＋
  7
ＭＳ明朝
100
AcDbText
  0
TEXT
  5
31E
330
18
100
AcDbEntity
  8
COMMENT
  6
Continuous
100
AcDbText
 10
235.2497728347779
 20
39.4991512298584
 30
0.0
 40
2.5
  1
アナログ出力
  7
ＭＳ明朝
100
AcDbText
  0
TEXT
  5
324
330
18
100
AcDbEntity
  8
COMMENT
  6
Continuous
100
AcDbText
 10
225.7497892379761
 20
35.74913787841797
 30
0.0
 40
2.5
  1
－
  7
ＭＳ明朝
100
AcDbText
  0
TEXT
  5
325
330
18
100
AcDbEntity
  8
COMMENT
  6
Continuous
100
AcDbText
 10
215.749794960022
 20
35.74913787841797
 30
0.0
 40
2.5
  1
8
  7
ＭＳ明朝
100
AcDbText
  0
TEXT
  5
326
330
18
100
AcDbEntity
  8
COMMENT
  6
Continuous
100
AcDbText
 10
215.749794960022
 20
31.99917297363277
 30
0.0
 40
2.5
  1
9
  7
ＭＳ明朝
100
AcDbText
  0
TEXT
  5
327
330
18
100
AcDbEntity
  8
COMMENT
  6
Continuous
100
AcDbText
 10
225.7497892379761
 20
31.99917297363277
 30
0.0
 40
2.5
  1
Ｕ
  7
ＭＳ明朝
100
AcDbText
  0
TEXT
  5
328
330
18
100
AcDbEntity
  8
COMMENT
  6
Continuous
100
AcDbText
 10
213.7497842788696
 20
28.24915962219234
 30
0.0
 40
2.5
  1
10
  7
ＭＳ明朝
100
AcDbText
  0
TEXT
  5
32A
330
18
100
AcDbEntity
  8
COMMENT
  6
Continuous
100
AcDbText
 10
225.7497892379761
 20
28.24915962219234
 30
0.0
 40
2.5
  1
Ｖ
  7
ＭＳ明朝
100
AcDbText
  0
TEXT
  5
32B
330
18
100
AcDbEntity
  8
COMMENT
  6
Continuous
100
AcDbText
 10
235.2497728347779
 20
31.99917297363277
 30
0.0
 40
2.5
  1
電源
  7
ＭＳ明朝
100
AcDbText
  0
LINE
  5
32D
330
18
100
AcDbEntity
  8
COMMENT
  6
Continuous
 62
     7
100
AcDbLine
 10
211.7498453140259
 20
65.24903297424316
 30
0.0
 11
260.999746131897
 21
65.24903297424316
 31
0.0
  0
LINE
  5
32E
330
18
100
AcDbEntity
  8
COMMENT
  6
Continuous
 62
     7
100
AcDbLine
 10
211.7498453140259
 20
57.74905471801753
 30
0.0
 11
260.999746131897
 21
57.74905471801753
 31
0.0
  0
LINE
  5
32F
330
18
100
AcDbEntity
  8
COMMENT
  6
Continuous
 62
     7
100
AcDbLine
 10
211.7498453140259
 20
50.24907646179196
 30
0.0
 11
260.999746131897
 21
50.24907646179196
 31
0.0
  0
LINE
  5
330
330
18
100
AcDbEntity
  8
COMMENT
  6
Continuous
 62
     7
100
AcDbLine
 10
211.7498453140259
 20
42.74909820556638
 30
0.0
 11
260.999746131897
 21
42.74909820556638
 31
0.0
  0
LINE
  5
331
330
18
100
AcDbEntity
  8
COMMENT
  6
Continuous
 62
     7
100
AcDbLine
 10
211.7498453140259
 20
35.24911994934081
 30
0.0
 11
260.999746131897
 21
35.24911994934081
 31
0.0
  0
LINE
  5
332
330
18
100
AcDbEntity
  8
COMMENT
  6
Continuous
 62
     7
100
AcDbLine
 10
211.7498453140259
 20
27.74914169311524
 30
0.0
 11
260.999746131897
 21
27.74914169311524
 31
0.0
  0
LINE
  5
333
330
18
100
AcDbEntity
  8
COMMENT
  6
Continuous
 62
     7
100
AcDbLine
 10
211.7498453140259
 20
68.99904632568359
 30
0.0
 11
260.999746131897
 21
68.99904632568359
 31
0.0
  0
LINE
  5
334
330
18
100
AcDbEntity
  8
COMMENT
  6
Continuous
 62
     7
100
AcDbLine
 10
211.7498453140259
 20
68.99904632568359
 30
0.0
 11
211.7498453140259
 21
27.74914169311524
 31
0.0
  0
LINE
  5
335
330
18
100
AcDbEntity
  8
COMMENT
  6
Continuous
 62
     7
100
AcDbLine
 10
221.9998010635376
 20
68.99904632568359
 30
0.0
 11
221.9998010635376
 21
27.74914169311524
 31
0.0
  0
LINE
  5
336
330
18
100
AcDbEntity
  8
COMMENT
  6
Continuous
 62
     7
100
AcDbLine
 10
234.9997827529907
 20
68.99904632568359
 30
0.0
 11
234.9997827529907
 21
27.74914169311524
 31
0.0
  0
LINE
  5
337
330
18
100
AcDbEntity
  8
COMMENT
  6
Continuous
 62
     7
100
AcDbLine
 10
260.999746131897
 20
68.99899787902831
 30
0.0
 11
260.999746131897
 21
27.74914169311524
 31
0.0
  0
LINE
  5
338
330
18
100
AcDbEntity
  8
COMMENT
  6
Continuous
100
AcDbLine
 10
234.9997827529907
 20
61.49906806945796
 30
0.0
 11
211.7498453140259
 21
61.49906806945796
 31
0.0
  0
LINE
  5
339
330
18
100
AcDbEntity
  8
COMMENT
  6
Continuous
100
AcDbLine
 10
234.9997827529907
 20
53.99908981323239
 30
0.0
 11
211.7498453140259
 21
53.99908981323239
 31
0.0
  0
LINE
  5
33A
330
18
100
AcDbEntity
  8
COMMENT
  6
Continuous
100
AcDbLine
 10
234.9997827529907
 20
46.49911155700681
 30
0.0
 11
211.7498453140259
 21
46.49911155700681
 31
0.0
  0
LINE
  5
33B
330
18
100
AcDbEntity
  8
COMMENT
  6
Continuous
100
AcDbLine
 10
234.9997827529907
 20
38.99913330078124
 30
0.0
 11
211.7498453140259
 21
38.99913330078124
 31
0.0
  0
LINE
  5
33C
330
18
100
AcDbEntity
  8
COMMENT
  6
Continuous
100
AcDbLine
 10
234.9997827529907
 20
31.49915504455567
 30
0.0
 11
211.7498453140259
 21
31.49915504455567
 31
0.0
  0
LINE
  5
33D
330
18
100
AcDbEntity
  8
0
  6
Continuous
 62
     7
100
AcDbLine
 10
154.24990452528
 20
39.99907226562499
 30
0.0
 11
202.2499043464661
 21
39.99907226562499
 31
0.0
  0
LINE
  5
33E
330
18
100
AcDbEntity
  8
0
  6
Continuous
 62
     7
100
AcDbLine
 10
202.2499043464661
 20
39.99907226562499
 30
0.0
 11
202.2499043464661
 21
63.99906082153319
 31
0.0
  0
LINE
  5
33F
330
18
100
AcDbEntity
  8
0
  6
Continuous
 62
     7
100
AcDbLine
 10
202.2499043464661
 20
63.99906082153319
 30
0.0
 11
154.24990452528
 21
63.99906082153319
 31
0.0
  0
LINE
  5
340
330
18
100
AcDbEntity
  8
0
  6
Continuous
 62
     7
100
AcDbLine
 10
154.24990452528
 20
63.99906082153319
 30
0.0
 11
154.24990452528
 21
39.99907226562499
 31
0.0
  0
LINE
  5
341
330
18
100
AcDbEntity
  8
0
  6
Continuous
 62
     7
100
AcDbLine
 10
155.4999009013176
 20
62.99907341003415
 30
0.0
 11
200.9999079704285
 21
62.99907341003415
 31
0.0
  0
LINE
  5
342
330
18
100
AcDbEntity
  8
0
  6
Continuous
 62
     7
100
AcDbLine
 10
155.4999009013176
 20
40.99905967712402
 30
0.0
 11
200.9999079704285
 21
40.99905967712402
 31
0.0
  0
LINE
  5
343
330
18
100
AcDbEntity
  8
0
  6
Continuous
 62
     7
100
AcDbLine
 10
154.4999619364738
 20
54.49905929565426
 30
0.0
 11
154.4999619364738
 21
49.49907379150386
 31
0.0
  0
LINE
  5
344
330
18
100
AcDbEntity
  8
0
  6
Continuous
 62
     7
100
AcDbLine
 10
155.4999009013176
 20
54.49910774230954
 30
0.0
 11
155.4999009013176
 21
62.99907341003415
 31
0.0
  0
LINE
  5
345
330
18
100
AcDbEntity
  8
0
  6
Continuous
 62
     7
100
AcDbLine
 10
155.4999009013176
 20
49.49912223815914
 30
0.0
 11
155.4999009013176
 21
40.99905967712402
 31
0.0
  0
ARC
  5
346
330
18
100
AcDbEntity
  8
0
  6
Continuous
 62
     7
100
AcDbCircle
 10
158.7499432563777
 20
51.99906654357909
 30
0.0
 40
2.499992752075653
100
AcDbArc
 50
270.0000346974721
 51
89.99996530252795
  0
CIRCLE
  5
347
330
18
100
AcDbEntity
  8
0
  6
Continuous
 62
     7
100
AcDbCircle
 10
158.7499447703361
 20
51.99906654357909
 30
0.0
 40
1.500005340576171
  0
LINE
  5
348
330
18
100
AcDbEntity
  8
0
  6
Continuous
 62
     7
100
AcDbLine
 10
158.7499447703361
 20
54.49905929565426
 30
0.0
 11
154.4999619364738
 21
54.49905929565426
 31
0.0
  0
LINE
  5
349
330
18
100
AcDbEntity
  8
0
  6
Continuous
 62
     7
100
AcDbLine
 10
158.7499447703361
 20
49.49907379150386
 30
0.0
 11
154.4999619364738
 21
49.49907379150386
 31
0.0
  0
ARC
  5
34A
330
18
100
AcDbEntity
  8
0
  6
Continuous
 62
     7
100
AcDbCircle
 10
159.8749366641044
 20
53.12403421401973
 30
0.0
 40
0.8838637856415273
100
AcDbArc
 50
188.1289920138686
 51
261.8710079861313
  0
ARC
  5
34B
330
18
100
AcDbEntity
  8
0
  6
Continuous
 62
     7
100
AcDbCircle
 10
157.6249851696448
 20
53.12401807373908
 30
0.0
 40
0.883846666472964
100
AcDbArc
 50
278.1286220940616
 51
351.8750788250654
  0
ARC
  5
34C
330
18
100
AcDbEntity
  8
0
  6
Continuous
 62
     7
100
AcDbCircle
 10
157.6250134254999
 20
50.87415942207036
 30
0.0
 40
0.8837952848339442
100
AcDbArc
 50
8.125661165143203
 51
81.87433883485949
  0
ARC
  5
34D
330
18
100
AcDbEntity
  8
0
  6
Continuous
 62
     7
100
AcDbCircle
 10
159.8749043710274
 20
50.87411501341904
 30
0.0
 40
0.883846666472964
100
AcDbArc
 50
98.12862209406157
 51
171.8750788250654
  0
LINE
  5
34E
330
18
100
AcDbEntity
  8
0
  6
Continuous
 62
     7
100
AcDbLine
 10
201.9998711585998
 20
54.49905929565426
 30
0.0
 11
201.9998711585998
 21
49.49907379150386
 31
0.0
  0
ARC
  5
34F
330
18
100
AcDbEntity
  8
0
  6
Continuous
 62
     7
100
AcDbCircle
 10
197.7498641014099
 20
51.99906654357909
 30
0.0
 40
2.499992752075195
100
AcDbArc
 50
90.0
 51
270.0
  0
CIRCLE
  5
350
330
18
100
AcDbEntity
  8
0
  6
Continuous
 62
     7
100
AcDbCircle
 10
197.7498641014099
 20
51.99906654357909
 30
0.0
 40
1.500005340576171
  0
LINE
  5
351
330
18
100
AcDbEntity
  8
0
  6
Continuous
 62
     7
100
AcDbLine
 10
197.7498641014099
 20
54.49905929565426
 30
0.0
 11
201.9998711585998
 21
54.49905929565426
 31
0.0
  0
LINE
  5
352
330
18
100
AcDbEntity
  8
0
  6
Continuous
 62
     7
100
AcDbLine
 10
197.7498641014099
 20
49.49907379150386
 30
0.0
 11
201.9998711585998
 21
49.49907379150386
 31
0.0
  0
ARC
  5
353
330
18
100
AcDbEntity
  8
0
  6
Continuous
 62
     7
100
AcDbCircle
 10
196.6248964309692
 20
53.12403421401973
 30
0.0
 40
0.8838637856415273
100
AcDbArc
 50
278.1289920138687
 51
351.8710079861313
  0
ARC
  5
354
330
18
100
AcDbEntity
  8
0
  6
Continuous
 62
     7
100
AcDbCircle
 10
198.8748237021012
 20
53.12401807373908
 30
0.0
 40
0.8838466664729637
100
AcDbArc
 50
188.1249211749346
 51
261.8713779059386
  0
ARC
  5
355
330
18
100
AcDbEntity
  8
0
  6
Continuous
 62
     7
100
AcDbCircle
 10
198.8747954462462
 20
50.87415942207036
 30
0.0
 40
0.8837952848339472
100
AcDbArc
 50
98.12566116514069
 51
171.8743388348568
  0
ARC
  5
356
330
18
100
AcDbEntity
  8
0
  6
Continuous
 62
     7
100
AcDbCircle
 10
196.6249045007186
 20
50.87411501341904
 30
0.0
 40
0.8838466664729637
100
AcDbArc
 50
8.124921174934639
 51
81.87137790593858
  0
LINE
  5
357
330
18
100
AcDbEntity
  8
0
  6
Continuous
 62
     7
100
AcDbLine
 10
200.9999321937561
 20
54.49910774230954
 30
0.0
 11
200.9999079704285
 21
62.99907341003415
 31
0.0
  0
LINE
  5
358
330
18
100
AcDbEntity
  8
0
  6
Continuous
 62
     7
100
AcDbLine
 10
200.9999321937561
 20
49.49912223815914
 30
0.0
 11
200.9999079704285
 21
40.99905967712402
 31
0.0
  0
LINE
  5
359
330
18
100
AcDbEntity
  8
0
  6
Continuous
 62
     7
100
AcDbLine
 10
158.2499510645866
 20
46.24907836914059
 30
0.0
 11
158.2499510645866
 21
40.99905967712402
 31
0.0
  0
LINE
  5
35A
330
18
100
AcDbEntity
  8
0
  6
Continuous
 62
     7
100
AcDbLine
 10
198.249882030487
 20
46.24907836914059
 30
0.0
 11
198.249882030487
 21
40.99905967712402
 31
0.0
  0
LINE
  5
35B
330
18
100
AcDbEntity
  8
0
  6
Continuous
 62
     7
100
AcDbLine
 10
198.249882030487
 20
46.24907836914059
 30
0.0
 11
158.2499510645866
 21
46.24907836914059
 31
0.0
  0
LINE
  5
35C
330
18
100
AcDbEntity
  8
0
  6
Continuous
 62
     7
100
AcDbLine
 10
162.24994764328
 20
46.24907836914059
 30
0.0
 11
162.24994764328
 21
40.99905967712402
 31
0.0
  0
LINE
  5
35D
330
18
100
AcDbEntity
  8
0
  6
Continuous
 62
     7
100
AcDbLine
 10
166.2499457359314
 20
46.24907836914059
 30
0.0
 11
166.2499457359314
 21
40.99905967712402
 31
0.0
  0
LINE
  5
35E
330
18
100
AcDbEntity
  8
0
  6
Continuous
 62
     7
100
AcDbLine
 10
170.2499438285827
 20
46.24907836914059
 30
0.0
 11
170.2499438285827
 21
40.99905967712402
 31
0.0
  0
LINE
  5
35F
330
18
100
AcDbEntity
  8
0
  6
Continuous
 62
     7
100
AcDbLine
 10
174.2499419212341
 20
46.24907836914059
 30
0.0
 11
174.2499419212341
 21
40.99905967712402
 31
0.0
  0
LINE
  5
360
330
18
100
AcDbEntity
  8
0
  6
Continuous
 62
     7
100
AcDbLine
 10
178.2499400138855
 20
46.24907836914059
 30
0.0
 11
178.2499400138855
 21
40.99905967712402
 31
0.0
  0
LINE
  5
361
330
18
100
AcDbEntity
  8
0
  6
Continuous
 62
     7
100
AcDbLine
 10
182.2499381065368
 20
46.24907836914059
 30
0.0
 11
182.2499381065368
 21
40.99905967712402
 31
0.0
  0
LINE
  5
362
330
18
100
AcDbEntity
  8
0
  6
Continuous
 62
     7
100
AcDbLine
 10
186.2499361991882
 20
46.24907836914059
 30
0.0
 11
186.2499361991882
 21
40.99905967712402
 31
0.0
  0
LINE
  5
363
330
18
100
AcDbEntity
  8
0
  6
Continuous
 62
     7
100
AcDbLine
 10
190.2499342918396
 20
46.24907836914059
 30
0.0
 11
190.2499342918396
 21
40.99905967712402
 31
0.0
  0
LINE
  5
364
330
18
100
AcDbEntity
  8
0
  6
Continuous
 62
     7
100
AcDbLine
 10
194.2499566078186
 20
46.24907836914059
 30
0.0
 11
194.2499566078186
 21
40.99905967712402
 31
0.0
  0
TEXT
  5
365
330
18
100
AcDbEntity
  8
0
  6
Continuous
 62
     4
100
AcDbText
 10
159.4999537348747
 20
41.99909553527828
 30
0.0
 40
3.000000083446502
  1
1
100
AcDbText
  0
TEXT
  5
366
330
18
100
AcDbEntity
  8
0
  6
Continuous
 62
     4
100
AcDbText
 10
163.4999260902405
 20
41.99909553527828
 30
0.0
 40
3.000000083446502
  1
2
100
AcDbText
  0
TEXT
  5
367
330
18
100
AcDbEntity
  8
0
  6
Continuous
 62
     4
100
AcDbText
 10
167.4999241828918
 20
41.99909553527828
 30
0.0
 40
3.000000083446502
  1
3
100
AcDbText
  0
TEXT
  5
368
330
18
100
AcDbEntity
  8
0
  6
Continuous
 62
     4
100
AcDbText
 10
171.4998980522155
 20
41.99909553527828
 30
0.0
 40
3.000000083446502
  1
4
100
AcDbText
  0
TEXT
  5
369
330
18
100
AcDbEntity
  8
0
  6
Continuous
 62
     6
100
AcDbText
 10
1.574799060821533
 20
17.6771297454834
 30
0.0
 40
0.1181102395057678
  1
　
100
AcDbText
  0
TEXT
  5
36A
330
18
100
AcDbEntity
  8
0
  6
Continuous
 62
     4
100
AcDbText
 10
179.4998700141906
 20
41.99909553527828
 30
0.0
 40
3.000000083446502
  1
6
100
AcDbText
  0
TEXT
  5
36B
330
18
100
AcDbEntity
  8
0
  6
Continuous
 62
     4
100
AcDbText
 10
183.499868106842
 20
41.99909553527828
 30
0.0
 40
3.000000083446502
  1
7
100
AcDbText
  0
TEXT
  5
36C
330
18
100
AcDbEntity
  8
0
  6
Continuous
 62
     4
100
AcDbText
 10
187.4998419761658
 20
41.99909553527828
 30
0.0
 40
3.000000083446502
  1
8
100
AcDbText
  0
TEXT
  5
36D
330
18
100
AcDbEntity
  8
0
  6
Continuous
 62
     6
100
AcDbText
 10
2.204718112945556
 20
17.6771297454834
 30
0.0
 40
0.1181102395057678
  1
　
100
AcDbText
  0
TEXT
  5
36E
330
18
100
AcDbEntity
  8
0
  6
Continuous
 62
     4
100
AcDbText
 10
194.2498175621032
 20
41.99909553527828
 30
0.0
 40
3.000000083446502
  1
10
100
AcDbText
  0
TEXT
  5
36F
330
18
100
AcDbEntity
  8
0
  6
Continuous
 62
     4
100
AcDbText
 10
175.4998961448669
 20
41.99909553527828
 30
0.0
 40
3.000000083446502
  1
5
100
AcDbText
  0
TEXT
  5
370
330
18
100
AcDbEntity
  8
0
  6
Continuous
 62
     4
100
AcDbText
 10
191.4998400688171
 20
41.99909553527828
 30
0.0
 40
3.000000083446502
  1
9
100
AcDbText
  0
TEXT
  5
372
330
18
100
AcDbEntity
  8
COMMENT
  6
Continuous
100
AcDbText
 10
149.9999459147453
 20
68.24899520874021
 30
0.0
 40
3.000000083446502
  1
端子配列
100
AcDbText
  0
LINE
  5
376
330
18
100
AcDbEntity
  8
DIM
  6
BORDER
 48
10.0
100
AcDbLine
 10
261.4997640609741
 20
139.9989276885986
 30
0.0
 11
113.500001168251
 21
139.9989276885986
 31
0.0
  0
LINE
  5
377
330
18
100
AcDbEntity
  8
DIM
  6
Continuous
100
AcDbLine
 10
7.000121593475341
 20
114.9989517211913
 30
0.0
 11
7.000121593475341
 21
91.99899902343748
 31
0.0
  0
LINE
  5
378
330
18
100
AcDbEntity
  8
DIM
  6
Continuous
100
AcDbLine
 10
103.0001242637634
 20
114.9989517211913
 30
0.0
 11
103.0001242637634
 21
91.99899902343748
 31
0.0
  0
LINE
  5
379
330
18
100
AcDbEntity
  8
DIM
  6
Continuous
100
AcDbLine
 10
7.000121593475341
 20
92.99898643493651
 30
0.0
 11
8.500126934051536
 21
92.59707298278806
 31
0.0
  0
LINE
  5
37A
330
18
100
AcDbEntity
  8
DIM
  6
Continuous
100
AcDbLine
 10
7.000121593475341
 20
92.99898643493651
 30
0.0
 11
8.500126934051536
 21
93.40089988708497
 31
0.0
  0
LINE
  5
37B
330
18
100
AcDbEntity
  8
DIM
  6
Continuous
100
AcDbLine
 10
8.500126934051536
 20
92.59707298278806
 30
0.0
 11
8.500126934051536
 21
93.40089988708497
 31
0.0
  0
LINE
  5
37C
330
18
100
AcDbEntity
  8
DIM
  6
Continuous
100
AcDbLine
 10
7.000121593475341
 20
92.99898643493651
 30
0.0
 11
103.0001242637634
 21
92.99898643493651
 31
0.0
  0
LINE
  5
37D
330
18
100
AcDbEntity
  8
DIM
  6
Continuous
100
AcDbLine
 10
103.0001242637634
 20
92.99898643493651
 30
0.0
 11
101.5001249790191
 21
93.40089988708497
 31
0.0
  0
LINE
  5
37E
330
18
100
AcDbEntity
  8
DIM
  6
Continuous
100
AcDbLine
 10
103.0001242637634
 20
92.99898643493651
 30
0.0
 11
101.5001249790191
 21
92.59707298278806
 31
0.0
  0
LINE
  5
37F
330
18
100
AcDbEntity
  8
DIM
  6
Continuous
100
AcDbLine
 10
101.5001249790191
 20
93.40089988708497
 30
0.0
 11
101.5001249790191
 21
92.59707298278806
 31
0.0
  0
TEXT
  5
380
330
18
100
AcDbEntity
  8
DIM
  6
Continuous
100
AcDbText
 10
52.90012392997742
 20
93.99897384643555
 30
0.0
 40
3.000000083446502
  1
96
  7
ＭＳ明朝
100
AcDbText
  0
LINE
  5
382
330
18
100
AcDbEntity
  8
DIM
  6
Continuous
100
AcDbLine
 10
117.4999992609024
 20
115.9989875793457
 30
0.0
 11
117.4999992609024
 21
98.49898986816402
 31
0.0
  0
LINE
  5
383
330
18
100
AcDbEntity
  8
DIM
  6
Continuous
100
AcDbLine
 10
123.9999901056289
 20
114.9990001678467
 30
0.0
 11
123.9999901056289
 21
98.49898986816402
 31
0.0
  0
LINE
  5
384
330
18
100
AcDbEntity
  8
DIM
  6
Continuous
100
AcDbLine
 10
126.9999901890755
 20
99.49897727966305
 30
0.0
 11
109.2000395536423
 21
99.49897727966305
 31
0.0
  0
LINE
  5
385
330
18
100
AcDbEntity
  8
DIM
  6
Continuous
100
AcDbLine
 10
123.9999901056289
 20
99.49897727966305
 30
0.0
 11
125.4999901473522
 21
99.0970638275146
 31
0.0
  0
LINE
  5
386
330
18
100
AcDbEntity
  8
DIM
  6
Continuous
100
AcDbLine
 10
123.9999901056289
 20
99.49897727966305
 30
0.0
 11
125.4999901473522
 21
99.90089073181151
 31
0.0
  0
LINE
  5
387
330
18
100
AcDbEntity
  8
DIM
  6
Continuous
100
AcDbLine
 10
125.4999901473522
 20
99.0970638275146
 30
0.0
 11
125.4999901473522
 21
99.90089073181151
 31
0.0
  0
LINE
  5
388
330
18
100
AcDbEntity
  8
DIM
  6
Continuous
100
AcDbLine
 10
117.4999992609024
 20
99.49897727966305
 30
0.0
 11
115.9999999761581
 21
99.90089073181151
 31
0.0
  0
LINE
  5
389
330
18
100
AcDbEntity
  8
DIM
  6
Continuous
100
AcDbLine
 10
117.4999992609024
 20
99.49897727966305
 30
0.0
 11
115.9999999761581
 21
99.0970638275146
 31
0.0
  0
LINE
  5
38A
330
18
100
AcDbEntity
  8
DIM
  6
Continuous
100
AcDbLine
 10
115.9999999761581
 20
99.90089073181151
 30
0.0
 11
115.9999999761581
 21
99.0970638275146
 31
0.0
  0
TEXT
  5
38B
330
18
100
AcDbEntity
  8
DIM
  6
Continuous
100
AcDbText
 10
109.2000395536423
 20
100.4989646911621
 30
0.0
 40
3.000000083446502
  1
6.5
  7
ＭＳ明朝
100
AcDbText
  0
LINE
  5
38E
330
18
100
AcDbEntity
  8
DIM
  6
Continuous
100
AcDbLine
 10
124.0000385522842
 20
114.9990001678467
 30
0.0
 11
124.0000385522842
 21
98.49898986816402
 31
0.0
  0
LINE
  5
38F
330
18
100
AcDbEntity
  8
DIM
  6
Continuous
100
AcDbLine
 10
248.5000003814697
 20
116.9989749908446
 30
0.0
 11
248.5000003814697
 21
98.49898986816402
 31
0.0
  0
LINE
  5
390
330
18
100
AcDbEntity
  8
DIM
  6
Continuous
100
AcDbLine
 10
124.0000385522842
 20
99.49897727966305
 30
0.0
 11
125.5000385940075
 21
99.0970638275146
 31
0.0
  0
LINE
  5
391
330
18
100
AcDbEntity
  8
DIM
  6
Continuous
100
AcDbLine
 10
124.0000385522842
 20
99.49897727966305
 30
0.0
 11
125.5000385940075
 21
99.90089073181151
 31
0.0
  0
LINE
  5
392
330
18
100
AcDbEntity
  8
DIM
  6
Continuous
100
AcDbLine
 10
125.5000385940075
 20
99.0970638275146
 30
0.0
 11
125.5000385940075
 21
99.90089073181151
 31
0.0
  0
LINE
  5
393
330
18
100
AcDbEntity
  8
DIM
  6
Continuous
100
AcDbLine
 10
124.0000385522842
 20
99.49897727966305
 30
0.0
 11
248.5000003814697
 21
99.49897727966305
 31
0.0
  0
LINE
  5
394
330
18
100
AcDbEntity
  8
DIM
  6
Continuous
100
AcDbLine
 10
248.5000003814697
 20
99.49897727966305
 30
0.0
 11
246.9999950408936
 21
99.90089073181151
 31
0.0
  0
LINE
  5
395
330
18
100
AcDbEntity
  8
DIM
  6
Continuous
100
AcDbLine
 10
248.5000003814697
 20
99.49897727966305
 30
0.0
 11
246.9999950408936
 21
99.0970638275146
 31
0.0
  0
LINE
  5
396
330
18
100
AcDbEntity
  8
DIM
  6
Continuous
100
AcDbLine
 10
246.9999950408936
 20
99.90089073181151
 30
0.0
 11
246.9999950408936
 21
99.0970638275146
 31
0.0
  0
TEXT
  5
397
330
18
100
AcDbEntity
  8
DIM
  6
Continuous
100
AcDbText
 10
181.0000144004821
 20
100.4989646911621
 30
0.0
 40
3.000000083446502
  1
124.5
  7
ＭＳ明朝
100
AcDbText
  0
LINE
  5
39C
330
18
100
AcDbEntity
  8
DIM
  6
Continuous
100
AcDbLine
 10
248.5000003814697
 20
116.9989749908446
 30
0.0
 11
248.5000003814697
 21
98.49898986816402
 31
0.0
  0
LINE
  5
39D
330
18
100
AcDbEntity
  8
DIM
  6
Continuous
100
AcDbLine
 10
261.4997398376465
 20
123.9989837646484
 30
0.0
 11
261.4997398376465
 21
98.49898986816402
 31
0.0
  0
LINE
  5
39E
330
18
100
AcDbEntity
  8
DIM
  6
Continuous
100
AcDbLine
 10
248.5000003814697
 20
99.49897727966305
 30
0.0
 11
250.0000057220459
 21
99.0970638275146
 31
0.0
  0
LINE
  5
39F
330
18
100
AcDbEntity
  8
DIM
  6
Continuous
100
AcDbLine
 10
248.5000003814697
 20
99.49897727966305
 30
0.0
 11
250.0000057220459
 21
99.90089073181151
 31
0.0
  0
LINE
  5
3A0
330
18
100
AcDbEntity
  8
DIM
  6
Continuous
100
AcDbLine
 10
250.0000057220459
 20
99.0970638275146
 30
0.0
 11
250.0000057220459
 21
99.90089073181151
 31
0.0
  0
LINE
  5
3A1
330
18
100
AcDbEntity
  8
DIM
  6
Continuous
100
AcDbLine
 10
248.5000003814697
 20
99.49897727966305
 30
0.0
 11
261.4997398376465
 21
99.49897727966305
 31
0.0
  0
LINE
  5
3A2
330
18
100
AcDbEntity
  8
DIM
  6
Continuous
100
AcDbLine
 10
261.4997398376465
 20
99.49897727966305
 30
0.0
 11
259.9997344970703
 21
99.90089073181151
 31
0.0
  0
LINE
  5
3A3
330
18
100
AcDbEntity
  8
DIM
  6
Continuous
100
AcDbLine
 10
261.4997398376465
 20
99.49897727966305
 30
0.0
 11
259.9997344970703
 21
99.0970638275146
 31
0.0
  0
LINE
  5
3A4
330
18
100
AcDbEntity
  8
DIM
  6
Continuous
100
AcDbLine
 10
259.9997344970703
 20
99.90089073181151
 30
0.0
 11
259.9997344970703
 21
99.0970638275146
 31
0.0
  0
TEXT
  5
3A5
330
18
100
AcDbEntity
  8
DIM
  6
Continuous
100
AcDbText
 10
252.8998650550842
 20
100.4989646911621
 30
0.0
 40
3.000000083446502
  1
13
  7
ＭＳ明朝
100
AcDbText
  0
LINE
  5
3A7
330
18
100
AcDbEntity
  8
DIM
  6
Continuous
100
AcDbLine
 10
117.4999992609024
 20
115.9989875793457
 30
0.0
 11
117.4999992609024
 21
91.99899902343748
 31
0.0
  0
LINE
  5
3A8
330
18
100
AcDbEntity
  8
DIM
  6
Continuous
100
AcDbLine
 10
261.4997398376465
 20
122.9989963531494
 30
0.0
 11
261.4997398376465
 21
91.99899902343748
 31
0.0
  0
LINE
  5
3A9
330
18
100
AcDbEntity
  8
DIM
  6
Continuous
100
AcDbLine
 10
117.4999992609024
 20
92.99898643493651
 30
0.0
 11
119.0000000596046
 21
92.59707298278806
 31
0.0
  0
LINE
  5
3AA
330
18
100
AcDbEntity
  8
DIM
  6
Continuous
100
AcDbLine
 10
117.4999992609024
 20
92.99898643493651
 30
0.0
 11
118.9999985456466
 21
93.40089988708497
 31
0.0
  0
LINE
  5
3AB
330
18
100
AcDbEntity
  8
DIM
  6
Continuous
100
AcDbLine
 10
119.0000000596046
 20
92.59707298278806
 30
0.0
 11
118.9999985456466
 21
93.40089988708497
 31
0.0
  0
LINE
  5
3AC
330
18
100
AcDbEntity
  8
DIM
  6
Continuous
100
AcDbLine
 10
117.4999992609024
 20
92.99898643493651
 30
0.0
 11
261.4997398376465
 21
92.99898643493651
 31
0.0
  0
LINE
  5
3AD
330
18
100
AcDbEntity
  8
DIM
  6
Continuous
100
AcDbLine
 10
261.4997398376465
 20
92.99898643493651
 30
0.0
 11
259.9997344970703
 21
93.40089988708497
 31
0.0
  0
LINE
  5
3AE
330
18
100
AcDbEntity
  8
DIM
  6
Continuous
100
AcDbLine
 10
261.4997398376465
 20
92.99898643493651
 30
0.0
 11
259.9997344970703
 21
92.59707298278806
 31
0.0
  0
LINE
  5
3AF
330
18
100
AcDbEntity
  8
DIM
  6
Continuous
100
AcDbLine
 10
259.9997344970703
 20
93.40089988708497
 30
0.0
 11
259.9997344970703
 21
92.59707298278806
 31
0.0
  0
TEXT
  5
3B0
330
18
100
AcDbEntity
  8
DIM
  6
Continuous
100
AcDbText
 10
186.3498695373535
 20
93.99897384643555
 30
0.0
 40
3.000000083446502
  1
144
  7
ＭＳ明朝
100
AcDbText
  0
LINE
  5
3B3
330
18
100
AcDbEntity
  8
DIM
  6
Continuous
100
AcDbLine
 10
104.0001237869262
 20
115.9989391326904
 30
0.0
 11
110.5000510454178
 21
115.9989391326904
 31
0.0
  0
LINE
  5
3B4
330
18
100
AcDbEntity
  8
DIM
  6
Continuous
100
AcDbLine
 10
104.0001237869262
 20
163.9989162445068
 30
0.0
 11
110.5000510454178
 21
163.9989162445068
 31
0.0
  0
LINE
  5
3B5
330
18
100
AcDbEntity
  8
DIM
  6
Continuous
100
AcDbLine
 10
109.5000515222549
 20
115.9989391326904
 30
0.0
 11
109.9019740581512
 21
117.4989444732665
 31
0.0
  0
LINE
  5
3B6
330
18
100
AcDbEntity
  8
DIM
  6
Continuous
100
AcDbLine
 10
109.5000515222549
 20
115.9989391326904
 30
0.0
 11
109.0981289863586
 21
117.4989444732665
 31
0.0
  0
LINE
  5
3B7
330
18
100
AcDbEntity
  8
DIM
  6
Continuous
100
AcDbLine
 10
109.9019740581512
 20
117.4989444732665
 30
0.0
 11
109.0981289863586
 21
117.4989444732665
 31
0.0
  0
LINE
  5
3B8
330
18
100
AcDbEntity
  8
DIM
  6
Continuous
100
AcDbLine
 10
109.5000515222549
 20
115.9989391326904
 30
0.0
 11
109.5000515222549
 21
163.9989162445068
 31
0.0
  0
LINE
  5
3B9
330
18
100
AcDbEntity
  8
DIM
  6
Continuous
100
AcDbLine
 10
109.5000515222549
 20
163.9989162445068
 30
0.0
 11
109.0981289863586
 21
162.4989109039306
 31
0.0
  0
LINE
  5
3BA
330
18
100
AcDbEntity
  8
DIM
  6
Continuous
100
AcDbLine
 10
109.5000515222549
 20
163.9989162445068
 30
0.0
 11
109.9019740581512
 21
162.4989109039306
 31
0.0
  0
LINE
  5
3BB
330
18
100
AcDbEntity
  8
DIM
  6
Continuous
100
AcDbLine
 10
109.0981289863586
 20
162.4989109039306
 30
0.0
 11
109.9019740581512
 21
162.4989109039306
 31
0.0
  0
TEXT
  5
3BC
330
18
100
AcDbEntity
  8
DIM
  6
Continuous
100
AcDbText
 10
108.5000489711761
 20
137.8989105224609
 30
0.0
 40
3.000000083446502
  1
48
 50
90.0
  7
ＭＳ明朝
100
AcDbText
  0
LINE
  5
3BE
330
18
100
AcDbEntity
  8
DIM
  6
Continuous
100
AcDbLine
 10
249.4999999046326
 20
117.9989624023437
 30
0.0
 11
268.9997423171996
 21
117.9989624023437
 31
0.0
  0
LINE
  5
3BF
330
18
100
AcDbEntity
  8
DIM
  6
Continuous
100
AcDbLine
 10
249.4999999046326
 20
161.9988929748534
 30
0.0
 11
268.9997423171996
 21
161.9988929748534
 31
0.0
  0
LINE
  5
3C0
330
18
100
AcDbEntity
  8
DIM
  6
Continuous
100
AcDbLine
 10
267.9997427940368
 20
117.9989624023437
 30
0.0
 11
268.4016683578491
 21
119.4989677429199
 31
0.0
  0
LINE
  5
3C1
330
18
100
AcDbEntity
  8
DIM
  6
Continuous
100
AcDbLine
 10
267.9997427940368
 20
117.9989624023437
 30
0.0
 11
267.5978172302245
 21
119.4989677429199
 31
0.0
  0
LINE
  5
3C2
330
18
100
AcDbEntity
  8
DIM
  6
Continuous
100
AcDbLine
 10
268.4016683578491
 20
119.4989677429199
 30
0.0
 11
267.5978172302245
 21
119.4989677429199
 31
0.0
  0
LINE
  5
3C3
330
18
100
AcDbEntity
  8
DIM
  6
Continuous
100
AcDbLine
 10
267.9997427940368
 20
117.9989624023437
 30
0.0
 11
267.9997427940368
 21
161.9988929748534
 31
0.0
  0
LINE
  5
3C4
330
18
100
AcDbEntity
  8
DIM
  6
Continuous
100
AcDbLine
 10
267.9997427940368
 20
161.9988929748534
 30
0.0
 11
267.5978172302245
 21
160.4988876342773
 31
0.0
  0
LINE
  5
3C5
330
18
100
AcDbEntity
  8
DIM
  6
Continuous
100
AcDbLine
 10
267.9997427940368
 20
161.9988929748534
 30
0.0
 11
268.4016683578491
 21
160.4988876342773
 31
0.0
  0
LINE
  5
3C6
330
18
100
AcDbEntity
  8
DIM
  6
Continuous
100
AcDbLine
 10
267.5978172302245
 20
160.4988876342773
 30
0.0
 11
268.4016683578491
 21
160.4988876342773
 31
0.0
  0
TEXT
  5
3C7
330
18
100
AcDbEntity
  8
DIM
  6
Continuous
100
AcDbText
 10
266.999743270874
 20
137.8989105224609
 30
0.0
 40
3.000000083446502
  1
×91
 50
90.0
  7
ＭＳ明朝
100
AcDbText
  0
TEXT
  5
3C9
330
18
100
AcDbEntity
  8
DIM
  6
Continuous
100
AcDbText
 10
266.999743270874
 20
129.4988418579102
 30
0.0
 40
3.000000083446502
  1
44
 50
90.0
  7
ＭＳ明朝
100
AcDbText
  0
TEXT
  5
3CC
330
18
100
AcDbEntity
  8
DIM
  6
Continuous
100
AcDbText
 10
266.999743270874
 20
133.9989063262938
 30
0.0
 40
1.500000041723251
  1
－1
 50
90.0
  7
ＭＳ明朝
100
AcDbText
  0
TEXT
  5
3CE
330
18
100
AcDbEntity
  8
DIM
  6
Continuous
100
AcDbText
 10
265.1247487068176
 20
133.9989063262938
 30
0.0
 40
1.500000041723251
  1
＋0
 50
90.0
  7
ＭＳ明朝
100
AcDbText
  0
LINE
  5
3D4
330
18
100
AcDbEntity
  8
0
  6
Continuous
 62
     7
100
AcDbLine
 10
46.00017566680908
 20
37.99914588928221
 30
0.0
 11
92.00017795562743
 21
37.99914588928221
 31
0.0
  0
LINE
  5
3D5
330
18
100
AcDbEntity
  8
0
  6
Continuous
 62
     7
100
AcDbLine
 10
46.00017566680908
 20
60.49912910461421
 30
0.0
 11
92.00017795562743
 21
60.49912910461421
 31
0.0
  0
LINE
  5
3D6
330
18
100
AcDbEntity
  8
0
  6
Continuous
 62
     7
100
AcDbLine
 10
46.00017566680908
 20
60.49912910461421
 30
0.0
 11
46.00017566680908
 21
37.99914588928221
 31
0.0
  0
LINE
  5
3D7
330
18
100
AcDbEntity
  8
0
  6
Continuous
 62
     7
100
AcDbLine
 10
92.00017795562743
 20
60.49912910461421
 30
0.0
 11
92.00017795562743
 21
37.99914588928221
 31
0.0
  0
LINE
  5
3D8
330
18
100
AcDbEntity
  8
DIM
  6
Continuous
100
AcDbLine
 10
93.00017747879028
 20
37.99914588928221
 30
0.0
 11
103.5000634670257
 21
37.99914588928221
 31
0.0
  0
LINE
  5
3D9
330
18
100
AcDbEntity
  8
DIM
  6
Continuous
100
AcDbLine
 10
93.00017747879028
 20
60.49912910461421
 30
0.0
 11
103.5000634670257
 21
60.49912910461421
 31
0.0
  0
LINE
  5
3DA
330
18
100
AcDbEntity
  8
DIM
  6
Continuous
100
AcDbLine
 10
102.5000639438629
 20
37.99914588928221
 30
0.0
 11
102.9019864797592
 21
39.4991512298584
 31
0.0
  0
LINE
  5
3DB
330
18
100
AcDbEntity
  8
DIM
  6
Continuous
100
AcDbLine
 10
102.5000639438629
 20
37.99914588928221
 30
0.0
 11
102.0981414079666
 21
39.4991512298584
 31
0.0
  0
LINE
  5
3DC
330
18
100
AcDbEntity
  8
DIM
  6
Continuous
100
AcDbLine
 10
102.9019864797592
 20
39.4991512298584
 30
0.0
 11
102.0981414079666
 21
39.4991512298584
 31
0.0
  0
LINE
  5
3DD
330
18
100
AcDbEntity
  8
DIM
  6
Continuous
100
AcDbLine
 10
102.5000639438629
 20
37.99914588928221
 30
0.0
 11
102.5000639438629
 21
60.49912910461421
 31
0.0
  0
LINE
  5
3DE
330
18
100
AcDbEntity
  8
DIM
  6
Continuous
100
AcDbLine
 10
102.5000639438629
 20
60.49912910461421
 30
0.0
 11
102.0981414079666
 21
58.99912376403808
 31
0.0
  0
LINE
  5
3DF
330
18
100
AcDbEntity
  8
DIM
  6
Continuous
100
AcDbLine
 10
102.5000639438629
 20
60.49912910461421
 30
0.0
 11
102.9019864797592
 21
58.99912376403808
 31
0.0
  0
LINE
  5
3E0
330
18
100
AcDbEntity
  8
DIM
  6
Continuous
100
AcDbLine
 10
102.0981414079666
 20
58.99912376403808
 30
0.0
 11
102.9019864797592
 21
58.99912376403808
 31
0.0
  0
TEXT
  5
3E1
330
18
100
AcDbEntity
  8
DIM
  6
Continuous
100
AcDbText
 10
101.5000644207
 20
47.14912033081055
 30
0.0
 40
3.000000083446502
  1
45
 50
90.0
  7
ＭＳ明朝
100
AcDbText
  0
LINE
  5
3E3
330
18
100
AcDbEntity
  8
DIM
  6
Continuous
100
AcDbLine
 10
46.00017566680908
 20
69.99903373718257
 30
0.0
 11
46.00017566680908
 21
61.49911651611325
 31
0.0
  0
LINE
  5
3E4
330
18
100
AcDbEntity
  8
DIM
  6
Continuous
100
AcDbLine
 10
92.00017795562743
 20
69.99903373718257
 30
0.0
 11
92.00017795562743
 21
61.49911651611325
 31
0.0
  0
LINE
  5
3E5
330
18
100
AcDbEntity
  8
DIM
  6
Continuous
100
AcDbLine
 10
46.00017566680908
 20
68.99904632568359
 30
0.0
 11
47.50017495155335
 21
68.59713287353514
 31
0.0
  0
LINE
  5
3E6
330
18
100
AcDbEntity
  8
DIM
  6
Continuous
100
AcDbLine
 10
46.00017566680908
 20
68.99904632568359
 30
0.0
 11
47.50017495155335
 21
69.40095977783198
 31
0.0
  0
LINE
  5
3E7
330
18
100
AcDbEntity
  8
DIM
  6
Continuous
100
AcDbLine
 10
47.50017495155335
 20
68.59713287353514
 30
0.0
 11
47.50017495155335
 21
69.40095977783198
 31
0.0
  0
LINE
  5
3E8
330
18
100
AcDbEntity
  8
DIM
  6
Continuous
100
AcDbLine
 10
46.00017566680908
 20
68.99904632568359
 30
0.0
 11
92.00017795562743
 21
68.99904632568359
 31
0.0
  0
LINE
  5
3E9
330
18
100
AcDbEntity
  8
DIM
  6
Continuous
100
AcDbLine
 10
92.00017795562743
 20
68.99904632568359
 30
0.0
 11
90.50017867088318
 21
69.40095977783198
 31
0.0
  0
LINE
  5
3EA
330
18
100
AcDbEntity
  8
DIM
  6
Continuous
100
AcDbLine
 10
92.00017795562743
 20
68.99904632568359
 30
0.0
 11
90.50017867088318
 21
68.59713287353514
 31
0.0
  0
LINE
  5
3EB
330
18
100
AcDbEntity
  8
DIM
  6
Continuous
100
AcDbLine
 10
90.50017867088318
 20
69.40095977783198
 30
0.0
 11
90.50017867088318
 21
68.59713287353514
 31
0.0
  0
TEXT
  5
3EC
330
18
100
AcDbEntity
  8
DIM
  6
Continuous
100
AcDbText
 10
66.9001778125763
 20
69.99903373718257
 30
0.0
 40
3.000000083446502
  1
92
  7
ＭＳ明朝
100
AcDbText
  0
TEXT
  5
3EE
330
18
100
AcDbEntity
  8
COMMENT
  6
Continuous
100
AcDbText
 10
50.99995169639588
 20
47.74884147644042
 30
0.0
 40
3.000000083446502
  1
パネルカット寸法
  7
ＭＳ明朝
100
AcDbText
  0
LINE
  5
3F6
330
18
100
AcDbEntity
  8
COMMENT
  6
Continuous
100
AcDbLine
 10
184.4999006986618
 20
143.99892578125
 30
0.0
 11
198.9998725891113
 21
166.9988784790039
 31
0.0
  0
TEXT
  5
3F7
330
18
100
AcDbEntity
  8
COMMENT
  6
Continuous
100
AcDbText
 10
198.9998725891113
 20
167.498896408081
 30
0.0
 40
3.000000083446502
  1
パネル取付金具
  7
ＭＳ明朝
100
AcDbText
  0
LINE
  5
3FF
330
18
100
AcDbEntity
  8
COMMENT
  6
Continuous
100
AcDbLine
 10
229.9998322963714
 20
166.9988784790039
 30
0.0
 11
198.9998725891113
 21
166.9988784790039
 31
0.0
  0
LINE
  5
400
330
18
100
AcDbEntity
  8
原紙枠
 62
     7
100
AcDbLine
 10
136.0
 20
199.0
 30
0.0
 11
136.0
 21
186.0
 31
0.0
  0
LINE
  5
401
330
18
100
AcDbEntity
  8
原紙枠
100
AcDbLine
 10
-2.0
 20
15.5
 30
0.0
 11
275.5
 21
15.5
 31
0.0
  0
LINE
  5
402
330
18
100
AcDbEntity
  8
原紙枠
100
AcDbLine
 10
-2.0
 20
35.5
 30
0.0
 11
3.0
 21
35.5
 31
0.0
  0
LINE
  5
403
330
18
100
AcDbEntity
  8
原紙枠
100
AcDbLine
 10
3.0
 20
35.5
 30
0.0
 11
3.0
 21
15.5
 31
0.0
  0
LINE
  5
404
330
18
100
AcDbEntity
  8
原紙枠
100
AcDbLine
 10
12.0
 20
15.5
 30
0.0
 11
12.0
 21
3.5
 31
0.0
  0
LINE
  5
405
330
18
100
AcDbEntity
  8
原紙枠
100
AcDbLine
 10
26.0
 20
15.5
 30
0.0
 11
26.0
 21
3.5
 31
0.0
  0
LINE
  5
406
330
18
100
AcDbEntity
  8
原紙枠
100
AcDbLine
 10
40.0
 20
15.5
 30
0.0
 11
40.0
 21
3.5
 31
0.0
  0
LINE
  5
407
330
18
100
AcDbEntity
  8
原紙枠
100
AcDbLine
 10
54.0
 20
15.5
 30
0.0
 11
54.0
 21
3.5
 31
0.0
  0
LINE
  5
408
330
18
100
AcDbEntity
  8
原紙枠
100
AcDbLine
 10
68.0
 20
15.5
 30
0.0
 11
68.0
 21
3.5
 31
0.0
  0
LINE
  5
409
330
18
100
AcDbEntity
  8
原紙枠
100
AcDbLine
 10
107.0
 20
15.5
 30
0.0
 11
107.0
 21
3.5
 31
0.0
  0
LINE
  5
40A
330
18
100
AcDbEntity
  8
原紙枠
100
AcDbLine
 10
203.0
 20
15.5
 30
0.0
 11
203.0
 21
3.5
 31
0.0
  0
LINE
  5
40B
330
18
100
AcDbEntity
  8
原紙枠
100
AcDbLine
 10
263.5
 20
15.5
 30
0.0
 11
263.5
 21
3.5
 31
0.0
  0
LINE
  5
40C
330
18
100
AcDbEntity
  8
原紙枠
 62
     7
100
AcDbLine
 10
3.0
 20
35.5
 30
0.0
 11
5.5
 21
35.5
 31
0.0
  0
LINE
  5
40D
330
18
100
AcDbEntity
  8
原紙枠
 62
     7
100
AcDbLine
 10
3.0
 20
30.5
 30
0.0
 11
5.5
 21
30.5
 31
0.0
  0
LINE
  5
40E
330
18
100
AcDbEntity
  8
原紙枠
 62
     7
100
AcDbLine
 10
3.0
 20
25.5
 30
0.0
 11
5.5
 21
25.5
 31
0.0
  0
LINE
  5
40F
330
18
100
AcDbEntity
  8
原紙枠
 62
     7
100
AcDbLine
 10
3.0
 20
20.5
 30
0.0
 11
5.5
 21
20.5
 31
0.0
  0
LINE
  5
410
330
18
100
AcDbEntity
  8
原紙枠
 62
     7
100
AcDbLine
 10
3.0
 20
15.5
 30
0.0
 11
3.0
 21
3.5
 31
0.0
  0
LINE
  5
411
330
18
100
AcDbEntity
  8
原紙枠
 62
     7
100
AcDbLine
 10
17.0
 20
15.5
 30
0.0
 11
17.0
 21
3.5
 31
0.0
  0
LINE
  5
412
330
18
100
AcDbEntity
  8
原紙枠
 62
     7
100
AcDbLine
 10
31.0
 20
15.5
 30
0.0
 11
31.0
 21
3.5
 31
0.0
  0
LINE
  5
413
330
18
100
AcDbEntity
  8
原紙枠
 62
     7
100
AcDbLine
 10
45.0
 20
15.5
 30
0.0
 11
45.0
 21
3.5
 31
0.0
  0
LINE
  5
414
330
18
100
AcDbEntity
  8
原紙枠
 62
     7
100
AcDbLine
 10
59.0
 20
15.5
 30
0.0
 11
59.0
 21
3.5
 31
0.0
  0
LINE
  5
415
330
18
100
AcDbEntity
  8
原紙枠
 62
     7
100
AcDbLine
 10
112.0
 20
15.5
 30
0.0
 11
112.0
 21
3.5
 31
0.0
  0
LINE
  5
416
330
18
100
AcDbEntity
  8
原紙枠
 62
     7
100
AcDbLine
 10
208.0
 20
15.5
 30
0.0
 11
208.0
 21
3.5
 31
0.0
  0
LINE
  5
417
330
18
100
AcDbEntity
  8
原紙枠
 62
     7
100
AcDbLine
 10
68.0
 20
9.5
 30
0.0
 11
107.0
 21
9.5
 31
0.0
  0
LINE
  5
418
330
18
100
AcDbEntity
  8
原紙枠
 62
     7
100
AcDbLine
 10
226.0
 20
9.5
 30
0.0
 11
233.0
 21
9.5
 31
0.0
  0
LINE
  5
419
330
18
100
AcDbEntity
  8
原紙枠
 62
     7
100
AcDbLine
 10
273.0
 20
12.5
 30
0.0
 11
266.5
 21
6.5
 31
0.0
  0
LINE
  5
41A
330
18
100
AcDbEntity
  8
原紙枠
 62
     7
100
AcDbLine
 10
113.0
 20
11.0
 30
0.0
 11
156.5
 21
11.0
 31
0.0
  0
TEXT
  5
41B
330
18
100
AcDbEntity
  8
原紙文字
100
AcDbText
 10
-1.5
 20
29.5
 30
0.0
 40
3.0
  1
改
100
AcDbText
  0
TEXT
  5
41C
330
18
100
AcDbEntity
  8
原紙文字
100
AcDbText
 10
-1.5
 20
18.5
 30
0.0
 40
3.0
  1
訂
100
AcDbText
  0
TEXT
  5
41D
330
18
100
AcDbEntity
  8
原紙文字
100
AcDbText
 10
-1.5
 20
11.5
 30
0.0
 40
3.0
  1
検
100
AcDbText
  0
TEXT
  5
41E
330
18
100
AcDbEntity
  8
原紙文字
100
AcDbText
 10
-1.5
 20
5.5
 30
0.0
 40
3.0
  1
認
100
AcDbText
  0
TEXT
  5
41F
330
18
100
AcDbEntity
  8
原紙文字
100
AcDbText
 10
12.5
 20
5.5
 30
0.0
 40
3.0
  1
印
100
AcDbText
  0
TEXT
  5
420
330
18
100
AcDbEntity
  8
原紙文字
100
AcDbText
 10
12.5
 20
11.5
 30
0.0
 40
3.0
  1
検
100
AcDbText
  0
TEXT
  5
421
330
18
100
AcDbEntity
  8
原紙文字
100
AcDbText
 10
26.5
 20
5.5
 30
0.0
 40
3.0
  1
図
100
AcDbText
  0
TEXT
  5
422
330
18
100
AcDbEntity
  8
原紙文字
100
AcDbText
 10
26.5
 20
11.5
 30
0.0
 40
3.0
  1
検
100
AcDbText
  0
TEXT
  5
423
330
18
100
AcDbEntity
  8
原紙文字
100
AcDbText
 10
40.49999999999999
 20
5.5
 30
0.0
 40
3.0
  1
計
100
AcDbText
  0
TEXT
  5
424
330
18
100
AcDbEntity
  8
原紙文字
100
AcDbText
 10
40.49999999999999
 20
11.5
 30
0.0
 40
3.0
  1
設
100
AcDbText
  0
TEXT
  5
425
330
18
100
AcDbEntity
  8
原紙文字
100
AcDbText
 10
54.5
 20
5.5
 30
0.0
 40
3.0
  1
図
100
AcDbText
  0
TEXT
  5
426
330
18
100
AcDbEntity
  8
原紙文字
100
AcDbText
 10
54.5
 20
11.5
 30
0.0
 40
3.0
  1
製
100
AcDbText
  0
TEXT
  5
427
330
18
100
AcDbEntity
  8
原紙文字
100
AcDbText
 10
97.5
 20
11.0
 30
0.0
 40
3.0
  1
作成
100
AcDbText
  0
TEXT
  5
428
330
18
100
AcDbEntity
  8
原紙文字
100
AcDbText
 10
107.5
 20
5.5
 30
0.0
 40
3.0
  1
称
100
AcDbText
  0
TEXT
  5
429
330
18
100
AcDbEntity
  8
原紙文字
100
AcDbText
 10
107.5
 20
11.5
 30
0.0
 40
3.0
  1
名
100
AcDbText
  0
TEXT
  5
42A
330
18
100
AcDbEntity
  8
原紙文字
100
AcDbText
 10
113.5
 20
12.0
 30
0.0
 40
2.399999999999999
  1
型式：
100
AcDbText
  0
TEXT
  5
42B
330
18
100
AcDbEntity
  8
原紙文字
100
AcDbText
 10
203.5
 20
5.0
 30
0.0
 40
3.0
  1
番
100
AcDbText
  0
TEXT
  5
42C
330
18
100
AcDbEntity
  8
原紙文字
100
AcDbText
 10
203.5
 20
11.0
 30
0.0
 40
3.0
  1
図
100
AcDbText
  0
TEXT
  5
42D
330
18
100
AcDbEntity
  8
原紙文字
100
AcDbText
 10
259.0
 20
1.0
 30
0.0
 40
1.5
  1
DF05-202-01
100
AcDbText
  0
LINE
  5
42E
330
18
100
AcDbEntity
  8
GRID
100
AcDbLine
 10
10.0
 20
183.5
 30
0.0
 11
10.0
 21
15.5
 31
0.0
  0
LINE
  5
42F
330
18
100
AcDbEntity
  8
GRID
100
AcDbLine
 10
20.0
 20
183.5
 30
0.0
 11
20.0
 21
15.5
 31
0.0
  0
LINE
  5
430
330
18
100
AcDbEntity
  8
GRID
100
AcDbLine
 10
30.0
 20
183.5
 30
0.0
 11
30.0
 21
15.5
 31
0.0
  0
LINE
  5
431
330
18
100
AcDbEntity
  8
GRID
100
AcDbLine
 10
40.0
 20
183.5
 30
0.0
 11
40.0
 21
15.5
 31
0.0
  0
LINE
  5
432
330
18
100
AcDbEntity
  8
GRID
100
AcDbLine
 10
50.0
 20
183.5
 30
0.0
 11
50.0
 21
15.5
 31
0.0
  0
LINE
  5
433
330
18
100
AcDbEntity
  8
GRID
100
AcDbLine
 10
60.0
 20
183.5
 30
0.0
 11
60.0
 21
15.5
 31
0.0
  0
LINE
  5
434
330
18
100
AcDbEntity
  8
GRID
100
AcDbLine
 10
70.0
 20
183.5
 30
0.0
 11
70.0
 21
15.5
 31
0.0
  0
LINE
  5
435
330
18
100
AcDbEntity
  8
GRID
100
AcDbLine
 10
80.0
 20
183.5
 30
0.0
 11
80.0
 21
15.5
 31
0.0
  0
LINE
  5
436
330
18
100
AcDbEntity
  8
GRID
100
AcDbLine
 10
90.0
 20
183.5
 30
0.0
 11
90.0
 21
15.5
 31
0.0
  0
LINE
  5
437
330
18
100
AcDbEntity
  8
GRID
100
AcDbLine
 10
100.0
 20
183.5
 30
0.0
 11
100.0
 21
15.5
 31
0.0
  0
LINE
  5
438
330
18
100
AcDbEntity
  8
GRID
100
AcDbLine
 10
110.0
 20
183.5
 30
0.0
 11
110.0
 21
15.5
 31
0.0
  0
LINE
  5
439
330
18
100
AcDbEntity
  8
GRID
100
AcDbLine
 10
120.0
 20
183.5
 30
0.0
 11
120.0
 21
15.5
 31
0.0
  0
LINE
  5
43A
330
18
100
AcDbEntity
  8
GRID
100
AcDbLine
 10
130.0
 20
183.5
 30
0.0
 11
130.0
 21
15.5
 31
0.0
  0
LINE
  5
43B
330
18
100
AcDbEntity
  8
GRID
100
AcDbLine
 10
140.0
 20
183.5
 30
0.0
 11
140.0
 21
15.5
 31
0.0
  0
LINE
  5
43C
330
18
100
AcDbEntity
  8
GRID
100
AcDbLine
 10
150.0
 20
183.5
 30
0.0
 11
150.0
 21
15.5
 31
0.0
  0
LINE
  5
43D
330
18
100
AcDbEntity
  8
GRID
100
AcDbLine
 10
160.0
 20
183.5
 30
0.0
 11
160.0
 21
15.5
 31
0.0
  0
LINE
  5
43E
330
18
100
AcDbEntity
  8
GRID
100
AcDbLine
 10
170.0
 20
183.5
 30
0.0
 11
170.0
 21
15.5
 31
0.0
  0
LINE
  5
43F
330
18
100
AcDbEntity
  8
GRID
100
AcDbLine
 10
180.0
 20
183.5
 30
0.0
 11
180.0
 21
15.5
 31
0.0
  0
LINE
  5
440
330
18
100
AcDbEntity
  8
GRID
100
AcDbLine
 10
190.0
 20
183.5
 30
0.0
 11
190.0
 21
15.5
 31
0.0
  0
LINE
  5
441
330
18
100
AcDbEntity
  8
GRID
100
AcDbLine
 10
200.0
 20
183.5
 30
0.0
 11
200.0
 21
15.5
 31
0.0
  0
LINE
  5
442
330
18
100
AcDbEntity
  8
GRID
100
AcDbLine
 10
210.0
 20
183.5
 30
0.0
 11
210.0
 21
15.5
 31
0.0
  0
LINE
  5
443
330
18
100
AcDbEntity
  8
GRID
100
AcDbLine
 10
220.0
 20
183.5
 30
0.0
 11
220.0
 21
15.5
 31
0.0
  0
LINE
  5
444
330
18
100
AcDbEntity
  8
GRID
100
AcDbLine
 10
230.0
 20
183.5
 30
0.0
 11
230.0
 21
15.5
 31
0.0
  0
LINE
  5
445
330
18
100
AcDbEntity
  8
GRID
100
AcDbLine
 10
240.0
 20
183.5
 30
0.0
 11
240.0
 21
15.5
 31
0.0
  0
LINE
  5
446
330
18
100
AcDbEntity
  8
GRID
100
AcDbLine
 10
250.0
 20
183.5
 30
0.0
 11
250.0
 21
15.5
 31
0.0
  0
LINE
  5
447
330
18
100
AcDbEntity
  8
GRID
100
AcDbLine
 10
260.0
 20
183.5
 30
0.0
 11
260.0
 21
15.5
 31
0.0
  0
LINE
  5
448
330
18
100
AcDbEntity
  8
GRID
100
AcDbLine
 10
270.0
 20
183.5
 30
0.0
 11
270.0
 21
15.5
 31
0.0
  0
LINE
  5
449
330
18
100
AcDbEntity
  8
GRID
100
AcDbLine
 10
-2.0
 20
180.0
 30
0.0
 11
275.5
 21
180.0
 31
0.0
  0
LINE
  5
44A
330
18
100
AcDbEntity
  8
GRID
100
AcDbLine
 10
-2.0
 20
170.0
 30
0.0
 11
275.5
 21
170.0
 31
0.0
  0
LINE
  5
44B
330
18
100
AcDbEntity
  8
GRID
100
AcDbLine
 10
-2.0
 20
160.0
 30
0.0
 11
275.5
 21
160.0
 31
0.0
  0
LINE
  5
44C
330
18
100
AcDbEntity
  8
GRID
100
AcDbLine
 10
-2.0
 20
150.0
 30
0.0
 11
275.5
 21
150.0
 31
0.0
  0
LINE
  5
44D
330
18
100
AcDbEntity
  8
GRID
100
AcDbLine
 10
-2.0
 20
140.0
 30
0.0
 11
275.5
 21
140.0
 31
0.0
  0
LINE
  5
44E
330
18
100
AcDbEntity
  8
GRID
100
AcDbLine
 10
-2.0
 20
130.0
 30
0.0
 11
275.5
 21
130.0
 31
0.0
  0
LINE
  5
44F
330
18
100
AcDbEntity
  8
GRID
100
AcDbLine
 10
-2.0
 20
120.0
 30
0.0
 11
275.5
 21
120.0
 31
0.0
  0
LINE
  5
450
330
18
100
AcDbEntity
  8
GRID
100
AcDbLine
 10
-2.0
 20
110.0
 30
0.0
 11
275.5
 21
110.0
 31
0.0
  0
LINE
  5
451
330
18
100
AcDbEntity
  8
GRID
100
AcDbLine
 10
-2.0
 20
100.0
 30
0.0
 11
275.5
 21
100.0
 31
0.0
  0
LINE
  5
452
330
18
100
AcDbEntity
  8
GRID
100
AcDbLine
 10
-2.0
 20
90.0
 30
0.0
 11
275.5
 21
90.0
 31
0.0
  0
LINE
  5
453
330
18
100
AcDbEntity
  8
GRID
100
AcDbLine
 10
-2.0
 20
80.0
 30
0.0
 11
275.5
 21
80.0
 31
0.0
  0
LINE
  5
454
330
18
100
AcDbEntity
  8
GRID
100
AcDbLine
 10
-2.0
 20
70.0
 30
0.0
 11
275.5
 21
70.0
 31
0.0
  0
LINE
  5
455
330
18
100
AcDbEntity
  8
GRID
100
AcDbLine
 10
-2.0
 20
60.0
 30
0.0
 11
275.5
 21
60.0
 31
0.0
  0
LINE
  5
456
330
18
100
AcDbEntity
  8
GRID
100
AcDbLine
 10
-2.0
 20
50.0
 30
0.0
 11
275.5
 21
50.0
 31
0.0
  0
LINE
  5
457
330
18
100
AcDbEntity
  8
GRID
100
AcDbLine
 10
-2.0
 20
40.0
 30
0.0
 11
275.5
 21
40.0
 31
0.0
  0
LINE
  5
458
330
18
100
AcDbEntity
  8
GRID
100
AcDbLine
 10
3.0
 20
30.0
 30
0.0
 11
275.4999999999999
 21
30.0
 31
0.0
  0
LINE
  5
459
330
18
100
AcDbEntity
  8
GRID
100
AcDbLine
 10
3.0
 20
20.0
 30
0.0
 11
275.4999999999999
 21
20.0
 31
0.0
  0
ARC
  5
45A
102
{ACAD_REACTORS
330
51A
102
}
330
18
100
AcDbEntity
  8
原紙文字
100
AcDbCircle
 10
76.11003452088315
 20
6.642774206450817
 30
0.0
 40
0.3190940372347267
100
AcDbArc
 50
133.8848074402764
 51
175.3389261929413
  0
LINE
  5
45B
102
{ACAD_REACTORS
330
51A
102
}
330
18
100
AcDbEntity
  8
原紙文字
  6
Continuous
100
AcDbLine
 10
87.78573478217069
 20
6.948600018613324
 30
0.0
 11
89.58069968727428
 21
6.948600018613324
 31
0.0
  0
LINE
  5
45C
102
{ACAD_REACTORS
330
51A
102
}
330
18
100
AcDbEntity
  8
原紙文字
  6
Continuous
100
AcDbLine
 10
89.58069968727428
 20
6.948600018613324
 30
0.0
 11
89.58069968727428
 21
7.542708121006747
 31
0.0
  0
LINE
  5
45D
102
{ACAD_REACTORS
330
51A
102
}
330
18
100
AcDbEntity
  8
原紙文字
  6
Continuous
100
AcDbLine
 10
89.58069968727428
 20
7.542708121006747
 30
0.0
 11
87.81101597801722
 21
7.542708121006748
 31
0.0
  0
LINE
  5
45E
102
{ACAD_REACTORS
330
51A
102
}
330
18
100
AcDbEntity
  8
原紙文字
  6
Continuous
100
AcDbLine
 10
87.81101597801722
 20
7.542708121006748
 30
0.0
 11
88.13967152402211
 21
8.136816223400193
 31
0.0
  0
LINE
  5
45F
102
{ACAD_REACTORS
330
51A
102
}
330
18
100
AcDbEntity
  8
原紙文字
  6
Continuous
100
AcDbLine
 10
88.13967152402211
 20
8.136816223400193
 30
0.0
 11
90.59262119812645
 21
8.136816223400193
 31
0.0
  0
LINE
  5
460
102
{ACAD_REACTORS
330
51A
102
}
330
18
100
AcDbEntity
  8
原紙文字
  6
Continuous
100
AcDbLine
 10
91.6158359529199
 20
8.449693059761656
 30
0.0
 11
91.6158359529199
 21
7.907976218365538
 31
0.0
  0
LINE
  5
461
102
{ACAD_REACTORS
330
51A
102
}
330
18
100
AcDbEntity
  8
原紙文字
  6
Continuous
100
AcDbLine
 10
90.49082273774931
 20
7.557182052788219
 30
0.0
 11
90.49082273774931
 21
6.948600018613324
 31
0.0
  0
LINE
  5
462
102
{ACAD_REACTORS
330
51A
102
}
330
18
100
AcDbEntity
  8
原紙文字
  6
Continuous
100
AcDbLine
 10
90.49082273774931
 20
6.948600018613324
 30
0.0
 11
91.64111714876643
 21
6.948600018613324
 31
0.0
  0
LINE
  5
463
102
{ACAD_REACTORS
330
51A
102
}
330
18
100
AcDbEntity
  8
原紙文字
  6
Continuous
100
AcDbLine
 10
91.64111714876643
 20
6.948600018613324
 30
0.0
 11
91.64111714876643
 21
6.367132514143146
 31
0.0
  0
LINE
  5
464
102
{ACAD_REACTORS
330
51A
102
}
330
18
100
AcDbEntity
  8
原紙文字
  6
Continuous
100
AcDbLine
 10
91.64111714876643
 20
6.367132514143146
 30
0.0
 11
90.49082273774931
 21
6.367132514143146
 31
0.0
  0
LINE
  5
465
102
{ACAD_REACTORS
330
51A
102
}
330
18
100
AcDbEntity
  8
原紙文字
  6
Continuous
100
AcDbLine
 10
90.49082273774931
 20
6.367132514143146
 30
0.0
 11
90.49082273774931
 21
5.953612552764941
 31
0.0
  0
LINE
  5
466
102
{ACAD_REACTORS
330
51A
102
}
330
18
100
AcDbEntity
  8
原紙文字
  6
Continuous
100
AcDbLine
 10
89.65842143133551
 20
5.001947938430566
 30
0.0
 11
87.82365657594048
 21
5.001947938430566
 31
0.0
  0
LINE
  5
467
102
{ACAD_REACTORS
330
51A
102
}
330
18
100
AcDbEntity
  8
原紙文字
  6
Continuous
100
AcDbLine
 10
87.82365657594048
 20
5.001947938430566
 30
0.0
 11
88.13967152402211
 21
5.608696638747265
 31
0.0
  0
LINE
  5
468
102
{ACAD_REACTORS
330
51A
102
}
330
18
100
AcDbEntity
  8
原紙文字
  6
Continuous
100
AcDbLine
 10
88.13967152402211
 20
5.608696638747265
 30
0.0
 11
89.26872874246242
 21
5.608696638747265
 31
0.0
  0
LINE
  5
469
102
{ACAD_REACTORS
330
51A
102
}
330
18
100
AcDbEntity
  8
原紙文字
  6
Continuous
100
AcDbLine
 10
89.58069968727428
 20
5.889029342677105
 30
0.0
 11
89.58069968727428
 21
6.367132514143146
 31
0.0
  0
LINE
  5
46A
102
{ACAD_REACTORS
330
51A
102
}
330
18
100
AcDbEntity
  8
原紙文字
  6
Continuous
100
AcDbLine
 10
89.58069968727428
 20
6.367132514143146
 30
0.0
 11
87.78573478217069
 21
6.367132514143146
 31
0.0
  0
LINE
  5
46B
102
{ACAD_REACTORS
330
51A
102
}
330
18
100
AcDbEntity
  8
原紙文字
  6
Continuous
100
AcDbLine
 10
87.78573478217069
 20
6.367132514143146
 30
0.0
 11
87.78573478217069
 21
6.948600018613324
 31
0.0
  0
LINE
  5
46C
102
{ACAD_REACTORS
330
51A
102
}
330
18
100
AcDbEntity
  8
原紙文字
  6
Continuous
100
AcDbLine
 10
76.00469751768802
 20
7.530067523083494
 30
0.0
 11
76.33330748927676
 21
7.530067523083494
 31
0.0
  0
LINE
  5
46D
102
{ACAD_REACTORS
330
51A
102
}
330
18
100
AcDbEntity
  8
原紙文字
  6
Continuous
100
AcDbLine
 10
76.59880562008145
 20
7.088289779207373
 30
0.0
 11
76.59880562008145
 21
6.872756431073733
 31
0.0
  0
LINE
  5
46E
102
{ACAD_REACTORS
330
51A
102
}
330
18
100
AcDbEntity
  8
原紙文字
  6
Continuous
100
AcDbLine
 10
76.59880562008145
 20
6.872756431073733
 30
0.0
 11
76.33335306369288
 21
6.872756431073733
 31
0.0
  0
LINE
  5
46F
102
{ACAD_REACTORS
330
51A
102
}
330
18
100
AcDbEntity
  8
原紙文字
  6
Continuous
100
AcDbLine
 10
76.33335306369288
 20
6.872756431073733
 30
0.0
 11
76.33335306369288
 21
6.303929524526822
 31
0.0
  0
LINE
  5
470
102
{ACAD_REACTORS
330
51A
102
}
330
18
100
AcDbEntity
  8
原紙文字
  6
Continuous
100
AcDbLine
 10
76.33335306369288
 20
6.303929524526822
 30
0.0
 11
76.75049279516064
 21
5.93735218475215
 31
0.0
  0
LINE
  5
471
102
{ACAD_REACTORS
330
51A
102
}
330
18
100
AcDbEntity
  8
原紙文字
  6
Continuous
100
AcDbLine
 10
76.75049279516064
 20
5.93735218475215
 30
0.0
 11
76.75049279516064
 21
5.659259030440321
 31
0.0
  0
LINE
  5
472
102
{ACAD_REACTORS
330
51A
102
}
330
18
100
AcDbEntity
  8
原紙文字
  6
Continuous
100
AcDbLine
 10
76.75049279516064
 20
5.659259030440321
 30
0.0
 11
76.33335306369288
 21
6.000555174368473
 31
0.0
  0
LINE
  5
473
102
{ACAD_REACTORS
330
51A
102
}
330
18
100
AcDbEntity
  8
原紙文字
  6
Continuous
100
AcDbLine
 10
76.33335306369288
 20
6.000555174368473
 30
0.0
 11
76.33335306369288
 21
5.014588536353819
 31
0.0
  0
LINE
  5
474
102
{ACAD_REACTORS
330
51A
102
}
330
18
100
AcDbEntity
  8
原紙文字
  6
Continuous
100
AcDbLine
 10
76.33335306369288
 20
5.014588536353819
 30
0.0
 11
76.00469751768802
 21
5.014588536353819
 31
0.0
  0
LINE
  5
475
102
{ACAD_REACTORS
330
51A
102
}
330
18
100
AcDbEntity
  8
原紙文字
  6
Continuous
100
AcDbLine
 10
76.00469751768802
 20
5.014588536353819
 30
0.0
 11
76.00469751768802
 21
6.414603936669908
 31
0.0
  0
LINE
  5
476
102
{ACAD_REACTORS
330
51A
102
}
330
18
100
AcDbEntity
  8
原紙文字
  6
Continuous
100
AcDbLine
 10
75.90204753886812
 20
6.242385725710557
 30
0.0
 11
75.85191737174738
 21
5.881448522441208
 31
0.0
  0
LINE
  5
477
102
{ACAD_REACTORS
330
51A
102
}
330
18
100
AcDbEntity
  8
原紙文字
  6
Continuous
100
AcDbLine
 10
75.49907360075741
 20
5.447002960749022
 30
0.0
 11
75.49907360075741
 21
5.6814500485171
 31
0.0
  0
LINE
  5
478
102
{ACAD_REACTORS
330
51A
102
}
330
18
100
AcDbEntity
  8
原紙文字
  6
Continuous
100
AcDbLine
 10
75.88883510642585
 20
6.872756431073733
 30
0.0
 11
75.51171419868068
 21
6.872756431073733
 31
0.0
  0
LINE
  5
479
102
{ACAD_REACTORS
330
51A
102
}
330
18
100
AcDbEntity
  8
原紙文字
  6
Continuous
100
AcDbLine
 10
75.51171419868068
 20
6.872756431073733
 30
0.0
 11
75.51171419868068
 21
7.087646595769238
 31
0.0
  0
LINE
  5
47A
102
{ACAD_REACTORS
330
51A
102
}
330
18
100
AcDbEntity
  8
原紙文字
  6
Continuous
100
AcDbLine
 10
75.51171419868068
 20
7.087646595769238
 30
0.0
 11
76.00469751768802
 21
7.087646595769238
 31
0.0
  0
LINE
  5
47B
102
{ACAD_REACTORS
330
51A
102
}
330
18
100
AcDbEntity
  8
原紙文字
  6
Continuous
100
AcDbLine
 10
76.00469751768802
 20
7.087646595769238
 30
0.0
 11
76.00469751768802
 21
7.530067523083494
 31
0.0
  0
LINE
  5
47C
102
{ACAD_REACTORS
330
51A
102
}
330
18
100
AcDbEntity
  8
原紙文字
  6
Continuous
100
AcDbLine
 10
77.40780388717038
 20
7.530067523083495
 30
0.0
 11
77.72381883525198
 21
7.530067523083495
 31
0.0
  0
LINE
  5
47D
102
{ACAD_REACTORS
330
51A
102
}
330
18
100
AcDbEntity
  8
原紙文字
  6
Continuous
100
AcDbLine
 10
77.72381883525198
 20
7.530067523083495
 30
0.0
 11
77.72381883525198
 21
7.089187489939291
 31
0.0
  0
LINE
  5
47E
102
{ACAD_REACTORS
330
51A
102
}
330
18
100
AcDbEntity
  8
原紙文字
  6
Continuous
100
AcDbLine
 10
77.72381883525198
 20
7.089187489939291
 30
0.0
 11
78.36848932933851
 21
7.089187489939291
 31
0.0
  0
LINE
  5
47F
102
{ACAD_REACTORS
330
51A
102
}
330
18
100
AcDbEntity
  8
原紙文字
  6
Continuous
100
AcDbLine
 10
78.36848932933851
 20
7.089187489939291
 30
0.0
 11
78.3684893293385
 21
6.868029250561162
 31
0.0
  0
LINE
  5
480
102
{ACAD_REACTORS
330
51A
102
}
330
18
100
AcDbEntity
  8
原紙文字
  6
Continuous
100
AcDbLine
 10
78.3684893293385
 20
6.868029250561162
 30
0.0
 11
77.72381883525198
 21
6.868029250561162
 31
0.0
  0
LINE
  5
481
102
{ACAD_REACTORS
330
51A
102
}
330
18
100
AcDbEntity
  8
原紙文字
  6
Continuous
100
AcDbLine
 10
77.72381883525198
 20
6.868029250561162
 30
0.0
 11
77.72381883525198
 21
6.417694905836201
 31
0.0
  0
LINE
  5
482
102
{ACAD_REACTORS
330
51A
102
}
330
18
100
AcDbEntity
  8
原紙文字
  6
Continuous
100
AcDbLine
 10
77.72381883525198
 20
6.417694905836201
 30
0.0
 11
78.3811299272618
 21
6.417694905836201
 31
0.0
  0
LINE
  5
483
102
{ACAD_REACTORS
330
51A
102
}
330
18
100
AcDbEntity
  8
原紙文字
  6
Continuous
100
AcDbLine
 10
78.3811299272618
 20
6.417694905836201
 30
0.0
 11
78.3811299272618
 21
6.215445339063964
 31
0.0
  0
LINE
  5
484
102
{ACAD_REACTORS
330
51A
102
}
330
18
100
AcDbEntity
  8
原紙文字
  6
Continuous
100
AcDbLine
 10
78.3811299272618
 20
6.215445339063964
 30
0.0
 11
78.104327149146
 21
6.215445339063964
 31
0.0
  0
LINE
  5
485
102
{ACAD_REACTORS
330
51A
102
}
330
18
100
AcDbEntity
  8
原紙文字
  6
Continuous
100
AcDbLine
 10
78.104327149146
 20
6.215445339063964
 30
0.0
 11
78.11696774706909
 21
6.06375816398703
 31
0.0
  0
LINE
  5
486
102
{ACAD_REACTORS
330
51A
102
}
330
18
100
AcDbEntity
  8
原紙文字
  6
Continuous
100
AcDbLine
 10
78.11696774706909
 20
6.06375816398703
 30
0.0
 11
78.14224894291588
 21
5.836227401366028
 31
0.0
  0
LINE
  5
487
102
{ACAD_REACTORS
330
51A
102
}
330
18
100
AcDbEntity
  8
原紙文字
  6
Continuous
100
AcDbLine
 10
78.14224894291588
 20
5.836227401366028
 30
0.0
 11
78.16471937521527
 21
5.678934375270244
 31
0.0
  0
LINE
  5
488
102
{ACAD_REACTORS
330
51A
102
}
330
18
100
AcDbEntity
  8
原紙文字
  6
Continuous
100
AcDbLine
 10
78.3811299272618
 20
5.261365734196717
 30
0.0
 11
78.3811299272618
 21
5.026804362540744
 31
0.0
  0
LINE
  5
489
102
{ACAD_REACTORS
330
51A
102
}
330
18
100
AcDbEntity
  8
原紙文字
  6
Continuous
100
AcDbLine
 10
77.84726738435953
 20
6.215445339063964
 30
0.0
 11
77.72381883525198
 21
6.215445339063964
 31
0.0
  0
LINE
  5
48A
102
{ACAD_REACTORS
330
51A
102
}
330
18
100
AcDbEntity
  8
原紙文字
  6
Continuous
100
AcDbLine
 10
77.72381883525198
 20
6.215445339063964
 30
0.0
 11
77.72381883525198
 21
5.014588536353819
 31
0.0
  0
LINE
  5
48B
102
{ACAD_REACTORS
330
51A
102
}
330
18
100
AcDbEntity
  8
原紙文字
  6
Continuous
100
AcDbLine
 10
77.72381883525198
 20
5.014588536353819
 30
0.0
 11
77.40780388717038
 21
5.014588536353819
 31
0.0
  0
LINE
  5
48C
102
{ACAD_REACTORS
330
51A
102
}
330
18
100
AcDbEntity
  8
原紙文字
  6
Continuous
100
AcDbLine
 10
77.40780388717038
 20
5.014588536353819
 30
0.0
 11
77.40780388717038
 21
6.202804741140711
 31
0.0
  0
LINE
  5
48D
102
{ACAD_REACTORS
330
51A
102
}
330
18
100
AcDbEntity
  8
原紙文字
  6
Continuous
100
AcDbLine
 10
77.40780388717038
 20
6.202804741140711
 30
0.0
 11
77.29403850586101
 21
6.202804741140711
 31
0.0
  0
LINE
  5
48E
102
{ACAD_REACTORS
330
51A
102
}
330
18
100
AcDbEntity
  8
原紙文字
  6
Continuous
100
AcDbLine
 10
77.29403850586101
 20
6.202804741140711
 30
0.0
 11
77.24347611416796
 21
5.697180824210123
 31
0.0
  0
LINE
  5
48F
102
{ACAD_REACTORS
330
51A
102
}
330
18
100
AcDbEntity
  8
原紙文字
  6
Continuous
100
AcDbLine
 10
77.24347611416796
 20
5.697180824210123
 30
0.0
 11
77.22184700128882
 21
5.589035259814538
 31
0.0
  0
LINE
  5
490
102
{ACAD_REACTORS
330
51A
102
}
330
18
100
AcDbEntity
  8
原紙文字
  6
Continuous
100
AcDbLine
 10
76.68728980554431
 20
5.05349263410652
 30
0.0
 11
76.68728980554431
 21
5.263983015774926
 31
0.0
  0
LINE
  5
491
102
{ACAD_REACTORS
330
51A
102
}
330
18
100
AcDbEntity
  8
原紙文字
  6
Continuous
100
AcDbLine
 10
76.93390097227997
 20
5.485988591539395
 30
0.0
 11
76.95274236193286
 21
5.570774844977484
 31
0.0
  0
LINE
  5
492
102
{ACAD_REACTORS
330
51A
102
}
330
18
100
AcDbEntity
  8
原紙文字
  6
Continuous
100
AcDbLine
 10
76.95274236193286
 20
5.570774844977484
 30
0.0
 11
76.99066415570268
 21
5.785665009672964
 31
0.0
  0
LINE
  5
493
102
{ACAD_REACTORS
330
51A
102
}
330
18
100
AcDbEntity
  8
原紙文字
  6
Continuous
100
AcDbLine
 10
76.99066415570268
 20
5.785665009672964
 30
0.0
 11
77.04122654739572
 21
6.202804741140711
 31
0.0
  0
LINE
  5
494
102
{ACAD_REACTORS
330
51A
102
}
330
18
100
AcDbEntity
  8
原紙文字
  6
Continuous
100
AcDbLine
 10
77.04122654739572
 20
6.202804741140711
 30
0.0
 11
76.6725613654474
 21
6.202804741140711
 31
0.0
  0
LINE
  5
495
102
{ACAD_REACTORS
330
51A
102
}
330
18
100
AcDbEntity
  8
原紙文字
  6
Continuous
100
AcDbLine
 10
76.6725613654474
 20
6.417694905836201
 30
0.0
 11
77.40780388717038
 21
6.417694905836201
 31
0.0
  0
LINE
  5
496
102
{ACAD_REACTORS
330
51A
102
}
330
18
100
AcDbEntity
  8
原紙文字
  6
Continuous
100
AcDbLine
 10
77.40780388717038
 20
6.417694905836201
 30
0.0
 11
77.40780388717038
 21
6.869570095286817
 31
0.0
  0
LINE
  5
497
102
{ACAD_REACTORS
330
51A
102
}
330
18
100
AcDbEntity
  8
原紙文字
  6
Continuous
100
AcDbLine
 10
77.40780388717038
 20
6.869570095286817
 30
0.0
 11
77.08983326167497
 21
6.869570095286817
 31
0.0
  0
LINE
  5
498
102
{ACAD_REACTORS
330
51A
102
}
330
18
100
AcDbEntity
  8
原紙文字
  6
Continuous
100
AcDbLine
 10
76.67464920762106
 20
6.555751187960241
 30
0.0
 11
76.67464920762106
 21
6.785133114865598
 31
0.0
  0
LINE
  5
499
102
{ACAD_REACTORS
330
51A
102
}
330
18
100
AcDbEntity
  8
原紙文字
  6
Continuous
100
AcDbLine
 10
76.91613227920386
 20
7.177104311742318
 30
0.0
 11
76.96538295985611
 21
7.530067523083495
 31
0.0
  0
LINE
  5
49A
102
{ACAD_REACTORS
330
51A
102
}
330
18
100
AcDbEntity
  8
原紙文字
  6
Continuous
100
AcDbLine
 10
76.96538295985611
 20
7.530067523083495
 30
0.0
 11
77.19291372247489
 21
7.530067523083495
 31
0.0
  0
LINE
  5
49B
102
{ACAD_REACTORS
330
51A
102
}
330
18
100
AcDbEntity
  8
原紙文字
  6
Continuous
100
AcDbLine
 10
77.19291372247489
 20
7.530067523083495
 30
0.0
 11
77.1316803845382
 21
7.089187489939291
 31
0.0
  0
LINE
  5
49C
102
{ACAD_REACTORS
330
51A
102
}
330
18
100
AcDbEntity
  8
原紙文字
  6
Continuous
100
AcDbLine
 10
77.1316803845382
 20
7.089187489939291
 30
0.0
 11
77.40780388717038
 21
7.089187489939291
 31
0.0
  0
LINE
  5
49D
102
{ACAD_REACTORS
330
51A
102
}
330
18
100
AcDbEntity
  8
原紙文字
  6
Continuous
100
AcDbLine
 10
77.40780388717038
 20
7.089187489939291
 30
0.0
 11
77.40780388717038
 21
7.530067523083495
 31
0.0
  0
LINE
  5
49E
102
{ACAD_REACTORS
330
51A
102
}
330
18
100
AcDbEntity
  8
原紙文字
  6
Continuous
100
AcDbLine
 10
78.60866068988052
 20
7.075005997845971
 30
0.0
 11
80.08761064690252
 21
7.075005997845971
 31
0.0
  0
LINE
  5
49F
102
{ACAD_REACTORS
330
51A
102
}
330
18
100
AcDbEntity
  8
原紙文字
  6
Continuous
100
AcDbLine
 10
80.08761064690252
 20
7.075005997845971
 30
0.0
 11
80.08761064690252
 21
7.530067523083495
 31
0.0
  0
LINE
  5
4A0
102
{ACAD_REACTORS
330
51A
102
}
330
18
100
AcDbEntity
  8
原紙文字
  6
Continuous
100
AcDbLine
 10
80.08761064690252
 20
7.530067523083495
 30
0.0
 11
80.39098499706085
 21
7.530067523083495
 31
0.0
  0
LINE
  5
4A1
102
{ACAD_REACTORS
330
51A
102
}
330
18
100
AcDbEntity
  8
原紙文字
  6
Continuous
100
AcDbLine
 10
80.39098499706085
 20
7.530067523083495
 30
0.0
 11
80.39098499706085
 21
7.075005997845971
 31
0.0
  0
LINE
  5
4A2
102
{ACAD_REACTORS
330
51A
102
}
330
18
100
AcDbEntity
  8
原紙文字
  6
Continuous
100
AcDbLine
 10
80.39098499706085
 20
7.075005997845971
 30
0.0
 11
81.0988584807637
 21
7.075005997845971
 31
0.0
  0
LINE
  5
4A3
102
{ACAD_REACTORS
330
51A
102
}
330
18
100
AcDbEntity
  8
原紙文字
  6
Continuous
100
AcDbLine
 10
81.0988584807637
 20
7.075005997845971
 30
0.0
 11
81.0988584807637
 21
6.860115833150466
 31
0.0
  0
LINE
  5
4A4
102
{ACAD_REACTORS
330
51A
102
}
330
18
100
AcDbEntity
  8
原紙文字
  6
Continuous
100
AcDbLine
 10
81.0988584807637
 20
6.860115833150466
 30
0.0
 11
80.40362559498413
 21
6.860115833150466
 31
0.0
  0
LINE
  5
4A5
102
{ACAD_REACTORS
330
51A
102
}
330
18
100
AcDbEntity
  8
原紙文字
  6
Continuous
100
AcDbLine
 10
80.40362559498413
 20
6.860115833150466
 30
0.0
 11
80.40362559498413
 21
6.262403025017054
 31
0.0
  0
LINE
  5
4A6
102
{ACAD_REACTORS
330
51A
102
}
330
18
100
AcDbEntity
  8
原紙文字
  6
Continuous
100
AcDbLine
 10
80.08761064690252
 20
6.255991468324038
 30
0.0
 11
80.08761064690252
 21
6.860115833150466
 31
0.0
  0
LINE
  5
4A7
102
{ACAD_REACTORS
330
51A
102
}
330
18
100
AcDbEntity
  8
原紙文字
  6
Continuous
100
AcDbLine
 10
80.08761064690252
 20
6.860115833150466
 30
0.0
 11
78.60866068988052
 21
6.860115833150466
 31
0.0
  0
LINE
  5
4A8
102
{ACAD_REACTORS
330
51A
102
}
330
18
100
AcDbEntity
  8
原紙文字
  6
Continuous
100
AcDbLine
 10
78.60866068988052
 20
6.860115833150466
 30
0.0
 11
78.60866068988052
 21
7.075005997845971
 31
0.0
  0
LINE
  5
4A9
102
{ACAD_REACTORS
330
51A
102
}
330
18
100
AcDbEntity
  8
原紙文字
  6
Continuous
100
AcDbLine
 10
78.69714487534341
 20
6.417694905836201
 30
0.0
 11
79.7715956988209
 21
6.417694905836201
 31
0.0
  0
LINE
  5
4AA
102
{ACAD_REACTORS
330
51A
102
}
330
18
100
AcDbEntity
  8
原紙文字
  6
Continuous
100
AcDbLine
 10
79.7715956988209
 20
6.417694905836201
 30
0.0
 11
79.7715956988209
 21
6.215445339063964
 31
0.0
  0
LINE
  5
4AB
102
{ACAD_REACTORS
330
51A
102
}
330
18
100
AcDbEntity
  8
原紙文字
  6
Continuous
100
AcDbLine
 10
79.7715956988209
 20
6.215445339063964
 30
0.0
 11
79.36709656527639
 21
6.215445339063964
 31
0.0
  0
LINE
  5
4AC
102
{ACAD_REACTORS
330
51A
102
}
330
18
100
AcDbEntity
  8
原紙文字
  6
Continuous
100
AcDbLine
 10
79.36709656527639
 20
6.215445339063964
 30
0.0
 11
79.36709656527639
 21
5.244134254726543
 31
0.0
  0
LINE
  5
4AD
102
{ACAD_REACTORS
330
51A
102
}
330
18
100
AcDbEntity
  8
原紙文字
  6
Continuous
100
AcDbLine
 10
79.7673551178583
 20
5.659259030440321
 30
0.0
 11
80.00217458955999
 21
5.659259030440321
 31
0.0
  0
LINE
  5
4AE
102
{ACAD_REACTORS
330
51A
102
}
330
18
100
AcDbEntity
  8
原紙文字
  6
Continuous
100
AcDbLine
 10
79.37353773296192
 20
5.014588536353819
 30
0.0
 11
78.60866068988052
 21
5.014588536353819
 31
0.0
  0
LINE
  5
4AF
102
{ACAD_REACTORS
330
51A
102
}
330
18
100
AcDbEntity
  8
原紙文字
  6
Continuous
100
AcDbLine
 10
78.60866068988052
 20
5.014588536353819
 30
0.0
 11
78.60866068988052
 21
5.229478701049325
 31
0.0
  0
LINE
  5
4B0
102
{ACAD_REACTORS
330
51A
102
}
330
18
100
AcDbEntity
  8
原紙文字
  6
Continuous
100
AcDbLine
 10
78.60866068988052
 20
5.229478701049325
 30
0.0
 11
79.05108161719478
 21
5.229478701049325
 31
0.0
  0
LINE
  5
4B1
102
{ACAD_REACTORS
330
51A
102
}
330
18
100
AcDbEntity
  8
原紙文字
  6
Continuous
100
AcDbLine
 10
79.05108161719478
 20
5.229478701049325
 30
0.0
 11
79.05108161719478
 21
6.215445339063964
 31
0.0
  0
LINE
  5
4B2
102
{ACAD_REACTORS
330
51A
102
}
330
18
100
AcDbEntity
  8
原紙文字
  6
Continuous
100
AcDbLine
 10
79.05108161719478
 20
6.215445339063964
 30
0.0
 11
78.69714487534341
 21
6.215445339063964
 31
0.0
  0
LINE
  5
4B3
102
{ACAD_REACTORS
330
51A
102
}
330
18
100
AcDbEntity
  8
原紙文字
  6
Continuous
100
AcDbLine
 10
78.69714487534341
 20
6.215445339063964
 30
0.0
 11
78.69714487534341
 21
6.417694905836201
 31
0.0
  0
LINE
  5
4B4
102
{ACAD_REACTORS
330
51A
102
}
330
18
100
AcDbEntity
  8
原紙文字
  6
Continuous
100
AcDbLine
 10
80.6839736517837
 20
7.529682746648465
 30
0.0
 11
80.6839736517837
 21
7.327228298998457
 31
0.0
  0
LINE
  5
4B5
102
{ACAD_REACTORS
330
51A
102
}
330
18
100
AcDbEntity
  8
原紙文字
  6
Continuous
100
AcDbLine
 10
80.6839736517837
 20
7.327228298998457
 30
0.0
 11
81.11334598127681
 21
7.327228298998457
 31
0.0
  0
LINE
  5
4B6
102
{ACAD_REACTORS
330
51A
102
}
330
18
100
AcDbEntity
  8
原紙文字
  6
Continuous
100
AcDbLine
 10
81.11334598127681
 20
7.327228298998457
 30
0.0
 11
81.11334598127681
 21
7.529682746648465
 31
0.0
  0
LINE
  5
4B7
102
{ACAD_REACTORS
330
51A
102
}
330
18
100
AcDbEntity
  8
原紙文字
  6
Continuous
100
AcDbLine
 10
81.11334598127681
 20
7.529682746648465
 30
0.0
 11
80.6839736517837
 21
7.529682746648465
 31
0.0
  0
LINE
  5
4B8
102
{ACAD_REACTORS
330
51A
102
}
330
18
100
AcDbEntity
  8
原紙文字
  6
Continuous
100
AcDbLine
 10
86.19301944383932
 20
7.492145729313707
 30
0.0
 11
86.50903439192095
 21
7.492145729313707
 31
0.0
  0
LINE
  5
4B9
102
{ACAD_REACTORS
330
51A
102
}
330
18
100
AcDbEntity
  8
原紙文字
  6
Continuous
100
AcDbLine
 10
86.50903439192095
 20
7.492145729313707
 30
0.0
 11
86.50903439192095
 21
6.657866266378228
 31
0.0
  0
LINE
  5
4BA
102
{ACAD_REACTORS
330
51A
102
}
330
18
100
AcDbEntity
  8
原紙文字
  6
Continuous
100
AcDbLine
 10
86.50903439192095
 20
6.657866266378228
 30
0.0
 11
87.06522070054459
 21
6.657866266378228
 31
0.0
  0
LINE
  5
4BB
102
{ACAD_REACTORS
330
51A
102
}
330
18
100
AcDbEntity
  8
原紙文字
  6
Continuous
100
AcDbLine
 10
87.06522070054459
 20
6.657866266378228
 30
0.0
 11
87.06522070054459
 21
6.442976101682737
 31
0.0
  0
LINE
  5
4BC
102
{ACAD_REACTORS
330
51A
102
}
330
18
100
AcDbEntity
  8
原紙文字
  6
Continuous
100
AcDbLine
 10
87.06522070054459
 20
6.442976101682737
 30
0.0
 11
86.50903439192095
 21
6.442976101682737
 31
0.0
  0
LINE
  5
4BD
102
{ACAD_REACTORS
330
51A
102
}
330
18
100
AcDbEntity
  8
原紙文字
  6
Continuous
100
AcDbLine
 10
86.50903439192095
 20
6.442976101682737
 30
0.0
 11
86.50903439192095
 21
5.216838103126058
 31
0.0
  0
LINE
  5
4BE
102
{ACAD_REACTORS
330
51A
102
}
330
18
100
AcDbEntity
  8
原紙文字
  6
Continuous
100
AcDbLine
 10
86.50903439192095
 20
5.216838103126058
 30
0.0
 11
87.14106428808419
 21
5.216838103126058
 31
0.0
  0
LINE
  5
4BF
102
{ACAD_REACTORS
330
51A
102
}
330
18
100
AcDbEntity
  8
原紙文字
  6
Continuous
100
AcDbLine
 10
87.14106428808419
 20
5.216838103126058
 30
0.0
 11
87.14106428808419
 21
5.001947938430566
 31
0.0
  0
LINE
  5
4C0
102
{ACAD_REACTORS
330
51A
102
}
330
18
100
AcDbEntity
  8
原紙文字
  6
Continuous
100
AcDbLine
 10
87.14106428808419
 20
5.001947938430566
 30
0.0
 11
85.51042715598304
 21
5.001947938430566
 31
0.0
  0
LINE
  5
4C1
102
{ACAD_REACTORS
330
51A
102
}
330
18
100
AcDbEntity
  8
原紙文字
  6
Continuous
100
AcDbLine
 10
85.51042715598304
 20
5.001947938430566
 30
0.0
 11
85.51042715598304
 21
5.216838103126058
 31
0.0
  0
LINE
  5
4C2
102
{ACAD_REACTORS
330
51A
102
}
330
18
100
AcDbEntity
  8
原紙文字
  6
Continuous
100
AcDbLine
 10
85.51042715598304
 20
5.216838103126058
 30
0.0
 11
86.19301944383932
 21
5.216838103126058
 31
0.0
  0
LINE
  5
4C3
102
{ACAD_REACTORS
330
51A
102
}
330
18
100
AcDbEntity
  8
原紙文字
  6
Continuous
100
AcDbLine
 10
86.19301944383932
 20
5.216838103126058
 30
0.0
 11
86.19301944383932
 21
6.442976101682737
 31
0.0
  0
LINE
  5
4C4
102
{ACAD_REACTORS
330
51A
102
}
330
18
100
AcDbEntity
  8
原紙文字
  6
Continuous
100
AcDbLine
 10
86.19301944383932
 20
6.442976101682737
 30
0.0
 11
85.5989113414459
 21
6.442976101682737
 31
0.0
  0
LINE
  5
4C5
102
{ACAD_REACTORS
330
51A
102
}
330
18
100
AcDbEntity
  8
原紙文字
  6
Continuous
100
AcDbLine
 10
85.5989113414459
 20
6.442976101682737
 30
0.0
 11
85.5989113414459
 21
6.657866266378228
 31
0.0
  0
LINE
  5
4C6
102
{ACAD_REACTORS
330
51A
102
}
330
18
100
AcDbEntity
  8
原紙文字
  6
Continuous
100
AcDbLine
 10
85.5989113414459
 20
6.657866266378228
 30
0.0
 11
86.19301944383932
 21
6.657866266378228
 31
0.0
  0
LINE
  5
4C7
102
{ACAD_REACTORS
330
51A
102
}
330
18
100
AcDbEntity
  8
原紙文字
  6
Continuous
100
AcDbLine
 10
86.19301944383932
 20
6.657866266378228
 30
0.0
 11
86.19301944383932
 21
7.492145729313707
 31
0.0
  0
LINE
  5
4C8
102
{ACAD_REACTORS
330
51A
102
}
330
18
100
AcDbEntity
  8
原紙文字
  6
Continuous
100
AcDbLine
 10
81.38959223299876
 20
6.038476968138262
 30
0.0
 11
84.05675839480762
 21
6.038476968138262
 31
0.0
  0
LINE
  5
4C9
102
{ACAD_REACTORS
330
51A
102
}
330
18
100
AcDbEntity
  8
原紙文字
  6
Continuous
100
AcDbLine
 10
84.05675839480762
 20
6.038476968138262
 30
0.0
 11
84.05675839480762
 21
5.836227401366024
 31
0.0
  0
LINE
  5
4CA
102
{ACAD_REACTORS
330
51A
102
}
330
18
100
AcDbEntity
  8
原紙文字
  6
Continuous
100
AcDbLine
 10
84.05675839480762
 20
5.836227401366024
 30
0.0
 11
83.48736871420229
 21
5.836227401366024
 31
0.0
  0
LINE
  5
4CB
102
{ACAD_REACTORS
330
51A
102
}
330
18
100
AcDbEntity
  8
原紙文字
  6
Continuous
100
AcDbLine
 10
83.96827420934476
 20
5.206658121647444
 30
0.0
 11
83.96827420934476
 21
5.014588536353819
 31
0.0
  0
LINE
  5
4CC
102
{ACAD_REACTORS
330
51A
102
}
330
18
100
AcDbEntity
  8
原紙文字
  6
Continuous
100
AcDbLine
 10
83.96827420934476
 20
5.014588536353819
 30
0.0
 11
81.46543582053835
 21
5.014588536353819
 31
0.0
  0
LINE
  5
4CD
102
{ACAD_REACTORS
330
51A
102
}
330
18
100
AcDbEntity
  8
原紙文字
  6
Continuous
100
AcDbLine
 10
81.46543582053835
 20
5.014588536353819
 30
0.0
 11
81.46543582053835
 21
5.230142503932901
 31
0.0
  0
LINE
  5
4CE
102
{ACAD_REACTORS
330
51A
102
}
330
18
100
AcDbEntity
  8
原紙文字
  6
Continuous
100
AcDbLine
 10
81.96534455018456
 20
5.836227401366024
 30
0.0
 11
81.38959223299876
 21
5.836227401366024
 31
0.0
  0
LINE
  5
4CF
102
{ACAD_REACTORS
330
51A
102
}
330
18
100
AcDbEntity
  8
原紙文字
  6
Continuous
100
AcDbLine
 10
81.38959223299876
 20
5.836227401366024
 30
0.0
 11
81.38959223299876
 21
6.038476968138262
 31
0.0
  0
LINE
  5
4D0
102
{ACAD_REACTORS
330
51A
102
}
330
18
100
AcDbEntity
  8
原紙文字
  6
Continuous
100
AcDbLine
 10
84.70142888889412
 20
7.479505131390425
 30
0.0
 11
85.03008443489902
 21
7.479505131390425
 31
0.0
  0
LINE
  5
4D1
102
{ACAD_REACTORS
330
51A
102
}
330
18
100
AcDbEntity
  8
原紙文字
  6
Continuous
100
AcDbLine
 10
85.03008443489902
 20
7.479505131390425
 30
0.0
 11
85.03008443489902
 21
7.138208987462294
 31
0.0
  0
LINE
  5
4D2
102
{ACAD_REACTORS
330
51A
102
}
330
18
100
AcDbEntity
  8
原紙文字
  6
Continuous
100
AcDbLine
 10
85.03008443489902
 20
7.138208987462294
 30
0.0
 11
85.48641651825278
 21
7.138208987462294
 31
0.0
  0
LINE
  5
4D3
102
{ACAD_REACTORS
330
51A
102
}
330
18
100
AcDbEntity
  8
原紙文字
  6
Continuous
100
AcDbLine
 10
85.19999027322652
 20
6.276562979250669
 30
0.0
 11
85.57363014559937
 21
6.076398761908064
 31
0.0
  0
LINE
  5
4D4
102
{ACAD_REACTORS
330
51A
102
}
330
18
100
AcDbEntity
  8
原紙文字
  6
Continuous
100
AcDbLine
 10
85.57363014559937
 20
6.076398761908064
 30
0.0
 11
85.57363014559937
 21
5.760383813826448
 31
0.0
  0
LINE
  5
4D5
102
{ACAD_REACTORS
330
51A
102
}
330
18
100
AcDbEntity
  8
原紙文字
  6
Continuous
100
AcDbLine
 10
85.57363014559937
 20
5.760383813826448
 30
0.0
 11
85.01744383697575
 21
6.076398761908064
 31
0.0
  0
LINE
  5
4D6
102
{ACAD_REACTORS
330
51A
102
}
330
18
100
AcDbEntity
  8
原紙文字
  6
Continuous
100
AcDbLine
 10
85.01744383697575
 20
6.076398761908064
 30
0.0
 11
85.01744383697575
 21
5.014588536353819
 31
0.0
  0
LINE
  5
4D7
102
{ACAD_REACTORS
330
51A
102
}
330
18
100
AcDbEntity
  8
原紙文字
  6
Continuous
100
AcDbLine
 10
85.01744383697575
 20
5.014588536353819
 30
0.0
 11
84.70142888889412
 21
5.014588536353819
 31
0.0
  0
LINE
  5
4D8
102
{ACAD_REACTORS
330
51A
102
}
330
18
100
AcDbEntity
  8
原紙文字
  6
Continuous
100
AcDbLine
 10
84.70142888889412
 20
5.014588536353819
 30
0.0
 11
84.70142888889412
 21
5.90998343895994
 31
0.0
  0
LINE
  5
4D9
102
{ACAD_REACTORS
330
51A
102
}
330
18
100
AcDbEntity
  8
原紙文字
  6
Continuous
100
AcDbLine
 10
84.29692975534962
 20
5.819023012477916
 30
0.0
 11
84.29692975534962
 21
6.075476394022789
 31
0.0
  0
LINE
  5
4DA
102
{ACAD_REACTORS
330
51A
102
}
330
18
100
AcDbEntity
  8
原紙文字
  6
Continuous
100
AcDbLine
 10
85.1892889279714
 20
6.935959420690057
 30
0.0
 11
84.30957035327292
 21
6.935959420690057
 31
0.0
  0
LINE
  5
4DB
102
{ACAD_REACTORS
330
51A
102
}
330
18
100
AcDbEntity
  8
原紙文字
  6
Continuous
100
AcDbLine
 10
84.30957035327292
 20
6.935959420690057
 30
0.0
 11
84.3095703532729
 21
7.138208987462294
 31
0.0
  0
LINE
  5
4DC
102
{ACAD_REACTORS
330
51A
102
}
330
18
100
AcDbEntity
  8
原紙文字
  6
Continuous
100
AcDbLine
 10
84.3095703532729
 20
7.138208987462294
 30
0.0
 11
84.70142888889412
 21
7.138208987462293
 31
0.0
  0
LINE
  5
4DD
102
{ACAD_REACTORS
330
51A
102
}
330
18
100
AcDbEntity
  8
原紙文字
  6
Continuous
100
AcDbLine
 10
84.70142888889412
 20
7.138208987462293
 30
0.0
 11
84.70142888889412
 21
7.479505131390425
 31
0.0
  0
LINE
  5
4DE
102
{ACAD_REACTORS
330
51A
102
}
330
18
100
AcDbEntity
  8
原紙文字
  6
Continuous
100
AcDbLine
 10
81.46386321714345
 20
6.604154750848268
 30
0.0
 11
81.46386321714345
 21
6.404592225458628
 31
0.0
  0
LINE
  5
4DF
102
{ACAD_REACTORS
330
51A
102
}
330
18
100
AcDbEntity
  8
原紙文字
  6
Continuous
100
AcDbLine
 10
81.46386321714345
 20
6.404592225458628
 30
0.0
 11
83.92097830913746
 21
6.404592225458628
 31
0.0
  0
LINE
  5
4E0
102
{ACAD_REACTORS
330
51A
102
}
330
18
100
AcDbEntity
  8
原紙文字
  6
Continuous
100
AcDbLine
 10
83.92097830913746
 20
6.404592225458628
 30
0.0
 11
83.92097830913746
 21
6.604154750848268
 31
0.0
  0
LINE
  5
4E1
102
{ACAD_REACTORS
330
51A
102
}
330
18
100
AcDbEntity
  8
原紙文字
  6
Continuous
100
AcDbLine
 10
83.92097830913746
 20
6.604154750848268
 30
0.0
 11
81.46386321714345
 21
6.604154750848268
 31
0.0
  0
LINE
  5
4E2
102
{ACAD_REACTORS
330
51A
102
}
330
18
100
AcDbEntity
  8
原紙文字
  6
Continuous
100
AcDbLine
 10
81.38959223299876
 20
7.075005997845971
 30
0.0
 11
82.33305792594146
 21
7.075005997845971
 31
0.0
  0
LINE
  5
4E3
102
{ACAD_REACTORS
330
51A
102
}
330
18
100
AcDbEntity
  8
原紙文字
  6
Continuous
100
AcDbLine
 10
82.63285019809806
 20
7.50478632723696
 30
0.0
 11
82.86908054883017
 21
7.50478632723696
 31
0.0
  0
LINE
  5
4E4
102
{ACAD_REACTORS
330
51A
102
}
330
18
100
AcDbEntity
  8
原紙文字
  6
Continuous
100
AcDbLine
 10
83.17837275652003
 20
7.075005997845971
 30
0.0
 11
84.04411779688434
 21
7.075005997845971
 31
0.0
  0
LINE
  5
4E5
102
{ACAD_REACTORS
330
51A
102
}
330
18
100
AcDbEntity
  8
原紙文字
  6
Continuous
100
AcDbLine
 10
84.04411779688434
 20
7.075005997845971
 30
0.0
 11
84.04411779688434
 21
6.872756431073733
 31
0.0
  0
LINE
  5
4E6
102
{ACAD_REACTORS
330
51A
102
}
330
18
100
AcDbEntity
  8
原紙文字
  6
Continuous
100
AcDbLine
 10
84.04411779688434
 20
6.872756431073733
 30
0.0
 11
83.08406915235853
 21
6.872756431073733
 31
0.0
  0
LINE
  5
4E7
102
{ACAD_REACTORS
330
51A
102
}
330
18
100
AcDbEntity
  8
原紙文字
  6
Continuous
100
AcDbLine
 10
82.38530218832924
 20
6.872756431073733
 30
0.0
 11
81.38959223299876
 21
6.872756431073733
 31
0.0
  0
LINE
  5
4E8
102
{ACAD_REACTORS
330
51A
102
}
330
18
100
AcDbEntity
  8
原紙文字
  6
Continuous
100
AcDbLine
 10
81.38959223299876
 20
6.872756431073733
 30
0.0
 11
81.38959223299876
 21
7.075005997845971
 31
0.0
  0
LINE
  5
4E9
102
{ACAD_REACTORS
330
51A
102
}
330
18
100
AcDbEntity
  8
原紙文字
  6
Continuous
100
AcDbLine
 10
94.80907034521582
 20
7.049331774128667
 30
0.0
 11
94.80907034521582
 21
6.450645192430942
 31
0.0
  0
LINE
  5
4EA
102
{ACAD_REACTORS
330
51A
102
}
330
18
100
AcDbEntity
  8
原紙文字
  6
Continuous
100
AcDbLine
 10
94.80907034521582
 20
6.450645192430942
 30
0.0
 11
97.51189709587206
 21
6.450645192430942
 31
0.0
  0
LINE
  5
4EB
102
{ACAD_REACTORS
330
51A
102
}
330
18
100
AcDbEntity
  8
原紙文字
  6
Continuous
100
AcDbLine
 10
97.51189709587206
 20
6.450645192430942
 30
0.0
 11
97.51189709587206
 21
7.049331774128668
 31
0.0
  0
LINE
  5
4EC
102
{ACAD_REACTORS
330
51A
102
}
330
18
100
AcDbEntity
  8
原紙文字
  6
Continuous
100
AcDbLine
 10
97.51189709587206
 20
7.049331774128668
 30
0.0
 11
94.80907034521582
 21
7.049331774128667
 31
0.0
  0
LINE
  5
4ED
102
{ACAD_REACTORS
330
51A
102
}
330
18
100
AcDbEntity
  8
原紙文字
  6
Continuous
100
AcDbLine
 10
93.49928504348634
 20
8.414909377712023
 30
0.0
 11
94.40940809396137
 21
8.414909377712023
 31
0.0
  0
LINE
  5
4EE
102
{ACAD_REACTORS
330
51A
102
}
330
18
100
AcDbEntity
  8
原紙文字
  6
Continuous
100
AcDbLine
 10
94.40940809396137
 20
8.414909377712023
 30
0.0
 11
94.40940809396137
 21
6.447525114418501
 31
0.0
  0
LINE
  5
4EF
102
{ACAD_REACTORS
330
51A
102
}
330
18
100
AcDbEntity
  8
原紙文字
  6
Continuous
100
AcDbLine
 10
93.14157115532621
 20
5.001947938430566
 30
0.0
 11
90.9711654588334
 21
5.001947938430566
 31
0.0
  0
LINE
  5
4F0
102
{ACAD_REACTORS
330
51A
102
}
330
18
100
AcDbEntity
  8
原紙文字
  6
Continuous
100
AcDbLine
 10
90.9711654588334
 20
5.001947938430566
 30
0.0
 11
91.29982100483827
 21
5.608696638747265
 31
0.0
  0
LINE
  5
4F1
102
{ACAD_REACTORS
330
51A
102
}
330
18
100
AcDbEntity
  8
原紙文字
  6
Continuous
100
AcDbLine
 10
91.29982100483827
 20
5.608696638747265
 30
0.0
 11
92.8664047360435
 21
5.608696638747265
 31
0.0
  0
LINE
  5
4F2
102
{ACAD_REACTORS
330
51A
102
}
330
18
100
AcDbEntity
  8
原紙文字
  6
Continuous
100
AcDbLine
 10
93.49928504348634
 20
6.227247710513566
 30
0.0
 11
93.49928504348634
 21
8.414909377712023
 31
0.0
  0
ARC
  5
4F3
102
{ACAD_REACTORS
330
51A
102
}
330
18
100
AcDbEntity
  8
原紙文字
100
AcDbCircle
 10
75.27871690355154
 20
6.056834450628205
 30
0.0
 40
0.4352821192649643
100
AcDbArc
 50
300.4136211667487
 51
358.4695171901739
  0
ARC
  5
4F4
102
{ACAD_REACTORS
330
51A
102
}
330
18
100
AcDbEntity
  8
原紙文字
100
AcDbCircle
 10
75.36798201474138
 20
5.913979042090415
 30
0.0
 40
0.485027488364488
100
AcDbArc
 50
285.6807275020133
 51
356.1543175735927
  0
LINE
  5
4F5
102
{ACAD_REACTORS
330
51A
102
}
330
18
100
AcDbEntity
  8
原紙文字
100
AcDbLine
 10
76.33330748927676
 20
7.088289779207373
 30
0.0
 11
76.33330748927676
 21
7.530067523083494
 31
0.0
  0
LINE
  5
4F6
102
{ACAD_REACTORS
330
51A
102
}
330
18
100
AcDbEntity
  8
原紙文字
100
AcDbLine
 10
76.33330748927676
 20
7.088289779207373
 30
0.0
 11
76.59880562008145
 21
7.088289779207373
 31
0.0
  0
LINE
  5
4F7
102
{ACAD_REACTORS
330
51A
102
}
330
18
100
AcDbEntity
  8
原紙文字
100
AcDbLine
 10
75.7919957834625
 20
6.668704229563834
 30
0.0
 11
75.71384373883593
 21
6.045208592931262
 31
0.0
  0
ARC
  5
4F8
102
{ACAD_REACTORS
330
51A
102
}
330
18
100
AcDbEntity
  8
原紙文字
100
AcDbCircle
 10
76.11867367310274
 20
6.229967742094159
 30
0.0
 40
0.2169817696271751
100
AcDbArc
 50
121.6870857730031
 51
176.7191390082451
  0
ARC
  5
4F9
102
{ACAD_REACTORS
330
51A
102
}
330
18
100
AcDbEntity
  8
原紙文字
100
AcDbCircle
 10
76.53818871315809
 20
7.139574071192643
 30
0.0
 40
0.3798023934509959
100
AcDbArc
 50
291.0568078384538
 51
5.670947164167097
  0
ARC
  5
4FA
102
{ACAD_REACTORS
330
51A
102
}
330
18
100
AcDbEntity
  8
原紙文字
100
AcDbCircle
 10
76.61179845576933
 20
7.070457851106542
 30
0.0
 40
0.518529812156956
100
AcDbArc
 50
276.9619127920651
 51
337.2060683028834
  0
LINE
  5
4FB
102
{ACAD_REACTORS
330
51A
102
}
330
18
100
AcDbEntity
  8
原紙文字
100
AcDbLine
 10
76.6725613654474
 20
6.417694905836201
 30
0.0
 11
76.6725613654474
 21
6.202804741140711
 31
0.0
  0
ARC
  5
4FC
102
{ACAD_REACTORS
330
51A
102
}
330
18
100
AcDbEntity
  8
原紙文字
100
AcDbCircle
 10
76.55364175057421
 20
5.66041843898303
 30
0.0
 40
0.4183573202078322
100
AcDbArc
 50
288.6302169931647
 51
335.3584610138907
  0
ARC
  5
4FD
102
{ACAD_REACTORS
330
51A
102
}
330
18
100
AcDbEntity
  8
原紙文字
100
AcDbCircle
 10
76.73284900628896
 20
5.506716444284165
 30
0.0
 40
0.4555079174772183
100
AcDbArc
 50
264.2597664727052
 51
313.3574143536695
  0
ARC
  5
4FE
102
{ACAD_REACTORS
330
51A
102
}
330
18
100
AcDbEntity
  8
原紙文字
100
AcDbCircle
 10
76.30042584584877
 20
5.737489339072436
 30
0.0
 40
0.9333035729819076
100
AcDbArc
 50
322.9777179487304
 51
350.8474856032651
  0
ARC
  5
4FF
102
{ACAD_REACTORS
330
51A
102
}
330
18
100
AcDbEntity
  8
原紙文字
100
AcDbCircle
 10
78.82867106807906
 20
5.758173093429918
 30
0.0
 40
0.6686633120728896
100
AcDbArc
 50
186.8057237948596
 51
227.9863866035142
  0
ARC
  5
500
102
{ACAD_REACTORS
330
51A
102
}
330
18
100
AcDbEntity
  8
原紙文字
100
AcDbCircle
 10
78.61458612610531
 20
5.672522428219656
 30
0.0
 40
0.6866248008356381
100
AcDbArc
 50
181.4258998826496
 51
250.1227917163674
  0
LINE
  5
501
102
{ACAD_REACTORS
330
51A
102
}
330
18
100
AcDbEntity
  8
原紙文字
100
AcDbLine
 10
77.84726738435953
 20
6.215445339063964
 30
0.0
 11
77.92817394319552
 21
5.65543640247959
 31
0.0
  0
ARC
  5
502
102
{ACAD_REACTORS
330
51A
102
}
330
18
100
AcDbEntity
  8
原紙文字
100
AcDbCircle
 10
79.25566252051583
 20
5.752102427102709
 30
0.0
 40
0.5200473156154958
100
AcDbArc
 50
282.3730988493211
 51
349.7159246862069
  0
ARC
  5
503
102
{ACAD_REACTORS
330
51A
102
}
330
18
100
AcDbEntity
  8
原紙文字
100
AcDbCircle
 10
79.29601533607447
 20
5.719019112548229
 30
0.0
 40
0.7086833980676844
100
AcDbArc
 50
276.280113903583
 51
355.162760368332
  0
ARC
  5
504
102
{ACAD_REACTORS
330
51A
102
}
330
18
100
AcDbEntity
  8
原紙文字
100
AcDbCircle
 10
81.56708336712569
 20
6.436558422518935
 30
0.0
 40
1.490450923322118
100
AcDbArc
 50
186.9584314718157
 51
252.5968646910155
  0
LINE
  5
505
102
{ACAD_REACTORS
330
51A
102
}
330
18
100
AcDbEntity
  8
原紙文字
100
AcDbLine
 10
81.12129991534933
 20
5.014334435604741
 30
0.0
 11
81.12129991534933
 21
5.275392804287607
 31
0.0
  0
ARC
  5
506
102
{ACAD_REACTORS
330
51A
102
}
330
18
100
AcDbEntity
  8
原紙文字
100
AcDbCircle
 10
81.54093082554032
 20
6.334937183139822
 30
0.0
 40
1.139615896495422
100
AcDbArc
 50
183.6492227209364
 51
248.3940345783173
  0
ARC
  5
507
102
{ACAD_REACTORS
330
51A
102
}
330
18
100
AcDbEntity
  8
原紙文字
100
AcDbCircle
 10
83.26477468613557
 20
7.463366824946914
 30
0.0
 40
0.3978560361083072
100
AcDbArc
 50
174.0242944502166
 51
257.4572010646211
  0
ARC
  5
508
102
{ACAD_REACTORS
330
51A
102
}
330
18
100
AcDbEntity
  8
原紙文字
100
AcDbCircle
 10
82.1847921414561
 20
7.497878318828201
 30
0.0
 40
0.4481113061527872
100
AcDbArc
 50
289.3214805962677
 51
0.8832970731406586
  0
ARC
  5
509
102
{ACAD_REACTORS
330
51A
102
}
330
18
100
AcDbEntity
  8
原紙文字
100
AcDbCircle
 10
82.26704531816201
 20
7.376037501917785
 30
0.0
 40
0.5169879337196135
100
AcDbArc
 50
283.223021192741
 51
336.3997494772274
  0
ARC
  5
50A
102
{ACAD_REACTORS
330
51A
102
}
330
18
100
AcDbEntity
  8
原紙文字
100
AcDbCircle
 10
83.24542494777686
 20
7.406691475356419
 30
0.0
 40
0.5577834026109429
100
AcDbArc
 50
205.2157857621307
 51
253.1851215859795
  0
ARC
  5
50B
102
{ACAD_REACTORS
330
51A
102
}
330
18
100
AcDbEntity
  8
原紙文字
100
AcDbCircle
 10
84.12649795611878
 20
5.822745463948033
 30
0.0
 40
0.9158560619318031
100
AcDbArc
 50
179.1565421177077
 51
221.4004820624308
  0
ARC
  5
50C
102
{ACAD_REACTORS
330
51A
102
}
330
18
100
AcDbEntity
  8
原紙文字
100
AcDbCircle
 10
84.11729930771199
 20
5.818950982415763
 30
0.0
 40
0.6301674597210001
100
AcDbArc
 50
178.429004993305
 51
256.320830375474
  0
ARC
  5
50D
102
{ACAD_REACTORS
330
51A
102
}
330
18
100
AcDbEntity
  8
原紙文字
100
AcDbCircle
 10
81.40556842507438
 20
5.78873100446138
 30
0.0
 40
0.5617875202977468
100
AcDbArc
 50
276.1173925478759
 51
4.849868376173379
  0
ARC
  5
50E
102
{ACAD_REACTORS
330
51A
102
}
330
18
100
AcDbEntity
  8
原紙文字
100
AcDbCircle
 10
81.47337088644535
 20
5.795855515710877
 30
0.0
 40
0.7781425432950653
100
AcDbArc
 50
311.9438809454313
 51
2.973976531480823
  0
LINE
  5
50F
102
{ACAD_REACTORS
330
51A
102
}
330
18
100
AcDbEntity
  8
原紙文字
100
AcDbLine
 10
81.99348323240783
 20
5.217073203210652
 30
0.0
 11
83.43950928172123
 21
5.217073203210652
 31
0.0
  0
LINE
  5
510
102
{ACAD_REACTORS
330
51A
102
}
330
18
100
AcDbEntity
  8
原紙文字
  6
Continuous
100
AcDbLine
 10
83.21074113056917
 20
5.836227401366024
 30
0.0
 11
82.25046542929993
 21
5.836227401366024
 31
0.0
  0
ARC
  5
511
102
{ACAD_REACTORS
330
51A
102
}
330
18
100
AcDbEntity
  8
原紙文字
100
AcDbCircle
 10
84.27758238236391
 20
6.98849007061452
 30
0.0
 40
0.9132186454978958
100
AcDbArc
 50
271.213954362867
 51
356.702381358792
  0
ARC
  5
512
102
{ACAD_REACTORS
330
51A
102
}
330
18
100
AcDbEntity
  8
原紙文字
100
AcDbCircle
 10
84.22613659532377
 20
7.078718579384751
 30
0.0
 40
1.261683237897361
100
AcDbArc
 50
273.2165606585395
 51
292.1302173084525
  0
ARC
  5
513
102
{ACAD_REACTORS
330
51A
102
}
330
18
100
AcDbEntity
  8
原紙文字
100
AcDbCircle
 10
84.22613659532377
 20
7.078718579384751
 30
0.0
 40
1.261683237897361
100
AcDbArc
 50
320.521985554933
 51
2.702590865205661
  0
ARC
  5
514
102
{ACAD_REACTORS
330
51A
102
}
330
18
100
AcDbEntity
  8
原紙文字
100
AcDbCircle
 10
89.30021089747368
 20
5.887417704505222
 30
0.0
 40
0.2804934198540396
100
AcDbArc
 50
263.555629737735
 51
0.3292076280530087
  0
ARC
  5
515
102
{ACAD_REACTORS
330
51A
102
}
330
18
100
AcDbEntity
  8
原紙文字
100
AcDbCircle
 10
89.57860638088721
 20
5.911634897231662
 30
0.0
 40
0.9131816934711645
100
AcDbArc
 50
275.0142356090604
 51
2.634733453844436
  0
ARC
  5
516
102
{ACAD_REACTORS
330
51A
102
}
330
18
100
AcDbEntity
  8
原紙文字
100
AcDbCircle
 10
90.51318031343951
 20
9.464862219713952
 30
0.0
 40
1.907811175266708
100
AcDbArc
 50
269.3285372963852
 51
305.30781648602
  0
ARC
  5
517
102
{ACAD_REACTORS
330
51A
102
}
330
18
100
AcDbEntity
  8
原紙文字
100
AcDbCircle
 10
90.34572046500597
 20
10.77383677523254
 30
0.0
 40
2.648553824788455
100
AcDbArc
 50
275.348933965998
 51
298.6560529401054
  0
ARC
  5
518
102
{ACAD_REACTORS
330
51A
102
}
330
18
100
AcDbEntity
  8
原紙文字
100
AcDbCircle
 10
92.90943742806152
 20
6.197713341234333
 30
0.0
 40
0.5905865629956825
100
AcDbArc
 50
265.8214786090541
 51
2.866473660563216
  0
ARC
  5
519
102
{ACAD_REACTORS
330
51A
102
}
330
18
100
AcDbEntity
  8
原紙文字
100
AcDbCircle
 10
93.00936550271574
 20
6.396662230215472
 30
0.0
 40
1.400966198839647
100
AcDbArc
 50
275.4149156531112
 51
2.080613498082262
  0
HATCH
  5
51A
330
18
100
AcDbEntity
  8
原紙文字
100
AcDbHatch
 10
0.0
 20
0.0
 30
0.0
210
0.0
220
0.0
230
1.0
  2
SOLID
 70
     1
 71
     1
 91
       14
 92
        1
 93
        8
 72
     2
 10
93.00936550271574
 20
6.396662230215472
 40
1.400966198839647
 50
275.4149156531112
 51
362.0806134980822
 73
     1
 72
     1
 10
94.40940809396137
 20
6.447525114418501
 11
94.40940809396137
 21
8.414909377712023
 72
     1
 10
94.40940809396137
 20
8.414909377712023
 11
93.49928504348634
 21
8.414909377712023
 72
     1
 10
93.49928504348634
 20
8.414909377712023
 11
93.49928504348634
 21
6.227247710513566
 72
     2
 10
92.90943742806152
 20
6.197713341234333
 40
0.5905865629956825
 50
357.1335263394368
 51
454.1785213909458
 73
     0
 72
     1
 10
92.8664047360435
 20
5.608696638747265
 11
91.29982100483827
 21
5.608696638747265
 72
     1
 10
91.29982100483827
 20
5.608696638747265
 11
90.9711654588334
 21
5.001947938430566
 72
     1
 10
90.9711654588334
 20
5.001947938430566
 11
93.14157115532621
 21
5.001947938430566
 97
        8
330
519
330
4EE
330
4ED
330
4F2
330
518
330
4F1
330
4F0
330
4EF
 92
        1
 93
       21
 72
     2
 10
90.34572046500597
 20
10.77383677523254
 40
2.648553824788455
 50
275.348933965998
 51
298.6560529401054
 73
     1
 72
     1
 10
91.6158359529199
 20
8.449693059761656
 11
91.6158359529199
 21
7.907976218365538
 72
     2
 10
90.51318031343951
 20
9.464862219713952
 40
1.907811175266708
 50
54.69218351397999
 51
90.67146270361487
 73
     0
 72
     1
 10
90.49082273774931
 20
7.557182052788219
 11
90.49082273774931
 21
6.948600018613324
 72
     1
 10
90.49082273774931
 20
6.948600018613324
 11
91.64111714876643
 21
6.948600018613324
 72
     1
 10
91.64111714876643
 20
6.948600018613324
 11
91.64111714876643
 21
6.367132514143146
 72
     1
 10
91.64111714876643
 20
6.367132514143146
 11
90.49082273774931
 21
6.367132514143146
 72
     1
 10
90.49082273774931
 20
6.367132514143146
 11
90.49082273774931
 21
5.953612552764941
 72
     2
 10
89.57860638088721
 20
5.911634897231662
 40
0.9131816934711645
 50
357.3652665461556
 51
444.9857643909395
 73
     0
 72
     1
 10
89.65842143133551
 20
5.001947938430566
 11
87.82365657594048
 21
5.001947938430566
 72
     1
 10
87.82365657594048
 20
5.001947938430566
 11
88.13967152402211
 21
5.608696638747265
 72
     1
 10
88.13967152402211
 20
5.608696638747265
 11
89.26872874246242
 21
5.608696638747265
 72
     2
 10
89.30021089747368
 20
5.887417704505222
 40
0.2804934198540396
 50
263.555629737735
 51
360.329207628053
 73
     1
 72
     1
 10
89.58069968727428
 20
5.889029342677105
 11
89.58069968727428
 21
6.367132514143146
 72
     1
 10
89.58069968727428
 20
6.367132514143146
 11
87.78573478217069
 21
6.367132514143146
 72
     1
 10
87.78573478217069
 20
6.367132514143146
 11
87.78573478217069
 21
6.948600018613324
 72
     1
 10
87.78573478217069
 20
6.948600018613324
 11
89.58069968727428
 21
6.948600018613324
 72
     1
 10
89.58069968727428
 20
6.948600018613324
 11
89.58069968727428
 21
7.542708121006747
 72
     1
 10
89.58069968727428
 20
7.542708121006747
 11
87.81101597801722
 21
7.542708121006748
 72
     1
 10
87.81101597801722
 20
7.542708121006748
 11
88.13967152402211
 21
8.136816223400193
 72
     1
 10
88.13967152402211
 20
8.136816223400193
 11
90.59262119812645
 21
8.136816223400193
 97
       21
330
517
330
460
330
516
330
461
330
462
330
463
330
464
330
465
330
515
330
466
330
467
330
468
330
514
330
469
330
46A
330
46B
330
45B
330
45C
330
45D
330
45E
330
45F
 92
        1
 93
       17
 72
     2
 10
84.22613659532377
 20
7.078718579384751
 40
1.261683237897361
 50
320.521985554933
 51
362.7025908652056
 73
     1
 72
     1
 10
85.48641651825278
 20
7.138208987462294
 11
85.03008443489902
 21
7.138208987462294
 72
     1
 10
85.03008443489902
 20
7.138208987462294
 11
85.03008443489902
 21
7.479505131390425
 72
     1
 10
85.03008443489902
 20
7.479505131390425
 11
84.70142888889412
 21
7.479505131390425
 72
     1
 10
84.70142888889412
 20
7.479505131390425
 11
84.70142888889412
 21
7.138208987462293
 72
     1
 10
84.70142888889412
 20
7.138208987462293
 11
84.3095703532729
 21
7.138208987462294
 72
     1
 10
84.3095703532729
 20
7.138208987462294
 11
84.30957035327292
 21
6.935959420690057
 72
     1
 10
84.30957035327292
 20
6.935959420690057
 11
85.1892889279714
 21
6.935959420690057
 72
     2
 10
84.27758238236391
 20
6.98849007061452
 40
0.9132186454978958
 50
3.29761864120796
 51
88.78604563713302
 73
     0
 72
     1
 10
84.29692975534962
 20
6.075476394022789
 11
84.29692975534962
 21
5.819023012477916
 72
     2
 10
84.22613659532377
 20
7.078718579384751
 40
1.261683237897361
 50
273.2165606585395
 51
292.1302173084525
 73
     1
 72
     1
 10
84.70142888889412
 20
5.90998343895994
 11
84.70142888889412
 21
5.014588536353819
 72
     1
 10
84.70142888889412
 20
5.014588536353819
 11
85.01744383697575
 21
5.014588536353819
 72
     1
 10
85.01744383697575
 20
5.014588536353819
 11
85.01744383697575
 21
6.076398761908064
 72
     1
 10
85.01744383697575
 20
6.076398761908064
 11
85.57363014559937
 21
5.760383813826448
 72
     1
 10
85.57363014559937
 20
5.760383813826448
 11
85.57363014559937
 21
6.076398761908064
 72
     1
 10
85.57363014559937
 20
6.076398761908064
 11
85.19999027322652
 21
6.276562979250669
 97
       17
330
513
330
4D2
330
4D1
330
4D0
330
4DD
330
4DC
330
4DB
330
4DA
330
511
330
4D9
330
512
330
4D8
330
4D7
330
4D6
330
4D5
330
4D4
330
4D3
 92
       17
 93
        4
 72
     1
 10
83.21074113056917
 20
5.836227401366024
 11
82.25046542929993
 21
5.836227401366024
 72
     2
 10
81.47337088644535
 20
5.795855515710877
 40
0.7781425432950653
 50
357.0260234685191
 51
408.0561190545687
 73
     0
 72
     1
 10
81.99348323240783
 20
5.217073203210652
 11
83.43950928172123
 21
5.217073203210652
 72
     2
 10
84.12649795611878
 20
5.822745463948033
 40
0.9158560619318031
 50
138.5995179375691
 51
180.8434578822923
 73
     0
 97
        4
330
510
330
50E
330
50F
330
50B
 92
        1
 93
       10
 72
     2
 10
81.40556842507438
 20
5.78873100446138
 40
0.5617875202977468
 50
276.1173925478759
 51
364.8498683761734
 73
     1
 72
     1
 10
81.96534455018456
 20
5.836227401366024
 11
81.38959223299876
 21
5.836227401366024
 72
     1
 10
81.38959223299876
 20
5.836227401366024
 11
81.38959223299876
 21
6.038476968138262
 72
     1
 10
81.38959223299876
 20
6.038476968138262
 11
84.05675839480762
 21
6.038476968138262
 72
     1
 10
84.05675839480762
 20
6.038476968138262
 11
84.05675839480762
 21
5.836227401366024
 72
     1
 10
84.05675839480762
 20
5.836227401366024
 11
83.48736871420229
 21
5.836227401366024
 72
     2
 10
84.11729930771199
 20
5.818950982415763
 40
0.6301674597210001
 50
178.429004993305
 51
256.320830375474
 73
     1
 72
     1
 10
83.96827420934476
 20
5.206658121647444
 11
83.96827420934476
 21
5.014588536353819
 72
     1
 10
83.96827420934476
 20
5.014588536353819
 11
81.46543582053835
 21
5.014588536353819
 72
     1
 10
81.46543582053835
 20
5.014588536353819
 11
81.46543582053835
 21
5.230142503932901
 97
       10
330
50D
330
4CE
330
4CF
330
4C8
330
4C9
330
4CA
330
50C
330
4CB
330
4CC
330
4CD
 92
        1
 93
       11
 72
     2
 10
83.24542494777686
 20
7.406691475356419
 40
0.5577834026109429
 50
205.2157857621307
 51
253.1851215859795
 73
     1
 72
     1
 10
83.08406915235853
 20
6.872756431073733
 11
84.04411779688434
 21
6.872756431073733
 72
     1
 10
84.04411779688434
 20
6.872756431073733
 11
84.04411779688434
 21
7.075005997845971
 72
     1
 10
84.04411779688434
 20
7.075005997845971
 11
83.17837275652003
 21
7.075005997845971
 72
     2
 10
83.26477468613557
 20
7.463366824946914
 40
0.3978560361083072
 50
102.5427989353788
 51
185.9757055497833
 73
     0
 72
     1
 10
82.86908054883017
 20
7.50478632723696
 11
82.63285019809806
 21
7.50478632723696
 72
     2
 10
82.1847921414561
 20
7.497878318828201
 40
0.4481113061527872
 50
359.1167029268593
 51
430.6785194037323
 73
     0
 72
     1
 10
82.33305792594146
 20
7.075005997845971
 11
81.38959223299876
 21
7.075005997845971
 72
     1
 10
81.38959223299876
 20
7.075005997845971
 11
81.38959223299876
 21
6.872756431073733
 72
     1
 10
81.38959223299876
 20
6.872756431073733
 11
82.38530218832924
 21
6.872756431073733
 72
     2
 10
82.26704531816201
 20
7.376037501917785
 40
0.5169879337196135
 50
283.223021192741
 51
336.3997494772274
 73
     1
 97
       11
330
50A
330
4E6
330
4E5
330
4E4
330
507
330
4E3
330
508
330
4E2
330
4E8
330
4E7
330
509
 92
        1
 93
       14
 72
     2
 10
81.54093082554032
 20
6.334937183139822
 40
1.139615896495422
 50
183.6492227209364
 51
248.3940345783173
 73
     1
 72
     1
 10
81.12129991534933
 20
5.275392804287607
 11
81.12129991534933
 21
5.014334435604741
 72
     2
 10
81.56708336712569
 20
6.436558422518935
 40
1.490450923322118
 50
107.4031353089844
 51
173.0415685281842
 73
     0
 72
     1
 10
80.08761064690252
 20
6.255991468324038
 11
80.08761064690252
 21
6.860115833150466
 72
     1
 10
80.08761064690252
 20
6.860115833150466
 11
78.60866068988052
 21
6.860115833150466
 72
     1
 10
78.60866068988052
 20
6.860115833150466
 11
78.60866068988052
 21
7.075005997845971
 72
     1
 10
78.60866068988052
 20
7.075005997845971
 11
80.08761064690252
 21
7.075005997845971
 72
     1
 10
80.08761064690252
 20
7.075005997845971
 11
80.08761064690252
 21
7.530067523083495
 72
     1
 10
80.08761064690252
 20
7.530067523083495
 11
80.39098499706085
 21
7.530067523083495
 72
     1
 10
80.39098499706085
 20
7.530067523083495
 11
80.39098499706085
 21
7.075005997845971
 72
     1
 10
80.39098499706085
 20
7.075005997845971
 11
81.0988584807637
 21
7.075005997845971
 72
     1
 10
81.0988584807637
 20
7.075005997845971
 11
81.0988584807637
 21
6.860115833150466
 72
     1
 10
81.0988584807637
 20
6.860115833150466
 11
80.40362559498413
 21
6.860115833150466
 72
     1
 10
80.40362559498413
 20
6.860115833150466
 11
80.40362559498413
 21
6.262403025017054
 97
       14
330
506
330
505
330
504
330
4A6
330
4A7
330
4A8
330
49E
330
49F
330
4A0
330
4A1
330
4A2
330
4A3
330
4A4
330
4A5
 92
       17
 93
       13
 72
     2
 10
79.29601533607447
 20
5.719019112548229
 40
0.7086833980676844
 50
276.280113903583
 51
355.162760368332
 73
     1
 72
     1
 10
80.00217458955999
 20
5.659259030440321
 11
79.7673551178583
 21
5.659259030440321
 72
     2
 10
79.25566252051583
 20
5.752102427102709
 40
0.5200473156154958
 50
10.28407531379309
 51
77.62690115067889
 73
     0
 72
     1
 10
79.36709656527639
 20
5.244134254726543
 11
79.36709656527639
 21
6.215445339063964
 72
     1
 10
79.36709656527639
 20
6.215445339063964
 11
79.7715956988209
 21
6.215445339063964
 72
     1
 10
79.7715956988209
 20
6.215445339063964
 11
79.7715956988209
 21
6.417694905836201
 72
     1
 10
79.7715956988209
 20
6.417694905836201
 11
78.69714487534341
 21
6.417694905836201
 72
     1
 10
78.69714487534341
 20
6.417694905836201
 11
78.69714487534341
 21
6.215445339063964
 72
     1
 10
78.69714487534341
 20
6.215445339063964
 11
79.05108161719478
 21
6.215445339063964
 72
     1
 10
79.05108161719478
 20
6.215445339063964
 11
79.05108161719478
 21
5.229478701049325
 72
     1
 10
79.05108161719478
 20
5.229478701049325
 11
78.60866068988052
 21
5.229478701049325
 72
     1
 10
78.60866068988052
 20
5.229478701049325
 11
78.60866068988052
 21
5.014588536353819
 72
     1
 10
78.60866068988052
 20
5.014588536353819
 11
79.37353773296192
 21
5.014588536353819
 97
       13
330
503
330
4AD
330
502
330
4AC
330
4AB
330
4AA
330
4A9
330
4B3
330
4B2
330
4B1
330
4B0
330
4AF
330
4AE
 92
        1
 93
       43
 72
     1
 10
77.84726738435953
 20
6.215445339063964
 11
77.92817394319552
 21
5.65543640247959
 72
     2
 10
78.61458612610531
 20
5.672522428219656
 40
0.6866248008356381
 50
181.4258998826496
 51
250.1227917163674
 73
     1
 72
     1
 10
78.3811299272618
 20
5.026804362540744
 11
78.3811299272618
 21
5.261365734196717
 72
     2
 10
78.82867106807906
 20
5.758173093429918
 40
0.6686633120728896
 50
132.0136133964858
 51
173.1942762051404
 73
     0
 72
     1
 10
78.16471937521527
 20
5.678934375270244
 11
78.14224894291588
 21
5.836227401366028
 72
     1
 10
78.14224894291588
 20
5.836227401366028
 11
78.11696774706909
 21
6.06375816398703
 72
     1
 10
78.11696774706909
 20
6.06375816398703
 11
78.104327149146
 21
6.215445339063964
 72
     1
 10
78.104327149146
 20
6.215445339063964
 11
78.3811299272618
 21
6.215445339063964
 72
     1
 10
78.3811299272618
 20
6.215445339063964
 11
78.3811299272618
 21
6.417694905836201
 72
     1
 10
78.3811299272618
 20
6.417694905836201
 11
77.72381883525198
 21
6.417694905836201
 72
     1
 10
77.72381883525198
 20
6.417694905836201
 11
77.72381883525198
 21
6.868029250561162
 72
     1
 10
77.72381883525198
 20
6.868029250561162
 11
78.3684893293385
 21
6.868029250561162
 72
     1
 10
78.3684893293385
 20
6.868029250561162
 11
78.36848932933851
 21
7.089187489939291
 72
     1
 10
78.36848932933851
 20
7.089187489939291
 11
77.72381883525198
 21
7.089187489939291
 72
     1
 10
77.72381883525198
 20
7.089187489939291
 11
77.72381883525198
 21
7.530067523083495
 72
     1
 10
77.72381883525198
 20
7.530067523083495
 11
77.40780388717038
 21
7.530067523083495
 72
     1
 10
77.40780388717038
 20
7.530067523083495
 11
77.40780388717038
 21
7.089187489939291
 72
     1
 10
77.40780388717038
 20
7.089187489939291
 11
77.1316803845382
 21
7.089187489939291
 72
     1
 10
77.1316803845382
 20
7.089187489939291
 11
77.19291372247489
 21
7.530067523083495
 72
     1
 10
77.19291372247489
 20
7.530067523083495
 11
76.96538295985611
 21
7.530067523083495
 72
     1
 10
76.96538295985611
 20
7.530067523083495
 11
76.91613227920386
 21
7.177104311742318
 72
     2
 10
76.53818871315809
 20
7.139574071192643
 40
0.3798023934509959
 50
354.3290528358329
 51
428.9431921615461
 73
     0
 72
     1
 10
76.67464920762106
 20
6.785133114865598
 11
76.67464920762106
 21
6.555751187960241
 72
     2
 10
76.61179845576933
 20
7.070457851106542
 40
0.518529812156956
 50
276.9619127920651
 51
337.2060683028834
 73
     1
 72
     1
 10
77.08983326167497
 20
6.869570095286817
 11
77.40780388717038
 21
6.869570095286817
 72
     1
 10
77.40780388717038
 20
6.869570095286817
 11
77.40780388717038
 21
6.417694905836201
 72
     1
 10
77.40780388717038
 20
6.417694905836201
 11
76.6725613654474
 21
6.417694905836201
 72
     1
 10
76.6725613654474
 20
6.417694905836201
 11
76.6725613654474
 21
6.202804741140711
 72
     1
 10
76.6725613654474
 20
6.202804741140711
 11
77.04122654739572
 21
6.202804741140711
 72
     1
 10
77.04122654739572
 20
6.202804741140711
 11
76.99066415570268
 21
5.785665009672964
 72
     1
 10
76.99066415570268
 20
5.785665009672964
 11
76.95274236193286
 21
5.570774844977484
 72
     1
 10
76.95274236193286
 20
5.570774844977484
 11
76.93390097227997
 21
5.485988591539395
 72
     2
 10
76.55364175057421
 20
5.66041843898303
 40
0.4183573202078322
 50
24.64153898610932
 51
71.36978300683527
 73
     0
 72
     1
 10
76.68728980554431
 20
5.263983015774926
 11
76.68728980554431
 21
5.05349263410652
 72
     2
 10
76.73284900628896
 20
5.506716444284165
 40
0.4555079174772183
 50
264.2597664727052
 51
313.3574143536695
 73
     1
 72
     2
 10
76.30042584584877
 20
5.737489339072436
 40
0.9333035729819076
 50
322.9777179487304
 51
350.8474856032651
 73
     1
 72
     1
 10
77.22184700128882
 20
5.589035259814538
 11
77.24347611416796
 21
5.697180824210123
 72
     1
 10
77.24347611416796
 20
5.697180824210123
 11
77.29403850586101
 21
6.202804741140711
 72
     1
 10
77.29403850586101
 20
6.202804741140711
 11
77.40780388717038
 21
6.202804741140711
 72
     1
 10
77.40780388717038
 20
6.202804741140711
 11
77.40780388717038
 21
5.014588536353819
 72
     1
 10
77.40780388717038
 20
5.014588536353819
 11
77.72381883525198
 21
5.014588536353819
 72
     1
 10
77.72381883525198
 20
5.014588536353819
 11
77.72381883525198
 21
6.215445339063964
 72
     1
 10
77.72381883525198
 20
6.215445339063964
 11
77.84726738435953
 21
6.215445339063964
 97
       43
330
501
330
500
330
488
330
4FF
330
487
330
486
330
485
330
484
330
483
330
482
330
481
330
480
330
47F
330
47E
330
47D
330
47C
330
49D
330
49C
330
49B
330
49A
330
499
330
4F9
330
498
330
4FA
330
497
330
496
330
495
330
4FB
330
494
330
493
330
492
330
491
330
4FC
330
490
330
4FD
330
4FE
330
48F
330
48E
330
48D
330
48C
330
48B
330
48A
330
489
 92
        1
 93
       23
 72
     2
 10
76.11867367310274
 20
6.229967742094159
 40
0.2169817696271751
 50
121.6870857730031
 51
176.7191390082451
 73
     1
 72
     1
 10
75.90204753886812
 20
6.242385725710557
 11
75.85191737174738
 21
5.881448522441208
 72
     2
 10
75.36798201474138
 20
5.913979042090415
 40
0.485027488364488
 50
3.845682426407337
 51
74.3192724979867
 73
     0
 72
     1
 10
75.49907360075741
 20
5.447002960749022
 11
75.49907360075741
 21
5.6814500485171
 72
     2
 10
75.27871690355154
 20
6.056834450628205
 40
0.4352821192649643
 50
300.4136211667487
 51
358.4695171901739
 73
     1
 72
     1
 10
75.71384373883593
 20
6.045208592931262
 11
75.7919957834625
 21
6.668704229563834
 72
     2
 10
76.11003452088315
 20
6.642774206450817
 40
0.3190940372347267
 50
184.6610738070586
 51
226.1151925597236
 73
     0
 72
     1
 10
75.88883510642585
 20
6.872756431073733
 11
75.51171419868068
 21
6.872756431073733
 72
     1
 10
75.51171419868068
 20
6.872756431073733
 11
75.51171419868068
 21
7.087646595769238
 72
     1
 10
75.51171419868068
 20
7.087646595769238
 11
76.00469751768802
 21
7.087646595769238
 72
     1
 10
76.00469751768802
 20
7.087646595769238
 11
76.00469751768802
 21
7.530067523083494
 72
     1
 10
76.00469751768802
 20
7.530067523083494
 11
76.33330748927676
 21
7.530067523083494
 72
     1
 10
76.33330748927676
 20
7.530067523083494
 11
76.33330748927676
 21
7.088289779207373
 72
     1
 10
76.33330748927676
 20
7.088289779207373
 11
76.59880562008145
 21
7.088289779207373
 72
     1
 10
76.59880562008145
 20
7.088289779207373
 11
76.59880562008145
 21
6.872756431073733
 72
     1
 10
76.59880562008145
 20
6.872756431073733
 11
76.33335306369288
 21
6.872756431073733
 72
     1
 10
76.33335306369288
 20
6.872756431073733
 11
76.33335306369288
 21
6.303929524526822
 72
     1
 10
76.33335306369288
 20
6.303929524526822
 11
76.75049279516064
 21
5.93735218475215
 72
     1
 10
76.75049279516064
 20
5.93735218475215
 11
76.75049279516064
 21
5.659259030440321
 72
     1
 10
76.75049279516064
 20
5.659259030440321
 11
76.33335306369288
 21
6.000555174368473
 72
     1
 10
76.33335306369288
 20
6.000555174368473
 11
76.33335306369288
 21
5.014588536353819
 72
     1
 10
76.33335306369288
 20
5.014588536353819
 11
76.00469751768802
 21
5.014588536353819
 72
     1
 10
76.00469751768802
 20
5.014588536353819
 11
76.00469751768802
 21
6.414603936669908
 97
       23
330
4F8
330
476
330
4F4
330
477
330
4F3
330
4F7
330
45A
330
478
330
479
330
47A
330
47B
330
46C
330
4F5
330
4F6
330
46D
330
46E
330
46F
330
470
330
471
330
472
330
473
330
474
330
475
 92
        1
 93
        4
 72
     1
 10
97.51189709587206
 20
7.049331774128668
 11
94.80907034521582
 21
7.049331774128667
 72
     1
 10
94.80907034521582
 20
7.049331774128667
 11
94.80907034521582
 21
6.450645192430942
 72
     1
 10
94.80907034521582
 20
6.450645192430942
 11
97.51189709587206
 21
6.450645192430942
 72
     1
 10
97.51189709587206
 20
6.450645192430942
 11
97.51189709587206
 21
7.049331774128668
 97
        4
330
4EC
330
4E9
330
4EA
330
4EB
 92
        1
 93
        4
 72
     1
 10
83.92097830913746
 20
6.604154750848268
 11
81.46386321714345
 21
6.604154750848268
 72
     1
 10
81.46386321714345
 20
6.604154750848268
 11
81.46386321714345
 21
6.404592225458628
 72
     1
 10
81.46386321714345
 20
6.404592225458628
 11
83.92097830913746
 21
6.404592225458628
 72
     1
 10
83.92097830913746
 20
6.404592225458628
 11
83.92097830913746
 21
6.604154750848268
 97
        4
330
4E1
330
4DE
330
4DF
330
4E0
 92
        1
 93
       16
 72
     1
 10
86.19301944383932
 20
6.657866266378228
 11
86.19301944383932
 21
7.492145729313707
 72
     1
 10
86.19301944383932
 20
7.492145729313707
 11
86.50903439192095
 21
7.492145729313707
 72
     1
 10
86.50903439192095
 20
7.492145729313707
 11
86.50903439192095
 21
6.657866266378228
 72
     1
 10
86.50903439192095
 20
6.657866266378228
 11
87.06522070054459
 21
6.657866266378228
 72
     1
 10
87.06522070054459
 20
6.657866266378228
 11
87.06522070054459
 21
6.442976101682737
 72
     1
 10
87.06522070054459
 20
6.442976101682737
 11
86.50903439192095
 21
6.442976101682737
 72
     1
 10
86.50903439192095
 20
6.442976101682737
 11
86.50903439192095
 21
5.216838103126058
 72
     1
 10
86.50903439192095
 20
5.216838103126058
 11
87.14106428808419
 21
5.216838103126058
 72
     1
 10
87.14106428808419
 20
5.216838103126058
 11
87.14106428808419
 21
5.001947938430566
 72
     1
 10
87.14106428808419
 20
5.001947938430566
 11
85.51042715598304
 21
5.001947938430566
 72
     1
 10
85.51042715598304
 20
5.001947938430566
 11
85.51042715598304
 21
5.216838103126058
 72
     1
 10
85.51042715598304
 20
5.216838103126058
 11
86.19301944383932
 21
5.216838103126058
 72
     1
 10
86.19301944383932
 20
5.216838103126058
 11
86.19301944383932
 21
6.442976101682737
 72
     1
 10
86.19301944383932
 20
6.442976101682737
 11
85.5989113414459
 21
6.442976101682737
 72
     1
 10
85.5989113414459
 20
6.442976101682737
 11
85.5989113414459
 21
6.657866266378228
 72
     1
 10
85.5989113414459
 20
6.657866266378228
 11
86.19301944383932
 21
6.657866266378228
 97
       16
330
4C7
330
4B8
330
4B9
330
4BA
330
4BB
330
4BC
330
4BD
330
4BE
330
4BF
330
4C0
330
4C1
330
4C2
330
4C3
330
4C4
330
4C5
330
4C6
 92
       17
 93
        4
 72
     1
 10
81.11334598127681
 20
7.529682746648465
 11
80.6839736517837
 21
7.529682746648465
 72
     1
 10
80.6839736517837
 20
7.529682746648465
 11
80.6839736517837
 21
7.327228298998457
 72
     1
 10
80.6839736517837
 20
7.327228298998457
 11
81.11334598127681
 21
7.327228298998457
 72
     1
 10
81.11334598127681
 20
7.327228298998457
 11
81.11334598127681
 21
7.529682746648465
 97
        4
330
4B7
330
4B4
330
4B5
330
4B6
 75
     0
 76
     1
 98
        1
 10
75.5
 20
5.0
  0
LINE
  5
51B
330
18
100
AcDbEntity
  8
GRID
100
AcDbLine
 10
0.0
 20
183.5
 30
0.0
 11
0.0
 21
35.5
 31
0.0
  0
LWPOLYLINE
  5
51C
330
18
100
AcDbEntity
  8
原紙枠
100
AcDbPolyline
 90
        4
 70
     1
 43
0.0
 10
-2.0
 20
183.5
 10
275.5
 20
183.5
 10
275.5
 20
3.5
 10
-2.0
 20
3.5
  0
TEXT
  5
521
330
18
100
AcDbEntity
  8
DIM
  6
Continuous
100
AcDbText
 10
267.0619295578556
 20
146.8030551749325
 30
0.0
 40
1.500000041723251
  1
－1
 50
90.0
  7
ＭＳ明朝
100
AcDbText
  0
TEXT
  5
522
330
18
100
AcDbEntity
  8
DIM
  6
Continuous
100
AcDbText
 10
265.1869349937992
 20
146.8030551749325
 30
0.0
 40
1.500000041723251
  1
＋0
 50
90.0
  7
ＭＳ明朝
100
AcDbText
  0
TEXT
  5
525
330
18
100
AcDbEntity
  8
COMMENT
  6
Continuous
100
AcDbText
 10
122.445316696167
 20
12.10701217651365
 30
0.0
 40
2.2
  1
IR-Bシリーズ
  7
ＭＳ明朝
100
AcDbText
  0
TEXT
  5
527
330
18
100
AcDbEntity
  8
COMMENT
  6
Continuous
100
AcDbText
 10
266.5666278839111
 20
9.607012176513649
 30
0.0
 40
4.0
  1
1
  7
ＭＳ明朝
100
AcDbText
  0
TEXT
  5
528
330
18
100
AcDbEntity
  8
COMMENT
  6
Continuous
100
AcDbText
 10
270.5666278839111
 20
6.107012176513649
 30
0.0
 40
4.0
  1
1
  7
ＭＳ明朝
100
AcDbText
  0
ENDSEC
  0
SECTION
  2
OBJECTS
  0
DICTIONARY
  5
C
330
0
100
AcDbDictionary
281
     1
  3
ACAD_COLOR
350
557
  3
ACAD_GROUP
350
D
  3
ACAD_LAYOUT
350
57F
  3
ACAD_MATERIAL
350
52D
  3
ACAD_MLEADERSTYLE
350
57C
  3
ACAD_MLINESTYLE
350
1B
  3
ACAD_PLOTSETTINGS
350
580
  3
ACAD_PLOTSTYLENAME
350
52B
  3
ACAD_SCALELIST
350
55A
  3
ACAD_TABLESTYLE
350
558
  3
ACAD_VISUALSTYLE
350
546
  3
ACDB_RECOMPOSE_DATA
350
597
  3
AcDbVariableDictionary
350
598
  3
DWGPROPS
350
5B2
  0
DICTIONARY
  5
587
330
E
100
AcDbDictionary
280
     1
281
     1
  3
ADSK_XREC_LAYER_RECONCILED
360
588
  0
DICTIONARY
  5
589
330
1FF
100
AcDbDictionary
280
     1
281
     1
  3
ADSK_XREC_LAYER_RECONCILED
360
58A
  0
DICTIONARY
  5
58B
330
200
100
AcDbDictionary
280
     1
281
     1
  3
ADSK_XREC_LAYER_RECONCILED
360
58C
  0
DICTIONARY
  5
58D
330
201
100
AcDbDictionary
280
     1
281
     1
  3
ADSK_XREC_LAYER_RECONCILED
360
58E
  0
DICTIONARY
  5
58F
330
202
100
AcDbDictionary
280
     1
281
     1
  3
ADSK_XREC_LAYER_RECONCILED
360
590
  0
DICTIONARY
  5
591
330
208
100
AcDbDictionary
280
     1
281
     1
  3
ADSK_XREC_LAYER_RECONCILED
360
592
  0
DICTIONARY
  5
593
330
20D
100
AcDbDictionary
280
     1
281
     1
  3
ADSK_XREC_LAYER_RECONCILED
360
594
  0
DICTIONARY
  5
557
102
{ACAD_REACTORS
330
C
102
}
330
C
100
AcDbDictionary
281
     1
  0
DICTIONARY
  5
D
102
{ACAD_REACTORS
330
C
102
}
330
C
100
AcDbDictionary
281
     1
  0
DICTIONARY
  5
57F
102
{ACAD_REACTORS
330
C
102
}
330
C
100
AcDbDictionary
281
     1
  3
Model
350
581
  3
レイアウト1
350
582
  0
DICTIONARY
  5
52D
102
{ACAD_REACTORS
330
C
102
}
330
C
100
AcDbDictionary
281
     1
  3
ByBlock
350
536
  3
ByLayer
350
52E
  3
Global
350
53E
  0
DICTIONARY
  5
57C
102
{ACAD_REACTORS
330
C
102
}
330
C
100
AcDbDictionary
281
     1
  3
Standard
350
57D
  0
DICTIONARY
  5
1B
102
{ACAD_REACTORS
330
C
102
}
330
C
100
AcDbDictionary
281
     1
  3
STANDARD
350
1C
  0
DICTIONARY
  5
580
102
{ACAD_REACTORS
330
C
102
}
330
C
100
AcDbDictionary
281
     1
  0
ACDBDICTIONARYWDFLT
  5
52B
102
{ACAD_REACTORS
330
C
102
}
330
C
100
AcDbDictionary
281
     1
  3
Normal
350
52C
100
AcDbDictionaryWithDefault
340
52C
  0
DICTIONARY
  5
55A
102
{ACAD_REACTORS
330
C
102
}
330
C
100
AcDbDictionary
281
     1
  3
A0
350
55B
  3
A1
350
55C
  3
A2
350
55D
  3
A3
350
55E
  3
A4
350
55F
  3
A5
350
560
  3
A6
350
561
  3
A7
350
562
  3
A8
350
563
  3
A9
350
564
  3
B0
350
565
  3
B1
350
566
  3
B2
350
567
  3
B3
350
568
  3
B4
350
569
  3
B5
350
56A
  3
B6
350
56B
  3
B7
350
56C
  3
B8
350
56D
  3
B9
350
56E
  3
C0
350
56F
  3
C1
350
570
  3
C2
350
571
  3
C3
350
572
  3
C4
350
573
  3
C5
350
574
  3
C6
350
575
  3
C7
350
576
  3
C8
350
577
  3
C9
350
578
  3
D0
350
579
  3
D1
350
57A
  3
D2
350
57B
  0
DICTIONARY
  5
558
102
{ACAD_REACTORS
330
C
102
}
330
C
100
AcDbDictionary
281
     1
  3
Standard
350
559
  0
DICTIONARY
  5
546
102
{ACAD_REACTORS
330
C
102
}
330
C
100
AcDbDictionary
281
     1
  3
2dWireframe
350
54C
  3
3D Hidden
350
54E
  3
3dWireframe
350
54D
  3
Basic
350
54B
  3
Brighten
350
552
  3
ColorChange
350
556
  3
Conceptual
350
54F
  3
Dim
350
551
  3
Facepattern
350
555
  3
Flat
350
547
  3
FlatWithEdges
350
548
  3
Gouraud
350
549
  3
GouraudWithEdges
350
54A
  3
Linepattern
350
554
  3
Realistic
350
550
  3
Thicken
350
553
  0
XRECORD
  5
597
102
{ACAD_REACTORS
330
C
102
}
330
C
100
AcDbXrecord
280
     1
 90
        1
330
559
  0
DICTIONARY
  5
598
102
{ACAD_REACTORS
330
C
102
}
330
C
100
AcDbDictionary
281
     1
  3
CANNOSCALE
350
59C
  3
CMLEADERSTYLE
350
59A
  3
CTABLESTYLE
350
599
  3
DIMASSOC
350
5B0
  3
INDEXCTL
350
5AF
  3
LIGHTINGUNITS
350
59D
  3
MSLTSCALE
350
59B
  3
SORTENTS
350
5AE
  0
XRECORD
  5
5B2
102
{ACAD_REACTORS
330
C
102
}
330
C
100
AcDbXrecord
280
     1
  1
DWGPROPS COOKIE
  2

  3

  4

  6

  7

  8
sawada
  9

300
=
301
=
302
=
303
=
304
=
305
=
306
=
307
=
308
=
309
=
 40
0.0638977430555556
 41
2451017.441550116
 42
2456728.688854468
  1

 90
        0
  0
XRECORD
  5
588
102
{ACAD_REACTORS
330
587
102
}
330
587
100
AcDbXrecord
280
     1
290
     1
  0
XRECORD
  5
58A
102
{ACAD_REACTORS
330
589
102
}
330
589
100
AcDbXrecord
280
     1
290
     1
  0
XRECORD
  5
58C
102
{ACAD_REACTORS
330
58B
102
}
330
58B
100
AcDbXrecord
280
     1
290
     1
  0
XRECORD
  5
58E
102
{ACAD_REACTORS
330
58D
102
}
330
58D
100
AcDbXrecord
280
     1
290
     1
  0
XRECORD
  5
590
102
{ACAD_REACTORS
330
58F
102
}
330
58F
100
AcDbXrecord
280
     1
290
     1
  0
XRECORD
  5
592
102
{ACAD_REACTORS
330
591
102
}
330
591
100
AcDbXrecord
280
     1
290
     1
  0
XRECORD
  5
594
102
{ACAD_REACTORS
330
593
102
}
330
593
100
AcDbXrecord
280
     1
290
     1
  0
LAYOUT
  5
581
102
{ACAD_XDICTIONARY
360
5B7
102
}
102
{ACAD_REACTORS
330
57F
102
}
330
57F
100
AcDbPlotSettings
  1

  2
iR-ADV C5030 (機器)
  4
A4
  6

 40
5.873749732971191
 41
5.873747825622558
 42
5.873748779296875
 43
5.873748779296875
 44
209.9733276367187
 45
296.9259948730469
 46
0.0
 47
0.0
 48
0.0
 49
0.0
140
0.0
141
0.0
142
1.0
143
3.190223117351849
 70
 11952
 72
     1
 73
     1
 74
     0
  7

 75
     0
147
0.3134576997329526
148
162.8037641419778
149
261.4683804724857
100
AcDbLayout
  1
Model
 70
     1
 71
     0
 10
0.0
 20
0.0
 11
12.0
 21
9.0
 12
0.0
 22
0.0
 32
0.0
 14
0.0
 24
0.0
 34
0.0
 15
0.0
 25
0.0
 35
0.0
146
0.0
 13
0.0
 23
0.0
 33
0.0
 16
1.0
 26
0.0
 36
0.0
 17
0.0
 27
1.0
 37
0.0
 76
     0
330
18
331
529
1001
ACAD_PSEXT
1000
iR-ADV C5030 (機器)
1000
Canon iR-ADV C5030/5035 LIPSLX
1000
IP_192.168.11.45
1000

1070
     0
  0
LAYOUT
  5
582
102
{ACAD_XDICTIONARY
360
5B9
102
}
102
{ACAD_REACTORS
330
57F
102
}
330
57F
100
AcDbPlotSettings
  1

  2
iR-ADV C5030 (機器)
  4

  6

 40
0.0
 41
0.0
 42
0.0
 43
0.0
 44
0.0
 45
0.0
 46
0.0
 47
0.0
 48
0.0
 49
0.0
140
0.0
141
0.0
142
1.0
143
1.0
 70
   688
 72
     0
 73
     0
 74
     5
  7

 75
    16
147
1.0
148
0.0
149
0.0
100
AcDbLayout
  1
レイアウト1
 70
     1
 71
     1
 10
0.0
 20
0.0
 11
420.0
 21
297.0
 12
0.0
 22
0.0
 32
0.0
 14
1.000000000000000E+20
 24
1.000000000000000E+20
 34
1.000000000000000E+20
 15
-1.000000000000000E+20
 25
-1.000000000000000E+20
 35
-1.000000000000000E+20
146
0.0
 13
0.0
 23
0.0
 33
0.0
 16
1.0
 26
0.0
 36
0.0
 17
0.0
 27
1.0
 37
0.0
 76
     0
330
15
  0
MATERIAL
  5
536
102
{ACAD_XDICTIONARY
360
537
102
}
102
{ACAD_REACTORS
330
52D
102
}
330
52D
100
AcDbMaterial
  1
ByBlock
 72
     0
 43
0.0208333333333333
 43
0.0
 43
0.0
 43
0.0
 43
0.0
 43
0.0208333333333333
 43
0.0
 43
0.0
 43
0.0
 43
0.0
 43
1.0
 43
0.0
 43
0.0
 43
0.0
 43
0.0
 43
1.0
 77
     0
 47
0.0208333333333333
 47
0.0
 47
0.0
 47
0.0
 47
0.0
 47
0.0208333333333333
 47
0.0
 47
0.0
 47
0.0
 47
0.0
 47
1.0
 47
0.0
 47
0.0
 47
0.0
 47
0.0
 47
1.0
171
     0
 49
0.0208333333333333
 49
0.0
 49
0.0
 49
0.0
 49
0.0
 49
0.0208333333333333
 49
0.0
 49
0.0
 49
0.0
 49
0.0
 49
1.0
 49
0.0
 49
0.0
 49
0.0
 49
0.0
 49
1.0
175
     0
142
0.0208333333333333
142
0.0
142
0.0
142
0.0
142
0.0
142
0.0208333333333333
142
0.0
142
0.0
142
0.0
142
0.0
142
1.0
142
0.0
142
0.0
142
0.0
142
0.0
142
1.0
179
     0
144
0.0208333333333333
144
0.0
144
0.0
144
0.0
144
0.0
144
0.0208333333333333
144
0.0
144
0.0
144
0.0
144
0.0
144
1.0
144
0.0
144
0.0
144
0.0
144
0.0
144
1.0
147
0.0208333333333333
147
0.0
147
0.0
147
0.0
147
0.0
147
0.0208333333333333
147
0.0
147
0.0
147
0.0
147
0.0
147
1.0
147
0.0
147
0.0
147
0.0
147
0.0
147
1.0
  0
MATERIAL
  5
52E
102
{ACAD_XDICTIONARY
360
52F
102
}
102
{ACAD_REACTORS
330
52D
102
}
330
52D
100
AcDbMaterial
  1
ByLayer
 72
     0
 43
0.0208333333333333
 43
0.0
 43
0.0
 43
0.0
 43
0.0
 43
0.0208333333333333
 43
0.0
 43
0.0
 43
0.0
 43
0.0
 43
1.0
 43
0.0
 43
0.0
 43
0.0
 43
0.0
 43
1.0
 77
     0
 47
0.0208333333333333
 47
0.0
 47
0.0
 47
0.0
 47
0.0
 47
0.0208333333333333
 47
0.0
 47
0.0
 47
0.0
 47
0.0
 47
1.0
 47
0.0
 47
0.0
 47
0.0
 47
0.0
 47
1.0
171
     0
 49
0.0208333333333333
 49
0.0
 49
0.0
 49
0.0
 49
0.0
 49
0.0208333333333333
 49
0.0
 49
0.0
 49
0.0
 49
0.0
 49
1.0
 49
0.0
 49
0.0
 49
0.0
 49
0.0
 49
1.0
175
     0
142
0.0208333333333333
142
0.0
142
0.0
142
0.0
142
0.0
142
0.0208333333333333
142
0.0
142
0.0
142
0.0
142
0.0
142
1.0
142
0.0
142
0.0
142
0.0
142
0.0
142
1.0
179
     0
144
0.0208333333333333
144
0.0
144
0.0
144
0.0
144
0.0
144
0.0208333333333333
144
0.0
144
0.0
144
0.0
144
0.0
144
1.0
144
0.0
144
0.0
144
0.0
144
0.0
144
1.0
147
0.0208333333333333
147
0.0
147
0.0
147
0.0
147
0.0
147
0.0208333333333333
147
0.0
147
0.0
147
0.0
147
0.0
147
1.0
147
0.0
147
0.0
147
0.0
147
0.0
147
1.0
  0
MATERIAL
  5
53E
102
{ACAD_XDICTIONARY
360
53F
102
}
102
{ACAD_REACTORS
330
52D
102
}
330
52D
100
AcDbMaterial
  1
Global
 72
     0
 43
0.0208333333333333
 43
0.0
 43
0.0
 43
0.0
 43
0.0
 43
0.0208333333333333
 43
0.0
 43
0.0
 43
0.0
 43
0.0
 43
1.0
 43
0.0
 43
0.0
 43
0.0
 43
0.0
 43
1.0
 77
     0
 47
0.0208333333333333
 47
0.0
 47
0.0
 47
0.0
 47
0.0
 47
0.0208333333333333
 47
0.0
 47
0.0
 47
0.0
 47
0.0
 47
1.0
 47
0.0
 47
0.0
 47
0.0
 47
0.0
 47
1.0
171
     0
 49
0.0208333333333333
 49
0.0
 49
0.0
 49
0.0
 49
0.0
 49
0.0208333333333333
 49
0.0
 49
0.0
 49
0.0
 49
0.0
 49
1.0
 49
0.0
 49
0.0
 49
0.0
 49
0.0
 49
1.0
175
     0
142
0.0208333333333333
142
0.0
142
0.0
142
0.0
142
0.0
142
0.0208333333333333
142
0.0
142
0.0
142
0.0
142
0.0
142
1.0
142
0.0
142
0.0
142
0.0
142
0.0
142
1.0
179
     0
144
0.0208333333333333
144
0.0
144
0.0
144
0.0
144
0.0
144
0.0208333333333333
144
0.0
144
0.0
144
0.0
144
0.0
144
1.0
144
0.0
144
0.0
144
0.0
144
0.0
144
1.0
147
0.0208333333333333
147
0.0
147
0.0
147
0.0
147
0.0
147
0.0208333333333333
147
0.0
147
0.0
147
0.0
147
0.0
147
1.0
147
0.0
147
0.0
147
0.0
147
0.0
147
1.0
  0
MLEADERSTYLE
  5
57D
102
{ACAD_REACTORS
330
57C
102
}
330
57C
100
AcDbMLeaderStyle
170
     2
171
     1
172
     0
 90
        2
 40
0.0
 41
0.0
173
     1
 91
-1056964608
340
12
 92
       -2
290
     1
 42
2.0
291
     1
 43
0.36
  3
Standard
 44
4.0
300

342
F
174
     1
178
     6
175
     1
176
     0
 93
-1056964608
 45
4.0
292
     0
297
     0
 46
4.0
 94
-1056964608
 47
1.0
 49
1.0
140
1.0
293
     1
141
0.0
294
     1
177
     0
142
1.0
295
     0
296
     0
143
0.125
1001
ACAD_MLEADERVER
1070
     2
  0
MLINESTYLE
  5
1C
102
{ACAD_REACTORS
330
1B
102
}
330
1B
100
AcDbMlineStyle
  2
STANDARD
 70
     0
  3

 62
   256
 51
90.0
 52
90.0
 71
     2
 49
0.5
 62
   256
  6
BYLAYER
 49
-0.5
 62
   256
  6
BYLAYER
  0
ACDBPLACEHOLDER
  5
52C
102
{ACAD_REACTORS
330
52B
102
}
330
52B
  0
SCALE
  5
55B
102
{ACAD_REACTORS
330
55A
102
}
330
55A
100
AcDbScale
 70
     0
300
1:1
140
1.0
141
1.0
290
     1
  0
SCALE
  5
55C
102
{ACAD_REACTORS
330
55A
102
}
330
55A
100
AcDbScale
 70
     0
300
1:2
140
1.0
141
2.0
290
     0
  0
SCALE
  5
55D
102
{ACAD_REACTORS
330
55A
102
}
330
55A
100
AcDbScale
 70
     0
300
1:4
140
1.0
141
4.0
290
     0
  0
SCALE
  5
55E
102
{ACAD_REACTORS
330
55A
102
}
330
55A
100
AcDbScale
 70
     0
300
1:5
140
1.0
141
5.0
290
     0
  0
SCALE
  5
55F
102
{ACAD_REACTORS
330
55A
102
}
330
55A
100
AcDbScale
 70
     0
300
1:8
140
1.0
141
8.0
290
     0
  0
SCALE
  5
560
102
{ACAD_REACTORS
330
55A
102
}
330
55A
100
AcDbScale
 70
     0
300
1:10
140
1.0
141
10.0
290
     0
  0
SCALE
  5
561
102
{ACAD_REACTORS
330
55A
102
}
330
55A
100
AcDbScale
 70
     0
300
1:16
140
1.0
141
16.0
290
     0
  0
SCALE
  5
562
102
{ACAD_REACTORS
330
55A
102
}
330
55A
100
AcDbScale
 70
     0
300
1:20
140
1.0
141
20.0
290
     0
  0
SCALE
  5
563
102
{ACAD_REACTORS
330
55A
102
}
330
55A
100
AcDbScale
 70
     0
300
1:30
140
1.0
141
30.0
290
     0
  0
SCALE
  5
564
102
{ACAD_REACTORS
330
55A
102
}
330
55A
100
AcDbScale
 70
     0
300
1:40
140
1.0
141
40.0
290
     0
  0
SCALE
  5
565
102
{ACAD_REACTORS
330
55A
102
}
330
55A
100
AcDbScale
 70
     0
300
1:50
140
1.0
141
50.0
290
     0
  0
SCALE
  5
566
102
{ACAD_REACTORS
330
55A
102
}
330
55A
100
AcDbScale
 70
     0
300
1:100
140
1.0
141
100.0
290
     0
  0
SCALE
  5
567
102
{ACAD_REACTORS
330
55A
102
}
330
55A
100
AcDbScale
 70
     0
300
2:1
140
2.0
141
1.0
290
     0
  0
SCALE
  5
568
102
{ACAD_REACTORS
330
55A
102
}
330
55A
100
AcDbScale
 70
     0
300
4:1
140
4.0
141
1.0
290
     0
  0
SCALE
  5
569
102
{ACAD_REACTORS
330
55A
102
}
330
55A
100
AcDbScale
 70
     0
300
8:1
140
8.0
141
1.0
290
     0
  0
SCALE
  5
56A
102
{ACAD_REACTORS
330
55A
102
}
330
55A
100
AcDbScale
 70
     0
300
10:1
140
10.0
141
1.0
290
     0
  0
SCALE
  5
56B
102
{ACAD_REACTORS
330
55A
102
}
330
55A
100
AcDbScale
 70
     0
300
100:1
140
100.0
141
1.0
290
     0
  0
SCALE
  5
56C
102
{ACAD_REACTORS
330
55A
102
}
330
55A
100
AcDbScale
 70
     0
300
1/128" = 1'-0"
140
0.0078125
141
12.0
290
     0
  0
SCALE
  5
56D
102
{ACAD_REACTORS
330
55A
102
}
330
55A
100
AcDbScale
 70
     0
300
1/64" = 1'-0"
140
0.015625
141
12.0
290
     0
  0
SCALE
  5
56E
102
{ACAD_REACTORS
330
55A
102
}
330
55A
100
AcDbScale
 70
     0
300
1/32" = 1'-0"
140
0.03125
141
12.0
290
     0
  0
SCALE
  5
56F
102
{ACAD_REACTORS
330
55A
102
}
330
55A
100
AcDbScale
 70
     0
300
1/16" = 1'-0"
140
0.0625
141
12.0
290
     0
  0
SCALE
  5
570
102
{ACAD_REACTORS
330
55A
102
}
330
55A
100
AcDbScale
 70
     0
300
3/32" = 1'-0"
140
0.09375
141
12.0
290
     0
  0
SCALE
  5
571
102
{ACAD_REACTORS
330
55A
102
}
330
55A
100
AcDbScale
 70
     0
300
1/8" = 1'-0"
140
0.125
141
12.0
290
     0
  0
SCALE
  5
572
102
{ACAD_REACTORS
330
55A
102
}
330
55A
100
AcDbScale
 70
     0
300
3/16" = 1'-0"
140
0.1875
141
12.0
290
     0
  0
SCALE
  5
573
102
{ACAD_REACTORS
330
55A
102
}
330
55A
100
AcDbScale
 70
     0
300
1/4" = 1'-0"
140
0.25
141
12.0
290
     0
  0
SCALE
  5
574
102
{ACAD_REACTORS
330
55A
102
}
330
55A
100
AcDbScale
 70
     0
300
3/8" = 1'-0"
140
0.375
141
12.0
290
     0
  0
SCALE
  5
575
102
{ACAD_REACTORS
330
55A
102
}
330
55A
100
AcDbScale
 70
     0
300
1/2" = 1'-0"
140
0.5
141
12.0
290
     0
  0
SCALE
  5
576
102
{ACAD_REACTORS
330
55A
102
}
330
55A
100
AcDbScale
 70
     0
300
3/4" = 1'-0"
140
0.75
141
12.0
290
     0
  0
SCALE
  5
577
102
{ACAD_REACTORS
330
55A
102
}
330
55A
100
AcDbScale
 70
     0
300
1" = 1'-0"
140
1.0
141
12.0
290
     0
  0
SCALE
  5
578
102
{ACAD_REACTORS
330
55A
102
}
330
55A
100
AcDbScale
 70
     0
300
1-1/2" = 1'-0"
140
1.5
141
12.0
290
     0
  0
SCALE
  5
579
102
{ACAD_REACTORS
330
55A
102
}
330
55A
100
AcDbScale
 70
     0
300
3" = 1'-0"
140
3.0
141
12.0
290
     0
  0
SCALE
  5
57A
102
{ACAD_REACTORS
330
55A
102
}
330
55A
100
AcDbScale
 70
     0
300
6" = 1'-0"
140
6.0
141
12.0
290
     0
  0
SCALE
  5
57B
102
{ACAD_REACTORS
330
55A
102
}
330
55A
100
AcDbScale
 70
     0
300
1'-0" = 1'-0"
140
12.0
141
12.0
290
     0
  0
TABLESTYLE
  5
559
102
{ACAD_XDICTIONARY
360
595
102
}
102
{ACAD_REACTORS
330
558
102
}
330
558
100
AcDbTableStyle
  3
Standard
 70
     0
 71
     0
 40
1.5
 41
1.5
280
     0
281
     0
  7
STANDARD
140
4.5
170
     2
 62
     0
 63
     7
283
     0
274
    -2
284
     1
 64
     0
275
    -2
285
     1
 65
     0
276
    -2
286
     1
 66
     0
277
    -2
287
     1
 67
     0
278
    -2
288
     1
 68
     0
279
    -2
289
     1
 69
     0
  7
STANDARD
140
6.0
170
     5
 62
     0
 63
     7
283
     0
274
    -2
284
     1
 64
     0
275
    -2
285
     1
 65
     0
276
    -2
286
     1
 66
     0
277
    -2
287
     1
 67
     0
278
    -2
288
     1
 68
     0
279
    -2
289
     1
 69
     0
  7
STANDARD
140
4.5
170
     5
 62
     0
 63
     7
283
     0
274
    -2
284
     1
 64
     0
275
    -2
285
     1
 65
     0
276
    -2
286
     1
 66
     0
277
    -2
287
     1
 67
     0
278
    -2
288
     1
 68
     0
279
    -2
289
     1
 69
     0
  0
VISUALSTYLE
  5
54C
102
{ACAD_REACTORS
330
546
102
}
330
546
100
AcDbVisualStyle
  2
2dWireframe
 70
     4
 71
     0
 72
     2
 73
     0
 90
        0
 40
-0.6
 41
-30.0
 62
     5
 63
     7
 74
     1
 91
        4
 64
     7
 65
   257
 75
     1
175
     1
 42
1.0
 92
        0
 66
   257
 43
1.0
 76
     1
 77
     6
 78
     2
 67
     7
 79
     5
170
     0
171
     0
290
     0
174
     0
 93
        1
 44
0.0
173
     0
291
     0
 45
0.0
1001
ACAD
1000
AcDbSavedByObjectVersion
1070
     0
  0
VISUALSTYLE
  5
54E
102
{ACAD_REACTORS
330
546
102
}
330
546
100
AcDbVisualStyle
  2
3D Hidden
 70
     6
 71
     1
 72
     2
 73
     2
 90
        0
 40
-0.6
 41
-30.0
 62
     5
 63
     7
 74
     2
 91
        2
 64
     7
 65
   257
 75
     2
175
     1
 42
40.0
 92
        0
 66
   257
 43
1.0
 76
     1
 77
     6
 78
     2
 67
     7
 79
     3
170
     0
171
     0
290
     0
174
     0
 93
        1
 44
0.0
173
     0
291
     0
 45
0.0
1001
ACAD
1000
AcDbSavedByObjectVersion
1070
     0
  0
VISUALSTYLE
  5
54D
102
{ACAD_REACTORS
330
546
102
}
330
546
100
AcDbVisualStyle
  2
3dWireframe
 70
     5
 71
     0
 72
     2
 73
     0
 90
        0
 40
-0.6
 41
-30.0
 62
     5
 63
     7
 74
     1
 91
        4
 64
     7
 65
   257
 75
     1
175
     1
 42
1.0
 92
        0
 66
   257
 43
1.0
 76
     1
 77
     6
 78
     2
 67
     7
 79
     5
170
     0
171
     0
290
     0
174
     0
 93
        1
 44
0.0
173
     0
291
     0
 45
0.0
1001
ACAD
1000
AcDbSavedByObjectVersion
1070
     0
  0
VISUALSTYLE
  5
54B
102
{ACAD_REACTORS
330
546
102
}
330
546
100
AcDbVisualStyle
  2
Basic
 70
     7
 71
     1
 72
     0
 73
     1
 90
        0
 40
-0.6
 41
-30.0
 62
     5
 63
     7
 74
     0
 91
        4
 64
     7
 65
   257
 75
     1
175
     1
 42
1.0
 92
        8
 66
     7
 43
1.0
 76
     1
 77
     6
 78
     2
 67
     7
 79
     5
170
     0
171
     0
290
     0
174
     0
 93
        1
 44
0.0
173
     0
291
     1
 45
0.0
1001
ACAD
1000
AcDbSavedByObjectVersion
1070
     0
  0
VISUALSTYLE
  5
552
102
{ACAD_REACTORS
330
546
102
}
330
546
100
AcDbVisualStyle
  2
Brighten
 70
    12
 71
     2
 72
     2
 73
     0
 90
        0
 40
-0.6
 41
-30.0
 62
     5
 63
     7
 74
     1
 91
        4
 64
     7
 65
   257
 75
     1
175
     1
 42
1.0
 92
        8
 66
     7
 43
1.0
 76
     1
 77
     6
 78
     2
 67
     7
 79
     5
170
     0
171
     0
290
     0
174
     0
 93
        1
 44
50.0
173
     0
291
     1
 45
0.0
1001
ACAD
1000
AcDbSavedByObjectVersion
1070
     0
  0
VISUALSTYLE
  5
556
102
{ACAD_REACTORS
330
546
102
}
330
546
100
AcDbVisualStyle
  2
ColorChange
 70
    16
 71
     2
 72
     2
 73
     3
 90
        0
 40
-0.6
 41
-30.0
 62
     5
 63
     8
 74
     1
 91
        4
 64
     7
 65
   257
 75
     1
175
     1
 42
1.0
 92
        8
 66
     8
 43
1.0
 76
     1
 77
     6
 78
     2
 67
     7
 79
     5
170
     0
171
     0
290
     0
174
     0
 93
        1
 44
0.0
173
     0
291
     1
 45
0.0
1001
ACAD
1000
AcDbSavedByObjectVersion
1070
     0
  0
VISUALSTYLE
  5
54F
102
{ACAD_REACTORS
330
546
102
}
330
546
100
AcDbVisualStyle
  2
Conceptual
 70
     9
 71
     3
 72
     2
 73
     0
 90
        0
 40
-0.6
 41
-30.0
 62
     5
 63
     7
 74
     2
 91
        2
 64
     7
 65
   257
 75
     1
175
     1
 42
40.0
 92
        8
 66
     7
 43
1.0
 76
     1
 77
     6
 78
     2
 67
     7
 79
     3
170
     0
171
     0
290
     0
174
     0
 93
        1
 44
0.0
173
     0
291
     0
 45
0.0
1001
ACAD
1000
AcDbSavedByObjectVersion
1070
     0
  0
VISUALSTYLE
  5
551
102
{ACAD_REACTORS
330
546
102
}
330
546
100
AcDbVisualStyle
  2
Dim
 70
    11
 71
     2
 72
     2
 73
     0
 90
        0
 40
-0.6
 41
-30.0
 62
     5
 63
     7
 74
     1
 91
        4
 64
     7
 65
   257
 75
     1
175
     1
 42
1.0
 92
        8
 66
     7
 43
1.0
 76
     1
 77
     6
 78
     2
 67
     7
 79
     5
170
     0
171
     0
290
     0
174
     0
 93
        1
 44
-50.0
173
     0
291
     1
 45
0.0
1001
ACAD
1000
AcDbSavedByObjectVersion
1070
     0
  0
VISUALSTYLE
  5
555
102
{ACAD_REACTORS
330
546
102
}
330
546
100
AcDbVisualStyle
  2
Facepattern
 70
    15
 71
     2
 72
     2
 73
     0
 90
        0
 40
-0.6
 41
-30.0
 62
     5
 63
     7
 74
     1
 91
        4
 64
     7
 65
   257
 75
     1
175
     1
 42
1.0
 92
        8
 66
     7
 43
1.0
 76
     1
 77
     6
 78
     2
 67
     7
 79
     5
170
     0
171
     0
290
     0
174
     0
 93
        1
 44
0.0
173
     0
291
     1
 45
0.0
1001
ACAD
1000
AcDbSavedByObjectVersion
1070
     0
  0
VISUALSTYLE
  5
547
102
{ACAD_REACTORS
330
546
102
}
330
546
100
AcDbVisualStyle
  2
Flat
 70
     0
 71
     2
 72
     1
 73
     1
 90
        2
 40
-0.6
 41
30.0
 62
     5
 63
     7
 74
     0
 91
        4
 64
     7
 65
   257
 75
     1
175
     1
 42
1.0
 92
        8
 66
     7
 43
1.0
 76
     1
 77
     6
 78
     2
 67
     7
 79
     5
170
     0
171
     0
290
     0
174
     0
 93
       13
 44
0.0
173
     0
291
     1
 45
0.0
1001
ACAD
1000
AcDbSavedByObjectVersion
1070
     0
  0
VISUALSTYLE
  5
548
102
{ACAD_REACTORS
330
546
102
}
330
546
100
AcDbVisualStyle
  2
FlatWithEdges
 70
     1
 71
     2
 72
     1
 73
     1
 90
        2
 40
-0.6
 41
30.0
 62
     5
 63
     7
 74
     1
 91
        4
 64
     7
 65
   257
 75
     1
175
     1
 42
1.0
 92
        0
 66
   257
 43
1.0
 76
     1
 77
     6
 78
     2
 67
     7
 79
     5
170
     0
171
     0
290
     0
174
     0
 93
       13
 44
0.0
173
     0
291
     1
 45
0.0
1001
ACAD
1000
AcDbSavedByObjectVersion
1070
     0
  0
VISUALSTYLE
  5
549
102
{ACAD_REACTORS
330
546
102
}
330
546
100
AcDbVisualStyle
  2
Gouraud
 70
     2
 71
     2
 72
     2
 73
     1
 90
        2
 40
-0.6
 41
30.0
 62
     5
 63
     7
 74
     0
 91
        4
 64
     7
 65
   257
 75
     1
175
     1
 42
1.0
 92
        0
 66
     7
 43
1.0
 76
     1
 77
     6
 78
     2
 67
     7
 79
     5
170
     0
171
     0
290
     0
174
     0
 93
       13
 44
0.0
173
     0
291
     1
 45
0.0
1001
ACAD
1000
AcDbSavedByObjectVersion
1070
     0
  0
VISUALSTYLE
  5
54A
102
{ACAD_REACTORS
330
546
102
}
330
546
100
AcDbVisualStyle
  2
GouraudWithEdges
 70
     3
 71
     2
 72
     2
 73
     1
 90
        2
 40
-0.6
 41
30.0
 62
     5
 63
     7
 74
     1
 91
        4
 64
     7
 65
   257
 75
     1
175
     1
 42
1.0
 92
        0
 66
   257
 43
1.0
 76
     1
 77
     6
 78
     2
 67
     7
 79
     5
170
     0
171
     0
290
     0
174
     0
 93
       13
 44
0.0
173
     0
291
     1
 45
0.0
1001
ACAD
1000
AcDbSavedByObjectVersion
1070
     0
  0
VISUALSTYLE
  5
554
102
{ACAD_REACTORS
330
546
102
}
330
546
100
AcDbVisualStyle
  2
Linepattern
 70
    14
 71
     2
 72
     2
 73
     0
 90
        0
 40
-0.6
 41
-30.0
 62
     5
 63
     7
 74
     1
 91
        4
 64
     7
 65
   257
 75
     7
175
     7
 42
1.0
 92
        8
 66
     7
 43
1.0
 76
     1
 77
     6
 78
     2
 67
     7
 79
     5
170
     0
171
     0
290
     0
174
     0
 93
        1
 44
0.0
173
     0
291
     1
 45
0.0
1001
ACAD
1000
AcDbSavedByObjectVersion
1070
     0
  0
VISUALSTYLE
  5
550
102
{ACAD_REACTORS
330
546
102
}
330
546
100
AcDbVisualStyle
  2
Realistic
 70
     8
 71
     2
 72
     2
 73
     0
 90
        0
 40
-0.6
 41
-30.0
 62
     5
 63
     7
 74
     1
 91
        0
 64
     7
 65
   257
 75
     1
175
     1
 42
1.0
 92
        8
 66
     8
 43
1.0
 76
     1
 77
     6
 78
     2
 67
     7
 79
     5
170
     0
171
     0
290
     0
174
     0
 93
       13
 44
0.0
173
     0
291
     0
 45
0.0
1001
ACAD
1000
AcDbSavedByObjectVersion
1070
     0
  0
VISUALSTYLE
  5
553
102
{ACAD_REACTORS
330
546
102
}
330
546
100
AcDbVisualStyle
  2
Thicken
 70
    13
 71
     2
 72
     2
 73
     0
 90
        0
 40
-0.6
 41
-30.0
 62
     5
 63
     7
 74
     1
 91
        4
 64
     7
 65
   257
 75
     1
175
     1
 42
1.0
 92
       12
 66
     7
 43
1.0
 76
     1
 77
     6
 78
     2
 67
     7
 79
     5
170
     0
171
     0
290
     0
174
     0
 93
        1
 44
0.0
173
     0
291
     1
 45
0.0
1001
ACAD
1000
AcDbSavedByObjectVersion
1070
     0
  0
DICTIONARYVAR
  5
59C
102
{ACAD_REACTORS
330
598
102
}
330
598
100
DictionaryVariables
280
     0
  1
1:1
  0
DICTIONARYVAR
  5
59A
102
{ACAD_REACTORS
330
598
102
}
330
598
100
DictionaryVariables
280
     0
  1
STANDARD
  0
DICTIONARYVAR
  5
599
102
{ACAD_REACTORS
330
598
102
}
330
598
100
DictionaryVariables
280
     0
  1
STANDARD
  0
DICTIONARYVAR
  5
5B0
102
{ACAD_REACTORS
330
598
102
}
330
598
100
DictionaryVariables
280
     0
  1
1
  0
DICTIONARYVAR
  5
5AF
102
{ACAD_REACTORS
330
598
102
}
330
598
100
DictionaryVariables
280
     0
  1
0
  0
DICTIONARYVAR
  5
59D
102
{ACAD_REACTORS
330
598
102
}
330
598
100
DictionaryVariables
280
     0
  1
0
  0
DICTIONARYVAR
  5
59B
102
{ACAD_REACTORS
330
598
102
}
330
598
100
DictionaryVariables
280
     0
  1
0
  0
DICTIONARYVAR
  5
5AE
102
{ACAD_REACTORS
330
598
102
}
330
598
100
DictionaryVariables
280
     0
  1
127
  0
DICTIONARY
  5
5B7
330
581
100
AcDbDictionary
280
     1
281
     1
  3
ACAD_XREC_ROUNDTRIP
360
5B8
  0
DICTIONARY
  5
5B9
330
582
100
AcDbDictionary
280
     1
281
     1
  3
ACAD_XREC_ROUNDTRIP
360
5BA
  0
DICTIONARY
  5
537
330
536
100
AcDbDictionary
280
     1
281
     1
  3
ACAD_XREC_ROUNDTRIP
360
5B4
  3
BUMPTILE
360
539
  3
DIFFUSETILE
360
538
  3
OPACITYTILE
360
53C
  3
REFLECTIONTILE
360
53B
  3
REFRACTIONTILE
360
53D
  3
SPECULARTILE
360
53A
  0
DICTIONARY
  5
52F
330
52E
100
AcDbDictionary
280
     1
281
     1
  3
ACAD_XREC_ROUNDTRIP
360
5B3
  3
BUMPTILE
360
531
  3
DIFFUSETILE
360
530
  3
OPACITYTILE
360
534
  3
REFLECTIONTILE
360
533
  3
REFRACTIONTILE
360
535
  3
SPECULARTILE
360
532
  0
DICTIONARY
  5
53F
330
53E
100
AcDbDictionary
280
     1
281
     1
  3
ACAD_XREC_ROUNDTRIP
360
5B5
  3
BUMPTILE
360
541
  3
DIFFUSETILE
360
540
  3
OPACITYTILE
360
544
  3
REFLECTIONTILE
360
543
  3
REFRACTIONTILE
360
545
  3
SPECULARTILE
360
542
  0
DICTIONARY
  5
595
330
559
100
AcDbDictionary
280
     1
281
     1
  3
ACAD_ROUNDTRIP_2008_TABLESTYLE_CELLSTYLEMAP
360
5B1
  3
ACAD_XREC_ROUNDTRIP
360
5B6
  0
XRECORD
  5
5B8
102
{ACAD_REACTORS
330
5B7
102
}
330
5B7
100
AcDbXrecord
280
     1
102
SHADEPLOT
 70
     0
102
SHADEPLOTRESLEVEL
 70
     2
102
SHADEPLOTCUSTOMDPI
 70
   300
  0
XRECORD
  5
5BA
102
{ACAD_REACTORS
330
5B9
102
}
330
5B9
100
AcDbXrecord
280
     1
102
SHADEPLOT
 70
     0
102
SHADEPLOTRESLEVEL
 70
     2
102
SHADEPLOTCUSTOMDPI
 70
   300
  0
XRECORD
  5
5B4
102
{ACAD_REACTORS
330
537
102
}
330
537
100
AcDbXrecord
280
     1
102
MATERIAL
148
0.0
149
0.0
149
0.0
 93
        0
 94
      127
282
     0
 72
     0
 77
     0
171
     0
175
     0
179
     0
273
     0
  0
XRECORD
  5
539
102
{ACAD_REACTORS
330
537
102
}
330
537
100
AcDbXrecord
280
     1
270
     1
271
     1
  0
XRECORD
  5
538
102
{ACAD_REACTORS
330
537
102
}
330
537
100
AcDbXrecord
280
     1
270
     1
271
     1
  0
XRECORD
  5
53C
102
{ACAD_REACTORS
330
537
102
}
330
537
100
AcDbXrecord
280
     1
270
     1
271
     1
  0
XRECORD
  5
53B
102
{ACAD_REACTORS
330
537
102
}
330
537
100
AcDbXrecord
280
     1
270
     1
271
     1
  0
XRECORD
  5
53D
102
{ACAD_REACTORS
330
537
102
}
330
537
100
AcDbXrecord
280
     1
270
     1
271
     1
  0
XRECORD
  5
53A
102
{ACAD_REACTORS
330
537
102
}
330
537
100
AcDbXrecord
280
     1
270
     1
271
     1
  0
XRECORD
  5
5B3
102
{ACAD_REACTORS
330
52F
102
}
330
52F
100
AcDbXrecord
280
     1
102
MATERIAL
148
0.0
149
0.0
149
0.0
 93
        0
 94
      127
282
     0
 72
     0
 77
     0
171
     0
175
     0
179
     0
273
     0
  0
XRECORD
  5
531
102
{ACAD_REACTORS
330
52F
102
}
330
52F
100
AcDbXrecord
280
     1
270
     1
271
     1
  0
XRECORD
  5
530
102
{ACAD_REACTORS
330
52F
102
}
330
52F
100
AcDbXrecord
280
     1
270
     1
271
     1
  0
XRECORD
  5
534
102
{ACAD_REACTORS
330
52F
102
}
330
52F
100
AcDbXrecord
280
     1
270
     1
271
     1
  0
XRECORD
  5
533
102
{ACAD_REACTORS
330
52F
102
}
330
52F
100
AcDbXrecord
280
     1
270
     1
271
     1
  0
XRECORD
  5
535
102
{ACAD_REACTORS
330
52F
102
}
330
52F
100
AcDbXrecord
280
     1
270
     1
271
     1
  0
XRECORD
  5
532
102
{ACAD_REACTORS
330
52F
102
}
330
52F
100
AcDbXrecord
280
     1
270
     1
271
     1
  0
XRECORD
  5
5B5
102
{ACAD_REACTORS
330
53F
102
}
330
53F
100
AcDbXrecord
280
     1
102
MATERIAL
148
0.0
149
0.0
149
0.0
 93
        0
 94
      127
282
     0
 72
     0
 77
     0
171
     0
175
     0
179
     0
273
     0
  0
XRECORD
  5
541
102
{ACAD_REACTORS
330
53F
102
}
330
53F
100
AcDbXrecord
280
     1
270
     1
271
     1
  0
XRECORD
  5
540
102
{ACAD_REACTORS
330
53F
102
}
330
53F
100
AcDbXrecord
280
     1
270
     1
271
     1
  0
XRECORD
  5
544
102
{ACAD_REACTORS
330
53F
102
}
330
53F
100
AcDbXrecord
280
     1
270
     1
271
     1
  0
XRECORD
  5
543
102
{ACAD_REACTORS
330
53F
102
}
330
53F
100
AcDbXrecord
280
     1
270
     1
271
     1
  0
XRECORD
  5
545
102
{ACAD_REACTORS
330
53F
102
}
330
53F
100
AcDbXrecord
280
     1
270
     1
271
     1
  0
XRECORD
  5
542
102
{ACAD_REACTORS
330
53F
102
}
330
53F
100
AcDbXrecord
280
     1
270
     1
271
     1
  0
CELLSTYLEMAP
  5
5B1
102
{ACAD_REACTORS
330
595
102
}
330
595
100
AcDbCellStyleMap
 90
        3
300
CELLSTYLE
  1
TABLEFORMAT_BEGIN
 90
        5
170
     1
 91
        0
 92
    32768
 62
   257
 93
        1
300
CONTENTFORMAT
  1
CONTENTFORMAT_BEGIN
 90
        0
 91
        0
 92
      512
 93
        0
300

 40
0.0
140
1.0
 94
        5
 62
     0
340
F
144
6.0
309
CONTENTFORMAT_END
171
     1
301
MARGIN
  1
CELLMARGIN_BEGIN
 40
1.5
 40
1.5
 40
1.5
 40
1.5
 40
4.5
 40
4.5
309
CELLMARGIN_END
 94
        6
 95
        1
302
GRIDFORMAT
  1
GRIDFORMAT_BEGIN
 90
        0
 91
        1
 62
     0
 92
       -2
340
0
 93
        0
 40
1.125
309
GRIDFORMAT_END
 95
        2
302
GRIDFORMAT
  1
GRIDFORMAT_BEGIN
 90
        0
 91
        1
 62
     0
 92
       -2
340
0
 93
        0
 40
1.125
309
GRIDFORMAT_END
 95
        4
302
GRIDFORMAT
  1
GRIDFORMAT_BEGIN
 90
        0
 91
        1
 62
     0
 92
       -2
340
0
 93
        0
 40
1.125
309
GRIDFORMAT_END
 95
        8
302
GRIDFORMAT
  1
GRIDFORMAT_BEGIN
 90
        0
 91
        1
 62
     0
 92
       -2
340
0
 93
        0
 40
1.125
309
GRIDFORMAT_END
 95
       16
302
GRIDFORMAT
  1
GRIDFORMAT_BEGIN
 90
        0
 91
        1
 62
     0
 92
       -2
340
0
 93
        0
 40
1.125
309
GRIDFORMAT_END
 95
       32
302
GRIDFORMAT
  1
GRIDFORMAT_BEGIN
 90
        0
 91
        1
 62
     0
 92
       -2
340
0
 93
        0
 40
1.125
309
GRIDFORMAT_END
309
TABLEFORMAT_END
  1
CELLSTYLE_BEGIN
 90
        1
 91
        1
300
_TITLE
309
CELLSTYLE_END
300
CELLSTYLE
  1
TABLEFORMAT_BEGIN
 90
        5
170
     1
 91
        0
 92
        0
 62
   257
 93
        1
300
CONTENTFORMAT
  1
CONTENTFORMAT_BEGIN
 90
        0
 91
        0
 92
      512
 93
        0
300

 40
0.0
140
1.0
 94
        5
 62
     0
340
F
144
4.5
309
CONTENTFORMAT_END
171
     1
301
MARGIN
  1
CELLMARGIN_BEGIN
 40
1.5
 40
1.5
 40
1.5
 40
1.5
 40
4.5
 40
4.5
309
CELLMARGIN_END
 94
        6
 95
        1
302
GRIDFORMAT
  1
GRIDFORMAT_BEGIN
 90
        0
 91
        1
 62
     0
 92
       -2
340
0
 93
        0
 40
1.125
309
GRIDFORMAT_END
 95
        2
302
GRIDFORMAT
  1
GRIDFORMAT_BEGIN
 90
        0
 91
        1
 62
     0
 92
       -2
340
0
 93
        0
 40
1.125
309
GRIDFORMAT_END
 95
        4
302
GRIDFORMAT
  1
GRIDFORMAT_BEGIN
 90
        0
 91
        1
 62
     0
 92
       -2
340
0
 93
        0
 40
1.125
309
GRIDFORMAT_END
 95
        8
302
GRIDFORMAT
  1
GRIDFORMAT_BEGIN
 90
        0
 91
        1
 62
     0
 92
       -2
340
0
 93
        0
 40
1.125
309
GRIDFORMAT_END
 95
       16
302
GRIDFORMAT
  1
GRIDFORMAT_BEGIN
 90
        0
 91
        1
 62
     0
 92
       -2
340
0
 93
        0
 40
1.125
309
GRIDFORMAT_END
 95
       32
302
GRIDFORMAT
  1
GRIDFORMAT_BEGIN
 90
        0
 91
        1
 62
     0
 92
       -2
340
0
 93
        0
 40
1.125
309
GRIDFORMAT_END
309
TABLEFORMAT_END
  1
CELLSTYLE_BEGIN
 90
        2
 91
        1
300
_HEADER
309
CELLSTYLE_END
300
CELLSTYLE
  1
TABLEFORMAT_BEGIN
 90
        5
170
     1
 91
        0
 92
        0
 62
   257
 93
        1
300
CONTENTFORMAT
  1
CONTENTFORMAT_BEGIN
 90
        0
 91
        0
 92
      512
 93
        0
300

 40
0.0
140
1.0
 94
        2
 62
     0
340
F
144
4.5
309
CONTENTFORMAT_END
171
     1
301
MARGIN
  1
CELLMARGIN_BEGIN
 40
1.5
 40
1.5
 40
1.5
 40
1.5
 40
4.5
 40
4.5
309
CELLMARGIN_END
 94
        6
 95
        1
302
GRIDFORMAT
  1
GRIDFORMAT_BEGIN
 90
        0
 91
        1
 62
     0
 92
       -2
340
0
 93
        0
 40
1.125
309
GRIDFORMAT_END
 95
        2
302
GRIDFORMAT
  1
GRIDFORMAT_BEGIN
 90
        0
 91
        1
 62
     0
 92
       -2
340
0
 93
        0
 40
1.125
309
GRIDFORMAT_END
 95
        4
302
GRIDFORMAT
  1
GRIDFORMAT_BEGIN
 90
        0
 91
        1
 62
     0
 92
       -2
340
0
 93
        0
 40
1.125
309
GRIDFORMAT_END
 95
        8
302
GRIDFORMAT
  1
GRIDFORMAT_BEGIN
 90
        0
 91
        1
 62
     0
 92
       -2
340
0
 93
        0
 40
1.125
309
GRIDFORMAT_END
 95
       16
302
GRIDFORMAT
  1
GRIDFORMAT_BEGIN
 90
        0
 91
        1
 62
     0
 92
       -2
340
0
 93
        0
 40
1.125
309
GRIDFORMAT_END
 95
       32
302
GRIDFORMAT
  1
GRIDFORMAT_BEGIN
 90
        0
 91
        1
 62
     0
 92
       -2
340
0
 93
        0
 40
1.125
309
GRIDFORMAT_END
309
TABLEFORMAT_END
  1
CELLSTYLE_BEGIN
 90
        3
 91
        2
300
_DATA
309
CELLSTYLE_END
  0
XRECORD
  5
5B6
102
{ACAD_REACTORS
330
595
102
}
330
595
100
AcDbXrecord
280
     1
102
ACAD_ROUNDTRIP_PRE2007_TABLESTYLE
 90
      512
 91
        0
  1

 92
      512
 93
        0
  2

 94
      512
 95
        0
  3

  0
ENDSEC
  0
EOF
