  0
SECTION
  2
HEADER
  9
$ACADVER
  1
AC1015
  9
$ACADMAINTVER
 70
    10
  9
$DWGCODEPAGE
  3
ANSI_932
  9
$INSBASE
 10
0.0
 20
0.0
 30
0.0
  9
$EXTMIN
 10
379.2738303648802
 20
184.5652176201976
 30
0.0
  9
$EXTMAX
 10
682.7738303648803
 20
387.9794312134795
 30
0.0
  9
$LIMMIN
 10
0.0
 20
0.0
  9
$LIMMAX
 10
420.0
 20
297.0
  9
$ORTHOMODE
 70
     0
  9
$REGENMODE
 70
     1
  9
$FILLMODE
 70
     1
  9
$QTEXTMODE
 70
     0
  9
$MIRRTEXT
 70
     1
  9
$LTSCALE
 40
1.0
  9
$ATTMODE
 70
     1
  9
$TEXTSIZE
 40
2.5
  9
$TRACEWID
 40
1.0
  9
$TEXTSTYLE
  7
Standard
  9
$CLAYER
  8
0
  9
$CELTYPE
  6
Continuous
  9
$CECOLOR
 62
     7
  9
$CELTSCALE
 40
1.0
  9
$DISPSILH
 70
     0
  9
$DIMSCALE
 40
1.0
  9
$DIMASZ
 40
2.5
  9
$DIMEXO
 40
0.625
  9
$DIMDLI
 40
3.75
  9
$DIMRND
 40
0.0
  9
$DIMDLE
 40
0.0
  9
$DIMEXE
 40
1.25
  9
$DIMTP
 40
0.0
  9
$DIMTM
 40
0.0
  9
$DIMTXT
 40
2.5
  9
$DIMCEN
 40
2.5
  9
$DIMTSZ
 40
0.0
  9
$DIMTOL
 70
     0
  9
$DIMLIM
 70
     0
  9
$DIMTIH
 70
     0
  9
$DIMTOH
 70
     0
  9
$DIMSE1
 70
     0
  9
$DIMSE2
 70
     0
  9
$DIMTAD
 70
     1
  9
$DIMZIN
 70
     8
  9
$DIMBLK
  1

  9
$DIMASO
 70
     1
  9
$DIMSHO
 70
     1
  9
$DIMPOST
  1

  9
$DIMAPOST
  1

  9
$DIMALT
 70
     0
  9
$DIMALTD
 70
     3
  9
$DIMALTF
 40
0.03937007874016
  9
$DIMLFAC
 40
1.0
  9
$DIMTOFL
 70
     1
  9
$DIMTVP
 40
0.0
  9
$DIMTIX
 70
     0
  9
$DIMSOXD
 70
     0
  9
$DIMSAH
 70
     0
  9
$DIMBLK1
  1

  9
$DIMBLK2
  1

  9
$DIMSTYLE
  2
ISO-25
  9
$DIMCLRD
 70
     0
  9
$DIMCLRE
 70
     0
  9
$DIMCLRT
 70
     0
  9
$DIMTFAC
 40
1.0
  9
$DIMGAP
 40
0.625
  9
$DIMJUST
 70
     0
  9
$DIMSD1
 70
     0
  9
$DIMSD2
 70
     0
  9
$DIMTOLJ
 70
     0
  9
$DIMTZIN
 70
     8
  9
$DIMALTZ
 70
     0
  9
$DIMALTTZ
 70
     0
  9
$DIMUPT
 70
     0
  9
$DIMDEC
 70
     2
  9
$DIMTDEC
 70
     2
  9
$DIMALTU
 70
     2
  9
$DIMALTTD
 70
     3
  9
$DIMTXSTY
  7
Standard
  9
$DIMAUNIT
 70
     0
  9
$DIMADEC
 70
     0
  9
$DIMALTRND
 40
0.0
  9
$DIMAZIN
 70
     0
  9
$DIMDSEP
 70
    44
  9
$DIMATFIT
 70
     3
  9
$DIMFRAC
 70
     0
  9
$DIMLDRBLK
  1

  9
$DIMLUNIT
 70
     2
  9
$DIMLWD
 70
    -2
  9
$DIMLWE
 70
    -2
  9
$DIMTMOVE
 70
     0
  9
$LUNITS
 70
     2
  9
$LUPREC
 70
     4
  9
$SKETCHINC
 40
1.0
  9
$FILLETRAD
 40
10.0
  9
$AUNITS
 70
     0
  9
$AUPREC
 70
     0
  9
$MENU
  1
.
  9
$ELEVATION
 40
0.0
  9
$PELEVATION
 40
0.0
  9
$THICKNESS
 40
0.0
  9
$LIMCHECK
 70
     0
  9
$CHAMFERA
 40
10.0
  9
$CHAMFERB
 40
10.0
  9
$CHAMFERC
 40
20.0
  9
$CHAMFERD
 40
0.0
  9
$SKPOLY
 70
     0
  9
$TDCREATE
 40
2456496.444388761
  9
$TDUCREATE
 40
2456496.069388761
  9
$TDUPDATE
 40
2456500.611049016
  9
$TDUUPDATE
 40
2456500.236049016
  9
$TDINDWG
 40
0.0457616551
  9
$TDUSRTIMER
 40
0.0457614815
  9
$USRTIMER
 70
     1
  9
$ANGBASE
 50
0.0
  9
$ANGDIR
 70
     0
  9
$PDMODE
 70
     0
  9
$PDSIZE
 40
0.0
  9
$PLINEWID
 40
0.0
  9
$SPLFRAME
 70
     0
  9
$SPLINETYPE
 70
     6
  9
$SPLINESEGS
 70
     8
  9
$HANDSEED
  5
4E5
  9
$SURFTAB1
 70
     6
  9
$SURFTAB2
 70
     6
  9
$SURFTYPE
 70
     6
  9
$SURFU
 70
     6
  9
$SURFV
 70
     6
  9
$UCSBASE
  2

  9
$UCSNAME
  2

  9
$UCSORG
 10
0.0
 20
0.0
 30
0.0
  9
$UCSXDIR
 10
1.0
 20
0.0
 30
0.0
  9
$UCSYDIR
 10
0.0
 20
1.0
 30
0.0
  9
$UCSORTHOREF
  2

  9
$UCSORTHOVIEW
 70
     0
  9
$UCSORGTOP
 10
0.0
 20
0.0
 30
0.0
  9
$UCSORGBOTTOM
 10
0.0
 20
0.0
 30
0.0
  9
$UCSORGLEFT
 10
0.0
 20
0.0
 30
0.0
  9
$UCSORGRIGHT
 10
0.0
 20
0.0
 30
0.0
  9
$UCSORGFRONT
 10
0.0
 20
0.0
 30
0.0
  9
$UCSORGBACK
 10
0.0
 20
0.0
 30
0.0
  9
$PUCSBASE
  2

  9
$PUCSNAME
  2

  9
$PUCSORG
 10
0.0
 20
0.0
 30
0.0
  9
$PUCSXDIR
 10
1.0
 20
0.0
 30
0.0
  9
$PUCSYDIR
 10
0.0
 20
1.0
 30
0.0
  9
$PUCSORTHOREF
  2

  9
$PUCSORTHOVIEW
 70
     0
  9
$PUCSORGTOP
 10
0.0
 20
0.0
 30
0.0
  9
$PUCSORGBOTTOM
 10
0.0
 20
0.0
 30
0.0
  9
$PUCSORGLEFT
 10
0.0
 20
0.0
 30
0.0
  9
$PUCSORGRIGHT
 10
0.0
 20
0.0
 30
0.0
  9
$PUCSORGFRONT
 10
0.0
 20
0.0
 30
0.0
  9
$PUCSORGBACK
 10
0.0
 20
0.0
 30
0.0
  9
$USERI1
 70
     0
  9
$USERI2
 70
     0
  9
$USERI3
 70
     0
  9
$USERI4
 70
     0
  9
$USERI5
 70
     0
  9
$USERR1
 40
0.0
  9
$USERR2
 40
0.0
  9
$USERR3
 40
0.0
  9
$USERR4
 40
0.0
  9
$USERR5
 40
0.0
  9
$WORLDVIEW
 70
     1
  9
$SHADEDGE
 70
     3
  9
$SHADEDIF
 70
    70
  9
$TILEMODE
 70
     1
  9
$MAXACTVP
 70
    64
  9
$PINSBASE
 10
0.0
 20
0.0
 30
0.0
  9
$PLIMCHECK
 70
     0
  9
$PEXTMIN
 10
0.0
 20
0.0
 30
0.0
  9
$PEXTMAX
 10
0.0
 20
0.0
 30
0.0
  9
$PLIMMIN
 10
0.0
 20
0.0
  9
$PLIMMAX
 10
12.0
 20
9.0
  9
$UNITMODE
 70
     0
  9
$VISRETAIN
 70
     1
  9
$PLINEGEN
 70
     0
  9
$PSLTSCALE
 70
     1
  9
$TREEDEPTH
 70
  3020
  9
$CMLSTYLE
  2
Standard
  9
$CMLJUST
 70
     0
  9
$CMLSCALE
 40
20.0
  9
$PROXYGRAPHICS
 70
     1
  9
$MEASUREMENT
 70
     1
  9
$CELWEIGHT
370
    -1
  9
$ENDCAPS
280
     0
  9
$JOINSTYLE
280
     0
  9
$LWDISPLAY
290
     0
  9
$INSUNITS
 70
     4
  9
$HYPERLINKBASE
  1

  9
$STYLESHEET
  1

  9
$XEDIT
290
     1
  9
$CEPSNTYPE
380
     0
  9
$PSTYLEMODE
290
     1
  9
$FINGERPRINTGUID
  2
{FDEAD578-A652-11D2-9A35-0060089B3A3F}
  9
$VERSIONGUID
  2
{3F23AE11-2097-4B7E-ABA1-3EEBFC8B33BB}
  9
$EXTNAMES
290
     1
  9
$PSVPSCALE
 40
0.0
  9
$OLESTARTUP
290
     0
  0
ENDSEC
  0
SECTION
  2
CLASSES
  0
CLASS
  1
ACDBDICTIONARYWDFLT
  2
AcDbDictionaryWithDefault
  3
AutoCAD 2000
 90
        0
280
     0
281
     0
  0
CLASS
  1
ACDBPLACEHOLDER
  2
AcDbPlaceHolder
  3
AutoCAD 2000
 90
        0
280
     0
281
     0
  0
CLASS
  1
LAYOUT
  2
AcDbLayout
  3
AutoCAD 2000
 90
        0
280
     0
281
     0
  0
ENDSEC
  0
SECTION
  2
TABLES
  0
TABLE
  2
VPORT
  5
8
330
0
100
AcDbSymbolTable
 70
     2
  0
VPORT
  5
4E4
330
8
100
AcDbSymbolTableRecord
100
AcDbViewportTableRecord
  2
*Active
 70
     0
 10
0.0
 20
0.0
 11
1.0
 21
1.0
 12
518.8897643160642
 22
276.8115072443568
 13
0.0
 23
0.0
 14
10.0
 24
10.0
 15
10.0
 25
10.0
 16
0.0
 26
0.0
 36
1.0
 17
0.0
 27
0.0
 37
0.0
 40
269.8283110749999
 41
1.781954887218045
 42
50.0
 43
0.0
 44
0.0
 50
0.0
 51
0.0
 71
     0
 72
   100
 73
     1
 74
     3
 75
     0
 76
     0
 77
     0
 78
     0
281
     0
 65
     1
110
0.0
120
0.0
130
0.0
111
1.0
121
0.0
131
0.0
112
0.0
122
1.0
132
0.0
 79
     0
146
0.0
  0
ENDTAB
  0
TABLE
  2
LTYPE
  5
5
330
0
100
AcDbSymbolTable
 70
     1
  0
LTYPE
  5
14
330
5
100
AcDbSymbolTableRecord
100
AcDbLinetypeTableRecord
  2
ByBlock
 70
     0
  3

 72
    65
 73
     0
 40
0.0
  0
LTYPE
  5
15
330
5
100
AcDbSymbolTableRecord
100
AcDbLinetypeTableRecord
  2
ByLayer
 70
     0
  3

 72
    65
 73
     0
 40
0.0
  0
LTYPE
  5
16
330
5
100
AcDbSymbolTableRecord
100
AcDbLinetypeTableRecord
  2
Continuous
 70
     0
  3
Solid line
 72
    65
 73
     0
 40
0.0
  0
ENDTAB
  0
TABLE
  2
LAYER
  5
2
330
0
100
AcDbSymbolTable
 70
     1
  0
LAYER
  5
10
330
2
100
AcDbSymbolTableRecord
100
AcDbLayerTableRecord
  2
0
 70
     0
 62
     7
  6
Continuous
370
    -3
390
F
  0
ENDTAB
  0
TABLE
  2
STYLE
  5
3
330
0
100
AcDbSymbolTable
 70
     2
  0
STYLE
  5
11
330
3
100
AcDbSymbolTableRecord
100
AcDbTextStyleTableRecord
  2
Standard
 70
     0
 40
0.0
 41
1.0
 50
0.0
 71
     0
 42
2.5
  3
txt
  4

  0
STYLE
  5
67
330
3
100
AcDbSymbolTableRecord
100
AcDbTextStyleTableRecord
  2
_TCW_TXTSTY_2
 70
     0
 40
0.0
 41
1.0
 50
0.0
 71
     0
 42
0.6875
  3
MS PGothic.ttf
  4

1001
ACAD
1000
ＭＳ Ｐゴシック
1071
    32802
  0
ENDTAB
  0
TABLE
  2
VIEW
  5
6
330
0
100
AcDbSymbolTable
 70
     0
  0
ENDTAB
  0
TABLE
  2
UCS
  5
7
330
0
100
AcDbSymbolTable
 70
     0
  0
ENDTAB
  0
TABLE
  2
APPID
  5
9
330
0
100
AcDbSymbolTable
 70
     2
  0
APPID
  5
12
330
9
100
AcDbSymbolTableRecord
100
AcDbRegAppTableRecord
  2
ACAD
 70
     0
  0
APPID
  5
69
330
9
100
AcDbSymbolTableRecord
100
AcDbRegAppTableRecord
  2
TCAD
 70
     0
  0
ENDTAB
  0
TABLE
  2
DIMSTYLE
  5
A
330
0
100
AcDbSymbolTable
 70
     2
100
AcDbDimStyleTable
 71
     1
340
27
  0
DIMSTYLE
105
27
330
A
100
AcDbSymbolTableRecord
100
AcDbDimStyleTableRecord
  2
ISO-25
 70
     0
 41
2.5
 42
0.625
 43
3.75
 44
1.25
 73
     0
 74
     0
 77
     1
 78
     8
140
2.5
141
2.5
143
0.03937007874016
147
0.625
171
     3
172
     1
271
     2
272
     2
274
     3
278
    44
283
     0
284
     8
340
11
  0
DIMSTYLE
105
68
330
A
100
AcDbSymbolTableRecord
100
AcDbDimStyleTableRecord
  2
S1
 70
     0
 41
3.0
 42
1.0
 43
1.0
 44
1.0
 45
0.01
 73
     0
 74
     0
 77
     1
 78
     8
140
2.40625
143
0.0394
145
0.6103515625
147
1.0
148
0.01
172
     1
174
     1
176
     7
177
     7
178
     7
179
     2
271
     2
286
     8
340
67
341
61
342
61
  0
ENDTAB
  0
TABLE
  2
BLOCK_RECORD
  5
1
330
0
100
AcDbSymbolTable
 70
     1
  0
BLOCK_RECORD
  5
1F
330
1
100
AcDbSymbolTableRecord
100
AcDbBlockTableRecord
  2
*Model_Space
340
22
  0
BLOCK_RECORD
  5
50
330
1
100
AcDbSymbolTableRecord
100
AcDbBlockTableRecord
  2
*Paper_Space
340
51
  0
BLOCK_RECORD
  5
61
330
1
100
AcDbSymbolTableRecord
100
AcDbBlockTableRecord
  2
_OPEN
340
0
  0
ENDTAB
  0
ENDSEC
  0
SECTION
  2
BLOCKS
  0
BLOCK
  5
20
330
1F
100
AcDbEntity
  8
0
100
AcDbBlockBegin
  2
*Model_Space
 70
     0
 10
0.0
 20
0.0
 30
0.0
  3
*Model_Space
  1

  0
ENDBLK
  5
21
330
1F
100
AcDbEntity
  8
0
100
AcDbBlockEnd
  0
BLOCK
  5
52
330
50
100
AcDbEntity
 67
     1
  8
0
100
AcDbBlockBegin
  2
*Paper_Space
 70
     0
 10
0.0
 20
0.0
 30
0.0
  3
*Paper_Space
  1

  0
ENDBLK
  5
53
330
50
100
AcDbEntity
 67
     1
  8
0
100
AcDbBlockEnd
  0
BLOCK
  5
65
330
61
100
AcDbEntity
  8
0
100
AcDbBlockBegin
  2
_OPEN
 70
     0
 10
0.0
 20
0.0
 30
0.0
  3
_OPEN
  1

  0
LINE
  5
62
330
61
100
AcDbEntity
  8
0
  6
ByBlock
 62
     0
100
AcDbLine
 10
-1.0
 20
0.166667
 30
0.0
 11
0.0
 21
0.0
 31
0.0
  0
LINE
  5
63
330
61
100
AcDbEntity
  8
0
  6
ByBlock
 62
     0
100
AcDbLine
 10
0.0
 20
0.0
 30
0.0
 11
-1.0
 21
-0.166667
 31
0.0
  0
LINE
  5
64
330
61
100
AcDbEntity
  8
0
  6
ByBlock
 62
     0
100
AcDbLine
 10
0.0
 20
0.0
 30
0.0
 11
-1.0
 21
0.0
 31
0.0
  0
ENDBLK
  5
66
330
61
100
AcDbEntity
  8
0
100
AcDbBlockEnd
  0
ENDSEC
  0
SECTION
  2
ENTITIES
  0
ARC
  5
2A6
330
1F
100
AcDbEntity
  8
0
 62
     7
 48
2.0
100
AcDbCircle
 10
437.2738303648803
 20
379.5652176201951
 30
0.0
 40
6.000000000000007
100
AcDbArc
 50
180.0000050089357
 51
0.0000000000244267
  0
LINE
  5
2A7
330
1F
100
AcDbEntity
  8
0
 62
     7
 48
2.0
100
AcDbLine
 10
471.2738303648802
 20
385.5652176201975
 30
0.0
 11
471.2738303648802
 21
242.5652176201976
 31
0.0
  0
LINE
  5
2A8
330
1F
100
AcDbEntity
  8
0
 62
     7
 48
2.0
100
AcDbLine
 10
403.2738303648804
 20
385.5652176201975
 30
0.0
 11
403.2738303648804
 21
242.5652176201976
 31
0.0
  0
LINE
  5
2A9
330
1F
100
AcDbEntity
  8
0
 62
     7
 48
2.0
100
AcDbLine
 10
404.0854290694213
 20
369.8145546795497
 30
0.0
 11
404.0854290694213
 21
271.5939619935576
 31
0.0
  0
LINE
  5
2AA
330
1F
100
AcDbEntity
  8
0
 62
     7
 48
2.0
100
AcDbLine
 10
470.4622316603392
 20
369.8145546795497
 30
0.0
 11
470.4622316603392
 21
271.5939619935576
 31
0.0
  0
LINE
  5
2AB
330
1F
100
AcDbEntity
  8
0
 62
     7
 48
2.0
100
AcDbLine
 10
430.7738303648802
 20
367.0652176201976
 30
0.0
 11
430.7738303648802
 21
264.0652176201974
 31
0.0
  0
LINE
  5
2AC
330
1F
100
AcDbEntity
  8
0
 62
     7
 48
2.0
100
AcDbLine
 10
443.7738303648804
 20
367.0652176201976
 30
0.0
 11
443.7738303648804
 21
264.0652176201974
 31
0.0
  0
LINE
  5
2AD
330
1F
100
AcDbEntity
  8
0
 62
     7
 48
2.0
100
AcDbLine
 10
444.2738303648804
 20
367.5652176201976
 30
0.0
 11
444.2738303648804
 21
262.0652176201974
 31
0.0
  0
LINE
  5
2AE
330
1F
100
AcDbEntity
  8
0
 62
     7
 48
2.0
100
AcDbLine
 10
430.2738303648802
 20
367.5652176201976
 30
0.0
 11
430.2738303648802
 21
262.0652176201974
 31
0.0
  0
LINE
  5
2AF
330
1F
100
AcDbEntity
  8
0
 62
     7
 48
2.0
100
AcDbLine
 10
404.0854290694213
 20
263.5364732468374
 30
0.0
 11
404.0854290694213
 21
242.5652176201976
 31
0.0
  0
LINE
  5
2B0
330
1F
100
AcDbEntity
  8
0
 62
     7
 48
2.0
100
AcDbLine
 10
470.4622316603392
 20
263.5364732468374
 30
0.0
 11
470.4622316603392
 21
242.5652176201976
 31
0.0
  0
LINE
  5
2B1
330
1F
100
AcDbEntity
  8
0
 62
     7
 48
2.0
100
AcDbLine
 10
469.2738303648804
 20
240.5652176201976
 30
0.0
 11
405.2738303648802
 21
240.5652176201976
 31
0.0
  0
ARC
  5
2B2
330
1F
100
AcDbEntity
  8
0
 62
     7
 48
2.0
100
AcDbCircle
 10
405.2738303648791
 20
242.5652176201966
 30
0.0
 40
1.999999999998939
100
AcDbArc
 50
180.000005008939
 51
269.9999974955443
  0
ARC
  5
2B3
330
1F
100
AcDbEntity
  8
0
 62
     7
 48
2.0
100
AcDbCircle
 10
406.0854290694202
 20
242.5652176201966
 30
0.0
 40
1.999999999998955
100
AcDbArc
 50
180.000005008939
 51
269.9999974955443
  0
ARC
  5
2B4
330
1F
100
AcDbEntity
  8
0
 62
     7
 48
2.0
100
AcDbCircle
 10
469.2738303648806
 20
242.5652176201972
 30
0.0
 40
1.99999999999963
100
AcDbArc
 50
269.9999974955051
 51
0.0000000000097707
  0
ARC
  5
2B5
330
1F
100
AcDbEntity
  8
0
 62
     7
 48
2.0
100
AcDbCircle
 10
468.4622316603402
 20
242.5652176201968
 30
0.0
 40
1.999999999999149
100
AcDbArc
 50
269.9999974955181
 51
0.0000000000244267
  0
LINE
  5
2B6
330
1F
100
AcDbEntity
  8
0
 62
     7
 48
2.0
100
AcDbLine
 10
404.0854290694213
 20
271.5939619935576
 30
0.0
 11
407.2738303648804
 21
271.5939619935576
 31
0.0
  0
LINE
  5
2B7
330
1F
100
AcDbEntity
  8
0
 62
     7
 48
2.0
100
AcDbLine
 10
404.0854290694213
 20
263.5364732468374
 30
0.0
 11
407.2738303648804
 21
263.5364732468374
 31
0.0
  0
LINE
  5
2B8
330
1F
100
AcDbEntity
  8
0
 62
     7
 48
2.0
100
AcDbLine
 10
407.2738303648804
 20
270.8152176201977
 30
0.0
 11
403.2738303648804
 21
270.8152176201977
 31
0.0
  0
LINE
  5
2B9
330
1F
100
AcDbEntity
  8
0
 62
     7
 48
2.0
100
AcDbLine
 10
407.2738303648804
 20
264.3152176201977
 30
0.0
 11
403.2738303648804
 21
264.3152176201977
 31
0.0
  0
ARC
  5
2BA
330
1F
100
AcDbEntity
  8
0
 62
     7
 48
2.0
100
AcDbCircle
 10
407.2738303648788
 20
267.5652176201976
 30
0.0
 40
4.028744220734044
100
AcDbArc
 50
269.9999974955443
 51
90.0000025044557
  0
ARC
  5
2BB
330
1F
100
AcDbEntity
  8
0
 62
     7
 48
2.0
100
AcDbCircle
 10
407.2738303648791
 20
267.5652176201976
 30
0.0
 40
3.250000000000003
100
AcDbArc
 50
269.9999974955443
 51
90.0000025044557
  0
LINE
  5
2BC
330
1F
100
AcDbEntity
  8
0
 62
     7
 48
2.0
100
AcDbLine
 10
440.7738303648804
 20
270.5652176201977
 30
0.0
 11
440.7738303648804
 21
270.5652176201977
 31
0.0
  0
ARC
  5
2BF
330
1F
100
AcDbEntity
  8
0
 62
     7
 48
2.0
100
AcDbCircle
 10
435.0238303648812
 20
272.8152176201965
 30
0.0
 40
1.767766952513529
100
AcDbArc
 50
261.8699003830077
 51
8.130102235150587
  0
ARC
  5
2C0
330
1F
100
AcDbEntity
  8
0
 62
     7
 48
2.0
100
AcDbCircle
 10
439.523830364881
 20
272.8152176201989
 30
0.0
 40
1.76776695251524
100
AcDbArc
 50
171.8698942361373
 51
278.130101438146
  0
LINE
  5
2C1
330
1F
100
AcDbEntity
  8
0
 62
     7
 48
2.0
100
AcDbLine
 10
430.7738303648802
 20
264.0652176201974
 30
0.0
 11
443.7738303648804
 21
264.0652176201974
 31
0.0
  0
LINE
  5
2C2
330
1F
100
AcDbEntity
  8
0
 62
     7
 48
2.0
100
AcDbLine
 10
430.7738303648802
 20
266.3652176201976
 30
0.0
 11
443.7738303648804
 21
266.3652176201976
 31
0.0
  0
LINE
  5
2C3
330
1F
100
AcDbEntity
  8
0
 62
     7
 48
2.0
100
AcDbLine
 10
430.7738303648802
 20
264.7652176201974
 30
0.0
 11
443.7738303648804
 21
264.7652176201974
 31
0.0
  0
ARC
  5
2C4
330
1F
100
AcDbEntity
  8
0
 62
     7
 48
2.0
100
AcDbCircle
 10
439.5238303648815
 20
268.3152176201966
 30
0.0
 40
1.767766952515678
100
AcDbArc
 50
81.86989856186711
 51
188.1301057638759
  0
ARC
  5
2C5
330
1F
100
AcDbEntity
  8
0
 62
     7
 48
2.0
100
AcDbCircle
 10
435.0238303648812
 20
268.3152176201986
 30
0.0
 40
1.767766952513555
100
AcDbArc
 50
351.8698977648493
 51
98.13009961698895
  0
LINE
  5
2C6
330
1F
100
AcDbEntity
  8
0
 62
     7
 48
2.0
100
AcDbLine
 10
430.2738303648802
 20
262.0652176201974
 30
0.0
 11
444.2738303648804
 21
262.0652176201974
 31
0.0
  0
LINE
  5
2C7
330
1F
100
AcDbEntity
  8
0
 62
     7
 48
2.0
100
AcDbLine
 10
470.4622316603392
 20
263.5364732468374
 30
0.0
 11
467.2738303648802
 21
263.5364732468374
 31
0.0
  0
ARC
  5
2C8
330
1F
100
AcDbEntity
  8
0
 62
     7
 48
2.0
100
AcDbCircle
 10
467.2738303648786
 20
267.5652176201976
 30
0.0
 40
4.028744220734073
100
AcDbArc
 50
90.0000025044557
 51
269.9999974955443
  0
LINE
  5
2C9
330
1F
100
AcDbEntity
  8
0
 62
     7
 48
2.0
100
AcDbLine
 10
470.4622316603392
 20
271.5939619935576
 30
0.0
 11
467.2738303648802
 21
271.5939619935576
 31
0.0
  0
LINE
  5
2CA
330
1F
100
AcDbEntity
  8
0
 62
     7
 48
2.0
100
AcDbLine
 10
467.2738303648802
 20
270.8152176201977
 30
0.0
 11
471.2738303648802
 21
270.8152176201977
 31
0.0
  0
LINE
  5
2CB
330
1F
100
AcDbEntity
  8
0
 62
     7
 48
2.0
100
AcDbLine
 10
467.2738303648802
 20
264.3152176201977
 30
0.0
 11
471.2738303648802
 21
264.3152176201977
 31
0.0
  0
ARC
  5
2CC
330
1F
100
AcDbEntity
  8
0
 62
     7
 48
2.0
100
AcDbCircle
 10
467.2738303648791
 20
267.5652176201976
 30
0.0
 40
3.250000000000003
100
AcDbArc
 50
90.0000025044557
 51
269.9999974955443
  0
ARC
  5
2CD
330
1F
100
AcDbEntity
  8
0
 62
     7
 48
2.0
100
AcDbCircle
 10
435.0238303648812
 20
292.8152176201965
 30
0.0
 40
1.767766952513529
100
AcDbArc
 50
261.8699003830077
 51
8.130102235150587
  0
ARC
  5
2CE
330
1F
100
AcDbEntity
  8
0
 62
     7
 48
2.0
100
AcDbCircle
 10
439.523830364881
 20
292.8152176201988
 30
0.0
 40
1.76776695251524
100
AcDbArc
 50
171.8698942361373
 51
278.130101438146
  0
ARC
  5
2CF
330
1F
100
AcDbEntity
  8
0
 62
     7
 48
2.0
100
AcDbCircle
 10
435.0238303648812
 20
282.8152176201965
 30
0.0
 40
1.767766952513529
100
AcDbArc
 50
261.8699003830077
 51
8.130102235150587
  0
ARC
  5
2D0
330
1F
100
AcDbEntity
  8
0
 62
     7
 48
2.0
100
AcDbCircle
 10
435.0238303648813
 20
278.3152176201986
 30
0.0
 40
1.767766952513516
100
AcDbArc
 50
351.869897764851
 51
98.13009961699222
  0
LINE
  5
2D1
330
1F
100
AcDbEntity
  8
0
 62
     7
 48
2.0
100
AcDbLine
 10
440.7738303648804
 20
280.5652176201977
 30
0.0
 11
440.7738303648804
 21
280.5652176201977
 31
0.0
  0
LINE
  5
2D4
330
1F
100
AcDbEntity
  8
0
 62
     7
 48
2.0
100
AcDbLine
 10
430.7738303648802
 20
286.3652176201976
 30
0.0
 11
443.7738303648804
 21
286.3652176201976
 31
0.0
  0
LINE
  5
2D5
330
1F
100
AcDbEntity
  8
0
 62
     7
 48
2.0
100
AcDbLine
 10
430.7738303648802
 20
284.7652176201977
 30
0.0
 11
443.7738303648804
 21
284.7652176201977
 31
0.0
  0
LINE
  5
2D6
330
1F
100
AcDbEntity
  8
0
 62
     7
 48
2.0
100
AcDbLine
 10
430.7738303648802
 20
276.3652176201976
 30
0.0
 11
443.7738303648804
 21
276.3652176201976
 31
0.0
  0
ARC
  5
2D7
330
1F
100
AcDbEntity
  8
0
 62
     7
 48
2.0
100
AcDbCircle
 10
439.523830364881
 20
282.8152176201988
 30
0.0
 40
1.76776695251524
100
AcDbArc
 50
171.8698942361373
 51
278.130101438146
  0
ARC
  5
2D8
330
1F
100
AcDbEntity
  8
0
 62
     7
 48
2.0
100
AcDbCircle
 10
439.5238303648815
 20
278.3152176201966
 30
0.0
 40
1.767766952515678
100
AcDbArc
 50
81.86989856186711
 51
188.1301057638759
  0
LINE
  5
2D9
330
1F
100
AcDbEntity
  8
0
 62
     7
 48
2.0
100
AcDbLine
 10
430.7738303648802
 20
274.7652176201975
 30
0.0
 11
443.7738303648804
 21
274.7652176201975
 31
0.0
  0
LINE
  5
2DA
330
1F
100
AcDbEntity
  8
0
 62
     7
 48
2.0
100
AcDbLine
 10
440.7738303648804
 20
290.5652176201976
 30
0.0
 11
440.7738303648804
 21
290.5652176201976
 31
0.0
  0
ARC
  5
2DD
330
1F
100
AcDbEntity
  8
0
 62
     7
 48
2.0
100
AcDbCircle
 10
439.5238303648815
 20
288.3152176201966
 30
0.0
 40
1.767766952515678
100
AcDbArc
 50
81.86989856186711
 51
188.1301057638759
  0
ARC
  5
2DE
330
1F
100
AcDbEntity
  8
0
 62
     7
 48
2.0
100
AcDbCircle
 10
435.0238303648812
 20
288.3152176201986
 30
0.0
 40
1.767766952513555
100
AcDbArc
 50
351.8698977648493
 51
98.13009961698895
  0
ARC
  5
2DF
330
1F
100
AcDbEntity
  8
0
 62
     7
 48
2.0
100
AcDbCircle
 10
435.0238303648812
 20
312.8152176201964
 30
0.0
 40
1.767766952513529
100
AcDbArc
 50
261.8699003830077
 51
8.130102235150587
  0
ARC
  5
2E0
330
1F
100
AcDbEntity
  8
0
 62
     7
 48
2.0
100
AcDbCircle
 10
435.0238303648812
 20
308.3152176201988
 30
0.0
 40
1.767766952513555
100
AcDbArc
 50
351.8698977648493
 51
98.13009961698895
  0
LINE
  5
2E1
330
1F
100
AcDbEntity
  8
0
 62
     7
 48
2.0
100
AcDbLine
 10
430.7738303648802
 20
314.7652176201976
 30
0.0
 11
443.7738303648804
 21
314.7652176201976
 31
0.0
  0
ARC
  5
2E2
330
1F
100
AcDbEntity
  8
0
 62
     7
 48
2.0
100
AcDbCircle
 10
439.523830364881
 20
312.8152176201988
 30
0.0
 40
1.767766952515206
100
AcDbArc
 50
171.869894236139
 51
278.130101438146
  0
ARC
  5
2E3
330
1F
100
AcDbEntity
  8
0
 62
     7
 48
2.0
100
AcDbCircle
 10
439.5238303648813
 20
308.3152176201969
 30
0.0
 40
1.767766952515651
100
AcDbArc
 50
81.86989856186711
 51
188.1301057638759
  0
ARC
  5
2E4
330
1F
100
AcDbEntity
  8
0
 62
     7
 48
2.0
100
AcDbCircle
 10
435.0238303648812
 20
302.8152176201964
 30
0.0
 40
1.767766952513529
100
AcDbArc
 50
261.8699003830077
 51
8.130102235150587
  0
ARC
  5
2E5
330
1F
100
AcDbEntity
  8
0
 62
     7
 48
2.0
100
AcDbCircle
 10
435.0238303648812
 20
298.3152176201986
 30
0.0
 40
1.767766952513555
100
AcDbArc
 50
351.8698977648493
 51
98.13009961698895
  0
LINE
  5
2E6
330
1F
100
AcDbEntity
  8
0
 62
     7
 48
2.0
100
AcDbLine
 10
440.7738303648804
 20
300.5652176201976
 30
0.0
 11
440.7738303648804
 21
300.5652176201976
 31
0.0
  0
LINE
  5
2E9
330
1F
100
AcDbEntity
  8
0
 62
     7
 48
2.0
100
AcDbLine
 10
430.7738303648802
 20
306.3652176201976
 30
0.0
 11
443.7738303648804
 21
306.3652176201976
 31
0.0
  0
LINE
  5
2EA
330
1F
100
AcDbEntity
  8
0
 62
     7
 48
2.0
100
AcDbLine
 10
430.7738303648802
 20
304.7652176201976
 30
0.0
 11
443.7738303648804
 21
304.7652176201976
 31
0.0
  0
LINE
  5
2EB
330
1F
100
AcDbEntity
  8
0
 62
     7
 48
2.0
100
AcDbLine
 10
430.7738303648802
 20
296.3652176201976
 30
0.0
 11
443.7738303648804
 21
296.3652176201976
 31
0.0
  0
ARC
  5
2EC
330
1F
100
AcDbEntity
  8
0
 62
     7
 48
2.0
100
AcDbCircle
 10
439.523830364881
 20
302.8152176201988
 30
0.0
 40
1.76776695251524
100
AcDbArc
 50
171.8698942361373
 51
278.130101438146
  0
ARC
  5
2ED
330
1F
100
AcDbEntity
  8
0
 62
     7
 48
2.0
100
AcDbCircle
 10
439.5238303648815
 20
298.3152176201968
 30
0.0
 40
1.767766952515678
100
AcDbArc
 50
81.86989856186711
 51
188.1301057638759
  0
LINE
  5
2EE
330
1F
100
AcDbEntity
  8
0
 62
     7
 48
2.0
100
AcDbLine
 10
430.7738303648802
 20
294.7652176201974
 30
0.0
 11
443.7738303648804
 21
294.7652176201974
 31
0.0
  0
LINE
  5
2EF
330
1F
100
AcDbEntity
  8
0
 62
     7
 48
2.0
100
AcDbLine
 10
440.7738303648804
 20
310.5652176201977
 30
0.0
 11
440.7738303648804
 21
310.5652176201977
 31
0.0
  0
ARC
  5
2F2
330
1F
100
AcDbEntity
  8
0
 62
     7
 48
2.0
100
AcDbCircle
 10
435.0238303648812
 20
332.8152176201963
 30
0.0
 40
1.767766952513529
100
AcDbArc
 50
261.8699003830077
 51
8.130102235150587
  0
ARC
  5
2F3
330
1F
100
AcDbEntity
  8
0
 62
     7
 48
2.0
100
AcDbCircle
 10
435.0238303648812
 20
328.3152176201986
 30
0.0
 40
1.767766952513599
100
AcDbArc
 50
351.8698977648477
 51
98.13009961698895
  0
LINE
  5
2F4
330
1F
100
AcDbEntity
  8
0
 62
     7
 48
2.0
100
AcDbLine
 10
440.7738303648804
 20
330.5652176201977
 30
0.0
 11
440.7738303648804
 21
330.5652176201977
 31
0.0
  0
LINE
  5
2F7
330
1F
100
AcDbEntity
  8
0
 62
     7
 48
2.0
100
AcDbLine
 10
430.7738303648802
 20
336.3652176201976
 30
0.0
 11
443.7738303648804
 21
336.3652176201976
 31
0.0
  0
LINE
  5
2F8
330
1F
100
AcDbEntity
  8
0
 62
     7
 48
2.0
100
AcDbLine
 10
430.7738303648802
 20
334.7652176201977
 30
0.0
 11
443.7738303648804
 21
334.7652176201977
 31
0.0
  0
LINE
  5
2F9
330
1F
100
AcDbEntity
  8
0
 62
     7
 48
2.0
100
AcDbLine
 10
430.7738303648802
 20
326.3652176201976
 30
0.0
 11
443.7738303648804
 21
326.3652176201976
 31
0.0
  0
ARC
  5
2FA
330
1F
100
AcDbEntity
  8
0
 62
     7
 48
2.0
100
AcDbCircle
 10
439.523830364881
 20
332.8152176201988
 30
0.0
 40
1.76776695251524
100
AcDbArc
 50
171.8698942361373
 51
278.130101438146
  0
ARC
  5
2FB
330
1F
100
AcDbEntity
  8
0
 62
     7
 48
2.0
100
AcDbCircle
 10
439.5238303648815
 20
328.3152176201966
 30
0.0
 40
1.767766952515678
100
AcDbArc
 50
81.86989856186711
 51
188.1301057638759
  0
ARC
  5
2FC
330
1F
100
AcDbEntity
  8
0
 62
     7
 48
2.0
100
AcDbCircle
 10
435.0238303648812
 20
322.8152176201965
 30
0.0
 40
1.767766952513579
100
AcDbArc
 50
261.869900383011
 51
8.130102235152202
  0
ARC
  5
2FD
330
1F
100
AcDbEntity
  8
0
 62
     7
 48
2.0
100
AcDbCircle
 10
435.0238303648812
 20
318.3152176201986
 30
0.0
 40
1.767766952513599
100
AcDbArc
 50
351.8698977648477
 51
98.13009961698895
  0
LINE
  5
2FE
330
1F
100
AcDbEntity
  8
0
 62
     7
 48
2.0
100
AcDbLine
 10
440.7738303648804
 20
320.5652176201977
 30
0.0
 11
440.7738303648804
 21
320.5652176201977
 31
0.0
  0
LINE
  5
301
330
1F
100
AcDbEntity
  8
0
 62
     7
 48
2.0
100
AcDbLine
 10
430.7738303648802
 20
324.7652176201976
 30
0.0
 11
443.7738303648804
 21
324.7652176201976
 31
0.0
  0
LINE
  5
302
330
1F
100
AcDbEntity
  8
0
 62
     7
 48
2.0
100
AcDbLine
 10
430.7738303648802
 20
316.3652176201976
 30
0.0
 11
443.7738303648804
 21
316.3652176201976
 31
0.0
  0
ARC
  5
303
330
1F
100
AcDbEntity
  8
0
 62
     7
 48
2.0
100
AcDbCircle
 10
439.523830364881
 20
322.8152176201988
 30
0.0
 40
1.76776695251524
100
AcDbArc
 50
171.8698942361373
 51
278.130101438146
  0
ARC
  5
304
330
1F
100
AcDbEntity
  8
0
 62
     7
 48
2.0
100
AcDbCircle
 10
439.5238303648815
 20
318.3152176201966
 30
0.0
 40
1.767766952515678
100
AcDbArc
 50
81.86989856186711
 51
188.1301057638759
  0
LINE
  5
305
330
1F
100
AcDbEntity
  8
0
 62
     7
 48
2.0
100
AcDbLine
 10
468.4622316603393
 20
371.8145546795497
 30
0.0
 11
406.0854290694213
 21
371.8145546795497
 31
0.0
  0
LINE
  5
306
330
1F
100
AcDbEntity
  8
0
 62
     7
 48
2.0
100
AcDbLine
 10
425.7738303648802
 20
372.0503324205427
 30
0.0
 11
429.2738303648802
 21
372.0503324205427
 31
0.0
  0
LINE
  5
307
330
1F
100
AcDbEntity
  8
0
 62
     7
 48
2.0
100
AcDbLine
 10
405.2738303648802
 20
372.5652176201977
 30
0.0
 11
469.2738302774572
 21
372.5652176201977
 31
0.0
  0
ARC
  5
308
330
1F
100
AcDbEntity
  8
0
 62
     7
 48
2.0
100
AcDbCircle
 10
406.085429069421
 20
369.81455467955
 30
0.0
 40
1.99999999999966
100
AcDbArc
 50
90.0000025044752
 51
180.0000050089781
  0
ARC
  5
309
330
1F
100
AcDbEntity
  8
0
 62
     7
 48
2.0
100
AcDbCircle
 10
405.27383036488
 20
370.5652176201979
 30
0.0
 40
1.99999999999966
100
AcDbArc
 50
90.0000025044752
 51
180.0000050089781
  0
LINE
  5
30A
330
1F
100
AcDbEntity
  8
0
 62
     7
 48
2.0
100
AcDbLine
 10
422.7738303648804
 20
372.5652176201977
 30
0.0
 11
422.7738303648804
 21
372.0503324205427
 31
0.0
  0
LINE
  5
30B
330
1F
100
AcDbEntity
  8
0
 62
     7
 48
2.0
100
AcDbLine
 10
425.7738303648802
 20
372.5652176201977
 30
0.0
 11
425.7738303648802
 21
372.0503324205427
 31
0.0
  0
LINE
  5
30C
330
1F
100
AcDbEntity
  8
0
 62
     7
 48
2.0
100
AcDbLine
 10
419.2738303648804
 20
372.5652176201977
 30
0.0
 11
419.2738303648804
 21
372.0503324205427
 31
0.0
  0
LINE
  5
30D
330
1F
100
AcDbEntity
  8
0
 62
     7
 48
2.0
100
AcDbLine
 10
419.2738303648804
 20
372.0503324205427
 30
0.0
 11
422.7738303648804
 21
372.0503324205427
 31
0.0
  0
ARC
  5
30E
330
1F
100
AcDbEntity
  8
0
 62
     7
 48
2.0
100
AcDbCircle
 10
435.0238303648812
 20
358.3152176201986
 30
0.0
 40
1.767766952513599
100
AcDbArc
 50
351.8698977648477
 51
98.13009961698895
  0
ARC
  5
30F
330
1F
100
AcDbEntity
  8
0
 62
     7
 48
2.0
100
AcDbCircle
 10
439.5238303648813
 20
358.3152176201968
 30
0.0
 40
1.767766952515651
100
AcDbArc
 50
81.86989856186711
 51
188.1301057638759
  0
LINE
  5
310
330
1F
100
AcDbEntity
  8
0
 62
     7
 48
2.0
100
AcDbLine
 10
440.7738303648804
 20
360.5652176201977
 30
0.0
 11
440.7738303648804
 21
360.5652176201977
 31
0.0
  0
ARC
  5
313
330
1F
100
AcDbEntity
  8
0
 62
     7
 48
2.0
100
AcDbCircle
 10
435.0238303648812
 20
352.8152176201964
 30
0.0
 40
1.767766952513579
100
AcDbArc
 50
261.869900383011
 51
8.130102235152202
  0
ARC
  5
314
330
1F
100
AcDbEntity
  8
0
 62
     7
 48
2.0
100
AcDbCircle
 10
435.0238303648812
 20
348.3152176201988
 30
0.0
 40
1.767766952513555
100
AcDbArc
 50
351.8698977648493
 51
98.13009961698895
  0
LINE
  5
315
330
1F
100
AcDbEntity
  8
0
 62
     7
 48
2.0
100
AcDbLine
 10
440.7738303648804
 20
350.5652176201976
 30
0.0
 11
440.7738303648804
 21
350.5652176201976
 31
0.0
  0
LINE
  5
318
330
1F
100
AcDbEntity
  8
0
 62
     7
 48
2.0
100
AcDbLine
 10
430.7738303648802
 20
356.3652176201976
 30
0.0
 11
443.7738303648804
 21
356.3652176201976
 31
0.0
  0
LINE
  5
319
330
1F
100
AcDbEntity
  8
0
 62
     7
 48
2.0
100
AcDbLine
 10
430.7738303648802
 20
354.7652176201975
 30
0.0
 11
443.7738303648804
 21
354.7652176201975
 31
0.0
  0
LINE
  5
31A
330
1F
100
AcDbEntity
  8
0
 62
     7
 48
2.0
100
AcDbLine
 10
430.7738303648802
 20
346.3652176201976
 30
0.0
 11
443.7738303648804
 21
346.3652176201976
 31
0.0
  0
ARC
  5
31B
330
1F
100
AcDbEntity
  8
0
 62
     7
 48
2.0
100
AcDbCircle
 10
439.523830364881
 20
352.8152176201988
 30
0.0
 40
1.767766952515206
100
AcDbArc
 50
171.869894236139
 51
278.130101438146
  0
ARC
  5
31C
330
1F
100
AcDbEntity
  8
0
 62
     7
 48
2.0
100
AcDbCircle
 10
439.5238303648815
 20
348.3152176201968
 30
0.0
 40
1.767766952515703
100
AcDbArc
 50
81.86989856187034
 51
188.1301057638774
  0
LINE
  5
31D
330
1F
100
AcDbEntity
  8
0
 62
     7
 48
2.0
100
AcDbLine
 10
430.7738303648802
 20
344.7652176201977
 30
0.0
 11
443.7738303648804
 21
344.7652176201977
 31
0.0
  0
ARC
  5
31E
330
1F
100
AcDbEntity
  8
0
 62
     7
 48
2.0
100
AcDbCircle
 10
435.0238303648812
 20
342.8152176201965
 30
0.0
 40
1.767766952513579
100
AcDbArc
 50
261.869900383011
 51
8.130102235152202
  0
ARC
  5
31F
330
1F
100
AcDbEntity
  8
0
 62
     7
 48
2.0
100
AcDbCircle
 10
435.0238303648812
 20
338.3152176201988
 30
0.0
 40
1.767766952513555
100
AcDbArc
 50
351.8698977648493
 51
98.13009961698895
  0
LINE
  5
320
330
1F
100
AcDbEntity
  8
0
 62
     7
 48
2.0
100
AcDbLine
 10
440.7738303648804
 20
340.5652176201976
 30
0.0
 11
440.7738303648804
 21
340.5652176201976
 31
0.0
  0
ARC
  5
323
330
1F
100
AcDbEntity
  8
0
 62
     7
 48
2.0
100
AcDbCircle
 10
439.523830364881
 20
342.8152176201988
 30
0.0
 40
1.767766952515279
100
AcDbArc
 50
171.8698942361373
 51
278.1301014381428
  0
ARC
  5
324
330
1F
100
AcDbEntity
  8
0
 62
     7
 48
2.0
100
AcDbCircle
 10
439.5238303648815
 20
338.3152176201968
 30
0.0
 40
1.767766952515703
100
AcDbArc
 50
81.86989856187034
 51
188.1301057638774
  0
LINE
  5
326
330
1F
100
AcDbEntity
  8
0
 62
     7
 48
2.0
100
AcDbLine
 10
430.7738303648802
 20
367.0652176201976
 30
0.0
 11
443.7738303648804
 21
367.0652176201976
 31
0.0
  0
LINE
  5
327
330
1F
100
AcDbEntity
  8
0
 62
     7
 48
2.0
100
AcDbLine
 10
430.7738303648802
 20
364.7652176201976
 30
0.0
 11
443.7738303648804
 21
364.7652176201976
 31
0.0
  0
LINE
  5
328
330
1F
100
AcDbEntity
  8
0
 62
     7
 48
2.0
100
AcDbLine
 10
430.7738303648802
 20
366.3652176201976
 30
0.0
 11
443.7738303648804
 21
366.3652176201976
 31
0.0
  0
ARC
  5
329
330
1F
100
AcDbEntity
  8
0
 62
     7
 48
2.0
100
AcDbCircle
 10
439.523830364881
 20
362.8152176201989
 30
0.0
 40
1.76776695251524
100
AcDbArc
 50
171.8698942361373
 51
278.130101438146
  0
ARC
  5
32A
330
1F
100
AcDbEntity
  8
0
 62
     7
 48
2.0
100
AcDbCircle
 10
435.0238303648812
 20
362.8152176201965
 30
0.0
 40
1.767766952513579
100
AcDbArc
 50
261.869900383011
 51
8.130102235152202
  0
LINE
  5
32B
330
1F
100
AcDbEntity
  8
0
 62
     7
 48
2.0
100
AcDbLine
 10
443.2738303648802
 20
367.0652176201976
 30
0.0
 11
443.2738303648802
 21
367.5652176201976
 31
0.0
  0
LINE
  5
32D
330
1F
100
AcDbEntity
  8
0
 62
     7
 48
2.0
100
AcDbLine
 10
431.2738303648804
 20
367.0652176201976
 30
0.0
 11
431.2738303648804
 21
367.5652176201976
 31
0.0
  0
LINE
  5
32E
330
1F
100
AcDbEntity
  8
0
 62
     7
 48
2.0
100
AcDbLine
 10
440.2738303648804
 20
367.0652176201976
 30
0.0
 11
440.2738303648804
 21
367.5652176201976
 31
0.0
  0
LINE
  5
32F
330
1F
100
AcDbEntity
  8
0
 62
     7
 48
2.0
100
AcDbLine
 10
434.2738303648802
 20
367.0652176201976
 30
0.0
 11
434.2738303648802
 21
367.5652176201976
 31
0.0
  0
LINE
  5
330
330
1F
100
AcDbEntity
  8
0
 62
     7
 48
2.0
100
AcDbLine
 10
430.2738303648802
 20
367.5652176201976
 30
0.0
 11
444.2738303648804
 21
367.5652176201976
 31
0.0
  0
LINE
  5
332
330
1F
100
AcDbEntity
  8
0
 62
     7
 48
2.0
100
AcDbLine
 10
442.2738303648802
 20
372.5652176201977
 30
0.0
 11
442.2738303648802
 21
372.0503324205427
 31
0.0
  0
LINE
  5
333
330
1F
100
AcDbEntity
  8
0
 62
     7
 48
2.0
100
AcDbLine
 10
448.7738303648804
 20
372.5652176201977
 30
0.0
 11
448.7738303648804
 21
372.0503324205427
 31
0.0
  0
LINE
  5
334
330
1F
100
AcDbEntity
  8
0
 62
     7
 48
2.0
100
AcDbLine
 10
445.2738303648803
 20
372.5652176201977
 30
0.0
 11
445.2738303648803
 21
372.0503324205427
 31
0.0
  0
LINE
  5
335
330
1F
100
AcDbEntity
  8
0
 62
     7
 48
2.0
100
AcDbLine
 10
448.7738303648804
 20
372.0503324205427
 30
0.0
 11
445.2738303648803
 21
372.0503324205427
 31
0.0
  0
LINE
  5
336
330
1F
100
AcDbEntity
  8
0
 62
     7
 48
2.0
100
AcDbLine
 10
438.7738303648802
 20
372.5652176201977
 30
0.0
 11
438.7738303648802
 21
372.0503324205427
 31
0.0
  0
LINE
  5
337
330
1F
100
AcDbEntity
  8
0
 62
     7
 48
2.0
100
AcDbLine
 10
432.2738303648804
 20
372.0503324205427
 30
0.0
 11
435.7738303648804
 21
372.0503324205427
 31
0.0
  0
LINE
  5
338
330
1F
100
AcDbEntity
  8
0
 62
     7
 48
2.0
100
AcDbLine
 10
435.7738303648804
 20
372.5652176201977
 30
0.0
 11
435.7738303648804
 21
372.0503324205427
 31
0.0
  0
LINE
  5
339
330
1F
100
AcDbEntity
  8
0
 62
     7
 48
2.0
100
AcDbLine
 10
432.2738303648804
 20
372.5652176201977
 30
0.0
 11
432.2738303648804
 21
372.0503324205427
 31
0.0
  0
LINE
  5
33A
330
1F
100
AcDbEntity
  8
0
 62
     7
 48
2.0
100
AcDbLine
 10
429.2738303648802
 20
372.5652176201977
 30
0.0
 11
429.2738303648802
 21
372.0503324205427
 31
0.0
  0
LINE
  5
33B
330
1F
100
AcDbEntity
  8
0
 62
     7
 48
2.0
100
AcDbLine
 10
442.2738303648802
 20
372.0503324205427
 30
0.0
 11
438.7738303648802
 21
372.0503324205427
 31
0.0
  0
ARC
  5
33C
330
1F
100
AcDbEntity
  8
0
 62
     7
 48
2.0
100
AcDbCircle
 10
468.4622316603402
 20
369.8145546795505
 30
0.0
 40
1.999999999999159
100
AcDbArc
 50
359.9999999999754
 51
90.00000250447845
  0
LINE
  5
33D
330
1F
100
AcDbEntity
  8
0
 62
     7
 48
2.0
100
AcDbLine
 10
455.2738303648802
 20
372.5652176201977
 30
0.0
 11
455.2738303648802
 21
372.0503324205427
 31
0.0
  0
LINE
  5
33E
330
1F
100
AcDbEntity
  8
0
 62
     7
 48
2.0
100
AcDbLine
 10
451.7738303648804
 20
372.5652176201977
 30
0.0
 11
451.7738303648804
 21
372.0503324205427
 31
0.0
  0
LINE
  5
33F
330
1F
100
AcDbEntity
  8
0
 62
     7
 48
2.0
100
AcDbLine
 10
455.2738303648802
 20
372.0503324205427
 30
0.0
 11
451.7738303648804
 21
372.0503324205427
 31
0.0
  0
ARC
  5
340
330
1F
100
AcDbEntity
  8
0
 62
     7
 48
2.0
100
AcDbCircle
 10
469.2738303648806
 20
370.5652176201979
 30
0.0
 40
1.999999999999644
100
AcDbArc
 50
359.9999999999901
 51
90.00000250449476
  0
LINE
  5
341
330
1F
100
AcDbEntity
  8
0
 62
     7
 48
2.0
100
AcDbLine
 10
405.2738303648802
 20
387.5652176201977
 30
0.0
 11
431.2738303648804
 21
387.5652176201977
 31
0.0
  0
ARC
  5
342
330
1F
100
AcDbEntity
  8
0
 62
     7
 48
2.0
100
AcDbCircle
 10
405.27383036488
 20
385.5652176201979
 30
0.0
 40
1.999999999999688
100
AcDbArc
 50
90.0000025044752
 51
180.0000050089796
  0
LINE
  5
343
330
1F
100
AcDbEntity
  8
0
 62
     7
 48
2.0
100
AcDbLine
 10
469.2738303648804
 20
387.5652176201977
 30
0.0
 11
443.2738303648802
 21
387.5652176201977
 31
0.0
  0
LINE
  5
344
330
1F
100
AcDbEntity
  8
0
 62
     7
 48
2.0
100
AcDbLine
 10
443.2738303648802
 20
387.5652176201977
 30
0.0
 11
443.2738303648802
 21
379.5652176201977
 31
0.0
  0
LINE
  5
345
330
1F
100
AcDbEntity
  8
0
 62
     7
 48
2.0
100
AcDbLine
 10
431.2738303648804
 20
387.5652176201977
 30
0.0
 11
431.2738303648804
 21
379.5652176201977
 31
0.0
  0
ARC
  5
346
330
1F
100
AcDbEntity
  8
0
 62
     7
 48
2.0
100
AcDbCircle
 10
469.2738303648806
 20
385.5652176201979
 30
0.0
 40
1.999999999999644
100
AcDbArc
 50
359.9999999999901
 51
90.00000250449476
  0
LINE
  5
347
330
1F
100
AcDbEntity
  8
0
 62
     7
 48
2.0
100
AcDbLine
 10
629.7738303648802
 20
372.5652176201977
 30
0.0
 11
629.7738303648802
 21
387.5652176201977
 31
0.0
  0
LINE
  5
348
330
1F
100
AcDbEntity
  8
0
 62
     7
 48
2.0
100
AcDbLine
 10
535.2738303648804
 20
367.0652176201976
 30
0.0
 11
535.2738303648804
 21
264.0652176201974
 31
0.0
  0
LINE
  5
349
330
1F
100
AcDbEntity
  8
0
 62
     7
 48
2.0
100
AcDbLine
 10
534.2738303648802
 20
294.7652176201974
 30
0.0
 11
534.2738303648802
 21
286.3652176201976
 31
0.0
  0
LINE
  5
34A
330
1F
100
AcDbEntity
  8
0
 62
     7
 48
2.0
100
AcDbLine
 10
527.2738303648804
 20
367.0652176201976
 30
0.0
 11
527.2738303648804
 21
264.0652176201974
 31
0.0
  0
LINE
  5
34B
330
1F
100
AcDbEntity
  8
0
 62
     7
 48
2.0
100
AcDbLine
 10
525.7738303648802
 20
367.0652176201976
 30
0.0
 11
525.7738303648802
 21
264.0652176201974
 31
0.0
  0
ARC
  5
34C
330
1F
100
AcDbEntity
  8
0
 62
     7
 48
2.0
100
AcDbCircle
 10
1339.773830357955
 20
306.5652176201956
 30
0.0
 40
799.9999999930978
100
AcDbArc
 50
175.4536535124375
 51
184.6000864159511
  0
LINE
  5
34D
330
1F
100
AcDbEntity
  8
0
 62
     7
 48
2.0
100
AcDbLine
 10
583.7738303648802
 20
261.3152176201976
 30
0.0
 11
632.7738303648803
 21
261.3152176201976
 31
0.0
  0
LINE
  5
34E
330
1F
100
AcDbEntity
  8
0
 62
     7
 48
2.0
100
AcDbLine
 10
540.5385638257363
 20
271.5939619935576
 30
0.0
 11
629.7738303648802
 21
270.8152176201977
 31
0.0
  0
LINE
  5
34F
330
1F
100
AcDbEntity
  8
0
 62
     7
 48
2.0
100
AcDbLine
 10
540.9316542364363
 20
263.5399036948816
 30
0.0
 11
629.7738303648802
 21
264.3152176201977
 31
0.0
  0
LINE
  5
350
330
1F
100
AcDbEntity
  8
0
 62
     7
 48
2.0
100
AcDbLine
 10
561.2738303648804
 20
242.5652176201976
 30
0.0
 11
583.7738303648802
 21
261.3152176201976
 31
0.0
  0
LINE
  5
351
330
1F
100
AcDbEntity
  8
0
 62
     7
 48
2.0
100
AcDbLine
 10
544.3443866050962
 20
240.5652176201976
 30
0.0
 11
561.2738303648804
 21
240.5652176201976
 31
0.0
  0
ARC
  5
352
330
1F
100
AcDbEntity
  8
0
 62
     7
 48
2.0
100
AcDbCircle
 10
544.3443866050967
 20
242.5652176201985
 30
0.0
 40
2.000000000001004
100
AcDbArc
 50
184.6000864159281
 51
269.9999974955051
  0
LINE
  5
353
330
1F
100
AcDbEntity
  8
0
 62
     7
 48
2.0
100
AcDbLine
 10
561.2738303648804
 20
242.5652176201976
 30
0.0
 11
561.2738303648804
 21
240.5652176201976
 31
0.0
  0
LINE
  5
354
330
1F
100
AcDbEntity
  8
0
 62
     7
 48
2.0
100
AcDbLine
 10
533.2738303648802
 20
274.0652176201975
 30
0.0
 11
533.2738303648802
 21
267.0652176201974
 31
0.0
  0
LINE
  5
355
330
1F
100
AcDbEntity
  8
0
 62
     7
 48
2.0
100
AcDbLine
 10
534.2738303648802
 20
274.7652176201975
 30
0.0
 11
534.2738303648802
 21
266.3652176201976
 31
0.0
  0
ARC
  5
356
330
1F
100
AcDbEntity
  8
0
 62
     7
 48
2.0
100
AcDbCircle
 10
534.8363303648794
 20
270.5652176201974
 30
0.0
 40
4.062499999999593
100
AcDbArc
 50
120.5102321306691
 51
239.4897678693308
  0
LINE
  5
357
330
1F
100
AcDbEntity
  8
0
 62
     7
 48
2.0
100
AcDbLine
 10
525.7738303648802
 20
264.0652176201974
 30
0.0
 11
540.9035342591863
 21
264.0652176201974
 31
0.0
  0
LINE
  5
358
330
1F
100
AcDbEntity
  8
0
 62
     7
 48
2.0
100
AcDbLine
 10
534.2738303648802
 20
267.0652176201974
 30
0.0
 11
533.2738303648802
 21
267.0652176201974
 31
0.0
  0
LINE
  5
359
330
1F
100
AcDbEntity
  8
0
 62
     7
 48
2.0
100
AcDbLine
 10
533.2738303648802
 20
269.5652176201976
 30
0.0
 11
534.2738303648802
 21
271.5652176201976
 31
0.0
  0
LINE
  5
35A
330
1F
100
AcDbEntity
  8
0
 62
     7
 48
2.0
100
AcDbLine
 10
532.7738303648803
 20
267.0652176201974
 30
0.0
 11
533.2738303648802
 21
267.0652176201974
 31
0.0
  0
LINE
  5
35B
330
1F
100
AcDbEntity
  8
0
 62
     7
 48
2.0
100
AcDbLine
 10
527.2738303648804
 20
266.3652176201976
 30
0.0
 11
535.2738303648804
 21
266.3652176201976
 31
0.0
  0
LINE
  5
35C
330
1F
100
AcDbEntity
  8
0
 62
     7
 48
2.0
100
AcDbLine
 10
527.2738303648804
 20
264.7652176201974
 30
0.0
 11
535.2738303648804
 21
264.7652176201974
 31
0.0
  0
LINE
  5
35D
330
1F
100
AcDbEntity
  8
0
 62
     7
 48
2.0
100
AcDbLine
 10
533.2738303648802
 20
289.5652176201977
 30
0.0
 11
534.2738303648802
 21
291.5652176201977
 31
0.0
  0
LINE
  5
35E
330
1F
100
AcDbEntity
  8
0
 62
     7
 48
2.0
100
AcDbLine
 10
534.2738303648802
 20
294.0652176201977
 30
0.0
 11
533.2738303648802
 21
294.0652176201977
 31
0.0
  0
LINE
  5
35F
330
1F
100
AcDbEntity
  8
0
 62
     7
 48
2.0
100
AcDbLine
 10
534.2738303648802
 20
287.0652176201975
 30
0.0
 11
533.2738303648802
 21
287.0652176201975
 31
0.0
  0
LINE
  5
360
330
1F
100
AcDbEntity
  8
0
 62
     7
 48
2.0
100
AcDbLine
 10
533.2738303648802
 20
284.0652176201976
 30
0.0
 11
533.2738303648802
 21
277.0652176201977
 31
0.0
  0
LINE
  5
361
330
1F
100
AcDbEntity
  8
0
 62
     7
 48
2.0
100
AcDbLine
 10
534.2738303648802
 20
284.7652176201977
 30
0.0
 11
534.2738303648802
 21
276.3652176201976
 31
0.0
  0
LINE
  5
362
330
1F
100
AcDbEntity
  8
0
 62
     7
 48
2.0
100
AcDbLine
 10
533.2738303648802
 20
279.5652176201977
 30
0.0
 11
534.2738303648802
 21
281.5652176201977
 31
0.0
  0
LINE
  5
363
330
1F
100
AcDbEntity
  8
0
 62
     7
 48
2.0
100
AcDbLine
 10
534.2738303648802
 20
277.0652176201977
 30
0.0
 11
533.2738303648802
 21
277.0652176201977
 31
0.0
  0
LINE
  5
364
330
1F
100
AcDbEntity
  8
0
 62
     7
 48
2.0
100
AcDbLine
 10
534.2738303648802
 20
284.0652176201976
 30
0.0
 11
533.2738303648802
 21
284.0652176201976
 31
0.0
  0
LINE
  5
365
330
1F
100
AcDbEntity
  8
0
 62
     7
 48
2.0
100
AcDbLine
 10
534.2738303648802
 20
274.0652176201975
 30
0.0
 11
533.2738303648802
 21
274.0652176201975
 31
0.0
  0
LINE
  5
366
330
1F
100
AcDbEntity
  8
0
 62
     7
 48
2.0
100
AcDbLine
 10
533.2738303648802
 20
294.0652176201977
 30
0.0
 11
533.2738303648802
 21
287.0652176201975
 31
0.0
  0
ARC
  5
367
330
1F
100
AcDbEntity
  8
0
 62
     7
 48
2.0
100
AcDbCircle
 10
534.8363303648794
 20
280.5652176201977
 30
0.0
 40
4.06249999999953
100
AcDbArc
 50
120.5102321306691
 51
239.4897678693308
  0
ARC
  5
368
330
1F
100
AcDbEntity
  8
0
 62
     7
 48
2.0
100
AcDbCircle
 10
534.8363303648794
 20
290.5652176201974
 30
0.0
 40
4.062499999999593
100
AcDbArc
 50
120.5102321306691
 51
239.4897678693308
  0
LINE
  5
369
330
1F
100
AcDbEntity
  8
0
 62
     7
 48
2.0
100
AcDbLine
 10
532.7738303648803
 20
287.0652176201975
 30
0.0
 11
533.2738303648802
 21
287.0652176201975
 31
0.0
  0
LINE
  5
36A
330
1F
100
AcDbEntity
  8
0
 62
     7
 48
2.0
100
AcDbLine
 10
532.7738303648803
 20
294.0652176201977
 30
0.0
 11
533.2738303648802
 21
294.0652176201977
 31
0.0
  0
LINE
  5
36B
330
1F
100
AcDbEntity
  8
0
 62
     7
 48
2.0
100
AcDbLine
 10
527.2738303648804
 20
286.3652176201976
 30
0.0
 11
535.2738303648804
 21
286.3652176201976
 31
0.0
  0
LINE
  5
36C
330
1F
100
AcDbEntity
  8
0
 62
     7
 48
2.0
100
AcDbLine
 10
527.2738303648804
 20
284.7652176201977
 30
0.0
 11
535.2738303648804
 21
284.7652176201977
 31
0.0
  0
LINE
  5
36D
330
1F
100
AcDbEntity
  8
0
 62
     7
 48
2.0
100
AcDbLine
 10
532.7738303648803
 20
277.0652176201977
 30
0.0
 11
533.2738303648802
 21
277.0652176201977
 31
0.0
  0
LINE
  5
36E
330
1F
100
AcDbEntity
  8
0
 62
     7
 48
2.0
100
AcDbLine
 10
532.7738303648803
 20
284.0652176201976
 30
0.0
 11
533.2738303648802
 21
284.0652176201976
 31
0.0
  0
LINE
  5
36F
330
1F
100
AcDbEntity
  8
0
 62
     7
 48
2.0
100
AcDbLine
 10
527.2738303648804
 20
276.3652176201976
 30
0.0
 11
535.2738303648804
 21
276.3652176201976
 31
0.0
  0
LINE
  5
370
330
1F
100
AcDbEntity
  8
0
 62
     7
 48
2.0
100
AcDbLine
 10
527.2738303648804
 20
274.7652176201975
 30
0.0
 11
535.2738303648804
 21
274.7652176201975
 31
0.0
  0
LINE
  5
371
330
1F
100
AcDbEntity
  8
0
 62
     7
 48
2.0
100
AcDbLine
 10
532.7738303648803
 20
274.0652176201975
 30
0.0
 11
533.2738303648802
 21
274.0652176201975
 31
0.0
  0
ARC
  5
372
330
1F
100
AcDbEntity
  8
0
 62
     7
100
AcDbCircle
 10
626.3389779625501
 20
267.5652176201976
 30
0.0
 40
1.84093368053384
100
AcDbArc
 50
292.5650505508095
 51
67.43494944919047
  0
ARC
  5
373
330
1F
100
AcDbEntity
  8
0
 62
     7
100
AcDbCircle
 10
628.7130116882506
 20
268.5152176201984
 30
0.0
 40
1.799999952315064
100
AcDbArc
 50
94.43470772876615
 51
140.7033449023723
  0
ARC
  5
374
330
1F
100
AcDbEntity
  8
0
 62
     7
100
AcDbCircle
 10
628.7130116882512
 20
266.6152176201993
 30
0.0
 40
1.799999952317758
100
AcDbArc
 50
219.2964775127534
 51
265.5652922712174
  0
ARC
  5
375
330
1F
100
AcDbEntity
  8
0
 62
     7
100
AcDbCircle
 10
629.8738303648767
 20
267.5652176201979
 30
0.0
 40
3.299999952313727
100
AcDbArc
 50
140.7034268646071
 51
219.296477512751
  0
LINE
  5
376
330
1F
100
AcDbEntity
  8
0
 62
     7
100
AcDbLine
 10
628.5738303648802
 20
270.3098285973226
 30
0.0
 11
628.5738303648802
 21
264.8206066430726
 31
0.0
  0
LINE
  5
377
330
1F
100
AcDbEntity
  8
0
 62
     7
 48
2.0
100
AcDbLine
 10
629.2738303648802
 20
270.5652176201977
 30
0.0
 11
629.7738303648802
 21
270.5652176201977
 31
0.0
  0
LINE
  5
378
330
1F
100
AcDbEntity
  8
0
 62
     7
 48
2.0
100
AcDbLine
 10
629.7738303648802
 20
270.5652176201977
 30
0.0
 11
629.7738303648802
 21
264.5652176201977
 31
0.0
  0
LINE
  5
379
330
1F
100
AcDbEntity
  8
0
 62
     7
 48
2.0
100
AcDbLine
 10
629.2738303648802
 20
264.5652176201977
 30
0.0
 11
629.2738303648802
 21
270.5652176201977
 31
0.0
  0
LINE
  5
37A
330
1F
100
AcDbEntity
  8
0
 62
     7
 48
2.0
100
AcDbLine
 10
629.7738303648802
 20
264.5652176201977
 30
0.0
 11
629.2738303648802
 21
264.5652176201977
 31
0.0
  0
LINE
  5
37B
330
1F
100
AcDbEntity
  8
0
 62
     7
 48
2.0
100
AcDbLine
 10
628.5738303648802
 20
270.5152176201975
 30
0.0
 11
629.2738303648802
 21
270.5152176201975
 31
0.0
  0
LINE
  5
37C
330
1F
100
AcDbEntity
  8
0
 62
     7
 48
2.0
100
AcDbLine
 10
629.2738303648802
 20
270.5152176201975
 30
0.0
 11
629.2738303648802
 21
264.6152176201976
 31
0.0
  0
LINE
  5
37D
330
1F
100
AcDbEntity
  8
0
 62
     7
 48
2.0
100
AcDbLine
 10
628.5738303648802
 20
264.6152176201976
 30
0.0
 11
628.5738303648802
 21
270.5152176201975
 31
0.0
  0
LINE
  5
37E
330
1F
100
AcDbEntity
  8
0
 62
     7
 48
2.0
100
AcDbLine
 10
629.2738303648802
 20
264.6152176201976
 30
0.0
 11
628.5738303648802
 21
264.6152176201976
 31
0.0
  0
LINE
  5
37F
330
1F
100
AcDbEntity
  8
0
 62
     7
100
AcDbLine
 10
629.7738303648802
 20
266.0652176201974
 30
0.0
 11
632.7738303648803
 21
266.0652176201974
 31
0.0
  0
LINE
  5
380
330
1F
100
AcDbEntity
  8
0
 62
     7
100
AcDbLine
 10
632.7738303648803
 20
269.0652176201977
 30
0.0
 11
629.7738303648802
 21
269.0652176201977
 31
0.0
  0
LINE
  5
381
330
1F
100
AcDbEntity
  8
0
 62
     7
100
AcDbLine
 10
632.7738303648803
 20
268.8152176201977
 30
0.0
 11
629.7738303648802
 21
268.8152176201977
 31
0.0
  0
LINE
  5
382
330
1F
100
AcDbEntity
  8
0
 62
     7
100
AcDbLine
 10
629.7738303648802
 20
266.3152176201974
 30
0.0
 11
632.7738303648803
 21
266.3152176201974
 31
0.0
  0
LINE
  5
383
330
1F
100
AcDbEntity
  8
0
 62
     7
 48
2.0
100
AcDbLine
 10
629.7738303648802
 20
269.3152176201976
 30
0.0
 11
632.7738303648803
 21
269.3152176201976
 31
0.0
  0
LINE
  5
384
330
1F
100
AcDbEntity
  8
0
 62
     7
 48
2.0
100
AcDbLine
 10
629.7738303648802
 20
265.8152176201975
 30
0.0
 11
632.7738303648803
 21
265.8152176201975
 31
0.0
  0
LINE
  5
385
330
1F
100
AcDbEntity
  8
0
 62
     7
 48
2.0
100
AcDbLine
 10
629.7738303648802
 20
270.8152176201977
 30
0.0
 11
629.7738303648802
 21
264.3152176201977
 31
0.0
  0
LINE
  5
386
330
1F
100
AcDbEntity
  8
0
 62
     7
 48
2.0
100
AcDbLine
 10
629.7738303648802
 20
372.5652176201977
 30
0.0
 11
544.2672524571403
 21
371.8190130195566
 31
0.0
  0
LINE
  5
387
330
1F
100
AcDbEntity
  8
0
 62
     7
 48
2.0
100
AcDbLine
 10
534.2738303648802
 20
344.7652176201977
 30
0.0
 11
534.2738303648802
 21
336.3652176201976
 31
0.0
  0
LINE
  5
388
330
1F
100
AcDbEntity
  8
0
 62
     7
 48
2.0
100
AcDbLine
 10
533.2738303648802
 20
309.5652176201976
 30
0.0
 11
534.2738303648802
 21
311.5652176201976
 31
0.0
  0
LINE
  5
389
330
1F
100
AcDbEntity
  8
0
 62
     7
 48
2.0
100
AcDbLine
 10
534.2738303648802
 20
314.0652176201977
 30
0.0
 11
533.2738303648802
 21
314.0652176201977
 31
0.0
  0
LINE
  5
38A
330
1F
100
AcDbEntity
  8
0
 62
     7
 48
2.0
100
AcDbLine
 10
534.2738303648802
 20
307.0652176201976
 30
0.0
 11
533.2738303648802
 21
307.0652176201976
 31
0.0
  0
LINE
  5
38B
330
1F
100
AcDbEntity
  8
0
 62
     7
 48
2.0
100
AcDbLine
 10
533.2738303648802
 20
304.0652176201977
 30
0.0
 11
533.2738303648802
 21
297.0652176201976
 31
0.0
  0
LINE
  5
38C
330
1F
100
AcDbEntity
  8
0
 62
     7
 48
2.0
100
AcDbLine
 10
534.2738303648802
 20
304.7652176201976
 30
0.0
 11
534.2738303648802
 21
296.3652176201976
 31
0.0
  0
LINE
  5
38D
330
1F
100
AcDbEntity
  8
0
 62
     7
 48
2.0
100
AcDbLine
 10
533.2738303648802
 20
299.5652176201977
 30
0.0
 11
534.2738303648802
 21
301.5652176201977
 31
0.0
  0
LINE
  5
38E
330
1F
100
AcDbEntity
  8
0
 62
     7
 48
2.0
100
AcDbLine
 10
534.2738303648802
 20
297.0652176201976
 30
0.0
 11
533.2738303648802
 21
297.0652176201976
 31
0.0
  0
LINE
  5
38F
330
1F
100
AcDbEntity
  8
0
 62
     7
 48
2.0
100
AcDbLine
 10
534.2738303648802
 20
304.0652176201977
 30
0.0
 11
533.2738303648802
 21
304.0652176201977
 31
0.0
  0
LINE
  5
390
330
1F
100
AcDbEntity
  8
0
 62
     7
 48
2.0
100
AcDbLine
 10
533.2738303648802
 20
314.0652176201977
 30
0.0
 11
533.2738303648802
 21
307.0652176201976
 31
0.0
  0
LINE
  5
391
330
1F
100
AcDbEntity
  8
0
 62
     7
 48
2.0
100
AcDbLine
 10
534.2738303648802
 20
314.7652176201976
 30
0.0
 11
534.2738303648802
 21
306.3652176201976
 31
0.0
  0
ARC
  5
392
330
1F
100
AcDbEntity
  8
0
 62
     7
 48
2.0
100
AcDbCircle
 10
534.8363303648794
 20
300.5652176201976
 30
0.0
 40
4.062499999999593
100
AcDbArc
 50
120.5102321306691
 51
239.4897678693308
  0
ARC
  5
393
330
1F
100
AcDbEntity
  8
0
 62
     7
 48
2.0
100
AcDbCircle
 10
534.8363303648794
 20
310.5652176201974
 30
0.0
 40
4.062499999999563
100
AcDbArc
 50
120.5102321306691
 51
239.4897678693308
  0
LINE
  5
394
330
1F
100
AcDbEntity
  8
0
 62
     7
 48
2.0
100
AcDbLine
 10
527.2738303648804
 20
314.7652176201976
 30
0.0
 11
535.2738303648804
 21
314.7652176201976
 31
0.0
  0
LINE
  5
395
330
1F
100
AcDbEntity
  8
0
 62
     7
 48
2.0
100
AcDbLine
 10
532.7738303648803
 20
307.0652176201976
 30
0.0
 11
533.2738303648802
 21
307.0652176201976
 31
0.0
  0
LINE
  5
396
330
1F
100
AcDbEntity
  8
0
 62
     7
 48
2.0
100
AcDbLine
 10
532.7738303648803
 20
314.0652176201977
 30
0.0
 11
533.2738303648802
 21
314.0652176201977
 31
0.0
  0
LINE
  5
397
330
1F
100
AcDbEntity
  8
0
 62
     7
 48
2.0
100
AcDbLine
 10
527.2738303648804
 20
306.3652176201976
 30
0.0
 11
535.2738303648804
 21
306.3652176201976
 31
0.0
  0
LINE
  5
398
330
1F
100
AcDbEntity
  8
0
 62
     7
 48
2.0
100
AcDbLine
 10
527.2738303648804
 20
304.7652176201976
 30
0.0
 11
535.2738303648804
 21
304.7652176201976
 31
0.0
  0
LINE
  5
399
330
1F
100
AcDbEntity
  8
0
 62
     7
 48
2.0
100
AcDbLine
 10
532.7738303648803
 20
297.0652176201976
 30
0.0
 11
533.2738303648802
 21
297.0652176201976
 31
0.0
  0
LINE
  5
39A
330
1F
100
AcDbEntity
  8
0
 62
     7
 48
2.0
100
AcDbLine
 10
532.7738303648803
 20
304.0652176201977
 30
0.0
 11
533.2738303648802
 21
304.0652176201977
 31
0.0
  0
LINE
  5
39B
330
1F
100
AcDbEntity
  8
0
 62
     7
 48
2.0
100
AcDbLine
 10
527.2738303648804
 20
296.3652176201976
 30
0.0
 11
535.2738303648804
 21
296.3652176201976
 31
0.0
  0
LINE
  5
39C
330
1F
100
AcDbEntity
  8
0
 62
     7
 48
2.0
100
AcDbLine
 10
527.2738303648804
 20
294.7652176201974
 30
0.0
 11
535.2738303648804
 21
294.7652176201974
 31
0.0
  0
LINE
  5
39D
330
1F
100
AcDbEntity
  8
0
 62
     7
 48
2.0
100
AcDbLine
 10
533.2738303648802
 20
334.0652176201976
 30
0.0
 11
533.2738303648802
 21
327.0652176201977
 31
0.0
  0
LINE
  5
39E
330
1F
100
AcDbEntity
  8
0
 62
     7
 48
2.0
100
AcDbLine
 10
534.2738303648802
 20
334.7652176201977
 30
0.0
 11
534.2738303648802
 21
326.3652176201976
 31
0.0
  0
LINE
  5
39F
330
1F
100
AcDbEntity
  8
0
 62
     7
 48
2.0
100
AcDbLine
 10
533.2738303648802
 20
329.5652176201977
 30
0.0
 11
534.2738303648802
 21
331.5652176201977
 31
0.0
  0
LINE
  5
3A0
330
1F
100
AcDbEntity
  8
0
 62
     7
 48
2.0
100
AcDbLine
 10
534.2738303648802
 20
327.0652176201977
 30
0.0
 11
533.2738303648802
 21
327.0652176201977
 31
0.0
  0
LINE
  5
3A1
330
1F
100
AcDbEntity
  8
0
 62
     7
 48
2.0
100
AcDbLine
 10
534.2738303648802
 20
334.0652176201976
 30
0.0
 11
533.2738303648802
 21
334.0652176201976
 31
0.0
  0
LINE
  5
3A2
330
1F
100
AcDbEntity
  8
0
 62
     7
 48
2.0
100
AcDbLine
 10
533.2738303648802
 20
324.0652176201976
 30
0.0
 11
533.2738303648802
 21
317.0652176201977
 31
0.0
  0
LINE
  5
3A3
330
1F
100
AcDbEntity
  8
0
 62
     7
 48
2.0
100
AcDbLine
 10
534.2738303648802
 20
324.7652176201976
 30
0.0
 11
534.2738303648802
 21
316.3652176201976
 31
0.0
  0
LINE
  5
3A4
330
1F
100
AcDbEntity
  8
0
 62
     7
 48
2.0
100
AcDbLine
 10
533.2738303648802
 20
319.5652176201976
 30
0.0
 11
534.2738303648802
 21
321.5652176201976
 31
0.0
  0
LINE
  5
3A5
330
1F
100
AcDbEntity
  8
0
 62
     7
 48
2.0
100
AcDbLine
 10
534.2738303648802
 20
317.0652176201977
 30
0.0
 11
533.2738303648802
 21
317.0652176201977
 31
0.0
  0
LINE
  5
3A6
330
1F
100
AcDbEntity
  8
0
 62
     7
 48
2.0
100
AcDbLine
 10
534.2738303648802
 20
324.0652176201976
 30
0.0
 11
533.2738303648802
 21
324.0652176201976
 31
0.0
  0
ARC
  5
3A7
330
1F
100
AcDbEntity
  8
0
 62
     7
 48
2.0
100
AcDbCircle
 10
534.8363303648794
 20
330.5652176201974
 30
0.0
 40
4.062499999999493
100
AcDbArc
 50
120.5102321306691
 51
239.4897678693308
  0
ARC
  5
3A8
330
1F
100
AcDbEntity
  8
0
 62
     7
 48
2.0
100
AcDbCircle
 10
534.8363303648794
 20
320.5652176201974
 30
0.0
 40
4.062499999999563
100
AcDbArc
 50
120.5102321306691
 51
239.4897678693308
  0
LINE
  5
3A9
330
1F
100
AcDbEntity
  8
0
 62
     7
 48
2.0
100
AcDbLine
 10
527.2738303648804
 20
336.3652176201976
 30
0.0
 11
535.2738303648804
 21
336.3652176201976
 31
0.0
  0
LINE
  5
3AA
330
1F
100
AcDbEntity
  8
0
 62
     7
 48
2.0
100
AcDbLine
 10
527.2738303648804
 20
334.7652176201977
 30
0.0
 11
535.2738303648804
 21
334.7652176201977
 31
0.0
  0
LINE
  5
3AB
330
1F
100
AcDbEntity
  8
0
 62
     7
 48
2.0
100
AcDbLine
 10
532.7738303648803
 20
327.0652176201977
 30
0.0
 11
533.2738303648802
 21
327.0652176201977
 31
0.0
  0
LINE
  5
3AC
330
1F
100
AcDbEntity
  8
0
 62
     7
 48
2.0
100
AcDbLine
 10
532.7738303648803
 20
334.0652176201976
 30
0.0
 11
533.2738303648802
 21
334.0652176201976
 31
0.0
  0
LINE
  5
3AD
330
1F
100
AcDbEntity
  8
0
 62
     7
 48
2.0
100
AcDbLine
 10
527.2738303648804
 20
326.3652176201976
 30
0.0
 11
535.2738303648804
 21
326.3652176201976
 31
0.0
  0
LINE
  5
3AE
330
1F
100
AcDbEntity
  8
0
 62
     7
 48
2.0
100
AcDbLine
 10
527.2738303648804
 20
324.7652176201976
 30
0.0
 11
535.2738303648804
 21
324.7652176201976
 31
0.0
  0
LINE
  5
3AF
330
1F
100
AcDbEntity
  8
0
 62
     7
 48
2.0
100
AcDbLine
 10
532.7738303648803
 20
317.0652176201977
 30
0.0
 11
533.2738303648802
 21
317.0652176201977
 31
0.0
  0
LINE
  5
3B0
330
1F
100
AcDbEntity
  8
0
 62
     7
 48
2.0
100
AcDbLine
 10
532.7738303648803
 20
324.0652176201976
 30
0.0
 11
533.2738303648802
 21
324.0652176201976
 31
0.0
  0
LINE
  5
3B1
330
1F
100
AcDbEntity
  8
0
 62
     7
 48
2.0
100
AcDbLine
 10
527.2738303648804
 20
316.3652176201976
 30
0.0
 11
535.2738303648804
 21
316.3652176201976
 31
0.0
  0
LINE
  5
3B2
330
1F
100
AcDbEntity
  8
0
 62
     7
 48
2.0
100
AcDbLine
 10
534.2738303648802
 20
364.7652176201976
 30
0.0
 11
534.2738303648802
 21
356.3652176201976
 31
0.0
  0
LINE
  5
3B3
330
1F
100
AcDbEntity
  8
0
 62
     7
 48
2.0
100
AcDbLine
 10
533.2738303648802
 20
364.0652176201977
 30
0.0
 11
533.2738303648802
 21
357.0652176201976
 31
0.0
  0
ARC
  5
3B4
330
1F
100
AcDbEntity
  8
0
 62
     7
 48
2.0
100
AcDbCircle
 10
534.8363303648794
 20
360.5652176201975
 30
0.0
 40
4.062499999999563
100
AcDbArc
 50
120.5102321306691
 51
239.4897678693308
  0
LINE
  5
3B5
330
1F
100
AcDbEntity
  8
0
 62
     7
 48
2.0
100
AcDbLine
 10
534.2738303648802
 20
357.0652176201976
 30
0.0
 11
533.2738303648802
 21
357.0652176201976
 31
0.0
  0
LINE
  5
3B6
330
1F
100
AcDbEntity
  8
0
 62
     7
 48
2.0
100
AcDbLine
 10
533.2738303648802
 20
354.0652176201977
 30
0.0
 11
533.2738303648802
 21
347.0652176201975
 31
0.0
  0
LINE
  5
3B7
330
1F
100
AcDbEntity
  8
0
 62
     7
 48
2.0
100
AcDbLine
 10
534.2738303648802
 20
354.7652176201975
 30
0.0
 11
534.2738303648802
 21
346.3652176201976
 31
0.0
  0
LINE
  5
3B8
330
1F
100
AcDbEntity
  8
0
 62
     7
 48
2.0
100
AcDbLine
 10
533.2738303648802
 20
349.5652176201977
 30
0.0
 11
534.2738303648802
 21
351.5652176201977
 31
0.0
  0
LINE
  5
3B9
330
1F
100
AcDbEntity
  8
0
 62
     7
 48
2.0
100
AcDbLine
 10
534.2738303648802
 20
347.0652176201975
 30
0.0
 11
533.2738303648802
 21
347.0652176201975
 31
0.0
  0
LINE
  5
3BA
330
1F
100
AcDbEntity
  8
0
 62
     7
 48
2.0
100
AcDbLine
 10
534.2738303648802
 20
354.0652176201977
 30
0.0
 11
533.2738303648802
 21
354.0652176201977
 31
0.0
  0
LINE
  5
3BB
330
1F
100
AcDbEntity
  8
0
 62
     7
 48
2.0
100
AcDbLine
 10
533.2738303648802
 20
344.0652176201977
 30
0.0
 11
533.2738303648802
 21
337.0652176201977
 31
0.0
  0
LINE
  5
3BC
330
1F
100
AcDbEntity
  8
0
 62
     7
 48
2.0
100
AcDbLine
 10
533.2738303648802
 20
339.5652176201977
 30
0.0
 11
534.2738303648802
 21
341.5652176201977
 31
0.0
  0
LINE
  5
3BD
330
1F
100
AcDbEntity
  8
0
 62
     7
 48
2.0
100
AcDbLine
 10
534.2738303648802
 20
337.0652176201977
 30
0.0
 11
533.2738303648802
 21
337.0652176201977
 31
0.0
  0
LINE
  5
3BE
330
1F
100
AcDbEntity
  8
0
 62
     7
 48
2.0
100
AcDbLine
 10
534.2738303648802
 20
344.0652176201977
 30
0.0
 11
533.2738303648802
 21
344.0652176201977
 31
0.0
  0
ARC
  5
3BF
330
1F
100
AcDbEntity
  8
0
 62
     7
 48
2.0
100
AcDbCircle
 10
534.8363303648794
 20
350.5652176201976
 30
0.0
 40
4.062499999999563
100
AcDbArc
 50
120.5102321306691
 51
239.4897678693308
  0
ARC
  5
3C0
330
1F
100
AcDbEntity
  8
0
 62
     7
 48
2.0
100
AcDbCircle
 10
534.8363303648794
 20
340.5652176201976
 30
0.0
 40
4.06249999999953
100
AcDbArc
 50
120.5102321306691
 51
239.4897678693308
  0
LINE
  5
3C1
330
1F
100
AcDbEntity
  8
0
 62
     7
 48
2.0
100
AcDbLine
 10
527.2738303648804
 20
354.7652176201975
 30
0.0
 11
535.2738303648804
 21
354.7652176201975
 31
0.0
  0
LINE
  5
3C2
330
1F
100
AcDbEntity
  8
0
 62
     7
 48
2.0
100
AcDbLine
 10
527.2738303648804
 20
356.3652176201976
 30
0.0
 11
535.2738303648804
 21
356.3652176201976
 31
0.0
  0
LINE
  5
3C3
330
1F
100
AcDbEntity
  8
0
 62
     7
 48
2.0
100
AcDbLine
 10
532.7738303648803
 20
357.0652176201976
 30
0.0
 11
533.2738303648802
 21
357.0652176201976
 31
0.0
  0
LINE
  5
3C4
330
1F
100
AcDbEntity
  8
0
 62
     7
 48
2.0
100
AcDbLine
 10
532.7738303648803
 20
347.0652176201975
 30
0.0
 11
533.2738303648802
 21
347.0652176201975
 31
0.0
  0
LINE
  5
3C5
330
1F
100
AcDbEntity
  8
0
 62
     7
 48
2.0
100
AcDbLine
 10
532.7738303648803
 20
354.0652176201977
 30
0.0
 11
533.2738303648802
 21
354.0652176201977
 31
0.0
  0
LINE
  5
3C6
330
1F
100
AcDbEntity
  8
0
 62
     7
 48
2.0
100
AcDbLine
 10
527.2738303648804
 20
346.3652176201976
 30
0.0
 11
535.2738303648804
 21
346.3652176201976
 31
0.0
  0
LINE
  5
3C7
330
1F
100
AcDbEntity
  8
0
 62
     7
 48
2.0
100
AcDbLine
 10
527.2738303648804
 20
344.7652176201977
 30
0.0
 11
535.2738303648804
 21
344.7652176201977
 31
0.0
  0
LINE
  5
3C8
330
1F
100
AcDbEntity
  8
0
 62
     7
 48
2.0
100
AcDbLine
 10
532.7738303648803
 20
337.0652176201977
 30
0.0
 11
533.2738303648802
 21
337.0652176201977
 31
0.0
  0
LINE
  5
3C9
330
1F
100
AcDbEntity
  8
0
 62
     7
 48
2.0
100
AcDbLine
 10
532.7738303648803
 20
344.0652176201977
 30
0.0
 11
533.2738303648802
 21
344.0652176201977
 31
0.0
  0
LINE
  5
3CA
330
1F
100
AcDbEntity
  8
0
 62
     7
 48
2.0
100
AcDbLine
 10
525.7738303648802
 20
367.0652176201976
 30
0.0
 11
542.0647668586414
 21
367.0652176201976
 31
0.0
  0
LINE
  5
3CB
330
1F
100
AcDbEntity
  8
0
 62
     7
 48
2.0
100
AcDbLine
 10
534.2738303648802
 20
364.0652176201977
 30
0.0
 11
533.2738303648802
 21
364.0652176201977
 31
0.0
  0
LINE
  5
3CC
330
1F
100
AcDbEntity
  8
0
 62
     7
 48
2.0
100
AcDbLine
 10
533.2738303648802
 20
359.5652176201975
 30
0.0
 11
534.2738303648802
 21
361.5652176201975
 31
0.0
  0
LINE
  5
3CD
330
1F
100
AcDbEntity
  8
0
 62
     7
 48
2.0
100
AcDbLine
 10
527.2738303648804
 20
366.3652176201976
 30
0.0
 11
535.2738303648804
 21
366.3652176201976
 31
0.0
  0
LINE
  5
3CE
330
1F
100
AcDbEntity
  8
0
 62
     7
 48
2.0
100
AcDbLine
 10
527.2738303648804
 20
364.7652176201976
 30
0.0
 11
535.2738303648804
 21
364.7652176201976
 31
0.0
  0
LINE
  5
3CF
330
1F
100
AcDbEntity
  8
0
 62
     7
 48
2.0
100
AcDbLine
 10
532.7738303648803
 20
364.0652176201977
 30
0.0
 11
533.2738303648802
 21
364.0652176201977
 31
0.0
  0
ARC
  5
3D0
330
1F
100
AcDbEntity
  8
0
 62
     7
 48
2.0
100
AcDbCircle
 10
544.284705528136
 20
369.8190891734294
 30
0.0
 40
1.999999999999058
100
AcDbArc
 50
90.49999967245339
 51
175.4536535125144
  0
LINE
  5
3D1
330
1F
100
AcDbEntity
  8
0
 62
     7
 48
2.0
100
AcDbLine
 10
641.7738303648802
 20
387.5652176201977
 30
0.0
 11
641.7738303648802
 21
385.5652176201975
 31
0.0
  0
LINE
  5
3D2
330
1F
100
AcDbEntity
  8
0
 62
     7
 48
2.0
100
AcDbLine
 10
632.7738303648803
 20
385.5652176201975
 30
0.0
 11
632.7738303648803
 21
385.5652176201975
 31
0.0
  0
LINE
  5
3D4
330
1F
100
AcDbEntity
  8
0
 62
     7
 48
2.0
100
AcDbLine
 10
641.7738303648802
 20
385.5652176201975
 30
0.0
 11
632.7738303648803
 21
385.5652176201975
 31
0.0
  0
LINE
  5
3D5
330
1F
100
AcDbEntity
  8
0
 62
     7
 48
2.0
100
AcDbLine
 10
629.7738303648802
 20
387.5652176201977
 30
0.0
 11
641.7738303648802
 21
387.5652176201977
 31
0.0
  0
LINE
  5
3D6
330
1F
100
AcDbEntity
  8
0
 62
     7
 48
2.0
100
AcDbLine
 10
410.2738303648804
 20
267.5652176201976
 30
0.0
 11
410.2738303648804
 21
267.5652176201976
 31
0.0
  0
LINE
  5
3D9
330
1F
100
AcDbEntity
  8
0
 62
     7
100
AcDbLine
 10
410.0238303648803
 20
267.5652176201976
 30
0.0
 11
410.0238303648803
 21
267.5652176201976
 31
0.0
  0
LINE
  5
3DC
330
1F
100
AcDbEntity
  8
0
 62
     7
100
AcDbLine
 10
408.9738303648803
 20
267.9652176201976
 30
0.0
 11
407.6738303648802
 21
267.9652176201976
 31
0.0
  0
LINE
  5
3DD
330
1F
100
AcDbEntity
  8
0
 62
     7
100
AcDbLine
 10
405.5738303648802
 20
267.9652176201976
 30
0.0
 11
405.5738303648802
 21
267.1652176201976
 31
0.0
  0
LINE
  5
3DE
330
1F
100
AcDbEntity
  8
0
 62
     7
100
AcDbLine
 10
405.5738303648802
 20
267.1652176201976
 30
0.0
 11
406.8738303648802
 21
267.1652176201976
 31
0.0
  0
LINE
  5
3DF
330
1F
100
AcDbEntity
  8
0
 62
     7
100
AcDbLine
 10
408.9738303648803
 20
267.1652176201976
 30
0.0
 11
408.9738303648803
 21
267.9652176201976
 31
0.0
  0
LINE
  5
3E0
330
1F
100
AcDbEntity
  8
0
 62
     7
100
AcDbLine
 10
407.6738303648802
 20
269.2652176201975
 30
0.0
 11
406.8738303648802
 21
269.2652176201975
 31
0.0
  0
LINE
  5
3E1
330
1F
100
AcDbEntity
  8
0
 62
     7
100
AcDbLine
 10
407.6738303648802
 20
265.8652176201976
 30
0.0
 11
407.6738303648802
 21
267.1652176201976
 31
0.0
  0
LINE
  5
3E2
330
1F
100
AcDbEntity
  8
0
 62
     7
100
AcDbLine
 10
406.8738303648802
 20
265.8652176201976
 30
0.0
 11
407.6738303648802
 21
265.8652176201976
 31
0.0
  0
LINE
  5
3E3
330
1F
100
AcDbEntity
  8
0
 62
     7
100
AcDbLine
 10
406.8738303648802
 20
269.2652176201975
 30
0.0
 11
406.8738303648802
 21
267.9652176201976
 31
0.0
  0
LINE
  5
3E4
330
1F
100
AcDbEntity
  8
0
 62
     7
100
AcDbLine
 10
407.6738303648802
 20
267.9652176201976
 30
0.0
 11
407.6738303648802
 21
269.2652176201975
 31
0.0
  0
LINE
  5
3E5
330
1F
100
AcDbEntity
  8
0
 62
     7
100
AcDbLine
 10
406.8738303648802
 20
267.1652176201976
 30
0.0
 11
406.8738303648802
 21
265.8652176201976
 31
0.0
  0
LINE
  5
3E6
330
1F
100
AcDbEntity
  8
0
 62
     7
100
AcDbLine
 10
406.8738303648802
 20
267.9652176201976
 30
0.0
 11
405.5738303648802
 21
267.9652176201976
 31
0.0
  0
LINE
  5
3E7
330
1F
100
AcDbEntity
  8
0
 62
     7
100
AcDbLine
 10
407.6738303648802
 20
267.1652176201976
 30
0.0
 11
408.9738303648803
 21
267.1652176201976
 31
0.0
  0
LINE
  5
3E8
330
1F
100
AcDbEntity
  8
0
 62
     7
100
AcDbLine
 10
465.5738303648802
 20
267.9652176201976
 30
0.0
 11
466.8738303648803
 21
267.9652176201976
 31
0.0
  0
LINE
  5
3E9
330
1F
100
AcDbEntity
  8
0
 62
     7
100
AcDbLine
 10
468.9738303648804
 20
267.9652176201976
 30
0.0
 11
468.9738303648804
 21
267.1652176201976
 31
0.0
  0
LINE
  5
3EA
330
1F
100
AcDbEntity
  8
0
 62
     7
100
AcDbLine
 10
468.9738303648804
 20
267.1652176201976
 30
0.0
 11
467.6738303648803
 21
267.1652176201976
 31
0.0
  0
LINE
  5
3EB
330
1F
100
AcDbEntity
  8
0
 62
     7
100
AcDbLine
 10
465.5738303648802
 20
267.1652176201976
 30
0.0
 11
465.5738303648802
 21
267.9652176201976
 31
0.0
  0
LINE
  5
3EC
330
1F
100
AcDbEntity
  8
0
 62
     7
100
AcDbLine
 10
466.8738303648803
 20
269.2652176201975
 30
0.0
 11
467.6738303648803
 21
269.2652176201975
 31
0.0
  0
LINE
  5
3ED
330
1F
100
AcDbEntity
  8
0
 62
     7
100
AcDbLine
 10
466.8738303648803
 20
265.8652176201976
 30
0.0
 11
466.8738303648803
 21
267.1652176201976
 31
0.0
  0
LINE
  5
3EE
330
1F
100
AcDbEntity
  8
0
 62
     7
100
AcDbLine
 10
467.6738303648803
 20
265.8652176201976
 30
0.0
 11
466.8738303648803
 21
265.8652176201976
 31
0.0
  0
LINE
  5
3EF
330
1F
100
AcDbEntity
  8
0
 62
     7
100
AcDbLine
 10
467.6738303648803
 20
269.2652176201975
 30
0.0
 11
467.6738303648803
 21
267.9652176201976
 31
0.0
  0
LINE
  5
3F0
330
1F
100
AcDbEntity
  8
0
 62
     7
100
AcDbLine
 10
466.8738303648803
 20
267.9652176201976
 30
0.0
 11
466.8738303648803
 21
269.2652176201975
 31
0.0
  0
LINE
  5
3F1
330
1F
100
AcDbEntity
  8
0
 62
     7
100
AcDbLine
 10
467.6738303648803
 20
267.1652176201976
 30
0.0
 11
467.6738303648803
 21
265.8652176201976
 31
0.0
  0
LINE
  5
3F2
330
1F
100
AcDbEntity
  8
0
 62
     7
100
AcDbLine
 10
467.6738303648803
 20
267.9652176201976
 30
0.0
 11
468.9738303648804
 21
267.9652176201976
 31
0.0
  0
LINE
  5
3F3
330
1F
100
AcDbEntity
  8
0
 62
     7
100
AcDbLine
 10
466.8738303648803
 20
267.1652176201976
 30
0.0
 11
465.5738303648802
 21
267.1652176201976
 31
0.0
  0
LINE
  5
3F4
330
1F
100
AcDbEntity
  8
0
 62
     7
 48
2.0
100
AcDbLine
 10
470.2738303648803
 20
267.5652176201976
 30
0.0
 11
470.2738303648803
 21
267.5652176201976
 31
0.0
  0
LINE
  5
3F7
330
1F
100
AcDbEntity
  8
0
 62
     7
 48
2.0
100
AcDbLine
 10
632.7738303648803
 20
385.5652176201975
 30
0.0
 11
632.7738303648803
 21
184.5652176201976
 31
0.0
  0
LINE
  5
3F8
330
1F
100
AcDbEntity
  8
0
 62
     7
 48
2.0
100
AcDbLine
 10
679.2738303648802
 20
385.5652176201975
 30
0.0
 11
679.2738303648802
 21
184.5652176201976
 31
0.0
  0
LINE
  5
3F9
330
1F
100
AcDbEntity
  8
0
 62
     7
 48
2.0
100
AcDbLine
 10
682.7738303648803
 20
385.5652176201975
 30
0.0
 11
682.7738303648803
 21
184.5652176201976
 31
0.0
  0
LINE
  5
3FA
330
1F
100
AcDbEntity
  8
0
 62
     7
 48
2.0
100
AcDbLine
 10
483.2738303648802
 20
385.5652176201975
 30
0.0
 11
483.2738303648802
 21
185.5652176201976
 31
0.0
  0
LINE
  5
3FB
330
1F
100
AcDbEntity
  8
0
 62
     7
 48
2.0
100
AcDbLine
 10
391.2738303648803
 20
385.5652176201975
 30
0.0
 11
391.2738303648803
 21
185.5652176201976
 31
0.0
  0
LINE
  5
3FC
330
1F
100
AcDbEntity
  8
0
 62
     7
 48
2.0
100
AcDbLine
 10
495.2738303648803
 20
384.5652176201977
 30
0.0
 11
495.2738303648803
 21
186.5652176201976
 31
0.0
  0
LINE
  5
3FD
330
1F
100
AcDbEntity
  8
0
 62
     7
 48
2.0
100
AcDbLine
 10
379.2738303648802
 20
384.5652176201977
 30
0.0
 11
379.2738303648802
 21
186.5652176201976
 31
0.0
  0
LINE
  5
3FE
330
1F
100
AcDbEntity
  8
0
 62
     7
 48
2.0
100
AcDbLine
 10
388.3738303648803
 20
185.5652176201976
 30
0.0
 11
486.1738303648802
 21
185.5652176201976
 31
0.0
  0
LINE
  5
3FF
330
1F
100
AcDbEntity
  8
0
 62
     7
 48
2.0
100
AcDbLine
 10
382.1738303648803
 20
191.5652176201976
 30
0.0
 11
382.1738303648803
 21
185.5652176201976
 31
0.0
  0
LINE
  5
400
330
1F
100
AcDbEntity
  8
0
 62
     7
 48
2.0
100
AcDbLine
 10
388.3738303648803
 20
191.5652176201976
 30
0.0
 11
388.3738303648803
 21
185.5652176201976
 31
0.0
  0
LINE
  5
401
330
1F
100
AcDbEntity
  8
0
 62
     7
 48
2.0
100
AcDbLine
 10
380.2738303648802
 20
185.5652176201976
 30
0.0
 11
382.1738303648803
 21
185.5652176201976
 31
0.0
  0
ARC
  5
402
330
1F
100
AcDbEntity
  8
0
 62
     7
 48
2.0
100
AcDbCircle
 10
385.2738303648803
 20
191.5652176201963
 30
0.0
 40
3.099999904633051
100
AcDbArc
 50
0.0000000000260551
 51
180.0000050089374
  0
ARC
  5
403
330
1F
100
AcDbEntity
  8
0
 62
     7
 48
2.0
100
AcDbCircle
 10
489.2738303648804
 20
191.5652176201963
 30
0.0
 40
3.099999904633001
100
AcDbArc
 50
0.0000000000260551
 51
180.0000050089374
  0
LINE
  5
404
330
1F
100
AcDbEntity
  8
0
 62
     7
 48
2.0
100
AcDbLine
 10
486.1738303648802
 20
191.5652176201976
 30
0.0
 11
486.1738303648802
 21
185.5652176201976
 31
0.0
  0
LINE
  5
405
330
1F
100
AcDbEntity
  8
0
 62
     7
 48
2.0
100
AcDbLine
 10
492.3738303648803
 20
191.5652176201976
 30
0.0
 11
492.3738303648803
 21
185.5652176201976
 31
0.0
  0
LINE
  5
406
330
1F
100
AcDbEntity
  8
0
 62
     7
 48
2.0
100
AcDbLine
 10
492.3738303648803
 20
185.5652176201976
 30
0.0
 11
494.2738303648804
 21
185.5652176201976
 31
0.0
  0
LINE
  5
407
330
1F
100
AcDbEntity
  8
0
 62
     7
 48
2.0
100
AcDbLine
 10
632.7738303648803
 20
184.5652176201976
 30
0.0
 11
682.7738303648803
 21
184.5652176201976
 31
0.0
  0
LINE
  5
408
330
1F
100
AcDbEntity
  8
0
 62
     7
 48
2.0
100
AcDbLine
 10
494.2738303648804
 20
385.5652176201975
 30
0.0
 11
471.2738303648802
 21
385.5652176201975
 31
0.0
  0
LINE
  5
40F
330
1F
100
AcDbEntity
  8
0
 62
     7
 48
2.0
100
AcDbLine
 10
632.7738303648803
 20
385.5652176201975
 30
0.0
 11
682.7738303648803
 21
385.5652176201975
 31
0.0
  0
LINE
  5
410
330
1F
100
AcDbEntity
  8
0
 62
     7
 48
2.0
100
AcDbLine
 10
427.5266071146133
 20
222.0652176201976
 30
0.0
 11
420.0210536151472
 21
222.0652176201976
 31
0.0
  0
LINE
  5
411
330
1F
100
AcDbEntity
  8
0
 62
     7
 48
2.0
100
AcDbLine
 10
431.2793838643453
 20
215.5652176201976
 30
0.0
 11
427.5266071146133
 21
222.0652176201976
 31
0.0
  0
LINE
  5
412
330
1F
100
AcDbEntity
  8
0
 62
     7
 48
2.0
100
AcDbLine
 10
427.5266071146133
 20
209.0652176201976
 30
0.0
 11
431.2793838643453
 21
215.5652176201976
 31
0.0
  0
LINE
  5
413
330
1F
100
AcDbEntity
  8
0
 62
     7
 48
2.0
100
AcDbLine
 10
420.0210536151472
 20
209.0652176201976
 30
0.0
 11
427.5266071146133
 21
209.0652176201976
 31
0.0
  0
LINE
  5
414
330
1F
100
AcDbEntity
  8
0
 62
     7
 48
2.0
100
AcDbLine
 10
416.2682768654152
 20
215.5652176201976
 30
0.0
 11
420.0210536151472
 21
209.0652176201976
 31
0.0
  0
LINE
  5
415
330
1F
100
AcDbEntity
  8
0
 62
     7
 48
2.0
100
AcDbLine
 10
420.0210536151472
 20
222.0652176201976
 30
0.0
 11
416.2682768654152
 21
215.5652176201976
 31
0.0
  0
LINE
  5
416
330
1F
100
AcDbEntity
  8
0
 62
     7
 48
2.0
100
AcDbLine
 10
454.5266071146133
 20
222.0652176201976
 30
0.0
 11
447.0210536151474
 21
222.0652176201976
 31
0.0
  0
LINE
  5
417
330
1F
100
AcDbEntity
  8
0
 62
     7
 48
2.0
100
AcDbLine
 10
458.2793838643453
 20
215.5652176201976
 30
0.0
 11
454.5266071146133
 21
222.0652176201976
 31
0.0
  0
LINE
  5
418
330
1F
100
AcDbEntity
  8
0
 62
     7
 48
2.0
100
AcDbLine
 10
454.5266071146133
 20
209.0652176201976
 30
0.0
 11
458.2793838643453
 21
215.5652176201976
 31
0.0
  0
LINE
  5
419
330
1F
100
AcDbEntity
  8
0
 62
     7
 48
2.0
100
AcDbLine
 10
447.0210536151474
 20
209.0652176201976
 30
0.0
 11
454.5266071146133
 21
209.0652176201976
 31
0.0
  0
LINE
  5
41A
330
1F
100
AcDbEntity
  8
0
 62
     7
 48
2.0
100
AcDbLine
 10
443.2682768654153
 20
215.5652176201976
 30
0.0
 11
447.0210536151474
 21
209.0652176201976
 31
0.0
  0
LINE
  5
41B
330
1F
100
AcDbEntity
  8
0
 62
     7
 48
2.0
100
AcDbLine
 10
447.0210536151474
 20
222.0652176201976
 30
0.0
 11
443.2682768654153
 21
215.5652176201976
 31
0.0
  0
LINE
  5
41C
330
1F
100
AcDbEntity
  8
0
 62
     7
 48
2.0
100
AcDbLine
 10
461.7738303648803
 20
199.5652176201976
 30
0.0
 11
461.7738303648803
 21
225.5652176201976
 31
0.0
  0
LINE
  5
41D
330
1F
100
AcDbEntity
  8
0
 62
     7
 48
2.0
100
AcDbLine
 10
439.7738303648804
 20
199.5652176201976
 30
0.0
 11
439.7738303648804
 21
225.5652176201976
 31
0.0
  0
LINE
  5
41E
330
1F
100
AcDbEntity
  8
0
 62
     7
 48
2.0
100
AcDbLine
 10
434.7738303648802
 20
199.5652176201976
 30
0.0
 11
434.7738303648802
 21
225.5652176201976
 31
0.0
  0
LINE
  5
41F
330
1F
100
AcDbEntity
  8
0
 62
     7
 48
2.0
100
AcDbLine
 10
458.2738303648802
 20
215.5652176201976
 30
0.0
 11
458.2738303648802
 21
215.5652176201976
 31
0.0
  0
LINE
  5
422
330
1F
100
AcDbEntity
  8
0
 62
     7
 48
2.0
100
AcDbLine
 10
431.2738303648804
 20
215.5652176201976
 30
0.0
 11
431.2738303648804
 21
215.5652176201976
 31
0.0
  0
LINE
  5
425
330
1F
100
AcDbEntity
  8
0
 62
     7
 48
2.0
100
AcDbLine
 10
412.7738303648802
 20
199.5652176201976
 30
0.0
 11
412.7738303648802
 21
225.5652176201976
 31
0.0
  0
LINE
  5
426
330
1F
100
AcDbEntity
  8
0
 62
     7
 48
2.0
100
AcDbLine
 10
397.7738303648802
 20
259.5652176201975
 30
0.0
 11
397.7738303648802
 21
199.5652176201976
 31
0.0
  0
LINE
  5
427
330
1F
100
AcDbEntity
  8
0
 62
     7
 48
2.0
100
AcDbLine
 10
476.7738303648804
 20
259.5652176201975
 30
0.0
 11
476.7738303648804
 21
199.5652176201976
 31
0.0
  0
LINE
  5
428
330
1F
100
AcDbEntity
  8
0
 62
     7
 48
2.0
100
AcDbLine
 10
439.7738303648804
 20
205.0652176201976
 30
0.0
 11
461.7738303648803
 21
205.0652176201976
 31
0.0
  0
LINE
  5
429
330
1F
100
AcDbEntity
  8
0
 62
     7
 48
2.0
100
AcDbLine
 10
397.7738303648802
 20
199.5652176201976
 30
0.0
 11
476.7738303648804
 21
199.5652176201976
 31
0.0
  0
LINE
  5
42A
330
1F
100
AcDbEntity
  8
0
 62
     7
 48
2.0
100
AcDbLine
 10
412.7738303648802
 20
205.0652176201976
 30
0.0
 11
434.7738303648802
 21
205.0652176201976
 31
0.0
  0
LINE
  5
42B
330
1F
100
AcDbEntity
  8
0
 62
     7
 48
2.0
100
AcDbLine
 10
397.7738303648802
 20
259.5652176201975
 30
0.0
 11
403.2738303648804
 21
259.5652176201975
 31
0.0
  0
LINE
  5
42C
330
1F
100
AcDbEntity
  8
0
 62
     7
 48
2.0
100
AcDbLine
 10
439.7738303648804
 20
233.5652176201976
 30
0.0
 11
461.7738303648803
 21
233.5652176201976
 31
0.0
  0
LINE
  5
42D
330
1F
100
AcDbEntity
  8
0
 62
     7
 48
2.0
100
AcDbLine
 10
454.5266071146133
 20
237.0652176201974
 30
0.0
 11
456.5473330567762
 21
240.5652176201976
 31
0.0
  0
LINE
  5
42E
330
1F
100
AcDbEntity
  8
0
 62
     7
 48
2.0
100
AcDbLine
 10
447.0210536151474
 20
237.0652176201974
 30
0.0
 11
454.5266071146133
 21
237.0652176201974
 31
0.0
  0
LINE
  5
42F
330
1F
100
AcDbEntity
  8
0
 62
     7
 48
2.0
100
AcDbLine
 10
445.0003276729843
 20
240.5652176201976
 30
0.0
 11
447.0210536151474
 21
237.0652176201974
 31
0.0
  0
LINE
  5
430
330
1F
100
AcDbEntity
  8
0
 62
     7
 48
2.0
100
AcDbLine
 10
439.7738303648804
 20
225.5652176201976
 30
0.0
 11
461.7738303648803
 21
225.5652176201976
 31
0.0
  0
LINE
  5
431
330
1F
100
AcDbEntity
  8
0
 62
     7
 48
2.0
100
AcDbLine
 10
456.6529954894792
 20
218.3822049183056
 30
0.0
 11
445.3946652402812
 21
211.8822049183055
 31
0.0
  0
LINE
  5
432
330
1F
100
AcDbEntity
  8
0
 62
     7
 48
2.0
100
AcDbLine
 10
456.1529954894792
 20
219.2482303220895
 30
0.0
 11
444.8946652402812
 21
212.7482303220895
 31
0.0
  0
ARC
  5
433
330
1F
100
AcDbEntity
  8
0
 62
     7
 48
2.0
100
AcDbCircle
 10
450.77383036488
 20
243.5652176201958
 30
0.0
 40
7.499999999999387
100
AcDbArc
 50
203.5781768361335
 51
336.4218215700052
  0
LINE
  5
434
330
1F
100
AcDbEntity
  8
0
 62
     7
 48
2.0
100
AcDbLine
 10
427.5266071146133
 20
237.0652176201974
 30
0.0
 11
429.5473330567762
 21
240.5652176201976
 31
0.0
  0
LINE
  5
435
330
1F
100
AcDbEntity
  8
0
 62
     7
 48
2.0
100
AcDbLine
 10
420.0210536151472
 20
237.0652176201974
 30
0.0
 11
427.5266071146133
 21
237.0652176201974
 31
0.0
  0
LINE
  5
436
330
1F
100
AcDbEntity
  8
0
 62
     7
 48
2.0
100
AcDbLine
 10
418.0003276729843
 20
240.5652176201976
 30
0.0
 11
420.0210536151472
 21
237.0652176201974
 31
0.0
  0
LINE
  5
437
330
1F
100
AcDbEntity
  8
0
 62
     7
 48
2.0
100
AcDbLine
 10
411.7738303648803
 20
233.5652176201976
 30
0.0
 11
405.7738303648802
 21
239.5652176201976
 31
0.0
  0
LINE
  5
438
330
1F
100
AcDbEntity
  8
0
 62
     7
 48
2.0
100
AcDbLine
 10
439.7738303648804
 20
240.5652176201976
 30
0.0
 11
439.7738303648804
 21
233.5652176201976
 31
0.0
  0
LINE
  5
439
330
1F
100
AcDbEntity
  8
0
 62
     7
 48
2.0
100
AcDbLine
 10
434.7738303648802
 20
240.5652176201976
 30
0.0
 11
434.7738303648802
 21
233.5652176201976
 31
0.0
  0
LINE
  5
43A
330
1F
100
AcDbEntity
  8
0
 62
     7
 48
2.0
100
AcDbLine
 10
412.7738303648802
 20
240.5652176201976
 30
0.0
 11
412.7738303648802
 21
233.5652176201976
 31
0.0
  0
ARC
  5
43B
330
1F
100
AcDbEntity
  8
0
 62
     7
 48
2.0
100
AcDbCircle
 10
423.7738303648801
 20
243.5652176201958
 30
0.0
 40
7.4999999999994
100
AcDbArc
 50
203.5781768361335
 51
336.4218215700052
  0
LINE
  5
43C
330
1F
100
AcDbEntity
  8
0
 62
     7
 48
2.0
100
AcDbLine
 10
412.7738303648802
 20
233.5652176201976
 30
0.0
 11
434.7738303648802
 21
233.5652176201976
 31
0.0
  0
LINE
  5
43D
330
1F
100
AcDbEntity
  8
0
 62
     7
 48
2.0
100
AcDbLine
 10
412.7738303648802
 20
225.5652176201976
 30
0.0
 11
434.7738303648802
 21
225.5652176201976
 31
0.0
  0
LINE
  5
43E
330
1F
100
AcDbEntity
  8
0
 62
     7
 48
2.0
100
AcDbLine
 10
411.7738303648803
 20
225.5652176201976
 30
0.0
 11
405.7738303648802
 21
219.5652176201976
 31
0.0
  0
LINE
  5
43F
330
1F
100
AcDbEntity
  8
0
 62
     7
 48
2.0
100
AcDbLine
 10
405.7738303648802
 20
219.5652176201976
 30
0.0
 11
397.7738303648802
 21
219.5652176201976
 31
0.0
  0
LINE
  5
440
330
1F
100
AcDbEntity
  8
0
 62
     7
 48
2.0
100
AcDbLine
 10
401.5980070927574
 20
226.8152176201976
 30
0.0
 11
397.7738303648802
 21
226.8152176201976
 31
0.0
  0
LINE
  5
441
330
1F
100
AcDbEntity
  8
0
 62
     7
 48
2.0
100
AcDbLine
 10
401.5980070927574
 20
232.3152176201976
 30
0.0
 11
397.7738303648802
 21
232.3152176201976
 31
0.0
  0
ARC
  5
442
330
1F
100
AcDbEntity
  8
0
 62
     7
 48
2.0
100
AcDbCircle
 10
408.0238303648815
 20
231.8152176201984
 30
0.0
 40
1.76776695251564
100
AcDbArc
 50
171.869894236124
 51
278.1301014381329
  0
ARC
  5
443
330
1F
100
AcDbEntity
  8
0
 62
     7
 48
2.0
100
AcDbCircle
 10
403.5238303648813
 20
231.8152176201965
 30
0.0
 40
1.767766952513522
100
AcDbArc
 50
261.8699003830077
 51
8.130102235147365
  0
LINE
  5
444
330
1F
100
AcDbEntity
  8
0
 62
     7
 48
2.0
100
AcDbLine
 10
411.7738303648803
 20
225.5652176201976
 30
0.0
 11
411.7738303648803
 21
233.5652176201976
 31
0.0
  0
LINE
  5
445
330
1F
100
AcDbEntity
  8
0
 62
     7
 48
2.0
100
AcDbLine
 10
410.7738303648804
 20
229.5652176201976
 30
0.0
 11
410.7738303648804
 21
229.5652176201976
 31
0.0
  0
LINE
  5
448
330
1F
100
AcDbEntity
  8
0
 62
     7
 48
2.0
100
AcDbLine
 10
409.7738303648802
 20
229.5652176201976
 30
0.0
 11
409.7738303648802
 21
229.5652176201976
 31
0.0
  0
ARC
  5
44B
330
1F
100
AcDbEntity
  8
0
 62
     7
 48
2.0
100
AcDbCircle
 10
403.5238303648813
 20
227.3152176201988
 30
0.0
 40
1.767766952513549
100
AcDbArc
 50
351.869897764851
 51
98.13009961699222
  0
ARC
  5
44C
330
1F
100
AcDbEntity
  8
0
 62
     7
 48
2.0
100
AcDbCircle
 10
408.0238303648815
 20
227.3152176201969
 30
0.0
 40
1.767766952515678
100
AcDbArc
 50
81.86989856186711
 51
188.1301057638759
  0
LINE
  5
44D
330
1F
100
AcDbEntity
  8
0
 62
     7
 48
2.0
100
AcDbLine
 10
429.1529954894793
 20
219.2482303220895
 30
0.0
 11
417.8946652402813
 21
212.7482303220895
 31
0.0
  0
LINE
  5
44E
330
1F
100
AcDbEntity
  8
0
 62
     7
 48
2.0
100
AcDbLine
 10
429.6529954894793
 20
218.3822049183056
 30
0.0
 11
418.3946652402814
 21
211.8822049183055
 31
0.0
  0
LINE
  5
44F
330
1F
100
AcDbEntity
  8
0
 62
     7
 48
2.0
100
AcDbLine
 10
405.7738303648802
 20
239.5652176201976
 30
0.0
 11
397.7738303648802
 21
239.5652176201976
 31
0.0
  0
LINE
  5
450
330
1F
100
AcDbEntity
  8
0
 62
     7
 48
2.0
100
AcDbLine
 10
462.7738303648802
 20
233.5652176201976
 30
0.0
 11
468.7738303648804
 21
239.5652176201976
 31
0.0
  0
LINE
  5
451
330
1F
100
AcDbEntity
  8
0
 62
     7
 48
2.0
100
AcDbLine
 10
461.7738303648803
 20
240.5652176201976
 30
0.0
 11
461.7738303648803
 21
233.5652176201976
 31
0.0
  0
LINE
  5
452
330
1F
100
AcDbEntity
  8
0
 62
     7
 48
2.0
100
AcDbLine
 10
462.7738303648802
 20
225.5652176201976
 30
0.0
 11
468.7738303648804
 21
219.5652176201976
 31
0.0
  0
LINE
  5
453
330
1F
100
AcDbEntity
  8
0
 62
     7
 48
2.0
100
AcDbLine
 10
468.7738303648804
 20
219.5652176201976
 30
0.0
 11
476.7738303648804
 21
219.5652176201976
 31
0.0
  0
LINE
  5
454
330
1F
100
AcDbEntity
  8
0
 62
     7
 48
2.0
100
AcDbLine
 10
472.9496536370033
 20
232.3152176201976
 30
0.0
 11
476.7738303648804
 21
232.3152176201976
 31
0.0
  0
LINE
  5
455
330
1F
100
AcDbEntity
  8
0
 62
     7
 48
2.0
100
AcDbLine
 10
472.9496536370033
 20
226.8152176201976
 30
0.0
 11
476.7738303648804
 21
226.8152176201976
 31
0.0
  0
ARC
  5
456
330
1F
100
AcDbEntity
  8
0
 62
     7
 48
2.0
100
AcDbCircle
 10
471.0238303648814
 20
231.8152176201984
 30
0.0
 40
1.767766952515638
100
AcDbArc
 50
171.869894236124
 51
278.1301014381329
  0
ARC
  5
457
330
1F
100
AcDbEntity
  8
0
 62
     7
 48
2.0
100
AcDbCircle
 10
471.0238303648811
 20
227.3152176201964
 30
0.0
 40
1.767766952515239
100
AcDbArc
 50
81.86989856185398
 51
188.1301057638625
  0
LINE
  5
458
330
1F
100
AcDbEntity
  8
0
 62
     7
 48
2.0
100
AcDbLine
 10
473.7738303648804
 20
229.5652176201976
 30
0.0
 11
473.7738303648804
 21
229.5652176201976
 31
0.0
  0
LINE
  5
45B
330
1F
100
AcDbEntity
  8
0
 62
     7
 48
2.0
100
AcDbLine
 10
472.7738303648804
 20
229.5652176201976
 30
0.0
 11
472.7738303648804
 21
229.5652176201976
 31
0.0
  0
ARC
  5
45E
330
1F
100
AcDbEntity
  8
0
 62
     7
 48
2.0
100
AcDbCircle
 10
466.5238303648813
 20
231.8152176201965
 30
0.0
 40
1.767766952513504
100
AcDbArc
 50
261.8699003830077
 51
8.130102235148976
  0
LINE
  5
45F
330
1F
100
AcDbEntity
  8
0
 62
     7
 48
2.0
100
AcDbLine
 10
462.7738303648802
 20
225.5652176201976
 30
0.0
 11
462.7738303648802
 21
233.5652176201976
 31
0.0
  0
ARC
  5
460
330
1F
100
AcDbEntity
  8
0
 62
     7
 48
2.0
100
AcDbCircle
 10
466.5238303648813
 20
227.3152176201988
 30
0.0
 40
1.767766952513543
100
AcDbArc
 50
351.869897764851
 51
98.13009961698895
  0
LINE
  5
461
330
1F
100
AcDbEntity
  8
0
 62
     7
 48
2.0
100
AcDbLine
 10
468.7738303648804
 20
239.5652176201976
 30
0.0
 11
476.7738303648804
 21
239.5652176201976
 31
0.0
  0
LINE
  5
463
330
1F
100
AcDbEntity
  8
0
 62
     7
 48
2.0
100
AcDbLine
 10
592.7738303648802
 20
259.5652176201975
 30
0.0
 11
592.7738303648802
 21
199.5652176201976
 31
0.0
  0
LINE
  5
464
330
1F
100
AcDbEntity
  8
0
 62
     7
 48
2.0
100
AcDbLine
 10
592.7738303648802
 20
199.5652176201976
 30
0.0
 11
632.7738303648803
 21
199.5652176201976
 31
0.0
  0
LINE
  5
465
330
1F
100
AcDbEntity
  8
0
 62
     7
 48
2.0
100
AcDbLine
 10
592.7738303648802
 20
259.5652176201975
 30
0.0
 11
632.7738303648803
 21
259.5652176201975
 31
0.0
  0
LINE
  5
466
330
1F
100
AcDbEntity
  8
0
 62
     7
 48
2.0
100
AcDbLine
 10
592.7738303648802
 20
239.5652176201976
 30
0.0
 11
616.7738303648802
 21
239.5652176201976
 31
0.0
  0
LINE
  5
467
330
1F
100
AcDbEntity
  8
0
 62
     7
 48
2.0
100
AcDbLine
 10
592.7738303648802
 20
233.5652176201976
 30
0.0
 11
612.9370569327981
 21
233.5652176201976
 31
0.0
  0
LINE
  5
468
330
1F
100
AcDbEntity
  8
0
 62
     7
 48
2.0
100
AcDbLine
 10
592.7738303648802
 20
225.5652176201976
 30
0.0
 11
612.9370569327981
 21
225.5652176201976
 31
0.0
  0
LINE
  5
469
330
1F
100
AcDbEntity
  8
0
 62
     7
 48
2.0
100
AcDbLine
 10
592.7738303648802
 20
219.5652176201976
 30
0.0
 11
616.7738303648802
 21
219.5652176201976
 31
0.0
  0
LINE
  5
46A
330
1F
100
AcDbEntity
  8
0
 62
     7
 48
2.0
100
AcDbLine
 10
616.7738303648802
 20
239.5652176201976
 30
0.0
 11
616.7738303648802
 21
219.5652176201976
 31
0.0
  0
LINE
  5
46B
330
1F
100
AcDbEntity
  8
0
 62
     7
 48
2.0
100
AcDbLine
 10
616.7738303648802
 20
232.3152176201976
 30
0.0
 11
632.7738303648803
 21
232.3152176201976
 31
0.0
  0
LINE
  5
46C
330
1F
100
AcDbEntity
  8
0
 62
     7
 48
2.0
100
AcDbLine
 10
616.7738303648802
 20
226.8152176201976
 30
0.0
 11
632.7738303648803
 21
226.8152176201976
 31
0.0
  0
LINE
  5
46D
330
1F
100
AcDbEntity
  8
0
 62
     7
 48
2.0
100
AcDbLine
 10
632.7738303648803
 20
231.5652176201976
 30
0.0
 11
616.7738303648802
 21
231.5652176201976
 31
0.0
  0
LINE
  5
46E
330
1F
100
AcDbEntity
  8
0
 62
     7
 48
2.0
100
AcDbLine
 10
632.7738303648803
 20
227.5652176201976
 30
0.0
 11
616.7738303648802
 21
227.5652176201976
 31
0.0
  0
LINE
  5
46F
330
1F
100
AcDbEntity
  8
0
 62
     7
 48
2.0
100
AcDbLine
 10
616.7738303648802
 20
227.0652176201976
 30
0.0
 11
632.7738303648803
 21
227.0652176201976
 31
0.0
  0
LINE
  5
470
330
1F
100
AcDbEntity
  8
0
 62
     7
 48
2.0
100
AcDbLine
 10
632.7738303648803
 20
232.0652176201976
 30
0.0
 11
616.7738303648802
 21
232.0652176201976
 31
0.0
  0
LINE
  5
471
330
1F
100
AcDbEntity
  8
0
 62
     7
 48
2.0
100
AcDbLine
 10
616.7738303648802
 20
234.5652176201976
 30
0.0
 11
616.7738303648802
 21
224.5652176201976
 31
0.0
  0
LINE
  5
472
330
1F
100
AcDbEntity
  8
0
 62
     7
 48
2.0
100
AcDbLine
 10
615.7738303648804
 20
234.5652176201976
 30
0.0
 11
615.7738303648804
 21
224.5652176201976
 31
0.0
  0
LINE
  5
473
330
1F
100
AcDbEntity
  8
0
 62
     7
 48
2.0
100
AcDbLine
 10
614.4738303648802
 20
234.1652176201975
 30
0.0
 11
614.4738303648802
 21
224.9652176201976
 31
0.0
  0
ARC
  5
474
330
1F
100
AcDbEntity
  8
0
 62
     7
 48
2.0
100
AcDbCircle
 10
616.5925803648819
 20
229.5652176201976
 30
0.0
 40
5.418749809265674
100
AcDbArc
 50
123.8550304087637
 51
236.144969591236
  0
LINE
  5
475
330
1F
100
AcDbEntity
  8
0
 62
     7
 48
2.0
100
AcDbLine
 10
614.4738303648802
 20
224.9652176201976
 30
0.0
 11
615.7738303648804
 21
224.9652176201976
 31
0.0
  0
LINE
  5
476
330
1F
100
AcDbEntity
  8
0
 62
     7
 48
2.0
100
AcDbLine
 10
615.7738303648804
 20
231.0652176201976
 30
0.0
 11
614.4738303648802
 21
228.0652176201976
 31
0.0
  0
LINE
  5
477
330
1F
100
AcDbEntity
  8
0
 62
     7
 48
2.0
100
AcDbLine
 10
613.5738303648802
 20
225.0652176201976
 30
0.0
 11
614.4738303648802
 21
225.0652176201976
 31
0.0
  0
LINE
  5
478
330
1F
100
AcDbEntity
  8
0
 62
     7
 48
2.0
100
AcDbLine
 10
615.7738303648804
 20
224.5652176201976
 30
0.0
 11
616.7738303648802
 21
224.5652176201976
 31
0.0
  0
LINE
  5
479
330
1F
100
AcDbEntity
  8
0
 62
     7
 48
2.0
100
AcDbLine
 10
614.4738303648802
 20
234.1652176201975
 30
0.0
 11
615.7738303648804
 21
234.1652176201975
 31
0.0
  0
LINE
  5
47A
330
1F
100
AcDbEntity
  8
0
 62
     7
 48
2.0
100
AcDbLine
 10
613.5738303648802
 20
234.0652176201976
 30
0.0
 11
614.4738303648802
 21
234.0652176201976
 31
0.0
  0
LINE
  5
47B
330
1F
100
AcDbEntity
  8
0
 62
     7
 48
2.0
100
AcDbLine
 10
615.7738303648804
 20
234.5652176201976
 30
0.0
 11
616.7738303648802
 21
234.5652176201976
 31
0.0
  0
LINE
  5
47C
330
1F
100
AcDbEntity
  8
0
 62
     7
 48
2.0
100
AcDbLine
 10
380.2738303648802
 20
385.5652176201975
 30
0.0
 11
379.2738303648802
 21
384.5652176201977
 31
0.0
  0
LINE
  5
47D
330
1F
100
AcDbEntity
  8
0
 62
     7
 48
2.0
100
AcDbLine
 10
494.2738303648804
 20
385.5652176201975
 30
0.0
 11
495.2738303648803
 21
384.5652176201977
 31
0.0
  0
LINE
  5
47E
330
1F
100
AcDbEntity
  8
0
 62
     7
 48
2.0
100
AcDbLine
 10
379.2738303648802
 20
186.5652176201976
 30
0.0
 11
380.2738303648802
 21
185.5652176201976
 31
0.0
  0
LINE
  5
47F
330
1F
100
AcDbEntity
  8
0
 62
     7
 48
2.0
100
AcDbLine
 10
495.2738303648803
 20
186.5652176201976
 30
0.0
 11
494.2738303648804
 21
185.5652176201976
 31
0.0
  0
LINE
  5
480
330
1F
100
AcDbEntity
  8
0
 62
     7
 48
2.0
100
AcDbLine
 10
471.2738303648802
 20
259.5652176201975
 30
0.0
 11
476.7738303648804
 21
259.5652176201975
 31
0.0
  0
LINE
  5
481
330
1F
100
AcDbEntity
  8
0
 62
     7
 48
2.0
100
AcDbLine
 10
403.2738303648804
 20
385.5652176201975
 30
0.0
 11
380.2738303648802
 21
385.5652176201975
 31
0.0
  0
LINE
  5
482
330
1F
100
AcDbEntity
  8
0
 62
     7
100
AcDbLine
 10
431.2738303648804
 20
385.5652176201975
 30
0.0
 11
443.2738303648802
 21
385.5652176201975
 31
0.0
  0
LINE
  5
483
330
1F
100
AcDbEntity
  8
0
 62
     7
 48
2.0
100
AcDbLine
 10
449.2738303648803
 20
317.0652176201977
 30
0.0
 11
454.2738303648802
 21
317.0652176201977
 31
0.0
  0
LINE
  5
484
330
1F
100
AcDbEntity
  8
0
 62
     7
 48
2.0
100
AcDbLine
 10
449.2738303648803
 20
316.0652176201974
 30
0.0
 11
454.2738303648802
 21
316.0652176201974
 31
0.0
  0
LINE
  5
485
330
1F
100
AcDbEntity
  8
0
 62
     7
 48
2.0
100
AcDbLine
 10
454.2738303648802
 20
325.0652176201977
 30
0.0
 11
449.2738303648803
 21
325.0652176201977
 31
0.0
  0
LINE
  5
486
330
1F
100
AcDbEntity
  8
0
 62
     7
 48
2.0
100
AcDbLine
 10
454.2738303648802
 20
324.0652176201976
 30
0.0
 11
449.2738303648803
 21
324.0652176201976
 31
0.0
  0
LINE
  5
487
330
1F
100
AcDbEntity
  8
0
 62
     7
 48
2.0
100
AcDbLine
 10
447.2738303648802
 20
318.0652176201977
 30
0.0
 11
447.2738303648802
 21
323.0652176201977
 31
0.0
  0
LINE
  5
488
330
1F
100
AcDbEntity
  8
0
 62
     7
 48
2.0
100
AcDbLine
 10
448.2738303648804
 20
318.0652176201977
 30
0.0
 11
448.2738303648804
 21
323.0652176201977
 31
0.0
  0
ARC
  5
489
330
1F
100
AcDbEntity
  8
0
 62
     7
 48
2.0
100
AcDbCircle
 10
449.2738303648793
 20
318.0652176201965
 30
0.0
 40
1.99999999999896
100
AcDbArc
 50
180.0000050089374
 51
269.9999974955443
  0
ARC
  5
48A
330
1F
100
AcDbEntity
  8
0
 62
     7
 48
2.0
100
AcDbCircle
 10
449.2738303648799
 20
318.0652176201973
 30
0.0
 40
0.9999999999997266
100
AcDbArc
 50
180.000005008952
 51
269.9999974955606
  0
ARC
  5
48B
330
1F
100
AcDbEntity
  8
0
 62
     7
 48
2.0
100
AcDbCircle
 10
449.2738303648799
 20
323.0652176201979
 30
0.0
 40
1.999999999999688
100
AcDbArc
 50
90.0000025044752
 51
180.0000050089796
  0
ARC
  5
48C
330
1F
100
AcDbEntity
  8
0
 62
     7
 48
2.0
100
AcDbCircle
 10
449.2738303648803
 20
323.0652176201974
 30
0.0
 40
1.000000000000057
100
AcDbArc
 50
90.00000250445896
 51
180.000005008965
  0
LINE
  5
48D
330
1F
100
AcDbEntity
  8
0
 62
     7
 48
2.0
100
AcDbLine
 10
455.2738303648802
 20
318.0652176201977
 30
0.0
 11
455.2738303648802
 21
323.0652176201977
 31
0.0
  0
LINE
  5
48E
330
1F
100
AcDbEntity
  8
0
 62
     7
 48
2.0
100
AcDbLine
 10
456.2738303648804
 20
318.0652176201977
 30
0.0
 11
456.2738303648804
 21
323.0652176201977
 31
0.0
  0
ARC
  5
48F
330
1F
100
AcDbEntity
  8
0
 62
     7
 48
2.0
100
AcDbCircle
 10
454.2738303648806
 20
318.0652176201971
 30
0.0
 40
1.999999999999688
100
AcDbArc
 50
269.9999974955051
 51
0.0000000000113991
  0
ARC
  5
490
330
1F
100
AcDbEntity
  8
0
 62
     7
 48
2.0
100
AcDbCircle
 10
454.2738303648808
 20
318.0652176201971
 30
0.0
 40
0.9999999999995743
100
AcDbArc
 50
269.9999974955181
 51
0.0000000000244267
  0
ARC
  5
491
330
1F
100
AcDbEntity
  8
0
 62
     7
 48
2.0
100
AcDbCircle
 10
454.2738303648808
 20
323.0652176201981
 30
0.0
 40
0.9999999999995734
100
AcDbArc
 50
359.9999999999754
 51
90.00000250448172
  0
ARC
  5
492
330
1F
100
AcDbEntity
  8
0
 62
     7
 48
2.0
100
AcDbCircle
 10
454.2738303648806
 20
323.0652176201979
 30
0.0
 40
1.999999999999644
100
AcDbArc
 50
359.9999999999901
 51
90.00000250449476
  0
ARC
  5
499
330
1F
100
AcDbEntity
  8
0
 62
     7
100
AcDbCircle
 10
452.7738303648799
 20
321.8352176201976
 30
0.0
 40
0.699999988079015
100
AcDbArc
 50
269.9999974955443
 51
90.0000025044557
  0
ARC
  5
49A
330
1F
100
AcDbEntity
  8
0
 62
     7
100
AcDbCircle
 10
452.7738303648799
 20
319.2952176201976
 30
0.0
 40
0.699999988079015
100
AcDbArc
 50
269.9999974955443
 51
90.0000025044557
  0
LINE
  5
49B
330
1F
100
AcDbEntity
  8
0
 62
     7
 48
2.0
100
AcDbLine
 10
448.5738303648802
 20
317.3652176201976
 30
0.0
 11
454.9738303648803
 21
317.3652176201976
 31
0.0
  0
LINE
  5
49C
330
1F
100
AcDbEntity
  8
0
 62
     7
 48
2.0
100
AcDbLine
 10
448.5738303648802
 20
323.7652176201976
 30
0.0
 11
454.9738303648803
 21
323.7652176201976
 31
0.0
  0
LINE
  5
49D
330
1F
100
AcDbEntity
  8
0
 62
     7
 48
2.0
100
AcDbLine
 10
448.5738303648802
 20
323.7652176201976
 30
0.0
 11
448.5738303648802
 21
317.3652176201976
 31
0.0
  0
LINE
  5
49E
330
1F
100
AcDbEntity
  8
0
 62
     7
 48
2.0
100
AcDbLine
 10
450.7738303648802
 20
319.9952176201976
 30
0.0
 11
450.7738303648802
 21
318.5952176201976
 31
0.0
  0
ARC
  5
49F
330
1F
100
AcDbEntity
  8
0
 62
     7
100
AcDbCircle
 10
450.77383036488
 20
319.2952176201976
 30
0.0
 40
0.6999999880789865
100
AcDbArc
 50
90.0000025044557
 51
269.9999974955443
  0
LINE
  5
4A0
330
1F
100
AcDbEntity
  8
0
 62
     7
 48
2.0
100
AcDbLine
 10
451.7738303648804
 20
319.9952176201976
 30
0.0
 11
451.7738303648804
 21
318.5952176201976
 31
0.0
  0
LINE
  5
4A1
330
1F
100
AcDbEntity
  8
0
 62
     7
 48
2.0
100
AcDbLine
 10
450.7738303648802
 20
319.9952176201976
 30
0.0
 11
452.7738303648804
 21
319.9952176201976
 31
0.0
  0
LINE
  5
4A2
330
1F
100
AcDbEntity
  8
0
 62
     7
 48
2.0
100
AcDbLine
 10
450.7738303648802
 20
318.5952176201976
 30
0.0
 11
452.7738303648804
 21
318.5952176201976
 31
0.0
  0
ARC
  5
4A3
330
1F
100
AcDbEntity
  8
0
 62
     7
100
AcDbCircle
 10
450.77383036488
 20
321.8352176201976
 30
0.0
 40
0.699999988079015
100
AcDbArc
 50
90.0000025044557
 51
269.9999974955443
  0
LINE
  5
4A4
330
1F
100
AcDbEntity
  8
0
 62
     7
 48
2.0
100
AcDbLine
 10
450.7738303648802
 20
322.5352176201976
 30
0.0
 11
450.7738303648802
 21
321.1352176201976
 31
0.0
  0
LINE
  5
4A5
330
1F
100
AcDbEntity
  8
0
 62
     7
 48
2.0
100
AcDbLine
 10
451.7738303648804
 20
322.5352176201976
 30
0.0
 11
451.7738303648804
 21
321.1352176201976
 31
0.0
  0
LINE
  5
4A6
330
1F
100
AcDbEntity
  8
0
 62
     7
 48
2.0
100
AcDbLine
 10
450.7738303648802
 20
321.1352176201976
 30
0.0
 11
452.7738303648804
 21
321.1352176201976
 31
0.0
  0
LINE
  5
4A7
330
1F
100
AcDbEntity
  8
0
 62
     7
 48
2.0
100
AcDbLine
 10
450.7738303648802
 20
322.5352176201976
 30
0.0
 11
452.7738303648804
 21
322.5352176201976
 31
0.0
  0
LINE
  5
4A8
330
1F
100
AcDbEntity
  8
0
 62
     7
 48
2.0
100
AcDbLine
 10
454.9738303648803
 20
323.7652176201976
 30
0.0
 11
454.9738303648803
 21
317.3652176201976
 31
0.0
  0
LINE
  5
4A9
330
1F
100
AcDbEntity
  8
0
 62
     7
 48
2.0
100
AcDbLine
 10
450.5238303648804
 20
382.0652176201976
 30
0.0
 11
457.0238303648802
 21
382.0652176201976
 31
0.0
  0
LINE
  5
4AA
330
1F
100
AcDbEntity
  8
0
 62
     7
 48
2.0
100
AcDbLine
 10
457.0238303648802
 20
385.5652176201975
 30
0.0
 11
450.5238303648804
 21
385.5652176201975
 31
0.0
  0
LINE
  5
4AB
330
1F
100
AcDbEntity
  8
0
 62
     7
 48
2.0
100
AcDbLine
 10
450.5238303648804
 20
385.5652176201975
 30
0.0
 11
450.5238303648804
 21
382.0652176201976
 31
0.0
  0
LINE
  5
4AC
330
1F
100
AcDbEntity
  8
0
 62
     7
 48
2.0
100
AcDbLine
 10
468.0238303648803
 20
385.5652176201975
 30
0.0
 11
461.5238303648802
 21
385.5652176201975
 31
0.0
  0
LINE
  5
4AD
330
1F
100
AcDbEntity
  8
0
 62
     7
 48
2.0
100
AcDbLine
 10
461.5238303648802
 20
382.0652176201976
 30
0.0
 11
468.0238303648803
 21
382.0652176201976
 31
0.0
  0
LINE
  5
4AE
330
1F
100
AcDbEntity
  8
0
 62
     7
 48
2.0
100
AcDbLine
 10
461.5238303648802
 20
385.5652176201975
 30
0.0
 11
461.5238303648802
 21
382.0652176201976
 31
0.0
  0
LINE
  5
4AF
330
1F
100
AcDbEntity
  8
0
 62
     7
 48
2.0
100
AcDbLine
 10
457.0238303648802
 20
382.0652176201976
 30
0.0
 11
457.0238303648802
 21
385.5652176201975
 31
0.0
  0
LINE
  5
4B0
330
1F
100
AcDbEntity
  8
0
 62
     7
 48
2.0
100
AcDbLine
 10
468.0238303648803
 20
382.0652176201976
 30
0.0
 11
468.0238303648803
 21
385.5652176201975
 31
0.0
  0
LINE
  5
4B1
330
1F
100
AcDbEntity
  8
0
 62
     7
 48
2.0
100
AcDbLine
 10
417.5238303648804
 20
385.5652176201975
 30
0.0
 11
424.0238303648802
 21
385.5652176201975
 31
0.0
  0
LINE
  5
4B2
330
1F
100
AcDbEntity
  8
0
 62
     7
 48
2.0
100
AcDbLine
 10
424.0238303648802
 20
382.0652176201976
 30
0.0
 11
417.5238303648804
 21
382.0652176201976
 31
0.0
  0
LINE
  5
4B3
330
1F
100
AcDbEntity
  8
0
 62
     7
 48
2.0
100
AcDbLine
 10
406.5238303648802
 20
385.5652176201975
 30
0.0
 11
413.0238303648804
 21
385.5652176201975
 31
0.0
  0
LINE
  5
4B4
330
1F
100
AcDbEntity
  8
0
 62
     7
 48
2.0
100
AcDbLine
 10
413.0238303648804
 20
382.0652176201976
 30
0.0
 11
406.5238303648802
 21
382.0652176201976
 31
0.0
  0
LINE
  5
4B5
330
1F
100
AcDbEntity
  8
0
 62
     7
 48
2.0
100
AcDbLine
 10
406.5238303648802
 20
382.0652176201976
 30
0.0
 11
406.5238303648802
 21
385.5652176201975
 31
0.0
  0
LINE
  5
4B6
330
1F
100
AcDbEntity
  8
0
 62
     7
 48
2.0
100
AcDbLine
 10
413.0238303648804
 20
385.5652176201975
 30
0.0
 11
413.0238303648804
 21
382.0652176201976
 31
0.0
  0
LINE
  5
4B7
330
1F
100
AcDbEntity
  8
0
 62
     7
 48
2.0
100
AcDbLine
 10
417.5238303648804
 20
382.0652176201976
 30
0.0
 11
417.5238303648804
 21
385.5652176201975
 31
0.0
  0
LINE
  5
4B8
330
1F
100
AcDbEntity
  8
0
 62
     7
 48
2.0
100
AcDbLine
 10
424.0238303648802
 20
385.5652176201975
 30
0.0
 11
424.0238303648802
 21
382.0652176201976
 31
0.0
  0
CIRCLE
  5
4BF
330
1F
100
AcDbEntity
  8
0
  6
Continuous
 62
     7
100
AcDbCircle
 10
385.2738303648798
 20
379.5652176201971
 30
0.0
 40
3.099999904633533
  0
CIRCLE
  5
4C0
330
1F
100
AcDbEntity
  8
0
  6
Continuous
 62
     7
100
AcDbCircle
 10
489.2738303648798
 20
379.5652176201972
 30
0.0
 40
3.099999904633477
  0
CIRCLE
  5
4C1
330
1F
100
AcDbEntity
  8
0
  6
Continuous
 62
     7
100
AcDbCircle
 10
437.2738303648798
 20
270.5652176201971
 30
0.0
 40
3.500000000000568
  0
CIRCLE
  5
4C2
330
1F
100
AcDbEntity
  8
0
  6
Continuous
 62
     7
100
AcDbCircle
 10
437.2738303648798
 20
280.5652176201971
 30
0.0
 40
3.500000000000568
  0
CIRCLE
  5
4C3
330
1F
100
AcDbEntity
  8
0
  6
Continuous
 62
     7
100
AcDbCircle
 10
437.2738303648798
 20
290.5652176201971
 30
0.0
 40
3.500000000000568
  0
CIRCLE
  5
4C4
330
1F
100
AcDbEntity
  8
0
  6
Continuous
 62
     7
100
AcDbCircle
 10
437.2738303648798
 20
300.5652176201971
 30
0.0
 40
3.500000000000568
  0
CIRCLE
  5
4C5
330
1F
100
AcDbEntity
  8
0
  6
Continuous
 62
     7
100
AcDbCircle
 10
437.2738303648798
 20
310.5652176201971
 30
0.0
 40
3.500000000000568
  0
CIRCLE
  5
4C6
330
1F
100
AcDbEntity
  8
0
  6
Continuous
 62
     7
100
AcDbCircle
 10
437.2738303648798
 20
320.5652176201971
 30
0.0
 40
3.500000000000568
  0
CIRCLE
  5
4C7
330
1F
100
AcDbEntity
  8
0
  6
Continuous
 62
     7
100
AcDbCircle
 10
437.2738303648798
 20
330.565217620197
 30
0.0
 40
3.500000000000511
  0
CIRCLE
  5
4C8
330
1F
100
AcDbEntity
  8
0
  6
Continuous
 62
     7
100
AcDbCircle
 10
437.2738303648798
 20
340.5652176201971
 30
0.0
 40
3.500000000000568
  0
CIRCLE
  5
4C9
330
1F
100
AcDbEntity
  8
0
  6
Continuous
 62
     7
100
AcDbCircle
 10
437.2738303648798
 20
350.5652176201971
 30
0.0
 40
3.500000000000568
  0
CIRCLE
  5
4CA
330
1F
100
AcDbEntity
  8
0
  6
Continuous
 62
     7
100
AcDbCircle
 10
437.2738303648798
 20
360.5652176201971
 30
0.0
 40
3.500000000000568
  0
CIRCLE
  5
4CB
330
1F
100
AcDbEntity
  8
0
  6
Continuous
 62
     7
100
AcDbCircle
 10
407.2738303648797
 20
267.5652176201972
 30
0.0
 40
2.750000000000397
  0
CIRCLE
  5
4CC
330
1F
100
AcDbEntity
  8
0
  6
Continuous
 62
     7
100
AcDbCircle
 10
407.2738303648797
 20
267.5652176201972
 30
0.0
 40
3.000000000000397
  0
CIRCLE
  5
4CD
330
1F
100
AcDbEntity
  8
0
  6
Continuous
 62
     7
100
AcDbCircle
 10
467.2738303648791
 20
267.5652176201976
 30
0.0
 40
3.00000000000125
  0
CIRCLE
  5
4CE
330
1F
100
AcDbEntity
  8
0
  6
Continuous
 62
     7
100
AcDbCircle
 10
467.2738303648791
 20
267.5652176201976
 30
0.0
 40
2.750000000000397
  0
CIRCLE
  5
4CF
330
1F
100
AcDbEntity
  8
0
  6
Continuous
 62
     7
100
AcDbCircle
 10
405.7738303648795
 20
229.5652176201968
 30
0.0
 40
4.000000000000794
  0
CIRCLE
  5
4D0
330
1F
100
AcDbEntity
  8
0
  6
Continuous
 62
     7
100
AcDbCircle
 10
405.7738303648795
 20
229.5652176201968
 30
0.0
 40
5.000000000000794
  0
CIRCLE
  5
4D1
330
1F
100
AcDbEntity
  8
0
  6
Continuous
 62
     7
100
AcDbCircle
 10
468.7738303648797
 20
229.5652176201969
 30
0.0
 40
5.000000000000794
  0
CIRCLE
  5
4D2
330
1F
100
AcDbEntity
  8
0
  6
Continuous
 62
     7
100
AcDbCircle
 10
468.7738303648797
 20
229.5652176201969
 30
0.0
 40
4.000000000000794
  0
CIRCLE
  5
4D3
330
1F
100
AcDbEntity
  8
0
  6
Continuous
 62
     7
100
AcDbCircle
 10
451.7738303648798
 20
335.5652176201971
 30
0.0
 40
1.50000000000034
  0
CIRCLE
  5
4D4
330
1F
100
AcDbEntity
  8
0
  6
Continuous
 62
     7
100
AcDbCircle
 10
451.7738303648799
 20
335.5652176201973
 30
0.0
 40
2.500000000000226
  0
CIRCLE
  5
4D5
330
1F
100
AcDbEntity
  8
0
  6
Continuous
 62
     7
100
AcDbCircle
 10
451.7738303648799
 20
345.5652176201973
 30
0.0
 40
1.500000000000226
  0
CIRCLE
  5
4D6
330
1F
100
AcDbEntity
  8
0
  6
Continuous
 62
     7
100
AcDbCircle
 10
451.7738303648799
 20
345.5652176201973
 30
0.0
 40
2.500000000000226
  0
CIRCLE
  5
4D7
330
1F
100
AcDbEntity
  8
0
  6
Continuous
 62
     7
100
AcDbCircle
 10
451.7738303648801
 20
355.5652176201973
 30
0.0
 40
1.500000000000169
  0
CIRCLE
  5
4D8
330
1F
100
AcDbEntity
  8
0
  6
Continuous
 62
     7
100
AcDbCircle
 10
451.7738303648801
 20
355.5652176201973
 30
0.0
 40
2.50000000000017
  0
CIRCLE
  5
4D9
330
1F
100
AcDbEntity
  8
0
  6
Continuous
 62
     7
100
AcDbCircle
 10
451.7738303648799
 20
363.5652176201972
 30
0.0
 40
2.000000000000341
  0
CIRCLE
  5
4DA
330
1F
100
AcDbEntity
  8
0
  6
Continuous
 62
     7
100
AcDbCircle
 10
451.7738303648799
 20
363.5652176201972
 30
0.0
 40
3.000000000000341
  0
CIRCLE
  5
4DB
330
1F
100
AcDbEntity
  8
0
  6
Continuous
 62
     7
100
AcDbCircle
 10
423.7738303648791
 20
215.5652176201964
 30
0.0
 40
7.500000000001223
  0
CIRCLE
  5
4DC
330
1F
100
AcDbEntity
  8
0
  6
Continuous
 62
     7
100
AcDbCircle
 10
450.7738303648791
 20
215.5652176201964
 30
0.0
 40
7.500000000001223
  0
ENDSEC
  0
SECTION
  2
OBJECTS
  0
DICTIONARY
  5
C
330
0
100
AcDbDictionary
281
     1
  3
ACAD_GROUP
350
D
  3
ACAD_LAYOUT
350
1A
  3
ACAD_MLINESTYLE
350
17
  3
ACAD_PLOTSETTINGS
350
19
  3
ACAD_PLOTSTYLENAME
350
E
  0
DICTIONARY
  5
D
102
{ACAD_REACTORS
330
C
102
}
330
C
100
AcDbDictionary
281
     1
  0
DICTIONARY
  5
1A
102
{ACAD_REACTORS
330
C
102
}
330
C
100
AcDbDictionary
281
     1
  3
Model
350
22
  3
ﾚｲｱｳﾄ1
350
51
  0
DICTIONARY
  5
17
102
{ACAD_REACTORS
330
C
102
}
330
C
100
AcDbDictionary
281
     1
  3
Standard
350
18
  0
DICTIONARY
  5
19
102
{ACAD_REACTORS
330
C
102
}
330
C
100
AcDbDictionary
281
     1
  0
ACDBDICTIONARYWDFLT
  5
E
102
{ACAD_REACTORS
330
C
102
}
330
C
100
AcDbDictionary
281
     1
  3
Normal
350
F
100
AcDbDictionaryWithDefault
340
F
  0
LAYOUT
  5
22
102
{ACAD_REACTORS
330
1A
102
}
330
1A
100
AcDbPlotSettings
  1

  2
none_device
  4
ANSI_A_(8.50_x_11.00_Inches)
  6

 40
6.349999904632567
 41
19.04999923706053
 42
6.350006103515625
 43
19.04998779296875
 44
215.8999938964842
 45
279.3999938964843
 46
0.0
 47
0.0
 48
0.0
 49
0.0
140
0.0
141
0.0
142
1.0
143
78.436453180766
 70
 11952
 72
     0
 73
     1
 74
     0
  7

 75
     0
147
0.0127491741332998
148
0.0
149
0.0
100
AcDbLayout
  1
Model
 70
     1
 71
     0
 10
0.0
 20
0.0
 11
12.0
 21
9.0
 12
0.0
 22
0.0
 32
0.0
 14
0.0
 24
0.0
 34
0.0
 15
0.0
 25
0.0
 35
0.0
146
0.0
 13
0.0
 23
0.0
 33
0.0
 16
1.0
 26
0.0
 36
0.0
 17
0.0
 27
1.0
 37
0.0
 76
     0
330
1F
  0
LAYOUT
  5
51
102
{ACAD_REACTORS
330
1A
102
}
330
1A
100
AcDbPlotSettings
  1

  2
None
  4

  6

 40
0.0
 41
0.0
 42
0.0
 43
0.0
 44
0.0
 45
0.0
 46
0.0
 47
0.0
 48
0.0
 49
0.0
140
0.0
141
0.0
142
1.0
143
1.0
 70
   688
 72
     0
 73
     0
 74
     5
  7

 75
    16
147
1.0
148
0.0
149
0.0
100
AcDbLayout
  1
ﾚｲｱｳﾄ1
 70
     1
 71
     1
 10
0.0
 20
0.0
 11
12.0
 21
9.0
 12
0.0
 22
0.0
 32
0.0
 14
0.0
 24
0.0
 34
0.0
 15
0.0
 25
0.0
 35
0.0
146
0.0
 13
0.0
 23
0.0
 33
0.0
 16
1.0
 26
0.0
 36
0.0
 17
0.0
 27
1.0
 37
0.0
 76
     0
330
50
  0
MLINESTYLE
  5
18
102
{ACAD_REACTORS
330
17
102
}
330
17
100
AcDbMlineStyle
  2
STANDARD
 70
     0
  3

 62
   256
 51
90.0
 52
90.0
 71
     2
 49
0.5
 62
   256
  6
BYLAYER
 49
-0.5
 62
   256
  6
BYLAYER
  0
ACDBPLACEHOLDER
  5
F
102
{ACAD_REACTORS
330
E
102
}
330
E
  0
ENDSEC
  0
EOF
