  0
SECTION
  2
HEADER
  9
$ACADVER
  1
AC1018
  9
$ACADMAINTVER
 70
     0
  9
$DWGCODEPAGE
  3
ANSI_1252
  9
$INSBASE
 10
0.0
 20
0.0
 30
0.0
  9
$EXTMIN
 10
-0.25
 20
-0.25
 30
0.0
  9
$EXTMAX
 10
10.75
 20
8.25
 30
0.0
  9
$LIMMIN
 10
-0.25
 20
-0.25
  9
$LIMMAX
 10
10.75
 20
8.25
  9
$ORTHOMODE
 70
     0
  9
$REGENMODE
 70
     1
  9
$FILLMODE
 70
     1
  9
$QTEXTMODE
 70
     0
  9
$MIRRTEXT
 70
     1
  9
$LTSCALE
 40
1.0
  9
$ATTMODE
 70
     1
  9
$TEXTSIZE
 40
2.5
  9
$TRACEWID
 40
1.0
  9
$TEXTSTYLE
  7
STANDARD
  9
$CLAYER
  8
0
  9
$CELTYPE
  6
ByLayer
  9
$CECOLOR
 62
   256
  9
$CELTSCALE
 40
1.0
  9
$DISPSILH
 70
     0
  9
$DIMSCALE
 40
1.0
  9
$DIMASZ
 40
0.18
  9
$DIMEXO
 40
0.0625
  9
$DIMDLI
 40
0.38
  9
$DIMRND
 40
0.0000001
  9
$DIMDLE
 40
0.0
  9
$DIMEXE
 40
0.18
  9
$DIMTP
 40
0.0
  9
$DIMTM
 40
0.0
  9
$DIMTXT
 40
0.18
  9
$DIMCEN
 40
0.09
  9
$DIMTSZ
 40
0.0
  9
$DIMTOL
 70
     0
  9
$DIMLIM
 70
     0
  9
$DIMTIH
 70
     1
  9
$DIMTOH
 70
     1
  9
$DIMSE1
 70
     0
  9
$DIMSE2
 70
     0
  9
$DIMTAD
 70
     0
  9
$DIMZIN
 70
     0
  9
$DIMBLK
  1

  9
$DIMASO
 70
     1
  9
$DIMSHO
 70
     1
  9
$DIMPOST
  1

  9
$DIMAPOST
  1

  9
$DIMALT
 70
     0
  9
$DIMALTD
 70
     2
  9
$DIMALTF
 40
25.4
  9
$DIMLFAC
 40
1.0
  9
$DIMTOFL
 70
     0
  9
$DIMTVP
 40
0.0
  9
$DIMTIX
 70
     0
  9
$DIMSOXD
 70
     0
  9
$DIMSAH
 70
     0
  9
$DIMBLK1
  1

  9
$DIMBLK2
  1

  9
$DIMSTYLE
  2
Standard
  9
$DIMCLRD
 70
     0
  9
$DIMCLRE
 70
     0
  9
$DIMCLRT
 70
     0
  9
$DIMTFAC
 40
1.0
  9
$DIMGAP
 40
0.09
  9
$DIMJUST
 70
     0
  9
$DIMSD1
 70
     0
  9
$DIMSD2
 70
     0
  9
$DIMTOLJ
 70
     1
  9
$DIMTZIN
 70
     0
  9
$DIMALTZ
 70
     0
  9
$DIMALTTZ
 70
     0
  9
$DIMUPT
 70
     0
  9
$DIMDEC
 70
     4
  9
$DIMTDEC
 70
     4
  9
$DIMALTU
 70
     2
  9
$DIMALTTD
 70
     2
  9
$DIMTXSTY
  7
STANDARD
  9
$DIMAUNIT
 70
     0
  9
$DIMADEC
 70
     4
  9
$DIMALTRND
 40
0.0000001
  9
$DIMAZIN
 70
     0
  9
$DIMDSEP
 70
    46
  9
$DIMATFIT
 70
     3
  9
$DIMFRAC
 70
     0
  9
$DIMLDRBLK
  1

  9
$DIMLUNIT
 70
     2
  9
$DIMLWD
 70
    -2
  9
$DIMLWE
 70
    -2
  9
$DIMTMOVE
 70
     0
  9
$LUNITS
 70
     2
  9
$LUPREC
 70
     4
  9
$SKETCHINC
 40
1.0
  9
$FILLETRAD
 40
2.5
  9
$AUNITS
 70
     0
  9
$AUPREC
 70
     0
  9
$MENU
  1
.
  9
$ELEVATION
 40
0.0
  9
$PELEVATION
 40
0.0
  9
$THICKNESS
 40
0.0
  9
$LIMCHECK
 70
     0
  9
$CHAMFERA
 40
0.5
  9
$CHAMFERB
 40
0.5
  9
$CHAMFERC
 40
1.0
  9
$CHAMFERD
 40
0.0
  9
$SKPOLY
 70
     0
  9
$TDCREATE
 40
2459004.611969144
  9
$TDUCREATE
 40
2459004.236969144
  9
$TDUPDATE
 40
2459004.611969155
  9
$TDUUPDATE
 40
2459004.236969155
  9
$TDINDWG
 40
0.0
  9
$TDUSRTIMER
 40
0.0
  9
$USRTIMER
 70
     1
  9
$ANGBASE
 50
0.0
  9
$ANGDIR
 70
     0
  9
$PDMODE
 70
     0
  9
$PDSIZE
 40
0.0
  9
$PLINEWID
 40
0.0
  9
$SPLFRAME
 70
     0
  9
$SPLINETYPE
 70
     6
  9
$SPLINESEGS
 70
     8
  9
$HANDSEED
  5
2CB
  9
$SURFTAB1
 70
     6
  9
$SURFTAB2
 70
     6
  9
$SURFTYPE
 70
     6
  9
$SURFU
 70
     6
  9
$SURFV
 70
     6
  9
$UCSBASE
  2

  9
$UCSNAME
  2

  9
$UCSORG
 10
0.0
 20
0.0
 30
0.0
  9
$UCSXDIR
 10
1.0
 20
0.0
 30
0.0
  9
$UCSYDIR
 10
0.0
 20
1.0
 30
0.0
  9
$UCSORTHOREF
  2

  9
$UCSORTHOVIEW
 70
     0
  9
$UCSORGTOP
 10
0.0
 20
0.0
 30
0.0
  9
$UCSORGBOTTOM
 10
0.0
 20
0.0
 30
0.0
  9
$UCSORGLEFT
 10
0.0
 20
0.0
 30
0.0
  9
$UCSORGRIGHT
 10
0.0
 20
0.0
 30
0.0
  9
$UCSORGFRONT
 10
0.0
 20
0.0
 30
0.0
  9
$UCSORGBACK
 10
0.0
 20
0.0
 30
0.0
  9
$PUCSBASE
  2

  9
$PUCSNAME
  2

  9
$PUCSORG
 10
0.0
 20
0.0
 30
0.0
  9
$PUCSXDIR
 10
1.0
 20
0.0
 30
0.0
  9
$PUCSYDIR
 10
0.0
 20
1.0
 30
0.0
  9
$PUCSORTHOREF
  2

  9
$PUCSORTHOVIEW
 70
     0
  9
$PUCSORGTOP
 10
0.0
 20
0.0
 30
0.0
  9
$PUCSORGBOTTOM
 10
0.0
 20
0.0
 30
0.0
  9
$PUCSORGLEFT
 10
0.0
 20
0.0
 30
0.0
  9
$PUCSORGRIGHT
 10
0.0
 20
0.0
 30
0.0
  9
$PUCSORGFRONT
 10
0.0
 20
0.0
 30
0.0
  9
$PUCSORGBACK
 10
0.0
 20
0.0
 30
0.0
  9
$USERI1
 70
     0
  9
$USERI2
 70
     0
  9
$USERI3
 70
     0
  9
$USERI4
 70
     0
  9
$USERI5
 70
     0
  9
$USERR1
 40
0.0
  9
$USERR2
 40
0.0
  9
$USERR3
 40
0.0
  9
$USERR4
 40
0.0
  9
$USERR5
 40
0.0
  9
$WORLDVIEW
 70
     1
  9
$SHADEDGE
 70
     3
  9
$SHADEDIF
 70
    70
  9
$TILEMODE
 70
     1
  9
$MAXACTVP
 70
    64
  9
$PINSBASE
 10
0.0
 20
0.0
 30
0.0
  9
$PLIMCHECK
 70
     0
  9
$PEXTMIN
 10
0.0
 20
0.0
 30
0.0
  9
$PEXTMAX
 10
0.0
 20
0.0
 30
0.0
  9
$PLIMMIN
 10
0.0
 20
0.0
  9
$PLIMMAX
 10
0.0
 20
0.0
  9
$UNITMODE
 70
     0
  9
$VISRETAIN
 70
     1
  9
$PLINEGEN
 70
     0
  9
$PSLTSCALE
 70
     1
  9
$TREEDEPTH
 70
  3020
  9
$CMLSTYLE
  2
Standard
  9
$CMLJUST
 70
     0
  9
$CMLSCALE
 40
1.0
  9
$PROXYGRAPHICS
 70
     1
  9
$MEASUREMENT
 70
     0
  9
$CELWEIGHT
370
    -1
  9
$ENDCAPS
280
     0
  9
$JOINSTYLE
280
     0
  9
$LWDISPLAY
290
     0
  9
$INSUNITS
 70
     1
  9
$HYPERLINKBASE
  1

  9
$STYLESHEET
  1

  9
$XEDIT
290
     1
  9
$CEPSNTYPE
380
     0
  9
$PSTYLEMODE
290
     1
  9
$FINGERPRINTGUID
  2
{2080BD4D-A879-4F74-BAD3-0C2211DAE1D4}
  9
$VERSIONGUID
  2
{FAEB1C32-E019-11D5-929B-00C0DF256EC4}
  9
$EXTNAMES
290
     1
  9
$PSVPSCALE
 40
0.0
  9
$OLESTARTUP
290
     0
  9
$SORTENTS
280
   127
  9
$INDEXCTL
280
     0
  9
$HIDETEXT
280
     1
  9
$XCLIPFRAME
290
     0
  9
$HALOGAP
280
     0
  9
$OBSCOLOR
 70
   257
  9
$OBSLTYPE
280
     0
  9
$INTERSECTIONDISPLAY
280
     0
  9
$INTERSECTIONCOLOR
 70
   257
  9
$DIMASSOC
280
     2
  9
$PROJECTNAME
  1

  0
ENDSEC
  0
SECTION
  2
CLASSES
  0
CLASS
  1
ACDBDICTIONARYWDFLT
  2
AcDbDictionaryWithDefault
  3
ObjectDBX Classes
 90
        0
 91
        3
280
     0
281
     0
  0
ENDSEC
  0
SECTION
  2
TABLES
  0
TABLE
  2
VPORT
  5
8
330
0
100
AcDbSymbolTable
 70
     1
  0
VPORT
  5
29
330
8
100
AcDbSymbolTableRecord
100
AcDbViewportTableRecord
  2
*Active
 70
     0
 10
0.0
 20
0.0
 11
1.0
 21
1.0
 12
0.0
 22
0.0
 13
0.0
 23
0.0
 14
0.5
 24
0.5
 15
0.5
 25
0.5
 16
0.0
 26
0.0
 36
1.0
 17
221.9947628991428
 27
129.1870271532193
 37
0.0
 40
145.3797362408027
 41
1.954248366013072
 42
50.0
 43
0.0
 44
0.0
 50
0.0
 51
0.0
 71
     0
 72
   100
 73
     1
 74
     3
 75
     0
 76
     0
 77
     0
 78
     0
281
     0
 65
     1
110
0.0
120
0.0
130
0.0
111
1.0
121
0.0
131
0.0
112
0.0
122
1.0
132
0.0
 79
     0
146
0.0
  0
ENDTAB
  0
TABLE
  2
LTYPE
  5
5
330
0
100
AcDbSymbolTable
 70
    13
  0
LTYPE
  5
14
330
5
100
AcDbSymbolTableRecord
100
AcDbLinetypeTableRecord
  2
ByBlock
 70
     0
  3

 72
    65
 73
     0
 40
0.0
  0
LTYPE
  5
15
330
5
100
AcDbSymbolTableRecord
100
AcDbLinetypeTableRecord
  2
ByLayer
 70
     0
  3

 72
    65
 73
     0
 40
0.0
  0
LTYPE
  5
16
330
5
100
AcDbSymbolTableRecord
100
AcDbLinetypeTableRecord
  2
Continuous
 70
     0
  3
Solid line
 72
    65
 73
     0
 40
0.0
  0
LTYPE
  5
2B
330
5
100
AcDbSymbolTableRecord
100
AcDbLinetypeTableRecord
  2
BORDER
 70
     0
  3
BORDER
 72
    65
 73
     6
 40
1.75
 49
0.5
 74
     0
 49
-0.25
 74
     0
 49
0.5
 74
     0
 49
-0.25
 74
     0
 49
0.0
 74
     0
 49
-0.25
 74
     0
  0
LTYPE
  5
2C
330
5
100
AcDbSymbolTableRecord
100
AcDbLinetypeTableRecord
  2
CENTER
 70
     0
  3
CENTER
 72
    65
 73
     4
 40
2.0
 49
1.25
 74
     0
 49
-0.25
 74
     0
 49
0.25
 74
     0
 49
-0.25
 74
     0
  0
LTYPE
  5
2D
330
5
100
AcDbSymbolTableRecord
100
AcDbLinetypeTableRecord
  2
DASHDOT
 70
     0
  3
DASHDOT
 72
    65
 73
     4
 40
1.0
 49
0.5
 74
     0
 49
-0.25
 74
     0
 49
0.0
 74
     0
 49
-0.25
 74
     0
  0
LTYPE
  5
2E
330
5
100
AcDbSymbolTableRecord
100
AcDbLinetypeTableRecord
  2
DASHED
 70
     0
  3
DASHED
 72
    65
 73
     2
 40
0.75
 49
0.5
 74
     0
 49
-0.25
 74
     0
  0
LTYPE
  5
2F
330
5
100
AcDbSymbolTableRecord
100
AcDbLinetypeTableRecord
  2
DIVIDE
 70
     0
  3
DIVIDE
 72
    65
 73
     6
 40
1.25
 49
0.5
 74
     0
 49
-0.25
 74
     0
 49
0.0
 74
     0
 49
-0.25
 74
     0
 49
0.0
 74
     0
 49
-0.25
 74
     0
  0
LTYPE
  5
30
330
5
100
AcDbSymbolTableRecord
100
AcDbLinetypeTableRecord
  2
DOT
 70
     0
  3
DOT
 72
    65
 73
     2
 40
0.25
 49
0.0
 74
     0
 49
-0.25
 74
     0
  0
LTYPE
  5
31
330
5
100
AcDbSymbolTableRecord
100
AcDbLinetypeTableRecord
  2
HIDDEN
 70
     0
  3
HIDDEN
 72
    65
 73
     2
 40
0.375
 49
0.25
 74
     0
 49
-0.125
 74
     0
  0
LTYPE
  5
32
330
5
100
AcDbSymbolTableRecord
100
AcDbLinetypeTableRecord
  2
PHANTOM
 70
     0
  3
PHANTOM
 72
    65
 73
     6
 40
2.5
 49
1.25
 74
     0
 49
-0.25
 74
     0
 49
0.25
 74
     0
 49
-0.25
 74
     0
 49
0.25
 74
     0
 49
-0.25
 74
     0
  0
LTYPE
  5
33
330
5
100
AcDbSymbolTableRecord
100
AcDbLinetypeTableRecord
  2
$INVISIBLE
 70
     0
  3
$INVISIBLE
 72
    65
 73
     2
 40
200.0
 49
-100.0
 74
     0
 49
-100.0
 74
     0
  0
LTYPE
  5
34
330
5
100
AcDbSymbolTableRecord
100
AcDbLinetypeTableRecord
  2
DASHSPACE
 70
     0
  3
DASHSPACE
 72
    65
 73
     2
 40
30.0
 49
12.0
 74
     0
 49
-18.0
 74
     0
  0
LTYPE
  5
35
330
5
100
AcDbSymbolTableRecord
100
AcDbLinetypeTableRecord
  2
$SNAPEXT
 70
     0
  3
$SNAPEXT
 72
    65
 73
     2
 40
0.04
 49
0.02
 74
     0
 49
-0.02
 74
     0
  0
LTYPE
  5
36
330
5
100
AcDbSymbolTableRecord
100
AcDbLinetypeTableRecord
  2
$AUXILIARY
 70
     0
  3
$AUXILIARY
 72
    65
 73
     2
 40
0.1
 49
0.05
 74
     0
 49
-0.05
 74
     0
  0
ENDTAB
  0
TABLE
  2
LAYER
  5
2
330
0
100
AcDbSymbolTable
 70
     1
  0
LAYER
  5
10
330
2
100
AcDbSymbolTableRecord
100
AcDbLayerTableRecord
  2
0
 70
     0
 62
     7
  6
Continuous
370
     0
390
F
1001
TCAD
1000
TCW_LAYER_ORDER
1002
{
1071
        0
1002
}
  0
ENDTAB
  0
TABLE
  2
STYLE
  5
3
330
0
100
AcDbSymbolTable
 70
     1
  0
STYLE
  5
11
330
3
100
AcDbSymbolTableRecord
100
AcDbTextStyleTableRecord
  2
STANDARD
 70
     0
 40
0.0
 41
1.0
 50
0.0
 71
     0
 42
2.5
  3
TXT.SHX
  4

  0
ENDTAB
  0
TABLE
  2
VIEW
  5
6
330
0
100
AcDbSymbolTable
 70
     1
  0
VIEW
  5
37
330
6
100
AcDbSymbolTableRecord
100
AcDbViewTableRecord
  2
\U+8868\U+793A_0
 70
     0
 40
210.0
 10
148.5
 20
105.0
 41
297.0
 11
0.0
 21
0.0
 31
1.0
 12
0.0
 22
0.0
 32
0.0
 42
50.0
 43
0.0
 44
0.0
 50
0.0
 71
     0
281
     0
 72
     0
  0
ENDTAB
  0
TABLE
  2
UCS
  5
7
330
0
100
AcDbSymbolTable
 70
     0
  0
ENDTAB
  0
TABLE
  2
APPID
  5
9
330
0
100
AcDbSymbolTable
 70
     2
  0
APPID
  5
12
330
9
100
AcDbSymbolTableRecord
100
AcDbRegAppTableRecord
  2
ACAD
 70
     0
  0
APPID
  5
2A
330
9
100
AcDbSymbolTableRecord
100
AcDbRegAppTableRecord
  2
TCAD
 70
     0
  0
ENDTAB
  0
TABLE
  2
DIMSTYLE
  5
A
330
0
100
AcDbSymbolTable
 70
     1
100
AcDbDimStyleTable
  0
DIMSTYLE
105
27
330
A
100
AcDbSymbolTableRecord
100
AcDbDimStyleTableRecord
  2
Standard
 70
     0
 45
0.0000001
148
0.0000001
179
     4
340
11
  0
ENDTAB
  0
TABLE
  2
BLOCK_RECORD
  5
1
330
0
100
AcDbSymbolTable
 70
     2
  0
BLOCK_RECORD
  5
1F
330
1
100
AcDbSymbolTableRecord
100
AcDbBlockTableRecord
  2
*Model_Space
340
22
  0
BLOCK_RECORD
  5
1B
330
1
100
AcDbSymbolTableRecord
100
AcDbBlockTableRecord
  2
*Paper_Space
340
1E
  0
BLOCK_RECORD
  5
2C7
330
1
100
AcDbSymbolTableRecord
100
AcDbBlockTableRecord
  2
*Paper_Space1
340
2C8
  0
ENDTAB
  0
ENDSEC
  0
SECTION
  2
BLOCKS
  0
BLOCK
  5
20
330
1F
100
AcDbEntity
  8
0
100
AcDbBlockBegin
  2
*Model_Space
 70
     0
 71
     0
 10
0.0
 20
0.0
 30
0.0
  3
*Model_Space
  1

  0
ENDBLK
  5
21
330
1F
100
AcDbEntity
  8
0
100
AcDbBlockEnd
  0
BLOCK
  5
1C
330
1B
100
AcDbEntity
 67
     1
  8
0
100
AcDbBlockBegin
  2
*Paper_Space
 70
     0
 71
     0
 10
0.0
 20
0.0
 30
0.0
  3
*Paper_Space
  1

  0
ENDBLK
  5
1D
330
1B
100
AcDbEntity
 67
     1
  8
0
100
AcDbBlockEnd
  0
BLOCK
  5
2C9
330
2C7
100
AcDbEntity
  8
0
100
AcDbBlockBegin
  2
*Paper_Space1
 70
     0
 71
     0
 10
0.0
 20
0.0
 30
0.0
  3
*Paper_Space1
  1

  0
ENDBLK
  5
2CA
330
2C7
100
AcDbEntity
  8
0
100
AcDbBlockEnd
  0
ENDSEC
  0
SECTION
  2
ENTITIES
  0
LWPOLYLINE
  5
38
330
1F
100
AcDbEntity
  8
0
 62
     7
370
    35
100
AcDbPolyline
 90
       22
 70
     0
 43
0.0
 10
99.726944
 20
115.936066
 10
99.779739
 20
115.508591
 10
99.934334
 20
115.098305
 10
100.180725
 20
114.71962
 10
100.49472
 20
114.392441
 10
100.868469
 20
114.111679
 10
101.295532
 20
113.8778
 10
101.758286
 20
113.697205
 10
102.251648
 20
113.569313
 10
102.760941
 20
113.496536
 10
103.280319
 20
113.478889
 10
103.79805
 20
113.516937
 10
104.304993
 20
113.610611
 10
104.792435
 20
113.759987
 10
105.246933
 20
113.963234
 10
105.660309
 20
114.22023
 10
106.015076
 20
114.524246
 10
106.302811
 20
114.873459
 10
106.451645
 20
115.130066
 10
106.559814
 20
115.400154
 10
106.622162
 20
115.665916
 10
106.643158
 20
115.936066
1001
TCAD
1000
TCW40_DEV_WIDTH
1002
{
1040
0.0137795275077224
1002
}
  0
LWPOLYLINE
  5
39
330
1F
100
AcDbEntity
  8
0
 62
     7
370
    35
100
AcDbPolyline
 90
       20
 70
     0
 43
0.0
 10
106.643158
 20
115.936066
 10
106.622162
 20
116.206245
 10
106.559784
 20
116.472076
 10
106.453156
 20
116.738968
 10
106.306793
 20
116.992752
 10
106.103287
 20
117.254082
 10
105.86142
 20
117.49189
 10
105.42424
 20
117.808655
 10
104.928268
 20
118.058601
 10
104.390991
 20
118.239655
 10
103.651627
 20
118.371658
 10
102.895493
 20
118.385529
 10
102.149796
 20
118.281281
 10
101.4039
 20
118.042603
 10
101.058685
 20
117.873978
 10
100.739349
 20
117.67318
 10
100.294495
 20
117.284531
 10
99.988052
 20
116.872345
 10
99.793716
 20
116.416321
 10
99.726944
 20
115.936066
1001
TCAD
1000
TCW40_DEV_WIDTH
1002
{
1040
0.0137795275077224
1002
}
  0
LWPOLYLINE
  5
3A
330
1F
100
AcDbEntity
  8
0
 62
     7
370
    35
100
AcDbPolyline
 90
       22
 70
     0
 43
0.0
 10
109.726944
 20
115.936066
 10
109.779739
 20
115.508591
 10
109.934326
 20
115.098305
 10
110.180725
 20
114.71962
 10
110.49472
 20
114.392441
 10
110.868469
 20
114.111679
 10
111.295532
 20
113.8778
 10
111.758286
 20
113.697205
 10
112.251648
 20
113.569313
 10
112.760941
 20
113.496536
 10
113.280319
 20
113.478889
 10
113.79805
 20
113.516937
 10
114.304993
 20
113.610611
 10
114.792435
 20
113.759987
 10
115.246933
 20
113.963234
 10
115.660309
 20
114.22023
 10
116.015076
 20
114.524246
 10
116.302811
 20
114.873459
 10
116.451645
 20
115.130066
 10
116.559814
 20
115.400154
 10
116.622162
 20
115.665916
 10
116.643158
 20
115.936066
1001
TCAD
1000
TCW40_DEV_WIDTH
1002
{
1040
0.0137795275077224
1002
}
  0
LWPOLYLINE
  5
3B
330
1F
100
AcDbEntity
  8
0
 62
     7
370
    35
100
AcDbPolyline
 90
       20
 70
     0
 43
0.0
 10
116.643158
 20
115.936066
 10
116.622162
 20
116.206245
 10
116.559784
 20
116.472076
 10
116.453156
 20
116.738968
 10
116.306793
 20
116.992752
 10
116.103287
 20
117.254082
 10
115.86142
 20
117.49189
 10
115.42424
 20
117.808655
 10
114.928268
 20
118.058601
 10
114.390991
 20
118.239655
 10
113.651627
 20
118.371658
 10
112.895493
 20
118.385529
 10
112.149796
 20
118.281281
 10
111.4039
 20
118.042603
 10
111.058685
 20
117.873978
 10
110.739349
 20
117.67318
 10
110.294495
 20
117.284531
 10
109.988052
 20
116.872345
 10
109.793716
 20
116.416321
 10
109.726944
 20
115.936066
1001
TCAD
1000
TCW40_DEV_WIDTH
1002
{
1040
0.0137795275077224
1002
}
  0
LWPOLYLINE
  5
3C
330
1F
100
AcDbEntity
  8
0
 62
     7
370
    35
100
AcDbPolyline
 90
       22
 70
     0
 43
0.0
 10
126.643158
 20
115.936066
 10
126.590363
 20
116.363533
 10
126.43576
 20
116.773819
 10
126.189377
 20
117.152504
 10
125.875366
 20
117.479691
 10
125.501633
 20
117.760445
 10
125.07457
 20
117.994324
 10
124.611816
 20
118.174919
 10
124.118454
 20
118.302811
 10
123.609161
 20
118.375587
 10
123.089783
 20
118.393234
 10
122.572052
 20
118.355186
 10
122.065109
 20
118.261513
 10
121.577667
 20
118.112137
 10
121.123169
 20
117.90889
 10
120.709793
 20
117.651894
 10
120.355011
 20
117.347878
 10
120.067276
 20
116.998672
 10
119.918457
 20
116.742065
 10
119.810287
 20
116.47197
 10
119.747925
 20
116.206207
 10
119.726944
 20
115.936066
1001
TCAD
1000
TCW40_DEV_WIDTH
1002
{
1040
0.0137795275077224
1002
}
  0
LWPOLYLINE
  5
3D
330
1F
100
AcDbEntity
  8
0
 62
     7
370
    35
100
AcDbPolyline
 90
       20
 70
     0
 43
0.0
 10
119.726944
 20
115.936066
 10
119.74794
 20
115.665878
 10
119.810318
 20
115.400047
 10
119.916946
 20
115.133156
 10
120.063309
 20
114.879372
 10
120.266815
 20
114.618042
 10
120.508682
 20
114.380234
 10
120.945862
 20
114.063477
 10
121.441833
 20
113.813522
 10
121.979111
 20
113.632469
 10
122.718475
 20
113.500465
 10
123.474609
 20
113.486603
 10
124.220306
 20
113.590843
 10
124.966202
 20
113.829521
 10
125.311417
 20
113.998146
 10
125.630753
 20
114.198944
 10
126.075607
 20
114.587593
 10
126.38205
 20
114.999779
 10
126.576385
 20
115.455803
 10
126.643158
 20
115.936066
1001
TCAD
1000
TCW40_DEV_WIDTH
1002
{
1040
0.0137795275077224
1002
}
  0
LWPOLYLINE
  5
3E
330
1F
100
AcDbEntity
  8
0
 62
     7
370
    35
100
AcDbPolyline
 90
       22
 70
     0
 43
0.0
 10
136.643158
 20
115.936066
 10
136.590363
 20
116.363533
 10
136.43576
 20
116.773819
 10
136.189377
 20
117.152504
 10
135.875366
 20
117.479691
 10
135.501633
 20
117.760445
 10
135.07457
 20
117.994324
 10
134.611816
 20
118.174919
 10
134.118454
 20
118.302811
 10
133.609161
 20
118.375587
 10
133.089783
 20
118.393234
 10
132.572052
 20
118.355186
 10
132.065109
 20
118.261513
 10
131.577667
 20
118.112137
 10
131.123169
 20
117.90889
 10
130.709793
 20
117.651894
 10
130.355011
 20
117.347878
 10
130.067276
 20
116.998672
 10
129.918457
 20
116.742065
 10
129.810287
 20
116.47197
 10
129.747925
 20
116.206207
 10
129.726944
 20
115.936066
1001
TCAD
1000
TCW40_DEV_WIDTH
1002
{
1040
0.0137795275077224
1002
}
  0
LWPOLYLINE
  5
3F
330
1F
100
AcDbEntity
  8
0
 62
     7
370
    35
100
AcDbPolyline
 90
       20
 70
     0
 43
0.0
 10
129.726944
 20
115.936066
 10
129.74794
 20
115.665878
 10
129.810318
 20
115.400047
 10
129.916946
 20
115.133156
 10
130.063309
 20
114.879372
 10
130.266815
 20
114.618042
 10
130.508682
 20
114.380234
 10
130.945862
 20
114.063477
 10
131.441833
 20
113.813522
 10
131.979111
 20
113.632469
 10
132.718475
 20
113.500465
 10
133.474609
 20
113.486603
 10
134.220306
 20
113.590843
 10
134.966202
 20
113.829521
 10
135.311417
 20
113.998146
 10
135.630753
 20
114.198944
 10
136.075607
 20
114.587593
 10
136.38205
 20
114.999779
 10
136.576385
 20
115.455803
 10
136.643158
 20
115.936066
1001
TCAD
1000
TCW40_DEV_WIDTH
1002
{
1040
0.0137795275077224
1002
}
  0
LWPOLYLINE
  5
40
330
1F
100
AcDbEntity
  8
0
 62
     7
370
    13
100
AcDbPolyline
 90
       18
 70
     0
 43
0.0
 10
136.189514
 20
115.936066
 10
136.184937
 20
115.827454
 10
136.069107
 20
115.383041
 10
135.938538
 20
115.144852
 10
135.762924
 20
114.917992
 10
135.406357
 20
114.596565
 10
134.969208
 20
114.330544
 10
134.543076
 20
114.152451
 10
134.085968
 20
114.025833
 10
133.456146
 20
113.939957
 10
132.816437
 20
113.947083
 10
132.190155
 20
114.047104
 10
131.62735
 20
114.227722
 10
131.122772
 20
114.487549
 10
130.763123
 20
114.761047
 10
130.480133
 20
115.074738
 10
130.254547
 20
115.501266
 10
130.180588
 20
115.936066
1001
TCAD
1000
TCW40_DEV_WIDTH
1002
{
1040
0.005118110217154
1002
}
  0
LWPOLYLINE
  5
41
330
1F
100
AcDbEntity
  8
0
 62
     7
370
    13
100
AcDbPolyline
 90
       20
 70
     0
 43
0.0
 10
136.189514
 20
115.936066
 10
136.186264
 20
116.027626
 10
136.076721
 20
116.471611
 10
135.950439
 20
116.708954
 10
135.779434
 20
116.935516
 10
135.425568
 20
117.261238
 10
134.98912
 20
117.531563
 10
134.564011
 20
117.712402
 10
134.107224
 20
117.84169
 10
133.496002
 20
117.92952
 10
132.87413
 20
117.929527
 10
132.263
 20
117.841713
 10
131.558914
 20
117.615402
 10
131.239761
 20
117.455276
 10
130.951385
 20
117.26638
 10
130.601303
 20
116.947556
 10
130.35704
 20
116.602982
 10
130.298309
 20
116.482986
 10
130.184677
 20
116.038689
 10
130.180588
 20
115.936066
1001
TCAD
1000
TCW40_DEV_WIDTH
1002
{
1040
0.005118110217154
1002
}
  0
LWPOLYLINE
  5
42
330
1F
100
AcDbEntity
  8
0
 62
     7
370
    13
100
AcDbPolyline
 90
       19
 70
     0
 43
0.0
 10
136.489456
 20
115.936066
 10
136.445709
 20
115.564194
 10
136.316696
 20
115.203979
 10
136.108566
 20
114.865967
 10
135.905991
 20
114.632523
 10
135.668732
 20
114.41983
 10
135.201431
 20
114.113174
 10
134.672058
 20
113.879768
 10
134.101395
 20
113.722656
 10
133.276398
 20
113.632545
 10
132.445297
 20
113.690544
 10
132.030823
 20
113.777771
 10
131.632141
 20
113.903694
 10
131.273468
 20
114.058891
 10
130.941162
 20
114.247688
 10
130.503677
 20
114.593346
 10
130.166901
 20
115.001732
 10
129.953751
 20
115.456398
 10
129.88063
 20
115.936066
1001
TCAD
1000
TCW40_DEV_WIDTH
1002
{
1040
0.005118110217154
1002
}
  0
LWPOLYLINE
  5
43
330
1F
100
AcDbEntity
  8
0
 62
     7
370
    13
100
AcDbPolyline
 90
       18
 70
     0
 43
0.0
 10
136.489456
 20
115.936066
 10
136.445724
 20
116.307884
 10
136.316711
 20
116.668098
 10
136.108566
 20
117.006165
 10
135.905945
 20
117.239655
 10
135.66864
 20
117.452377
 10
135.201294
 20
117.759041
 10
134.671967
 20
117.992393
 10
134.101395
 20
118.149467
 10
133.439804
 20
118.233566
 10
132.770248
 20
118.222115
 10
132.113815
 20
118.115173
 10
131.505493
 20
117.918594
 10
130.953995
 20
117.63269
 10
130.487671
 20
117.263168
 10
130.159164
 20
116.858292
 10
129.951675
 20
116.408974
 10
129.88063
 20
115.936066
1001
TCAD
1000
TCW40_DEV_WIDTH
1002
{
1040
0.005118110217154
1002
}
  0
LWPOLYLINE
  5
44
330
1F
100
AcDbEntity
  8
0
 62
     7
370
    13
100
AcDbPolyline
 90
       18
 70
     0
 43
0.0
 10
126.189514
 20
115.936066
 10
126.184937
 20
115.827454
 10
126.069107
 20
115.383041
 10
125.938538
 20
115.144852
 10
125.762924
 20
114.917992
 10
125.406357
 20
114.596565
 10
124.969208
 20
114.330544
 10
124.543076
 20
114.152451
 10
124.085968
 20
114.025833
 10
123.456146
 20
113.939957
 10
122.816437
 20
113.947083
 10
122.190155
 20
114.047104
 10
121.62735
 20
114.227722
 10
121.122772
 20
114.487549
 10
120.763123
 20
114.761047
 10
120.480133
 20
115.074738
 10
120.254547
 20
115.501266
 10
120.180588
 20
115.936066
1001
TCAD
1000
TCW40_DEV_WIDTH
1002
{
1040
0.005118110217154
1002
}
  0
LWPOLYLINE
  5
45
330
1F
100
AcDbEntity
  8
0
 62
     7
370
    13
100
AcDbPolyline
 90
       20
 70
     0
 43
0.0
 10
126.189514
 20
115.936066
 10
126.186264
 20
116.027626
 10
126.076721
 20
116.471611
 10
125.950439
 20
116.708954
 10
125.779434
 20
116.935516
 10
125.425568
 20
117.261238
 10
124.98912
 20
117.531563
 10
124.564011
 20
117.712402
 10
124.107224
 20
117.84169
 10
123.496002
 20
117.92952
 10
122.87413
 20
117.929527
 10
122.263
 20
117.841713
 10
121.558914
 20
117.615402
 10
121.239761
 20
117.455276
 10
120.951385
 20
117.26638
 10
120.601303
 20
116.947556
 10
120.35704
 20
116.602982
 10
120.298309
 20
116.482986
 10
120.184677
 20
116.038689
 10
120.180588
 20
115.936066
1001
TCAD
1000
TCW40_DEV_WIDTH
1002
{
1040
0.005118110217154
1002
}
  0
LWPOLYLINE
  5
46
330
1F
100
AcDbEntity
  8
0
 62
     7
370
    13
100
AcDbPolyline
 90
       19
 70
     0
 43
0.0
 10
126.489456
 20
115.936066
 10
126.445709
 20
115.564194
 10
126.316696
 20
115.203979
 10
126.108566
 20
114.865967
 10
125.905991
 20
114.632523
 10
125.668732
 20
114.41983
 10
125.201431
 20
114.113174
 10
124.672058
 20
113.879768
 10
124.101395
 20
113.722656
 10
123.276398
 20
113.632545
 10
122.445297
 20
113.690544
 10
122.030823
 20
113.777771
 10
121.632141
 20
113.903694
 10
121.273468
 20
114.058891
 10
120.941162
 20
114.247688
 10
120.503677
 20
114.593346
 10
120.166901
 20
115.001732
 10
119.953751
 20
115.456398
 10
119.88063
 20
115.936066
1001
TCAD
1000
TCW40_DEV_WIDTH
1002
{
1040
0.005118110217154
1002
}
  0
LWPOLYLINE
  5
47
330
1F
100
AcDbEntity
  8
0
 62
     7
370
    13
100
AcDbPolyline
 90
       18
 70
     0
 43
0.0
 10
126.489456
 20
115.936066
 10
126.445724
 20
116.307884
 10
126.316711
 20
116.668098
 10
126.108566
 20
117.006165
 10
125.905945
 20
117.239655
 10
125.66864
 20
117.452377
 10
125.201294
 20
117.759041
 10
124.671967
 20
117.992393
 10
124.101395
 20
118.149467
 10
123.439804
 20
118.233566
 10
122.770248
 20
118.222115
 10
122.113815
 20
118.115173
 10
121.505493
 20
117.918594
 10
120.953995
 20
117.63269
 10
120.487671
 20
117.263168
 10
120.159164
 20
116.858292
 10
119.951675
 20
116.408974
 10
119.88063
 20
115.936066
1001
TCAD
1000
TCW40_DEV_WIDTH
1002
{
1040
0.005118110217154
1002
}
  0
LWPOLYLINE
  5
48
330
1F
100
AcDbEntity
  8
0
 62
     7
370
    13
100
AcDbPolyline
 90
       18
 70
     0
 43
0.0
 10
110.180588
 20
115.936066
 10
110.185165
 20
116.04467
 10
110.30098
 20
116.489082
 10
110.431564
 20
116.72728
 10
110.607178
 20
116.954132
 10
110.96373
 20
117.275558
 10
111.400879
 20
117.54158
 10
111.827026
 20
117.719673
 10
112.284134
 20
117.846291
 10
112.91394
 20
117.932167
 10
113.553665
 20
117.925049
 10
114.179947
 20
117.82502
 10
114.742737
 20
117.644409
 10
115.24733
 20
117.384583
 10
115.606979
 20
117.111076
 10
115.889969
 20
116.797394
 10
116.11554
 20
116.370857
 10
116.189514
 20
115.936066
1001
TCAD
1000
TCW40_DEV_WIDTH
1002
{
1040
0.005118110217154
1002
}
  0
LWPOLYLINE
  5
49
330
1F
100
AcDbEntity
  8
0
 62
     7
370
    13
100
AcDbPolyline
 90
       20
 70
     0
 43
0.0
 10
110.180588
 20
115.936066
 10
110.183838
 20
115.844498
 10
110.293381
 20
115.400513
 10
110.419662
 20
115.16317
 10
110.590668
 20
114.936607
 10
110.944534
 20
114.610886
 10
111.380966
 20
114.340561
 10
111.806091
 20
114.159721
 10
112.262878
 20
114.030441
 10
112.8741
 20
113.942604
 10
113.495972
 20
113.942596
 10
114.107101
 20
114.030411
 10
114.811188
 20
114.256729
 10
115.130341
 20
114.416847
 10
115.418716
 20
114.605743
 10
115.768799
 20
114.924568
 10
116.013062
 20
115.269142
 10
116.071793
 20
115.389145
 10
116.185425
 20
115.833435
 10
116.189514
 20
115.936066
1001
TCAD
1000
TCW40_DEV_WIDTH
1002
{
1040
0.005118110217154
1002
}
  0
LWPOLYLINE
  5
4A
330
1F
100
AcDbEntity
  8
0
 62
     7
370
    13
100
AcDbPolyline
 90
       19
 70
     0
 43
0.0
 10
109.88063
 20
115.936066
 10
109.924393
 20
116.30793
 10
110.053406
 20
116.668144
 10
110.26152
 20
117.006157
 10
110.464096
 20
117.239609
 10
110.701355
 20
117.452293
 10
111.168671
 20
117.758949
 10
111.698044
 20
117.992355
 10
112.268707
 20
118.149467
 10
113.093704
 20
118.239578
 10
113.924805
 20
118.18158
 10
114.339279
 20
118.094353
 10
114.737961
 20
117.96843
 10
115.096634
 20
117.813232
 10
115.42894
 20
117.624435
 10
115.866409
 20
117.278786
 10
116.203186
 20
116.870392
 10
116.416351
 20
116.415726
 10
116.489456
 20
115.936066
1001
TCAD
1000
TCW40_DEV_WIDTH
1002
{
1040
0.005118110217154
1002
}
  0
LWPOLYLINE
  5
4B
330
1F
100
AcDbEntity
  8
0
 62
     7
370
    13
100
AcDbPolyline
 90
       18
 70
     0
 43
0.0
 10
109.88063
 20
115.936066
 10
109.924377
 20
115.56424
 10
110.053391
 20
115.204025
 10
110.261536
 20
114.865967
 10
110.464157
 20
114.632477
 10
110.701462
 20
114.419754
 10
111.168808
 20
114.113083
 10
111.698135
 20
113.87973
 10
112.268707
 20
113.722656
 10
112.930298
 20
113.638557
 10
113.599854
 20
113.650009
 10
114.256287
 20
113.756958
 10
114.864609
 20
113.953537
 10
115.416107
 20
114.239433
 10
115.882416
 20
114.608963
 10
116.210938
 20
115.013832
 10
116.418427
 20
115.46315
 10
116.489456
 20
115.936066
1001
TCAD
1000
TCW40_DEV_WIDTH
1002
{
1040
0.005118110217154
1002
}
  0
LWPOLYLINE
  5
4C
330
1F
100
AcDbEntity
  8
0
 62
     7
370
    13
100
AcDbPolyline
 90
       18
 70
     0
 43
0.0
 10
100.180588
 20
115.936066
 10
100.185165
 20
116.04467
 10
100.300987
 20
116.489082
 10
100.431564
 20
116.72728
 10
100.607178
 20
116.954132
 10
100.96373
 20
117.275558
 10
101.400879
 20
117.54158
 10
101.827026
 20
117.719673
 10
102.284134
 20
117.846291
 10
102.91394
 20
117.932167
 10
103.553665
 20
117.925049
 10
104.179947
 20
117.82502
 10
104.742737
 20
117.644409
 10
105.24733
 20
117.384583
 10
105.606979
 20
117.111076
 10
105.889969
 20
116.797394
 10
106.11554
 20
116.370857
 10
106.189514
 20
115.936066
1001
TCAD
1000
TCW40_DEV_WIDTH
1002
{
1040
0.005118110217154
1002
}
  0
LWPOLYLINE
  5
4D
330
1F
100
AcDbEntity
  8
0
 62
     7
370
    13
100
AcDbPolyline
 90
       20
 70
     0
 43
0.0
 10
100.180588
 20
115.936066
 10
100.183838
 20
115.844498
 10
100.293381
 20
115.400513
 10
100.419662
 20
115.16317
 10
100.590668
 20
114.936607
 10
100.944534
 20
114.610886
 10
101.380966
 20
114.340561
 10
101.806091
 20
114.159721
 10
102.262878
 20
114.030441
 10
102.8741
 20
113.942604
 10
103.495972
 20
113.942596
 10
104.107101
 20
114.030411
 10
104.811188
 20
114.256729
 10
105.130341
 20
114.416847
 10
105.418716
 20
114.605743
 10
105.768799
 20
114.924568
 10
106.013062
 20
115.269142
 10
106.071793
 20
115.389145
 10
106.185425
 20
115.833435
 10
106.189514
 20
115.936066
1001
TCAD
1000
TCW40_DEV_WIDTH
1002
{
1040
0.005118110217154
1002
}
  0
LWPOLYLINE
  5
4E
330
1F
100
AcDbEntity
  8
0
 62
     7
370
    13
100
AcDbPolyline
 90
       19
 70
     0
 43
0.0
 10
99.880638
 20
115.936066
 10
99.924393
 20
116.30793
 10
100.053406
 20
116.668144
 10
100.261528
 20
117.006157
 10
100.464104
 20
117.239609
 10
100.701363
 20
117.452293
 10
101.168671
 20
117.758949
 10
101.698044
 20
117.992355
 10
102.268707
 20
118.149467
 10
103.093704
 20
118.239578
 10
103.924805
 20
118.18158
 10
104.339279
 20
118.094353
 10
104.737961
 20
117.96843
 10
105.096634
 20
117.813232
 10
105.42894
 20
117.624435
 10
105.866409
 20
117.278786
 10
106.203186
 20
116.870392
 10
106.416351
 20
116.415726
 10
106.489456
 20
115.936066
1001
TCAD
1000
TCW40_DEV_WIDTH
1002
{
1040
0.005118110217154
1002
}
  0
LWPOLYLINE
  5
4F
330
1F
100
AcDbEntity
  8
0
 62
     7
370
    13
100
AcDbPolyline
 90
       18
 70
     0
 43
0.0
 10
99.880638
 20
115.936066
 10
99.924377
 20
115.56424
 10
100.053391
 20
115.204025
 10
100.261536
 20
114.865967
 10
100.464157
 20
114.632477
 10
100.701462
 20
114.419754
 10
101.168808
 20
114.113083
 10
101.698135
 20
113.87973
 10
102.268707
 20
113.722656
 10
102.930298
 20
113.638557
 10
103.599854
 20
113.650009
 10
104.256287
 20
113.756958
 10
104.864609
 20
113.953537
 10
105.416107
 20
114.239433
 10
105.882416
 20
114.608963
 10
106.210938
 20
115.013832
 10
106.418427
 20
115.46315
 10
106.489456
 20
115.936066
1001
TCAD
1000
TCW40_DEV_WIDTH
1002
{
1040
0.005118110217154
1002
}
  0
ELLIPSE
  5
50
330
1F
100
AcDbEntity
  8
0
 62
     7
370
    35
100
AcDbEllipse
 10
103.185043
 20
115.936066
 30
0.0
 11
3.500000000000004
 21
0.0
 31
0.0
210
0.0
220
0.0
230
1.0
 40
0.7142860000000005
 41
0.1343182205670391
 42
1.809615808487419
1001
TCAD
1000
TCW40_DEV_WIDTH
1002
{
1040
0.0137795275077224
1002
}
  0
ELLIPSE
  5
51
330
1F
100
AcDbEntity
  8
0
 62
     7
370
    35
100
AcDbEllipse
 10
103.185043
 20
115.936066
 30
0.0
 11
3.5
 21
0.0
 31
0.0
210
0.0
220
0.0
230
1.0
 40
0.7142859999999993
 41
3.141592653589793
 42
4.712269264864426
1001
TCAD
1000
TCW40_DEV_WIDTH
1002
{
1040
0.0137795275077224
1002
}
  0
ELLIPSE
  5
52
330
1F
100
AcDbEntity
  8
0
 62
     7
370
    35
100
AcDbEllipse
 10
113.185043
 20
115.936066
 30
0.0
 11
3.5
 21
0.0
 31
0.0
210
0.0
220
0.0
230
1.0
 40
0.7142859999999993
 41
3.141592653589793
 42
4.712269264865469
1001
TCAD
1000
TCW40_DEV_WIDTH
1002
{
1040
0.0137795275077224
1002
}
  0
ELLIPSE
  5
53
330
1F
100
AcDbEntity
  8
0
 62
     7
370
    35
100
AcDbEllipse
 10
113.185043
 20
115.936066
 30
0.0
 11
3.499999999999994
 21
0.0
 31
0.0
210
0.0
220
0.0
230
1.0
 40
0.7142860000000001
 41
0.1343182197239214
 42
1.809615809405043
1001
TCAD
1000
TCW40_DEV_WIDTH
1002
{
1040
0.0137795275077224
1002
}
  0
ELLIPSE
  5
54
330
1F
100
AcDbEntity
  8
0
 62
     7
370
    35
100
AcDbEllipse
 10
133.185043
 20
115.936066
 30
0.0
 11
3.499999999999999
 21
0.0
 31
0.0
210
0.0
220
0.0
230
1.0
 40
0.7142860000000003
 41
0.1343182184582374
 42
1.809615809432837
1001
TCAD
1000
TCW40_DEV_WIDTH
1002
{
1040
0.0137795275077224
1002
}
  0
ELLIPSE
  5
55
330
1F
100
AcDbEntity
  8
0
 62
     7
370
    35
100
AcDbEllipse
 10
133.185043
 20
115.936066
 30
0.0
 11
3.5
 21
0.0
 31
0.0
210
0.0
220
0.0
230
1.0
 40
0.7142859999999993
 41
3.141592653589793
 42
4.712269264866301
1001
TCAD
1000
TCW40_DEV_WIDTH
1002
{
1040
0.0137795275077224
1002
}
  0
ELLIPSE
  5
56
330
1F
100
AcDbEntity
  8
0
 62
     7
370
    35
100
AcDbEllipse
 10
123.185043
 20
115.936066
 30
0.0
 11
3.5
 21
0.0
 31
0.0
210
0.0
220
0.0
230
1.0
 40
0.7142859999999993
 41
3.141592653589793
 42
4.712269264875079
1001
TCAD
1000
TCW40_DEV_WIDTH
1002
{
1040
0.0137795275077224
1002
}
  0
ELLIPSE
  5
57
330
1F
100
AcDbEntity
  8
0
 62
     7
370
    35
100
AcDbEllipse
 10
123.185043
 20
115.936066
 30
0.0
 11
3.499999999999999
 21
0.0
 31
0.0
210
0.0
220
0.0
230
1.0
 40
0.7142860000000019
 41
0.1343182196059887
 42
1.809615809519608
1001
TCAD
1000
TCW40_DEV_WIDTH
1002
{
1040
0.0137795275077224
1002
}
  0
LINE
  5
58
330
1F
100
AcDbEntity
  8
0
 62
     7
370
    13
100
AcDbLine
 10
140.685043
 20
108.636063
 30
0.0
 11
95.685051
 21
108.636063
 31
0.0
1001
TCAD
1000
TCW40_DEV_WIDTH
1002
{
1040
0.005118110217154
1002
}
  0
LINE
  5
59
330
1F
100
AcDbEntity
  8
0
 62
     7
370
    13
100
AcDbLine
 10
140.685043
 20
153.636063
 30
0.0
 11
140.685043
 21
108.636063
 31
0.0
1001
TCAD
1000
TCW40_DEV_WIDTH
1002
{
1040
0.005118110217154
1002
}
  0
LINE
  5
5A
330
1F
100
AcDbEntity
  8
0
 62
     7
370
    13
100
AcDbLine
 10
95.685051
 20
153.636063
 30
0.0
 11
140.685043
 21
153.636063
 31
0.0
1001
TCAD
1000
TCW40_DEV_WIDTH
1002
{
1040
0.005118110217154
1002
}
  0
LINE
  5
5B
330
1F
100
AcDbEntity
  8
0
 62
     7
370
    13
100
AcDbLine
 10
95.685051
 20
108.636063
 30
0.0
 11
95.685051
 21
153.636063
 31
0.0
1001
TCAD
1000
TCW40_DEV_WIDTH
1002
{
1040
0.005118110217154
1002
}
  0
LINE
  5
5C
330
1F
100
AcDbEntity
  8
0
 62
     7
370
    35
100
AcDbLine
 10
140.185043
 20
109.136063
 30
0.0
 11
140.185043
 21
153.136063
 31
0.0
1001
TCAD
1000
TCW40_DEV_WIDTH
1002
{
1040
0.0137795275077224
1002
}
  0
LINE
  5
5D
330
1F
100
AcDbEntity
  8
0
 62
     7
370
    35
100
AcDbLine
 10
140.185043
 20
109.136063
 30
0.0
 11
96.185051
 21
109.136063
 31
0.0
1001
TCAD
1000
TCW40_DEV_WIDTH
1002
{
1040
0.0137795275077224
1002
}
  0
LINE
  5
5E
330
1F
100
AcDbEntity
  8
0
 62
     7
370
    35
100
AcDbLine
 10
96.185051
 20
153.136063
 30
0.0
 11
96.185051
 21
109.136063
 31
0.0
1001
TCAD
1000
TCW40_DEV_WIDTH
1002
{
1040
0.0137795275077224
1002
}
  0
LINE
  5
5F
330
1F
100
AcDbEntity
  8
0
 62
     7
370
    35
100
AcDbLine
 10
96.185051
 20
153.136063
 30
0.0
 11
140.185043
 21
153.136063
 31
0.0
1001
TCAD
1000
TCW40_DEV_WIDTH
1002
{
1040
0.0137795275077224
1002
}
  0
LINE
  5
60
330
1F
100
AcDbEntity
  8
0
 62
     7
370
    13
100
AcDbLine
 10
95.685051
 20
108.636063
 30
0.0
 11
95.685051
 21
107.136063
 31
0.0
1001
TCAD
1000
TCW40_DEV_WIDTH
1002
{
1040
0.005118110217154
1002
}
  0
LINE
  5
61
330
1F
100
AcDbEntity
  8
0
 62
     7
370
    35
100
AcDbLine
 10
140.685043
 20
107.136063
 30
0.0
 11
95.685051
 21
107.136063
 31
0.0
1001
TCAD
1000
TCW40_DEV_WIDTH
1002
{
1040
0.0137795275077224
1002
}
  0
LINE
  5
62
330
1F
100
AcDbEntity
  8
0
 62
     7
370
    13
100
AcDbLine
 10
140.685043
 20
108.636063
 30
0.0
 11
140.685043
 21
107.136063
 31
0.0
1001
TCAD
1000
TCW40_DEV_WIDTH
1002
{
1040
0.005118110217154
1002
}
  0
LINE
  5
63
330
1F
100
AcDbEntity
  8
0
 62
     7
370
    35
100
AcDbLine
 10
142.185043
 20
153.636063
 30
0.0
 11
142.185043
 21
140.823563
 31
0.0
1001
TCAD
1000
TCW40_DEV_WIDTH
1002
{
1040
0.0137795275077224
1002
}
  0
LINE
  5
64
330
1F
100
AcDbEntity
  8
0
 62
     7
370
    13
100
AcDbLine
 10
140.685043
 20
153.636063
 30
0.0
 11
142.185043
 21
153.636063
 31
0.0
1001
TCAD
1000
TCW40_DEV_WIDTH
1002
{
1040
0.005118110217154
1002
}
  0
LINE
  5
65
330
1F
100
AcDbEntity
  8
0
 62
     7
370
    13
100
AcDbLine
 10
140.685043
 20
108.636063
 30
0.0
 11
142.185043
 21
108.636063
 31
0.0
1001
TCAD
1000
TCW40_DEV_WIDTH
1002
{
1040
0.005118110217154
1002
}
  0
LINE
  5
66
330
1F
100
AcDbEntity
  8
0
 62
     7
370
    35
100
AcDbLine
 10
142.185043
 20
121.448563
 30
0.0
 11
142.185043
 21
108.636063
 31
0.0
1001
TCAD
1000
TCW40_DEV_WIDTH
1002
{
1040
0.0137795275077224
1002
}
  0
ELLIPSE
  5
67
330
1F
100
AcDbEntity
  8
0
 62
     7
370
    35
100
AcDbEllipse
 10
140.685028
 20
121.448563
 30
0.0
 11
1.500015258789052
 21
0.0
 31
0.0
210
0.0
220
0.0
230
1.0
 40
0.1250000000000024
 41
0.0000009658592993
 42
1.230951429594108
1001
TCAD
1000
TCW40_DEV_WIDTH
1002
{
1040
0.0137795275077224
1002
}
  0
LINE
  5
68
330
1F
100
AcDbEntity
  8
0
 62
     7
370
    35
100
AcDbLine
 10
141.185043
 20
121.625336
 30
0.0
 11
141.185043
 21
140.64679
 31
0.0
1001
TCAD
1000
TCW40_DEV_WIDTH
1002
{
1040
0.0137795275077224
1002
}
  0
ELLIPSE
  5
69
330
1F
100
AcDbEntity
  8
0
 62
     7
370
    35
100
AcDbEllipse
 10
140.685028
 20
140.823563
 30
0.0
 11
1.500015258789065
 21
0.0
 31
0.0
210
0.0
220
0.0
230
1.0
 40
0.1250000000000009
 41
5.052233877587213
 42
6.283185307179586
1001
TCAD
1000
TCW40_DEV_WIDTH
1002
{
1040
0.0137795275077224
1002
}
  0
LINE
  5
6A
330
1F
100
AcDbEntity
  8
0
 62
     7
370
    13
100
AcDbLine
 10
140.685043
 20
153.636063
 30
0.0
 11
140.685043
 21
155.136063
 31
0.0
1001
TCAD
1000
TCW40_DEV_WIDTH
1002
{
1040
0.005118110217154
1002
}
  0
LINE
  5
6B
330
1F
100
AcDbEntity
  8
0
 62
     7
370
    35
100
AcDbLine
 10
95.685051
 20
155.136063
 30
0.0
 11
140.685043
 21
155.136063
 31
0.0
1001
TCAD
1000
TCW40_DEV_WIDTH
1002
{
1040
0.0137795275077224
1002
}
  0
LINE
  5
6C
330
1F
100
AcDbEntity
  8
0
 62
     7
370
    13
100
AcDbLine
 10
95.685051
 20
153.636063
 30
0.0
 11
95.685051
 21
155.136063
 31
0.0
1001
TCAD
1000
TCW40_DEV_WIDTH
1002
{
1040
0.005118110217154
1002
}
  0
LINE
  5
6D
330
1F
100
AcDbEntity
  8
0
 62
     7
370
    35
100
AcDbLine
 10
94.185051
 20
108.636063
 30
0.0
 11
94.185051
 21
121.448563
 31
0.0
1001
TCAD
1000
TCW40_DEV_WIDTH
1002
{
1040
0.0137795275077224
1002
}
  0
LINE
  5
6E
330
1F
100
AcDbEntity
  8
0
 62
     7
370
    13
100
AcDbLine
 10
95.685051
 20
108.636063
 30
0.0
 11
94.185051
 21
108.636063
 31
0.0
1001
TCAD
1000
TCW40_DEV_WIDTH
1002
{
1040
0.005118110217154
1002
}
  0
LINE
  5
6F
330
1F
100
AcDbEntity
  8
0
 62
     7
370
    13
100
AcDbLine
 10
95.685051
 20
153.636063
 30
0.0
 11
94.185051
 21
153.636063
 31
0.0
1001
TCAD
1000
TCW40_DEV_WIDTH
1002
{
1040
0.005118110217154
1002
}
  0
LINE
  5
70
330
1F
100
AcDbEntity
  8
0
 62
     7
370
    35
100
AcDbLine
 10
94.185051
 20
140.823563
 30
0.0
 11
94.185051
 21
153.636063
 31
0.0
1001
TCAD
1000
TCW40_DEV_WIDTH
1002
{
1040
0.0137795275077224
1002
}
  0
ELLIPSE
  5
71
330
1F
100
AcDbEntity
  8
0
 62
     7
370
    35
100
AcDbEllipse
 10
95.685066
 20
140.823563
 30
0.0
 11
1.500015258789062
 21
0.0
 31
0.0
210
0.0
220
0.0
230
1.0
 40
0.125
 41
3.141592653589793
 42
4.372544083209096
1001
TCAD
1000
TCW40_DEV_WIDTH
1002
{
1040
0.0137795275077224
1002
}
  0
LINE
  5
72
330
1F
100
AcDbEntity
  8
0
 62
     7
370
    35
100
AcDbLine
 10
95.185051
 20
121.625336
 30
0.0
 11
95.185051
 21
140.64679
 31
0.0
1001
TCAD
1000
TCW40_DEV_WIDTH
1002
{
1040
0.0137795275077224
1002
}
  0
ELLIPSE
  5
73
330
1F
100
AcDbEntity
  8
0
 62
     7
370
    35
100
AcDbEllipse
 10
95.685066
 20
121.448563
 30
0.0
 11
1.500015258789064
 21
0.0
 31
0.0
210
0.0
220
0.0
230
1.0
 40
0.1250000000000001
 41
1.91064122396129
 42
3.141592653589793
1001
TCAD
1000
TCW40_DEV_WIDTH
1002
{
1040
0.0137795275077224
1002
}
  0
ARC
  5
74
330
1F
100
AcDbEntity
  8
0
 62
     7
370
    35
100
AcDbCircle
 10
95.685051
 20
108.636063
 30
0.0
 40
1.5
100
AcDbArc
 50
180.0
 51
269.9999970000001
1001
TCAD
1000
TCW40_DEV_WIDTH
1002
{
1040
0.0137795275077224
1002
}
  0
ARC
  5
75
330
1F
100
AcDbEntity
  8
0
 62
     7
370
    35
100
AcDbCircle
 10
140.685043
 20
108.636063
 30
0.0
 40
1.5
100
AcDbArc
 50
-90.0
 51
0.0
1001
TCAD
1000
TCW40_DEV_WIDTH
1002
{
1040
0.0137795275077224
1002
}
  0
ARC
  5
76
330
1F
100
AcDbEntity
  8
0
 62
     7
370
    35
100
AcDbCircle
 10
140.685043
 20
153.636063
 30
0.0
 40
1.5
100
AcDbArc
 50
0.0
 51
90.00000299999986
1001
TCAD
1000
TCW40_DEV_WIDTH
1002
{
1040
0.0137795275077224
1002
}
  0
ARC
  5
77
330
1F
100
AcDbEntity
  8
0
 62
     7
370
    35
100
AcDbCircle
 10
95.685051
 20
153.636063
 30
0.0
 40
1.5
100
AcDbArc
 50
90.0
 51
180.0000050000005
1001
TCAD
1000
TCW40_DEV_WIDTH
1002
{
1040
0.0137795275077224
1002
}
  0
LINE
  5
78
330
1F
100
AcDbEntity
  8
0
 62
     7
370
    35
100
AcDbLine
 10
141.185043
 20
137.636063
 30
0.0
 11
141.285049
 21
137.636063
 31
0.0
1001
TCAD
1000
TCW40_DEV_WIDTH
1002
{
1040
0.0137795275077224
1002
}
  0
LINE
  5
79
330
1F
100
AcDbEntity
  8
0
 62
     7
370
    35
100
AcDbLine
 10
141.185043
 20
133.636063
 30
0.0
 11
141.285049
 21
133.636063
 31
0.0
1001
TCAD
1000
TCW40_DEV_WIDTH
1002
{
1040
0.0137795275077224
1002
}
  0
LINE
  5
7A
330
1F
100
AcDbEntity
  8
0
 62
     7
370
    35
100
AcDbLine
 10
141.185043
 20
128.636063
 30
0.0
 11
141.285049
 21
128.636063
 31
0.0
1001
TCAD
1000
TCW40_DEV_WIDTH
1002
{
1040
0.0137795275077224
1002
}
  0
LINE
  5
7B
330
1F
100
AcDbEntity
  8
0
 62
     7
370
    35
100
AcDbLine
 10
141.185043
 20
124.636063
 30
0.0
 11
141.285049
 21
124.636063
 31
0.0
1001
TCAD
1000
TCW40_DEV_WIDTH
1002
{
1040
0.0137795275077224
1002
}
  0
LINE
  5
7C
330
1F
100
AcDbEntity
  8
0
 62
     7
370
    35
100
AcDbLine
 10
95.185051
 20
137.636063
 30
0.0
 11
95.085052
 21
137.636063
 31
0.0
1001
TCAD
1000
TCW40_DEV_WIDTH
1002
{
1040
0.0137795275077224
1002
}
  0
LINE
  5
7D
330
1F
100
AcDbEntity
  8
0
 62
     7
370
    35
100
AcDbLine
 10
95.185051
 20
133.636063
 30
0.0
 11
95.085052
 21
133.636063
 31
0.0
1001
TCAD
1000
TCW40_DEV_WIDTH
1002
{
1040
0.0137795275077224
1002
}
  0
LINE
  5
7E
330
1F
100
AcDbEntity
  8
0
 62
     7
370
    35
100
AcDbLine
 10
95.185051
 20
128.636063
 30
0.0
 11
95.085052
 21
128.636063
 31
0.0
1001
TCAD
1000
TCW40_DEV_WIDTH
1002
{
1040
0.0137795275077224
1002
}
  0
LINE
  5
7F
330
1F
100
AcDbEntity
  8
0
 62
     7
370
    35
100
AcDbLine
 10
95.185051
 20
124.636063
 30
0.0
 11
95.085052
 21
124.636063
 31
0.0
1001
TCAD
1000
TCW40_DEV_WIDTH
1002
{
1040
0.0137795275077224
1002
}
  0
ELLIPSE
  5
80
330
1F
100
AcDbEntity
  8
0
 62
     7
370
    35
100
AcDbEllipse
 10
123.185043
 20
115.936066
 30
0.0
 11
3.5
 21
0.0
 31
0.0
210
0.0
220
0.0
230
1.0
 40
0.7142859999999993
 41
0.0
 42
6.283185307179586
1001
TCAD
1000
TCW40_DEV_WIDTH
1002
{
1040
0.0137795275077224
1002
}
  0
ELLIPSE
  5
81
330
1F
100
AcDbEntity
  8
0
 62
     7
370
    35
100
AcDbEllipse
 10
133.185043
 20
115.936066
 30
0.0
 11
3.5
 21
0.0
 31
0.0
210
0.0
220
0.0
230
1.0
 40
0.7142859999999993
 41
0.0
 42
6.283185307179586
1001
TCAD
1000
TCW40_DEV_WIDTH
1002
{
1040
0.0137795275077224
1002
}
  0
ELLIPSE
  5
82
330
1F
100
AcDbEntity
  8
0
 62
     7
370
    35
100
AcDbEllipse
 10
113.185043
 20
115.936066
 30
0.0
 11
3.5
 21
0.0
 31
0.0
210
0.0
220
0.0
230
1.0
 40
0.7142859999999993
 41
0.0
 42
6.283185307179586
1001
TCAD
1000
TCW40_DEV_WIDTH
1002
{
1040
0.0137795275077224
1002
}
  0
ELLIPSE
  5
83
330
1F
100
AcDbEntity
  8
0
 62
     7
370
    35
100
AcDbEllipse
 10
103.185043
 20
115.936066
 30
0.0
 11
3.5
 21
0.0
 31
0.0
210
0.0
220
0.0
230
1.0
 40
0.7142859999999993
 41
0.0
 42
6.283185307179586
1001
TCAD
1000
TCW40_DEV_WIDTH
1002
{
1040
0.0137795275077224
1002
}
  0
LINE
  5
84
330
1F
100
AcDbEntity
  8
0
 62
     7
370
    35
100
AcDbLine
 10
96.185051
 20
109.136063
 30
0.0
 11
140.185043
 21
109.136063
 31
0.0
1001
TCAD
1000
TCW40_DEV_WIDTH
1002
{
1040
0.0137795275077224
1002
}
  0
LINE
  5
85
330
1F
100
AcDbEntity
  8
0
 62
     7
370
    35
100
AcDbLine
 10
96.185051
 20
153.136063
 30
0.0
 11
96.185051
 21
109.136063
 31
0.0
1001
TCAD
1000
TCW40_DEV_WIDTH
1002
{
1040
0.0137795275077224
1002
}
  0
LINE
  5
86
330
1F
100
AcDbEntity
  8
0
 62
     7
370
    35
100
AcDbLine
 10
130.185043
 20
125.33606
 30
0.0
 11
135.185043
 21
125.33606
 31
0.0
1001
TCAD
1000
TCW40_DEV_WIDTH
1002
{
1040
0.0137795275077224
1002
}
  0
LINE
  5
87
330
1F
100
AcDbEntity
  8
0
 62
     7
370
    35
100
AcDbLine
 10
130.185043
 20
123.636063
 30
0.0
 11
130.185043
 21
125.33606
 31
0.0
1001
TCAD
1000
TCW40_DEV_WIDTH
1002
{
1040
0.0137795275077224
1002
}
  0
LINE
  5
88
330
1F
100
AcDbEntity
  8
0
 62
     7
370
    35
100
AcDbLine
 10
124.185043
 20
123.636063
 30
0.0
 11
130.185043
 21
123.636063
 31
0.0
1001
TCAD
1000
TCW40_DEV_WIDTH
1002
{
1040
0.0137795275077224
1002
}
  0
LINE
  5
89
330
1F
100
AcDbEntity
  8
0
 62
     7
370
    35
100
AcDbLine
 10
124.185043
 20
125.33606
 30
0.0
 11
124.185043
 21
123.636063
 31
0.0
1001
TCAD
1000
TCW40_DEV_WIDTH
1002
{
1040
0.0137795275077224
1002
}
  0
LINE
  5
8A
330
1F
100
AcDbEntity
  8
0
 62
     7
370
    35
100
AcDbLine
 10
101.685043
 20
125.33606
 30
0.0
 11
124.185043
 21
125.33606
 31
0.0
1001
TCAD
1000
TCW40_DEV_WIDTH
1002
{
1040
0.0137795275077224
1002
}
  0
LINE
  5
8B
330
1F
100
AcDbEntity
  8
0
 62
     7
370
    35
100
AcDbLine
 10
101.685043
 20
147.636063
 30
0.0
 11
101.685043
 21
125.33606
 31
0.0
1001
TCAD
1000
TCW40_DEV_WIDTH
1002
{
1040
0.0137795275077224
1002
}
  0
LINE
  5
8C
330
1F
100
AcDbEntity
  8
0
 62
     7
370
    35
100
AcDbLine
 10
135.185043
 20
147.636063
 30
0.0
 11
101.685043
 21
147.636063
 31
0.0
1001
TCAD
1000
TCW40_DEV_WIDTH
1002
{
1040
0.0137795275077224
1002
}
  0
LINE
  5
8D
330
1F
100
AcDbEntity
  8
0
 62
     7
370
    35
100
AcDbLine
 10
135.185043
 20
125.33606
 30
0.0
 11
135.185043
 21
147.636063
 31
0.0
1001
TCAD
1000
TCW40_DEV_WIDTH
1002
{
1040
0.0137795275077224
1002
}
  0
LINE
  5
8E
330
1F
100
AcDbEntity
  8
0
 62
     7
370
    35
100
AcDbLine
 10
94.185051
 20
140.823547
 30
0.0
 11
94.185051
 21
140.636063
 31
0.0
1001
TCAD
1000
TCW40_DEV_WIDTH
1002
{
1040
0.0137795275077224
1002
}
  0
LINE
  5
8F
330
1F
100
AcDbEntity
  8
0
 62
     7
370
    35
100
AcDbLine
 10
94.185051
 20
121.636063
 30
0.0
 11
94.185051
 21
121.448563
 31
0.0
1001
TCAD
1000
TCW40_DEV_WIDTH
1002
{
1040
0.0137795275077224
1002
}
  0
LINE
  5
90
330
1F
100
AcDbEntity
  8
0
 62
     7
370
    35
100
AcDbLine
 10
142.185043
 20
121.636063
 30
0.0
 11
142.185043
 21
120.636063
 31
0.0
1001
TCAD
1000
TCW40_DEV_WIDTH
1002
{
1040
0.0137795275077224
1002
}
  0
LINE
  5
91
330
1F
100
AcDbEntity
  8
0
 62
     7
370
    35
100
AcDbLine
 10
142.185043
 20
141.636063
 30
0.0
 11
142.185043
 21
140.636063
 31
0.0
1001
TCAD
1000
TCW40_DEV_WIDTH
1002
{
1040
0.0137795275077224
1002
}
  0
LINE
  5
92
330
1F
100
AcDbEntity
  8
0
 62
     7
370
    35
100
AcDbLine
 10
94.185051
 20
140.636063
 30
0.0
 11
94.185051
 21
140.24556
 31
0.0
1001
TCAD
1000
TCW40_DEV_WIDTH
1002
{
1040
0.0137795275077224
1002
}
  0
LINE
  5
93
330
1F
100
AcDbEntity
  8
0
 62
     7
370
    35
100
AcDbLine
 10
94.185051
 20
140.24556
 30
0.0
 11
94.185051
 21
139.253281
 31
0.0
1001
TCAD
1000
TCW40_DEV_WIDTH
1002
{
1040
0.0137795275077224
1002
}
  0
LINE
  5
94
330
1F
100
AcDbEntity
  8
0
 62
     7
370
    35
100
AcDbLine
 10
94.185051
 20
139.253281
 30
0.0
 11
94.185051
 21
123.018845
 31
0.0
1001
TCAD
1000
TCW40_DEV_WIDTH
1002
{
1040
0.0137795275077224
1002
}
  0
LINE
  5
95
330
1F
100
AcDbEntity
  8
0
 62
     7
370
    35
100
AcDbLine
 10
94.185051
 20
123.018845
 30
0.0
 11
94.185051
 21
122.026566
 31
0.0
1001
TCAD
1000
TCW40_DEV_WIDTH
1002
{
1040
0.0137795275077224
1002
}
  0
LINE
  5
96
330
1F
100
AcDbEntity
  8
0
 62
     7
370
    35
100
AcDbLine
 10
94.185051
 20
122.026566
 30
0.0
 11
94.185051
 21
121.636063
 31
0.0
1001
TCAD
1000
TCW40_DEV_WIDTH
1002
{
1040
0.0137795275077224
1002
}
  0
LINE
  5
97
330
1F
100
AcDbEntity
  8
0
 62
     7
370
    35
100
AcDbLine
 10
94.185051
 20
140.636063
 30
0.0
 11
95.085052
 21
140.636063
 31
0.0
1001
TCAD
1000
TCW40_DEV_WIDTH
1002
{
1040
0.0137795275077224
1002
}
  0
LINE
  5
98
330
1F
100
AcDbEntity
  8
0
 62
     7
370
    35
100
AcDbLine
 10
95.085052
 20
122.02356
 30
0.0
 11
95.085052
 21
121.636063
 31
0.0
1001
TCAD
1000
TCW40_DEV_WIDTH
1002
{
1040
0.0137795275077224
1002
}
  0
LINE
  5
99
330
1F
100
AcDbEntity
  8
0
 62
     7
370
    35
100
AcDbLine
 10
95.085052
 20
140.636063
 30
0.0
 11
95.085052
 21
140.248566
 31
0.0
1001
TCAD
1000
TCW40_DEV_WIDTH
1002
{
1040
0.0137795275077224
1002
}
  0
LINE
  5
9A
330
1F
100
AcDbEntity
  8
0
 62
     7
370
    35
100
AcDbLine
 10
95.085052
 20
140.248566
 30
0.0
 11
95.085052
 21
122.02356
 31
0.0
1001
TCAD
1000
TCW40_DEV_WIDTH
1002
{
1040
0.0137795275077224
1002
}
  0
LINE
  5
9B
330
1F
100
AcDbEntity
  8
0
 62
     7
370
    35
100
AcDbLine
 10
95.085052
 20
121.636063
 30
0.0
 11
94.185051
 21
121.636063
 31
0.0
1001
TCAD
1000
TCW40_DEV_WIDTH
1002
{
1040
0.0137795275077224
1002
}
  0
LINE
  5
9C
330
1F
100
AcDbEntity
  8
0
 62
     7
370
    35
100
AcDbLine
 10
142.185043
 20
120.636063
 30
0.0
 11
142.185043
 21
108.636063
 31
0.0
1001
TCAD
1000
TCW40_DEV_WIDTH
1002
{
1040
0.0137795275077224
1002
}
  0
LINE
  5
9D
330
1F
100
AcDbEntity
  8
0
 62
     7
370
    35
100
AcDbLine
 10
142.185043
 20
153.636063
 30
0.0
 11
142.185043
 21
141.636063
 31
0.0
1001
TCAD
1000
TCW40_DEV_WIDTH
1002
{
1040
0.0137795275077224
1002
}
  0
LINE
  5
9E
330
1F
100
AcDbEntity
  8
0
 62
     7
370
    35
100
AcDbLine
 10
142.185043
 20
140.636063
 30
0.0
 11
142.185043
 21
140.24556
 31
0.0
1001
TCAD
1000
TCW40_DEV_WIDTH
1002
{
1040
0.0137795275077224
1002
}
  0
LINE
  5
9F
330
1F
100
AcDbEntity
  8
0
 62
     7
370
    35
100
AcDbLine
 10
142.185043
 20
139.253281
 30
0.0
 11
142.185043
 21
140.24556
 31
0.0
1001
TCAD
1000
TCW40_DEV_WIDTH
1002
{
1040
0.0137795275077224
1002
}
  0
LINE
  5
A0
330
1F
100
AcDbEntity
  8
0
 62
     7
370
    35
100
AcDbLine
 10
142.185043
 20
139.253281
 30
0.0
 11
142.185043
 21
123.018845
 31
0.0
1001
TCAD
1000
TCW40_DEV_WIDTH
1002
{
1040
0.0137795275077224
1002
}
  0
LINE
  5
A1
330
1F
100
AcDbEntity
  8
0
 62
     7
370
    35
100
AcDbLine
 10
142.185043
 20
122.026566
 30
0.0
 11
142.185043
 21
123.018845
 31
0.0
1001
TCAD
1000
TCW40_DEV_WIDTH
1002
{
1040
0.0137795275077224
1002
}
  0
LINE
  5
A2
330
1F
100
AcDbEntity
  8
0
 62
     7
370
    35
100
AcDbLine
 10
142.185043
 20
122.026566
 30
0.0
 11
142.185043
 21
121.636063
 31
0.0
1001
TCAD
1000
TCW40_DEV_WIDTH
1002
{
1040
0.0137795275077224
1002
}
  0
LINE
  5
A3
330
1F
100
AcDbEntity
  8
0
 62
     7
370
    35
100
AcDbLine
 10
141.285049
 20
121.636063
 30
0.0
 11
142.185043
 21
121.636063
 31
0.0
1001
TCAD
1000
TCW40_DEV_WIDTH
1002
{
1040
0.0137795275077224
1002
}
  0
LINE
  5
A4
330
1F
100
AcDbEntity
  8
0
 62
     7
370
    35
100
AcDbLine
 10
141.285049
 20
122.02356
 30
0.0
 11
141.285049
 21
121.636063
 31
0.0
1001
TCAD
1000
TCW40_DEV_WIDTH
1002
{
1040
0.0137795275077224
1002
}
  0
LINE
  5
A5
330
1F
100
AcDbEntity
  8
0
 62
     7
370
    35
100
AcDbLine
 10
141.285049
 20
140.636063
 30
0.0
 11
141.285049
 21
140.248566
 31
0.0
1001
TCAD
1000
TCW40_DEV_WIDTH
1002
{
1040
0.0137795275077224
1002
}
  0
LINE
  5
A6
330
1F
100
AcDbEntity
  8
0
 62
     7
370
    35
100
AcDbLine
 10
141.285049
 20
140.248566
 30
0.0
 11
141.285049
 21
122.02356
 31
0.0
1001
TCAD
1000
TCW40_DEV_WIDTH
1002
{
1040
0.0137795275077224
1002
}
  0
LINE
  5
A7
330
1F
100
AcDbEntity
  8
0
 62
     7
370
    35
100
AcDbLine
 10
141.285049
 20
140.636063
 30
0.0
 11
142.185043
 21
140.636063
 31
0.0
1001
TCAD
1000
TCW40_DEV_WIDTH
1002
{
1040
0.0137795275077224
1002
}
  0
ARC
  5
A8
330
1F
100
AcDbEntity
  8
0
 62
     7
370
    35
100
AcDbCircle
 10
140.685043
 20
153.636063
 30
0.0
 40
1.5
100
AcDbArc
 50
0.0
 51
90.00000299999986
1001
TCAD
1000
TCW40_DEV_WIDTH
1002
{
1040
0.0137795275077224
1002
}
  0
LINE
  5
A9
330
1F
100
AcDbEntity
  8
0
 62
     7
370
    35
100
AcDbLine
 10
95.685051
 20
155.136063
 30
0.0
 11
140.685043
 21
155.136063
 31
0.0
1001
TCAD
1000
TCW40_DEV_WIDTH
1002
{
1040
0.0137795275077224
1002
}
  0
ARC
  5
AA
330
1F
100
AcDbEntity
  8
0
 62
     7
370
    35
100
AcDbCircle
 10
95.685051
 20
153.636063
 30
0.0
 40
1.5
100
AcDbArc
 50
90.0
 51
179.9999949999995
1001
TCAD
1000
TCW40_DEV_WIDTH
1002
{
1040
0.0137795275077224
1002
}
  0
LINE
  5
AB
330
1F
100
AcDbEntity
  8
0
 62
     7
370
    35
100
AcDbLine
 10
95.085052
 20
122.02356
 30
0.0
 11
95.069031
 21
122.026566
 31
0.0
1001
TCAD
1000
TCW40_DEV_WIDTH
1002
{
1040
0.0137795275077224
1002
}
  0
LINE
  5
AC
330
1F
100
AcDbEntity
  8
0
 62
     7
370
    13
100
AcDbLine
 10
94.185051
 20
122.026566
 30
0.0
 11
95.069031
 21
122.026566
 31
0.0
1001
TCAD
1000
TCW40_DEV_WIDTH
1002
{
1040
0.005118110217154
1002
}
  0
LINE
  5
AD
330
1F
100
AcDbEntity
  8
0
 62
     7
370
    13
100
AcDbLine
 10
94.185051
 20
123.018845
 30
0.0
 11
94.485046
 21
123.018845
 31
0.0
1001
TCAD
1000
TCW40_DEV_WIDTH
1002
{
1040
0.005118110217154
1002
}
  0
ELLIPSE
  5
AE
330
1F
100
AcDbEntity
  8
0
 62
     7
370
    35
100
AcDbEllipse
 10
95.151741
 20
123.018875
 30
0.0
 11
3.051757813786585E-5
 21
1.000030517578114
 31
0.0
210
0.0
220
0.0
230
1.0
 40
0.6666690000000064
 41
1.570848674636703
 42
3.017253877861953
1001
TCAD
1000
TCW40_DEV_WIDTH
1002
{
1040
0.0137795275077224
1002
}
  0
LINE
  5
AF
330
1F
100
AcDbEntity
  8
0
 62
     7
370
    35
100
AcDbLine
 10
94.485046
 20
139.253281
 30
0.0
 11
94.485046
 21
123.018845
 31
0.0
1001
TCAD
1000
TCW40_DEV_WIDTH
1002
{
1040
0.0137795275077224
1002
}
  0
LINE
  5
B0
330
1F
100
AcDbEntity
  8
0
 62
     7
370
    13
100
AcDbLine
 10
94.185051
 20
139.253281
 30
0.0
 11
94.485046
 21
139.253281
 31
0.0
1001
TCAD
1000
TCW40_DEV_WIDTH
1002
{
1040
0.005118110217154
1002
}
  0
LINE
  5
B1
330
1F
100
AcDbEntity
  8
0
 62
     7
370
    13
100
AcDbLine
 10
94.185051
 20
140.24556
 30
0.0
 11
95.069031
 21
140.24556
 31
0.0
1001
TCAD
1000
TCW40_DEV_WIDTH
1002
{
1040
0.005118110217154
1002
}
  0
ELLIPSE
  5
B2
330
1F
100
AcDbEntity
  8
0
 62
     7
370
    35
100
AcDbEllipse
 10
95.151741
 20
139.25325
 30
0.0
 11
3.051757814830227E-5
 21
-1.000030517578114
 31
0.0
210
0.0
220
0.0
230
1.0
 40
0.6666689999999946
 41
3.265931429322906
 42
4.712336632562572
1001
TCAD
1000
TCW40_DEV_WIDTH
1002
{
1040
0.0137795275077224
1002
}
  0
LINE
  5
B3
330
1F
100
AcDbEntity
  8
0
 62
     7
370
    35
100
AcDbLine
 10
95.085052
 20
140.248566
 30
0.0
 11
95.069031
 21
140.24556
 31
0.0
1001
TCAD
1000
TCW40_DEV_WIDTH
1002
{
1040
0.0137795275077224
1002
}
  0
LINE
  5
B4
330
1F
100
AcDbEntity
  8
0
 62
     7
370
    13
100
AcDbLine
 10
141.301071
 20
140.24556
 30
0.0
 11
142.185043
 21
140.24556
 31
0.0
1001
TCAD
1000
TCW40_DEV_WIDTH
1002
{
1040
0.005118110217154
1002
}
  0
LINE
  5
B5
330
1F
100
AcDbEntity
  8
0
 62
     7
370
    35
100
AcDbLine
 10
141.285049
 20
140.248566
 30
0.0
 11
141.301071
 21
140.24556
 31
0.0
1001
TCAD
1000
TCW40_DEV_WIDTH
1002
{
1040
0.0137795275077224
1002
}
  0
LINE
  5
B6
330
1F
100
AcDbEntity
  8
0
 62
     7
370
    13
100
AcDbLine
 10
141.885056
 20
139.253281
 30
0.0
 11
142.185043
 21
139.253281
 31
0.0
1001
TCAD
1000
TCW40_DEV_WIDTH
1002
{
1040
0.005118110217154
1002
}
  0
ELLIPSE
  5
B7
330
1F
100
AcDbEntity
  8
0
 62
     7
370
    35
100
AcDbEllipse
 10
141.218353
 20
139.25325
 30
0.0
 11
3.051757817206221E-5
 21
1.000030517578128
 31
0.0
210
0.0
220
0.0
230
1.0
 40
0.6666689999999967
 41
4.712441328235585
 42
6.158846531454715
1001
TCAD
1000
TCW40_DEV_WIDTH
1002
{
1040
0.0137795275077224
1002
}
  0
LINE
  5
B8
330
1F
100
AcDbEntity
  8
0
 62
     7
370
    13
100
AcDbLine
 10
141.885056
 20
123.018845
 30
0.0
 11
142.185043
 21
123.018845
 31
0.0
1001
TCAD
1000
TCW40_DEV_WIDTH
1002
{
1040
0.005118110217154
1002
}
  0
LINE
  5
B9
330
1F
100
AcDbEntity
  8
0
 62
     7
370
    35
100
AcDbLine
 10
141.885056
 20
139.253281
 30
0.0
 11
141.885056
 21
123.018845
 31
0.0
1001
TCAD
1000
TCW40_DEV_WIDTH
1002
{
1040
0.0137795275077224
1002
}
  0
LINE
  5
BA
330
1F
100
AcDbEntity
  8
0
 62
     7
370
    13
100
AcDbLine
 10
141.301071
 20
122.026566
 30
0.0
 11
142.185043
 21
122.026566
 31
0.0
1001
TCAD
1000
TCW40_DEV_WIDTH
1002
{
1040
0.005118110217154
1002
}
  0
ELLIPSE
  5
BB
330
1F
100
AcDbEntity
  8
0
 62
     7
370
    35
100
AcDbEllipse
 10
141.218353
 20
123.018875
 30
0.0
 11
3.051757812831786E-5
 21
-1.000030517578121
 31
0.0
210
0.0
220
0.0
230
1.0
 40
0.6666690000000073
 41
0.1243387757280271
 42
1.570743978954958
1001
TCAD
1000
TCW40_DEV_WIDTH
1002
{
1040
0.0137795275077224
1002
}
  0
LINE
  5
BC
330
1F
100
AcDbEntity
  8
0
 62
     7
370
    35
100
AcDbLine
 10
141.285049
 20
122.02356
 30
0.0
 11
141.301071
 21
122.026566
 31
0.0
1001
TCAD
1000
TCW40_DEV_WIDTH
1002
{
1040
0.0137795275077224
1002
}
  0
LINE
  5
BD
330
1F
100
AcDbEntity
  8
0
 62
     7
370
    35
100
AcDbLine
 10
184.478561
 20
115.936066
 30
0.0
 11
184.478561
 21
113.931595
 31
0.0
1001
TCAD
1000
TCW40_DEV_WIDTH
1002
{
1040
0.0137795275077224
1002
}
  0
LINE
  5
BE
330
1F
100
AcDbEntity
  8
0
 62
     7
370
    35
100
AcDbLine
 10
184.478561
 20
115.936066
 30
0.0
 11
184.478561
 21
117.940529
 31
0.0
1001
TCAD
1000
TCW40_DEV_WIDTH
1002
{
1040
0.0137795275077224
1002
}
  0
LINE
  5
BF
330
1F
100
AcDbEntity
  8
0
 62
     7
370
    13
100
AcDbLine
 10
184.773331
 20
115.936066
 30
0.0
 11
184.773331
 21
113.631653
 31
0.0
1001
TCAD
1000
TCW40_DEV_WIDTH
1002
{
1040
0.005118110217154
1002
}
  0
LINE
  5
C0
330
1F
100
AcDbEntity
  8
0
 62
     7
370
    13
100
AcDbLine
 10
184.773331
 20
115.936066
 30
0.0
 11
184.773331
 21
118.240479
 31
0.0
1001
TCAD
1000
TCW40_DEV_WIDTH
1002
{
1040
0.005118110217154
1002
}
  0
LINE
  5
C1
330
1F
100
AcDbEntity
  8
0
 62
     7
370
    35
100
AcDbLine
 10
184.773331
 20
113.631653
 30
0.0
 11
187.485001
 21
113.58432
 31
0.0
1001
TCAD
1000
TCW40_DEV_WIDTH
1002
{
1040
0.0137795275077224
1002
}
  0
LINE
  5
C2
330
1F
100
AcDbEntity
  8
0
 62
     7
370
    35
100
AcDbLine
 10
184.773331
 20
118.240479
 30
0.0
 11
187.485001
 21
118.287811
 31
0.0
1001
TCAD
1000
TCW40_DEV_WIDTH
1002
{
1040
0.0137795275077224
1002
}
  0
ARC
  5
C3
330
1F
100
AcDbEntity
  8
0
 62
     7
370
    35
100
AcDbCircle
 10
184.778717
 20
117.940369
 30
0.0
 40
0.300133641615913
100
AcDbArc
 50
92.80838499999948
 51
178.190360000001
1001
TCAD
1000
TCW40_DEV_WIDTH
1002
{
1040
0.0137795275077224
1002
}
  0
ARC
  5
C4
330
1F
100
AcDbEntity
  8
0
 62
     7
370
    35
100
AcDbCircle
 10
184.778717
 20
113.931755
 30
0.0
 40
0.3001334381428273
100
AcDbArc
 50
-178.1903190000012
 51
-92.8083510000022
1001
TCAD
1000
TCW40_DEV_WIDTH
1002
{
1040
0.0137795275077224
1002
}
  0
LINE
  5
C5
330
1F
100
AcDbEntity
  8
0
 62
     7
370
    35
100
AcDbLine
 10
184.773331
 20
113.631653
 30
0.0
 11
187.485001
 21
113.58432
 31
0.0
1001
TCAD
1000
TCW40_DEV_WIDTH
1002
{
1040
0.0137795275077224
1002
}
  0
LINE
  5
C6
330
1F
100
AcDbEntity
  8
0
 62
     7
370
    35
100
AcDbLine
 10
184.773331
 20
118.240479
 30
0.0
 11
187.485001
 21
118.287811
 31
0.0
1001
TCAD
1000
TCW40_DEV_WIDTH
1002
{
1040
0.0137795275077224
1002
}
  0
ARC
  5
C7
330
1F
100
AcDbEntity
  8
0
 62
     7
370
    35
100
AcDbCircle
 10
184.778656
 20
117.940521
 30
0.0
 40
0.2999671532463028
100
AcDbArc
 50
92.79714300000194
 51
135.5110080000009
1001
TCAD
1000
TCW40_DEV_WIDTH
1002
{
1040
0.0137795275077224
1002
}
  0
ARC
  5
C8
330
1F
100
AcDbEntity
  8
0
 62
     7
370
    35
100
AcDbCircle
 10
184.778717
 20
113.931755
 30
0.0
 40
0.3001334381427421
100
AcDbArc
 50
-178.1903190000006
 51
-92.80835099999746
1001
TCAD
1000
TCW40_DEV_WIDTH
1002
{
1040
0.0137795275077224
1002
}
  0
LINE
  5
C9
330
1F
100
AcDbEntity
  8
0
 62
     7
370
    35
100
AcDbLine
 10
184.773331
 20
118.240479
 30
0.0
 11
187.484985
 21
118.287811
 31
0.0
1001
TCAD
1000
TCW40_DEV_WIDTH
1002
{
1040
0.0137795275077224
1002
}
  0
LINE
  5
CA
330
1F
100
AcDbEntity
  8
0
 62
     7
370
    35
100
AcDbLine
 10
184.773331
 20
113.631653
 30
0.0
 11
187.484985
 21
113.58432
 31
0.0
1001
TCAD
1000
TCW40_DEV_WIDTH
1002
{
1040
0.0137795275077224
1002
}
  0
ARC
  5
CB
330
1F
100
AcDbEntity
  8
0
 62
     7
370
    35
100
AcDbCircle
 10
184.778717
 20
113.931755
 30
0.0
 40
0.3001336416158935
100
AcDbArc
 50
-178.1903600000007
 51
-92.80838499999948
1001
TCAD
1000
TCW40_DEV_WIDTH
1002
{
1040
0.0137795275077224
1002
}
  0
ARC
  5
CC
330
1F
100
AcDbEntity
  8
0
 62
     7
370
    35
100
AcDbCircle
 10
184.778717
 20
117.940369
 30
0.0
 40
0.3001334381426376
100
AcDbArc
 50
92.80835099999852
 51
178.190319
1001
TCAD
1000
TCW40_DEV_WIDTH
1002
{
1040
0.0137795275077224
1002
}
  0
LINE
  5
CD
330
1F
100
AcDbEntity
  8
0
 62
     7
370
    35
100
AcDbLine
 10
184.773331
 20
118.240479
 30
0.0
 11
187.484985
 21
118.287811
 31
0.0
1001
TCAD
1000
TCW40_DEV_WIDTH
1002
{
1040
0.0137795275077224
1002
}
  0
ARC
  5
CE
330
1F
100
AcDbEntity
  8
0
 62
     7
370
    35
100
AcDbCircle
 10
184.778717
 20
117.940369
 30
0.0
 40
0.3001334381427803
100
AcDbArc
 50
92.8083510000026
 51
178.1903190000008
1001
TCAD
1000
TCW40_DEV_WIDTH
1002
{
1040
0.0137795275077224
1002
}
  0
LINE
  5
CF
330
1F
100
AcDbEntity
  8
0
 62
     7
370
    35
100
AcDbLine
 10
197.578568
 20
142.136063
 30
0.0
 11
197.578568
 21
141.636063
 31
0.0
1001
TCAD
1000
TCW40_DEV_WIDTH
1002
{
1040
0.0137795275077224
1002
}
  0
LINE
  5
D0
330
1F
100
AcDbEntity
  8
0
 62
     7
370
    35
100
AcDbLine
 10
197.578568
 20
142.136063
 30
0.0
 11
197.478561
 21
142.136063
 31
0.0
1001
TCAD
1000
TCW40_DEV_WIDTH
1002
{
1040
0.0137795275077224
1002
}
  0
LINE
  5
D1
330
1F
100
AcDbEntity
  8
0
 62
     7
370
    35
100
AcDbLine
 10
197.578568
 20
142.636063
 30
0.0
 11
197.578568
 21
142.136063
 31
0.0
1001
TCAD
1000
TCW40_DEV_WIDTH
1002
{
1040
0.0137795275077224
1002
}
  0
LINE
  5
D2
330
1F
100
AcDbEntity
  8
0
 62
     7
370
    35
100
AcDbLine
 10
197.578568
 20
146.136063
 30
0.0
 11
197.578568
 21
145.636063
 31
0.0
1001
TCAD
1000
TCW40_DEV_WIDTH
1002
{
1040
0.0137795275077224
1002
}
  0
LINE
  5
D3
330
1F
100
AcDbEntity
  8
0
 62
     7
370
    35
100
AcDbLine
 10
197.578568
 20
146.136063
 30
0.0
 11
197.478561
 21
146.136063
 31
0.0
1001
TCAD
1000
TCW40_DEV_WIDTH
1002
{
1040
0.0137795275077224
1002
}
  0
LINE
  5
D4
330
1F
100
AcDbEntity
  8
0
 62
     7
370
    35
100
AcDbLine
 10
197.578568
 20
146.636063
 30
0.0
 11
197.578568
 21
146.136063
 31
0.0
1001
TCAD
1000
TCW40_DEV_WIDTH
1002
{
1040
0.0137795275077224
1002
}
  0
LINE
  5
D5
330
1F
100
AcDbEntity
  8
0
 62
     7
370
    35
100
AcDbLine
 10
197.578568
 20
114.136063
 30
0.0
 11
197.578568
 21
113.636063
 31
0.0
1001
TCAD
1000
TCW40_DEV_WIDTH
1002
{
1040
0.0137795275077224
1002
}
  0
LINE
  5
D6
330
1F
100
AcDbEntity
  8
0
 62
     7
370
    35
100
AcDbLine
 10
197.578568
 20
114.136063
 30
0.0
 11
197.478561
 21
114.136063
 31
0.0
1001
TCAD
1000
TCW40_DEV_WIDTH
1002
{
1040
0.0137795275077224
1002
}
  0
LINE
  5
D7
330
1F
100
AcDbEntity
  8
0
 62
     7
370
    35
100
AcDbLine
 10
197.578568
 20
114.636063
 30
0.0
 11
197.578568
 21
114.136063
 31
0.0
1001
TCAD
1000
TCW40_DEV_WIDTH
1002
{
1040
0.0137795275077224
1002
}
  0
LINE
  5
D8
330
1F
100
AcDbEntity
  8
0
 62
     7
370
    35
100
AcDbLine
 10
197.578568
 20
118.136063
 30
0.0
 11
197.578568
 21
117.636063
 31
0.0
1001
TCAD
1000
TCW40_DEV_WIDTH
1002
{
1040
0.0137795275077224
1002
}
  0
LINE
  5
D9
330
1F
100
AcDbEntity
  8
0
 62
     7
370
    35
100
AcDbLine
 10
197.578568
 20
118.136063
 30
0.0
 11
197.478561
 21
118.136063
 31
0.0
1001
TCAD
1000
TCW40_DEV_WIDTH
1002
{
1040
0.0137795275077224
1002
}
  0
LINE
  5
DA
330
1F
100
AcDbEntity
  8
0
 62
     7
370
    35
100
AcDbLine
 10
197.578568
 20
118.636063
 30
0.0
 11
197.578568
 21
118.136063
 31
0.0
1001
TCAD
1000
TCW40_DEV_WIDTH
1002
{
1040
0.0137795275077224
1002
}
  0
LINE
  5
DB
330
1F
100
AcDbEntity
  8
0
 62
     7
370
    35
100
AcDbLine
 10
197.628555
 20
146.19606
 30
0.0
 11
197.628555
 21
146.636047
 31
0.0
1001
TCAD
1000
TCW40_DEV_WIDTH
1002
{
1040
0.0137795275077224
1002
}
  0
LINE
  5
DC
330
1F
100
AcDbEntity
  8
0
 62
     7
370
    35
100
AcDbLine
 10
197.628555
 20
145.636047
 30
0.0
 11
197.628555
 21
145.876068
 31
0.0
1001
TCAD
1000
TCW40_DEV_WIDTH
1002
{
1040
0.0137795275077224
1002
}
  0
LINE
  5
DD
330
1F
100
AcDbEntity
  8
0
 62
     7
370
    35
100
AcDbLine
 10
197.628555
 20
142.19606
 30
0.0
 11
197.628555
 21
142.636047
 31
0.0
1001
TCAD
1000
TCW40_DEV_WIDTH
1002
{
1040
0.0137795275077224
1002
}
  0
LINE
  5
DE
330
1F
100
AcDbEntity
  8
0
 62
     7
370
    35
100
AcDbLine
 10
197.628555
 20
141.636047
 30
0.0
 11
197.628555
 21
141.876068
 31
0.0
1001
TCAD
1000
TCW40_DEV_WIDTH
1002
{
1040
0.0137795275077224
1002
}
  0
LINE
  5
DF
330
1F
100
AcDbEntity
  8
0
 62
     7
370
    35
100
AcDbLine
 10
197.578568
 20
146.19606
 30
0.0
 11
197.678543
 21
146.19606
 31
0.0
1001
TCAD
1000
TCW40_DEV_WIDTH
1002
{
1040
0.0137795275077224
1002
}
  0
LINE
  5
E0
330
1F
100
AcDbEntity
  8
0
 62
     7
370
    35
100
AcDbLine
 10
197.578568
 20
142.19606
 30
0.0
 11
197.678543
 21
142.19606
 31
0.0
1001
TCAD
1000
TCW40_DEV_WIDTH
1002
{
1040
0.0137795275077224
1002
}
  0
LINE
  5
E1
330
1F
100
AcDbEntity
  8
0
 62
     7
370
    35
100
AcDbLine
 10
197.578568
 20
142.19606
 30
0.0
 11
197.578568
 21
141.876068
 31
0.0
1001
TCAD
1000
TCW40_DEV_WIDTH
1002
{
1040
0.0137795275077224
1002
}
  0
LINE
  5
E2
330
1F
100
AcDbEntity
  8
0
 62
     7
370
    35
100
AcDbLine
 10
197.578568
 20
141.876068
 30
0.0
 11
197.678543
 21
141.876068
 31
0.0
1001
TCAD
1000
TCW40_DEV_WIDTH
1002
{
1040
0.0137795275077224
1002
}
  0
LINE
  5
E3
330
1F
100
AcDbEntity
  8
0
 62
     7
370
    35
100
AcDbLine
 10
197.578568
 20
146.19606
 30
0.0
 11
197.578568
 21
145.876068
 31
0.0
1001
TCAD
1000
TCW40_DEV_WIDTH
1002
{
1040
0.0137795275077224
1002
}
  0
LINE
  5
E4
330
1F
100
AcDbEntity
  8
0
 62
     7
370
    35
100
AcDbLine
 10
197.578568
 20
145.876068
 30
0.0
 11
197.678543
 21
145.876068
 31
0.0
1001
TCAD
1000
TCW40_DEV_WIDTH
1002
{
1040
0.0137795275077224
1002
}
  0
LINE
  5
E5
330
1F
100
AcDbEntity
  8
0
 62
     7
370
    35
100
AcDbLine
 10
187.478561
 20
123.018845
 30
0.0
 11
187.478561
 21
108.636063
 31
0.0
1001
TCAD
1000
TCW40_DEV_WIDTH
1002
{
1040
0.0137795275077224
1002
}
  0
LINE
  5
E6
330
1F
100
AcDbEntity
  8
0
 62
     7
370
    35
100
AcDbLine
 10
187.478561
 20
153.636063
 30
0.0
 11
187.478561
 21
139.254715
 31
0.0
1001
TCAD
1000
TCW40_DEV_WIDTH
1002
{
1040
0.0137795275077224
1002
}
  0
ARC
  5
E7
330
1F
100
AcDbEntity
  8
0
 62
     7
370
    35
100
AcDbCircle
 10
188.978561
 20
108.636063
 30
0.0
 40
1.5
100
AcDbArc
 50
180.0
 51
269.9999970000001
1001
TCAD
1000
TCW40_DEV_WIDTH
1002
{
1040
0.0137795275077224
1002
}
  0
LINE
  5
E8
330
1F
100
AcDbEntity
  8
0
 62
     7
370
    13
100
AcDbLine
 10
188.978561
 20
153.636063
 30
0.0
 11
188.978561
 21
140.823563
 31
0.0
1001
TCAD
1000
TCW40_DEV_WIDTH
1002
{
1040
0.005118110217154
1002
}
  0
LINE
  5
E9
330
1F
100
AcDbEntity
  8
0
 62
     7
370
    13
100
AcDbLine
 10
187.478561
 20
153.636063
 30
0.0
 11
188.978561
 21
153.636063
 31
0.0
1001
TCAD
1000
TCW40_DEV_WIDTH
1002
{
1040
0.005118110217154
1002
}
  0
LINE
  5
EA
330
1F
100
AcDbEntity
  8
0
 62
     7
370
    13
100
AcDbLine
 10
187.478561
 20
108.636063
 30
0.0
 11
188.978561
 21
108.636063
 31
0.0
1001
TCAD
1000
TCW40_DEV_WIDTH
1002
{
1040
0.005118110217154
1002
}
  0
LINE
  5
EB
330
1F
100
AcDbEntity
  8
0
 62
     7
370
    13
100
AcDbLine
 10
188.978561
 20
121.448563
 30
0.0
 11
188.978561
 21
108.636063
 31
0.0
1001
TCAD
1000
TCW40_DEV_WIDTH
1002
{
1040
0.005118110217154
1002
}
  0
LINE
  5
EC
330
1F
100
AcDbEntity
  8
0
 62
     7
370
    35
100
AcDbLine
 10
187.564346
 20
121.625336
 30
0.0
 11
188.978561
 21
121.448563
 31
0.0
1001
TCAD
1000
TCW40_DEV_WIDTH
1002
{
1040
0.0137795275077224
1002
}
  0
LINE
  5
ED
330
1F
100
AcDbEntity
  8
0
 62
     7
370
    35
100
AcDbLine
 10
187.564346
 20
121.625336
 30
0.0
 11
187.564346
 21
122.613609
 31
0.0
1001
TCAD
1000
TCW40_DEV_WIDTH
1002
{
1040
0.0137795275077224
1002
}
  0
LINE
  5
EE
330
1F
100
AcDbEntity
  8
0
 62
     7
370
    35
100
AcDbLine
 10
187.564346
 20
139.658508
 30
0.0
 11
187.564346
 21
140.64679
 31
0.0
1001
TCAD
1000
TCW40_DEV_WIDTH
1002
{
1040
0.0137795275077224
1002
}
  0
LINE
  5
EF
330
1F
100
AcDbEntity
  8
0
 62
     7
370
    35
100
AcDbLine
 10
187.564346
 20
140.64679
 30
0.0
 11
188.978561
 21
140.823563
 31
0.0
1001
TCAD
1000
TCW40_DEV_WIDTH
1002
{
1040
0.0137795275077224
1002
}
  0
ARC
  5
F0
330
1F
100
AcDbEntity
  8
0
 62
     7
370
    35
100
AcDbCircle
 10
188.978561
 20
153.636063
 30
0.0
 40
1.5
100
AcDbArc
 50
90.0
 51
179.9999949999995
1001
TCAD
1000
TCW40_DEV_WIDTH
1002
{
1040
0.0137795275077224
1002
}
  0
LINE
  5
F1
330
1F
100
AcDbEntity
  8
0
 62
     7
370
    35
100
AcDbLine
 10
188.978561
 20
107.136063
 30
0.0
 11
191.478561
 21
107.136063
 31
0.0
1001
TCAD
1000
TCW40_DEV_WIDTH
1002
{
1040
0.0137795275077224
1002
}
  0
LINE
  5
F2
330
1F
100
AcDbEntity
  8
0
 62
     7
370
    13
100
AcDbLine
 10
188.978561
 20
107.136063
 30
0.0
 11
188.978561
 21
108.636063
 31
0.0
1001
TCAD
1000
TCW40_DEV_WIDTH
1002
{
1040
0.005118110217154
1002
}
  0
LINE
  5
F3
330
1F
100
AcDbEntity
  8
0
 62
     7
370
    35
100
AcDbLine
 10
191.478561
 20
141.136063
 30
0.0
 11
188.978561
 21
140.823563
 31
0.0
1001
TCAD
1000
TCW40_DEV_WIDTH
1002
{
1040
0.0137795275077224
1002
}
  0
LINE
  5
F4
330
1F
100
AcDbEntity
  8
0
 62
     7
370
    13
100
AcDbLine
 10
188.978561
 20
153.636063
 30
0.0
 11
191.478561
 21
153.636063
 31
0.0
1001
TCAD
1000
TCW40_DEV_WIDTH
1002
{
1040
0.005118110217154
1002
}
  0
LINE
  5
F5
330
1F
100
AcDbEntity
  8
0
 62
     7
370
    35
100
AcDbLine
 10
191.478561
 20
153.636063
 30
0.0
 11
191.478561
 21
141.136063
 31
0.0
1001
TCAD
1000
TCW40_DEV_WIDTH
1002
{
1040
0.0137795275077224
1002
}
  0
LINE
  5
F6
330
1F
100
AcDbEntity
  8
0
 62
     7
370
    13
100
AcDbLine
 10
188.978561
 20
153.636063
 30
0.0
 11
188.978561
 21
155.136063
 31
0.0
1001
TCAD
1000
TCW40_DEV_WIDTH
1002
{
1040
0.005118110217154
1002
}
  0
LINE
  5
F7
330
1F
100
AcDbEntity
  8
0
 62
     7
370
    35
100
AcDbLine
 10
191.478561
 20
121.136063
 30
0.0
 11
188.978561
 21
121.448563
 31
0.0
1001
TCAD
1000
TCW40_DEV_WIDTH
1002
{
1040
0.0137795275077224
1002
}
  0
LINE
  5
F8
330
1F
100
AcDbEntity
  8
0
 62
     7
370
    35
100
AcDbLine
 10
191.478561
 20
121.136063
 30
0.0
 11
191.478561
 21
108.636063
 31
0.0
1001
TCAD
1000
TCW40_DEV_WIDTH
1002
{
1040
0.0137795275077224
1002
}
  0
LINE
  5
F9
330
1F
100
AcDbEntity
  8
0
 62
     7
370
    13
100
AcDbLine
 10
188.978561
 20
108.636063
 30
0.0
 11
191.478561
 21
108.636063
 31
0.0
1001
TCAD
1000
TCW40_DEV_WIDTH
1002
{
1040
0.005118110217154
1002
}
  0
LINE
  5
FA
330
1F
100
AcDbEntity
  8
0
 62
     7
370
    35
100
AcDbLine
 10
191.478561
 20
121.136063
 30
0.0
 11
191.478561
 21
121.636063
 31
0.0
1001
TCAD
1000
TCW40_DEV_WIDTH
1002
{
1040
0.0137795275077224
1002
}
  0
LINE
  5
FB
330
1F
100
AcDbEntity
  8
0
 62
     7
370
    35
100
AcDbLine
 10
191.478561
 20
140.636063
 30
0.0
 11
191.478561
 21
141.136063
 31
0.0
1001
TCAD
1000
TCW40_DEV_WIDTH
1002
{
1040
0.0137795275077224
1002
}
  0
LINE
  5
FC
330
1F
100
AcDbEntity
  8
0
 62
     7
370
    35
100
AcDbLine
 10
189.978561
 20
133.636063
 30
0.0
 11
189.978561
 21
137.636063
 31
0.0
1001
TCAD
1000
TCW40_DEV_WIDTH
1002
{
1040
0.0137795275077224
1002
}
  0
LINE
  5
FD
330
1F
100
AcDbEntity
  8
0
 62
     7
370
    35
100
AcDbLine
 10
190.478561
 20
133.636063
 30
0.0
 11
189.978561
 21
133.636063
 31
0.0
1001
TCAD
1000
TCW40_DEV_WIDTH
1002
{
1040
0.0137795275077224
1002
}
  0
LINE
  5
FE
330
1F
100
AcDbEntity
  8
0
 62
     7
370
    35
100
AcDbLine
 10
189.978561
 20
128.636063
 30
0.0
 11
190.478561
 21
128.636063
 31
0.0
1001
TCAD
1000
TCW40_DEV_WIDTH
1002
{
1040
0.0137795275077224
1002
}
  0
LINE
  5
FF
330
1F
100
AcDbEntity
  8
0
 62
     7
370
    35
100
AcDbLine
 10
189.978561
 20
124.636063
 30
0.0
 11
189.978561
 21
128.636063
 31
0.0
1001
TCAD
1000
TCW40_DEV_WIDTH
1002
{
1040
0.0137795275077224
1002
}
  0
LINE
  5
100
330
1F
100
AcDbEntity
  8
0
 62
     7
370
    35
100
AcDbLine
 10
188.978561
 20
155.136063
 30
0.0
 11
191.478561
 21
155.136063
 31
0.0
1001
TCAD
1000
TCW40_DEV_WIDTH
1002
{
1040
0.0137795275077224
1002
}
  0
LINE
  5
101
330
1F
100
AcDbEntity
  8
0
 62
     7
370
    35
100
AcDbLine
 10
191.478561
 20
155.136063
 30
0.0
 11
191.478561
 21
153.636063
 31
0.0
1001
TCAD
1000
TCW40_DEV_WIDTH
1002
{
1040
0.0137795275077224
1002
}
  0
LINE
  5
102
330
1F
100
AcDbEntity
  8
0
 62
     7
370
    35
100
AcDbLine
 10
191.478561
 20
108.636063
 30
0.0
 11
191.478561
 21
107.136063
 31
0.0
1001
TCAD
1000
TCW40_DEV_WIDTH
1002
{
1040
0.0137795275077224
1002
}
  0
LINE
  5
103
330
1F
100
AcDbEntity
  8
0
 62
     7
370
    35
100
AcDbLine
 10
188.978561
 20
137.636063
 30
0.0
 11
188.978561
 21
133.636063
 31
0.0
1001
TCAD
1000
TCW40_DEV_WIDTH
1002
{
1040
0.0137795275077224
1002
}
  0
LINE
  5
104
330
1F
100
AcDbEntity
  8
0
 62
     7
370
    35
100
AcDbLine
 10
189.978561
 20
137.636063
 30
0.0
 11
189.178558
 21
137.636063
 31
0.0
1001
TCAD
1000
TCW40_DEV_WIDTH
1002
{
1040
0.0137795275077224
1002
}
  0
LINE
  5
105
330
1F
100
AcDbEntity
  8
0
 62
     7
370
    35
100
AcDbLine
 10
188.978561
 20
137.636063
 30
0.0
 11
189.178558
 21
137.636063
 31
0.0
1001
TCAD
1000
TCW40_DEV_WIDTH
1002
{
1040
0.0137795275077224
1002
}
  0
LINE
  5
106
330
1F
100
AcDbEntity
  8
0
 62
     7
370
    35
100
AcDbLine
 10
189.178558
 20
137.636063
 30
0.0
 11
189.178558
 21
133.636063
 31
0.0
1001
TCAD
1000
TCW40_DEV_WIDTH
1002
{
1040
0.0137795275077224
1002
}
  0
LINE
  5
107
330
1F
100
AcDbEntity
  8
0
 62
     7
370
    35
100
AcDbLine
 10
189.978561
 20
133.636063
 30
0.0
 11
189.178558
 21
133.636063
 31
0.0
1001
TCAD
1000
TCW40_DEV_WIDTH
1002
{
1040
0.0137795275077224
1002
}
  0
LINE
  5
108
330
1F
100
AcDbEntity
  8
0
 62
     7
370
    35
100
AcDbLine
 10
189.178558
 20
133.636063
 30
0.0
 11
188.978561
 21
133.636063
 31
0.0
1001
TCAD
1000
TCW40_DEV_WIDTH
1002
{
1040
0.0137795275077224
1002
}
  0
LINE
  5
109
330
1F
100
AcDbEntity
  8
0
 62
     7
370
    35
100
AcDbLine
 10
189.978561
 20
128.636063
 30
0.0
 11
189.178558
 21
128.636063
 31
0.0
1001
TCAD
1000
TCW40_DEV_WIDTH
1002
{
1040
0.0137795275077224
1002
}
  0
LINE
  5
10A
330
1F
100
AcDbEntity
  8
0
 62
     7
370
    35
100
AcDbLine
 10
188.978561
 20
128.636063
 30
0.0
 11
189.178558
 21
128.636063
 31
0.0
1001
TCAD
1000
TCW40_DEV_WIDTH
1002
{
1040
0.0137795275077224
1002
}
  0
LINE
  5
10B
330
1F
100
AcDbEntity
  8
0
 62
     7
370
    35
100
AcDbLine
 10
189.178558
 20
128.636063
 30
0.0
 11
189.178558
 21
124.636063
 31
0.0
1001
TCAD
1000
TCW40_DEV_WIDTH
1002
{
1040
0.0137795275077224
1002
}
  0
LINE
  5
10C
330
1F
100
AcDbEntity
  8
0
 62
     7
370
    35
100
AcDbLine
 10
189.978561
 20
124.636063
 30
0.0
 11
189.178558
 21
124.636063
 31
0.0
1001
TCAD
1000
TCW40_DEV_WIDTH
1002
{
1040
0.0137795275077224
1002
}
  0
LINE
  5
10D
330
1F
100
AcDbEntity
  8
0
 62
     7
370
    35
100
AcDbLine
 10
189.178558
 20
124.636063
 30
0.0
 11
188.978561
 21
124.636063
 31
0.0
1001
TCAD
1000
TCW40_DEV_WIDTH
1002
{
1040
0.0137795275077224
1002
}
  0
LINE
  5
10E
330
1F
100
AcDbEntity
  8
0
 62
     7
370
    35
100
AcDbLine
 10
188.978561
 20
128.636063
 30
0.0
 11
188.978561
 21
124.636063
 31
0.0
1001
TCAD
1000
TCW40_DEV_WIDTH
1002
{
1040
0.0137795275077224
1002
}
  0
LINE
  5
10F
330
1F
100
AcDbEntity
  8
0
 62
     7
370
    35
100
AcDbLine
 10
202.478561
 20
114.636063
 30
0.0
 11
202.478561
 21
113.636063
 31
0.0
1001
TCAD
1000
TCW40_DEV_WIDTH
1002
{
1040
0.0137795275077224
1002
}
  0
LINE
  5
110
330
1F
100
AcDbEntity
  8
0
 62
     7
370
    35
100
AcDbLine
 10
202.478561
 20
118.636063
 30
0.0
 11
202.478561
 21
117.636063
 31
0.0
1001
TCAD
1000
TCW40_DEV_WIDTH
1002
{
1040
0.0137795275077224
1002
}
  0
LINE
  5
111
330
1F
100
AcDbEntity
  8
0
 62
     7
370
    35
100
AcDbLine
 10
202.478561
 20
142.636063
 30
0.0
 11
202.478561
 21
141.636063
 31
0.0
1001
TCAD
1000
TCW40_DEV_WIDTH
1002
{
1040
0.0137795275077224
1002
}
  0
LINE
  5
112
330
1F
100
AcDbEntity
  8
0
 62
     7
370
    35
100
AcDbLine
 10
202.478561
 20
146.636063
 30
0.0
 11
202.478561
 21
145.636063
 31
0.0
1001
TCAD
1000
TCW40_DEV_WIDTH
1002
{
1040
0.0137795275077224
1002
}
  0
LINE
  5
113
330
1F
100
AcDbEntity
  8
0
 62
     7
370
    35
100
AcDbLine
 10
197.678558
 20
146.636063
 30
0.0
 11
197.678558
 21
145.636063
 31
0.0
1001
TCAD
1000
TCW40_DEV_WIDTH
1002
{
1040
0.0137795275077224
1002
}
  0
LINE
  5
114
330
1F
100
AcDbEntity
  8
0
 62
     7
370
    35
100
AcDbLine
 10
197.678558
 20
142.636063
 30
0.0
 11
197.678558
 21
141.636063
 31
0.0
1001
TCAD
1000
TCW40_DEV_WIDTH
1002
{
1040
0.0137795275077224
1002
}
  0
LINE
  5
115
330
1F
100
AcDbEntity
  8
0
 62
     7
370
    35
100
AcDbLine
 10
197.678558
 20
118.636063
 30
0.0
 11
197.678558
 21
117.636063
 31
0.0
1001
TCAD
1000
TCW40_DEV_WIDTH
1002
{
1040
0.0137795275077224
1002
}
  0
LINE
  5
116
330
1F
100
AcDbEntity
  8
0
 62
     7
370
    35
100
AcDbLine
 10
197.678558
 20
114.636063
 30
0.0
 11
197.678558
 21
113.636063
 31
0.0
1001
TCAD
1000
TCW40_DEV_WIDTH
1002
{
1040
0.0137795275077224
1002
}
  0
LINE
  5
117
330
1F
100
AcDbEntity
  8
0
 62
     7
370
    35
100
AcDbLine
 10
204.628555
 20
113.636063
 30
0.0
 11
204.628555
 21
118.636063
 31
0.0
1001
TCAD
1000
TCW40_DEV_WIDTH
1002
{
1040
0.0137795275077224
1002
}
  0
LINE
  5
118
330
1F
100
AcDbEntity
  8
0
 62
     7
370
    35
100
AcDbLine
 10
204.578568
 20
118.636063
 30
0.0
 11
204.578568
 21
113.636063
 31
0.0
1001
TCAD
1000
TCW40_DEV_WIDTH
1002
{
1040
0.0137795275077224
1002
}
  0
LINE
  5
119
330
1F
100
AcDbEntity
  8
0
 62
     7
370
    35
100
AcDbLine
 10
206.128555
 20
113.636063
 30
0.0
 11
206.128555
 21
118.636063
 31
0.0
1001
TCAD
1000
TCW40_DEV_WIDTH
1002
{
1040
0.0137795275077224
1002
}
  0
LINE
  5
11A
330
1F
100
AcDbEntity
  8
0
 62
     7
370
    35
100
AcDbLine
 10
204.578568
 20
146.636063
 30
0.0
 11
204.578568
 21
141.636063
 31
0.0
1001
TCAD
1000
TCW40_DEV_WIDTH
1002
{
1040
0.0137795275077224
1002
}
  0
LINE
  5
11B
330
1F
100
AcDbEntity
  8
0
 62
     7
370
    35
100
AcDbLine
 10
206.178558
 20
118.636063
 30
0.0
 11
206.178558
 21
113.636063
 31
0.0
1001
TCAD
1000
TCW40_DEV_WIDTH
1002
{
1040
0.0137795275077224
1002
}
  0
LINE
  5
11C
330
1F
100
AcDbEntity
  8
0
 62
     7
370
    35
100
AcDbLine
 10
206.178558
 20
146.636063
 30
0.0
 11
206.178558
 21
141.636063
 31
0.0
1001
TCAD
1000
TCW40_DEV_WIDTH
1002
{
1040
0.0137795275077224
1002
}
  0
LINE
  5
11D
330
1F
100
AcDbEntity
  8
0
 62
     7
370
    35
100
AcDbLine
 10
206.128555
 20
141.636063
 30
0.0
 11
206.128555
 21
146.636063
 31
0.0
1001
TCAD
1000
TCW40_DEV_WIDTH
1002
{
1040
0.0137795275077224
1002
}
  0
LINE
  5
11E
330
1F
100
AcDbEntity
  8
0
 62
     7
370
    35
100
AcDbLine
 10
204.628555
 20
146.636063
 30
0.0
 11
204.628555
 21
141.636063
 31
0.0
1001
TCAD
1000
TCW40_DEV_WIDTH
1002
{
1040
0.0137795275077224
1002
}
  0
LINE
  5
11F
330
1F
100
AcDbEntity
  8
0
 62
     7
370
    35
100
AcDbLine
 10
228.504318
 20
117.636063
 30
0.0
 11
228.504318
 21
120.636063
 31
0.0
1001
TCAD
1000
TCW40_DEV_WIDTH
1002
{
1040
0.0137795275077224
1002
}
  0
LINE
  5
120
330
1F
100
AcDbEntity
  8
0
 62
     7
370
    35
100
AcDbLine
 10
232.18251
 20
117.636063
 30
0.0
 11
228.504318
 21
117.636063
 31
0.0
1001
TCAD
1000
TCW40_DEV_WIDTH
1002
{
1040
0.0137795275077224
1002
}
  0
LINE
  5
121
330
1F
100
AcDbEntity
  8
0
 62
     7
370
    35
100
AcDbLine
 10
232.18251
 20
117.636063
 30
0.0
 11
232.18251
 21
120.636063
 31
0.0
1001
TCAD
1000
TCW40_DEV_WIDTH
1002
{
1040
0.0137795275077224
1002
}
  0
LINE
  5
122
330
1F
100
AcDbEntity
  8
0
 62
     7
370
    35
100
AcDbLine
 10
232.18251
 20
120.636063
 30
0.0
 11
228.504318
 21
120.636063
 31
0.0
1001
TCAD
1000
TCW40_DEV_WIDTH
1002
{
1040
0.0137795275077224
1002
}
  0
LINE
  5
123
330
1F
100
AcDbEntity
  8
0
 62
     7
370
    35
100
AcDbLine
 10
228.504318
 20
120.636063
 30
0.0
 11
226.478546
 21
120.636063
 31
0.0
1001
TCAD
1000
TCW40_DEV_WIDTH
1002
{
1040
0.0137795275077224
1002
}
  0
LINE
  5
124
330
1F
100
AcDbEntity
  8
0
 62
     7
370
    35
100
AcDbLine
 10
233.178558
 20
120.636063
 30
0.0
 11
232.18251
 21
120.636063
 31
0.0
1001
TCAD
1000
TCW40_DEV_WIDTH
1002
{
1040
0.0137795275077224
1002
}
  0
LINE
  5
125
330
1F
100
AcDbEntity
  8
0
 62
     7
370
    35
100
AcDbLine
 10
233.178558
 20
117.636063
 30
0.0
 11
232.18251
 21
117.636063
 31
0.0
1001
TCAD
1000
TCW40_DEV_WIDTH
1002
{
1040
0.0137795275077224
1002
}
  0
LINE
  5
126
330
1F
100
AcDbEntity
  8
0
 62
     7
370
    35
100
AcDbLine
 10
233.178558
 20
117.636063
 30
0.0
 11
233.178558
 21
120.636063
 31
0.0
1001
TCAD
1000
TCW40_DEV_WIDTH
1002
{
1040
0.0137795275077224
1002
}
  0
LINE
  5
127
330
1F
100
AcDbEntity
  8
0
 62
     7
370
    35
100
AcDbLine
 10
228.504318
 20
117.636063
 30
0.0
 11
226.478546
 21
117.636063
 31
0.0
1001
TCAD
1000
TCW40_DEV_WIDTH
1002
{
1040
0.0137795275077224
1002
}
  0
LINE
  5
128
330
1F
100
AcDbEntity
  8
0
 62
     7
370
    35
100
AcDbLine
 10
233.178558
 20
117.636063
 30
0.0
 11
233.178558
 21
120.636063
 31
0.0
1001
TCAD
1000
TCW40_DEV_WIDTH
1002
{
1040
0.0137795275077224
1002
}
  0
LINE
  5
129
330
1F
100
AcDbEntity
  8
0
 62
     7
370
    35
100
AcDbLine
 10
202.878555
 20
118.116058
 30
0.0
 11
204.578552
 21
118.116058
 31
0.0
1001
TCAD
1000
TCW40_DEV_WIDTH
1002
{
1040
0.0137795275077224
1002
}
  0
LINE
  5
12A
330
1F
100
AcDbEntity
  8
0
 62
     7
370
    35
100
AcDbLine
 10
206.178558
 20
114.886063
 30
0.0
 11
206.178558
 21
118.636055
 31
0.0
1001
TCAD
1000
TCW40_DEV_WIDTH
1002
{
1040
0.0137795275077224
1002
}
  0
LINE
  5
12B
330
1F
100
AcDbEntity
  8
0
 62
     7
370
    35
100
AcDbLine
 10
206.178558
 20
114.886063
 30
0.0
 11
206.278564
 21
114.886063
 31
0.0
1001
TCAD
1000
TCW40_DEV_WIDTH
1002
{
1040
0.0137795275077224
1002
}
  0
LINE
  5
12C
330
1F
100
AcDbEntity
  8
0
 62
     7
370
    35
100
AcDbLine
 10
202.878555
 20
118.116058
 30
0.0
 11
204.578552
 21
118.116058
 31
0.0
1001
TCAD
1000
TCW40_DEV_WIDTH
1002
{
1040
0.0137795275077224
1002
}
  0
LINE
  5
12D
330
1F
100
AcDbEntity
  8
0
 62
     7
370
    35
100
AcDbLine
 10
202.878555
 20
118.116058
 30
0.0
 11
204.578552
 21
118.116058
 31
0.0
1001
TCAD
1000
TCW40_DEV_WIDTH
1002
{
1040
0.0137795275077224
1002
}
  0
LINE
  5
12E
330
1F
100
AcDbEntity
  8
0
 62
     7
370
    35
100
AcDbLine
 10
204.478546
 20
117.616058
 30
0.0
 11
204.578552
 21
117.616058
 31
0.0
1001
TCAD
1000
TCW40_DEV_WIDTH
1002
{
1040
0.0137795275077224
1002
}
  0
LINE
  5
12F
330
1F
100
AcDbEntity
  8
0
 62
     7
370
    35
100
AcDbLine
 10
202.878555
 20
118.116058
 30
0.0
 11
204.578552
 21
118.116058
 31
0.0
1001
TCAD
1000
TCW40_DEV_WIDTH
1002
{
1040
0.0137795275077224
1002
}
  0
LINE
  5
130
330
1F
100
AcDbEntity
  8
0
 62
     7
370
    35
100
AcDbLine
 10
202.878555
 20
117.63588
 30
0.0
 11
202.878555
 21
118.116058
 31
0.0
1001
TCAD
1000
TCW40_DEV_WIDTH
1002
{
1040
0.0137795275077224
1002
}
  0
LINE
  5
131
330
1F
100
AcDbEntity
  8
0
 62
     7
370
    35
100
AcDbLine
 10
202.878555
 20
118.116058
 30
0.0
 11
204.578552
 21
118.116058
 31
0.0
1001
TCAD
1000
TCW40_DEV_WIDTH
1002
{
1040
0.0137795275077224
1002
}
  0
LINE
  5
132
330
1F
100
AcDbEntity
  8
0
 62
     7
370
    35
100
AcDbLine
 10
206.178558
 20
143.399048
 30
0.0
 11
206.278549
 21
143.399048
 31
0.0
1001
TCAD
1000
TCW40_DEV_WIDTH
1002
{
1040
0.0137795275077224
1002
}
  0
LINE
  5
133
330
1F
100
AcDbEntity
  8
0
 62
     7
370
    35
100
AcDbLine
 10
206.178558
 20
141.899048
 30
0.0
 11
206.178558
 21
143.399048
 31
0.0
1001
TCAD
1000
TCW40_DEV_WIDTH
1002
{
1040
0.0137795275077224
1002
}
  0
LINE
  5
134
330
1F
100
AcDbEntity
  8
0
 62
     7
370
    35
100
AcDbLine
 10
206.178558
 20
141.899048
 30
0.0
 11
206.278549
 21
141.899048
 31
0.0
1001
TCAD
1000
TCW40_DEV_WIDTH
1002
{
1040
0.0137795275077224
1002
}
  0
LINE
  5
135
330
1F
100
AcDbEntity
  8
0
 62
     7
370
    35
100
AcDbLine
 10
206.178558
 20
141.636047
 30
0.0
 11
206.178558
 21
141.899048
 31
0.0
1001
TCAD
1000
TCW40_DEV_WIDTH
1002
{
1040
0.0137795275077224
1002
}
  0
LINE
  5
136
330
1F
100
AcDbEntity
  8
0
 62
     7
370
    35
100
AcDbLine
 10
204.578568
 20
145.876068
 30
0.0
 11
204.25856
 21
145.876068
 31
0.0
1001
TCAD
1000
TCW40_DEV_WIDTH
1002
{
1040
0.0137795275077224
1002
}
  0
LINE
  5
137
330
1F
100
AcDbEntity
  8
0
 62
     7
370
    35
100
AcDbLine
 10
204.578568
 20
146.19606
 30
0.0
 11
204.25856
 21
146.19606
 31
0.0
1001
TCAD
1000
TCW40_DEV_WIDTH
1002
{
1040
0.0137795275077224
1002
}
  0
LINE
  5
138
330
1F
100
AcDbEntity
  8
0
 62
     7
370
    35
100
AcDbLine
 10
204.25856
 20
146.19606
 30
0.0
 11
204.25856
 21
145.876068
 31
0.0
1001
TCAD
1000
TCW40_DEV_WIDTH
1002
{
1040
0.0137795275077224
1002
}
  0
LINE
  5
139
330
1F
100
AcDbEntity
  8
0
 62
     7
370
    35
100
AcDbLine
 10
204.578568
 20
145.076065
 30
0.0
 11
204.478546
 21
145.076065
 31
0.0
1001
TCAD
1000
TCW40_DEV_WIDTH
1002
{
1040
0.0137795275077224
1002
}
  0
LINE
  5
13A
330
1F
100
AcDbEntity
  8
0
 62
     7
370
    35
100
AcDbLine
 10
204.578568
 20
145.396057
 30
0.0
 11
204.478546
 21
145.396057
 31
0.0
1001
TCAD
1000
TCW40_DEV_WIDTH
1002
{
1040
0.0137795275077224
1002
}
  0
LINE
  5
13B
330
1F
100
AcDbEntity
  8
0
 62
     7
370
    35
100
AcDbLine
 10
204.578568
 20
144.276062
 30
0.0
 11
204.478546
 21
144.276062
 31
0.0
1001
TCAD
1000
TCW40_DEV_WIDTH
1002
{
1040
0.0137795275077224
1002
}
  0
LINE
  5
13C
330
1F
100
AcDbEntity
  8
0
 62
     7
370
    35
100
AcDbLine
 10
204.578568
 20
144.596069
 30
0.0
 11
204.478546
 21
144.596069
 31
0.0
1001
TCAD
1000
TCW40_DEV_WIDTH
1002
{
1040
0.0137795275077224
1002
}
  0
LINE
  5
13D
330
1F
100
AcDbEntity
  8
0
 62
     7
370
    35
100
AcDbLine
 10
204.578568
 20
143.476059
 30
0.0
 11
204.478546
 21
143.476059
 31
0.0
1001
TCAD
1000
TCW40_DEV_WIDTH
1002
{
1040
0.0137795275077224
1002
}
  0
LINE
  5
13E
330
1F
100
AcDbEntity
  8
0
 62
     7
370
    35
100
AcDbLine
 10
204.578568
 20
143.796066
 30
0.0
 11
204.478546
 21
143.796066
 31
0.0
1001
TCAD
1000
TCW40_DEV_WIDTH
1002
{
1040
0.0137795275077224
1002
}
  0
LINE
  5
13F
330
1F
100
AcDbEntity
  8
0
 62
     7
370
    35
100
AcDbLine
 10
204.578568
 20
142.676056
 30
0.0
 11
204.478546
 21
142.676056
 31
0.0
1001
TCAD
1000
TCW40_DEV_WIDTH
1002
{
1040
0.0137795275077224
1002
}
  0
LINE
  5
140
330
1F
100
AcDbEntity
  8
0
 62
     7
370
    35
100
AcDbLine
 10
204.578568
 20
142.996063
 30
0.0
 11
204.478546
 21
142.996063
 31
0.0
1001
TCAD
1000
TCW40_DEV_WIDTH
1002
{
1040
0.0137795275077224
1002
}
  0
LINE
  5
141
330
1F
100
AcDbEntity
  8
0
 62
     7
370
    35
100
AcDbLine
 10
204.578568
 20
141.876068
 30
0.0
 11
204.25856
 21
141.876068
 31
0.0
1001
TCAD
1000
TCW40_DEV_WIDTH
1002
{
1040
0.0137795275077224
1002
}
  0
LINE
  5
142
330
1F
100
AcDbEntity
  8
0
 62
     7
370
    35
100
AcDbLine
 10
204.578568
 20
142.19606
 30
0.0
 11
204.25856
 21
142.19606
 31
0.0
1001
TCAD
1000
TCW40_DEV_WIDTH
1002
{
1040
0.0137795275077224
1002
}
  0
LINE
  5
143
330
1F
100
AcDbEntity
  8
0
 62
     7
370
    35
100
AcDbLine
 10
204.25856
 20
142.19606
 30
0.0
 11
204.25856
 21
141.876068
 31
0.0
1001
TCAD
1000
TCW40_DEV_WIDTH
1002
{
1040
0.0137795275077224
1002
}
  0
LINE
  5
144
330
1F
100
AcDbEntity
  8
0
 62
     7
370
    35
100
AcDbLine
 10
204.528564
 20
141.876068
 30
0.0
 11
204.528564
 21
141.636047
 31
0.0
1001
TCAD
1000
TCW40_DEV_WIDTH
1002
{
1040
0.0137795275077224
1002
}
  0
LINE
  5
145
330
1F
100
AcDbEntity
  8
0
 62
     7
370
    35
100
AcDbLine
 10
204.528564
 20
142.676056
 30
0.0
 11
204.528564
 21
142.19606
 31
0.0
1001
TCAD
1000
TCW40_DEV_WIDTH
1002
{
1040
0.0137795275077224
1002
}
  0
LINE
  5
146
330
1F
100
AcDbEntity
  8
0
 62
     7
370
    35
100
AcDbLine
 10
204.528564
 20
143.476059
 30
0.0
 11
204.528564
 21
142.996063
 31
0.0
1001
TCAD
1000
TCW40_DEV_WIDTH
1002
{
1040
0.0137795275077224
1002
}
  0
LINE
  5
147
330
1F
100
AcDbEntity
  8
0
 62
     7
370
    35
100
AcDbLine
 10
204.528564
 20
144.276062
 30
0.0
 11
204.528564
 21
143.796066
 31
0.0
1001
TCAD
1000
TCW40_DEV_WIDTH
1002
{
1040
0.0137795275077224
1002
}
  0
LINE
  5
148
330
1F
100
AcDbEntity
  8
0
 62
     7
370
    35
100
AcDbLine
 10
204.528564
 20
145.076065
 30
0.0
 11
204.528564
 21
144.596069
 31
0.0
1001
TCAD
1000
TCW40_DEV_WIDTH
1002
{
1040
0.0137795275077224
1002
}
  0
LINE
  5
149
330
1F
100
AcDbEntity
  8
0
 62
     7
370
    35
100
AcDbLine
 10
204.528564
 20
145.876068
 30
0.0
 11
204.528564
 21
145.396057
 31
0.0
1001
TCAD
1000
TCW40_DEV_WIDTH
1002
{
1040
0.0137795275077224
1002
}
  0
LINE
  5
14A
330
1F
100
AcDbEntity
  8
0
 62
     7
370
    35
100
AcDbLine
 10
204.528564
 20
146.636047
 30
0.0
 11
204.528564
 21
146.19606
 31
0.0
1001
TCAD
1000
TCW40_DEV_WIDTH
1002
{
1040
0.0137795275077224
1002
}
  0
LINE
  5
14B
330
1F
100
AcDbEntity
  8
0
 62
     7
370
    35
100
AcDbLine
 10
192.478561
 20
121.636063
 30
0.0
 11
192.478561
 21
120.636063
 31
0.0
1001
TCAD
1000
TCW40_DEV_WIDTH
1002
{
1040
0.0137795275077224
1002
}
  0
LINE
  5
14C
330
1F
100
AcDbEntity
  8
0
 62
     7
370
    35
100
AcDbLine
 10
192.478561
 20
141.636063
 30
0.0
 11
192.478561
 21
140.636063
 31
0.0
1001
TCAD
1000
TCW40_DEV_WIDTH
1002
{
1040
0.0137795275077224
1002
}
  0
LINE
  5
14D
330
1F
100
AcDbEntity
  8
0
 62
     7
370
    35
100
AcDbLine
 10
191.478561
 20
120.636063
 30
0.0
 11
192.478561
 21
120.636063
 31
0.0
1001
TCAD
1000
TCW40_DEV_WIDTH
1002
{
1040
0.0137795275077224
1002
}
  0
LINE
  5
14E
330
1F
100
AcDbEntity
  8
0
 62
     7
370
    35
100
AcDbLine
 10
191.478561
 20
120.636063
 30
0.0
 11
191.478561
 21
108.636063
 31
0.0
1001
TCAD
1000
TCW40_DEV_WIDTH
1002
{
1040
0.0137795275077224
1002
}
  0
LINE
  5
14F
330
1F
100
AcDbEntity
  8
0
 62
     7
370
    13
100
AcDbLine
 10
191.478561
 20
108.636063
 30
0.0
 11
195.478561
 21
108.636063
 31
0.0
1001
TCAD
1000
TCW40_DEV_WIDTH
1002
{
1040
0.005118110217154
1002
}
  0
LINE
  5
150
330
1F
100
AcDbEntity
  8
0
 62
     7
370
    35
100
AcDbLine
 10
195.478561
 20
153.636063
 30
0.0
 11
195.478561
 21
108.636063
 31
0.0
1001
TCAD
1000
TCW40_DEV_WIDTH
1002
{
1040
0.0137795275077224
1002
}
  0
LINE
  5
151
330
1F
100
AcDbEntity
  8
0
 62
     7
370
    13
100
AcDbLine
 10
191.478561
 20
153.636063
 30
0.0
 11
195.478561
 21
153.636063
 31
0.0
1001
TCAD
1000
TCW40_DEV_WIDTH
1002
{
1040
0.005118110217154
1002
}
  0
LINE
  5
152
330
1F
100
AcDbEntity
  8
0
 62
     7
370
    35
100
AcDbLine
 10
191.478561
 20
153.636063
 30
0.0
 11
191.478561
 21
141.636063
 31
0.0
1001
TCAD
1000
TCW40_DEV_WIDTH
1002
{
1040
0.0137795275077224
1002
}
  0
LINE
  5
153
330
1F
100
AcDbEntity
  8
0
 62
     7
370
    35
100
AcDbLine
 10
191.478561
 20
141.636063
 30
0.0
 11
192.478561
 21
141.636063
 31
0.0
1001
TCAD
1000
TCW40_DEV_WIDTH
1002
{
1040
0.0137795275077224
1002
}
  0
LINE
  5
154
330
1F
100
AcDbEntity
  8
0
 62
     7
370
    35
100
AcDbLine
 10
191.478561
 20
140.636063
 30
0.0
 11
192.478561
 21
140.636063
 31
0.0
1001
TCAD
1000
TCW40_DEV_WIDTH
1002
{
1040
0.0137795275077224
1002
}
  0
LINE
  5
155
330
1F
100
AcDbEntity
  8
0
 62
     7
370
    35
100
AcDbLine
 10
191.478561
 20
140.636063
 30
0.0
 11
188.354523
 21
140.24556
 31
0.0
1001
TCAD
1000
TCW40_DEV_WIDTH
1002
{
1040
0.0137795275077224
1002
}
  0
ARC
  5
156
330
1F
100
AcDbEntity
  8
0
 62
     7
370
    35
100
AcDbCircle
 10
188.478561
 20
139.253281
 30
0.0
 40
0.9999999999999929
100
AcDbArc
 50
97.12501699999984
 51
180.0000050000005
1001
TCAD
1000
TCW40_DEV_WIDTH
1002
{
1040
0.0137795275077224
1002
}
  0
LINE
  5
157
330
1F
100
AcDbEntity
  8
0
 62
     7
370
    35
100
AcDbLine
 10
187.478561
 20
139.253281
 30
0.0
 11
187.478561
 21
123.018845
 31
0.0
1001
TCAD
1000
TCW40_DEV_WIDTH
1002
{
1040
0.0137795275077224
1002
}
  0
ARC
  5
158
330
1F
100
AcDbEntity
  8
0
 62
     7
370
    35
100
AcDbCircle
 10
188.478561
 20
123.018845
 30
0.0
 40
1.0
100
AcDbArc
 50
180.0
 51
262.8749830000003
1001
TCAD
1000
TCW40_DEV_WIDTH
1002
{
1040
0.0137795275077224
1002
}
  0
LINE
  5
159
330
1F
100
AcDbEntity
  8
0
 62
     7
370
    35
100
AcDbLine
 10
188.354523
 20
122.026566
 30
0.0
 11
191.478561
 21
121.636063
 31
0.0
1001
TCAD
1000
TCW40_DEV_WIDTH
1002
{
1040
0.0137795275077224
1002
}
  0
LINE
  5
15A
330
1F
100
AcDbEntity
  8
0
 62
     7
370
    35
100
AcDbLine
 10
191.478561
 20
121.636063
 30
0.0
 11
192.478561
 21
121.636063
 31
0.0
1001
TCAD
1000
TCW40_DEV_WIDTH
1002
{
1040
0.0137795275077224
1002
}
  0
LINE
  5
15B
330
1F
100
AcDbEntity
  8
0
 62
     7
370
    35
100
AcDbLine
 10
190.478561
 20
124.136063
 30
0.0
 11
190.478561
 21
129.136063
 31
0.0
1001
TCAD
1000
TCW40_DEV_WIDTH
1002
{
1040
0.0137795275077224
1002
}
  0
LINE
  5
15C
330
1F
100
AcDbEntity
  8
0
 62
     7
370
    35
100
AcDbLine
 10
190.478561
 20
124.136063
 30
0.0
 11
188.978561
 21
124.136063
 31
0.0
1001
TCAD
1000
TCW40_DEV_WIDTH
1002
{
1040
0.0137795275077224
1002
}
  0
LINE
  5
15D
330
1F
100
AcDbEntity
  8
0
 62
     7
370
    35
100
AcDbLine
 10
188.978561
 20
129.136063
 30
0.0
 11
188.978561
 21
124.136063
 31
0.0
1001
TCAD
1000
TCW40_DEV_WIDTH
1002
{
1040
0.0137795275077224
1002
}
  0
LINE
  5
15E
330
1F
100
AcDbEntity
  8
0
 62
     7
370
    35
100
AcDbLine
 10
188.978561
 20
129.136063
 30
0.0
 11
190.478561
 21
129.136063
 31
0.0
1001
TCAD
1000
TCW40_DEV_WIDTH
1002
{
1040
0.0137795275077224
1002
}
  0
LINE
  5
15F
330
1F
100
AcDbEntity
  8
0
 62
     7
370
    35
100
AcDbLine
 10
190.478561
 20
133.136063
 30
0.0
 11
190.478561
 21
138.136063
 31
0.0
1001
TCAD
1000
TCW40_DEV_WIDTH
1002
{
1040
0.0137795275077224
1002
}
  0
LINE
  5
160
330
1F
100
AcDbEntity
  8
0
 62
     7
370
    35
100
AcDbLine
 10
190.478561
 20
133.136063
 30
0.0
 11
188.978561
 21
133.136063
 31
0.0
1001
TCAD
1000
TCW40_DEV_WIDTH
1002
{
1040
0.0137795275077224
1002
}
  0
LINE
  5
161
330
1F
100
AcDbEntity
  8
0
 62
     7
370
    35
100
AcDbLine
 10
188.978561
 20
138.136063
 30
0.0
 11
188.978561
 21
133.136063
 31
0.0
1001
TCAD
1000
TCW40_DEV_WIDTH
1002
{
1040
0.0137795275077224
1002
}
  0
LINE
  5
162
330
1F
100
AcDbEntity
  8
0
 62
     7
370
    35
100
AcDbLine
 10
188.978561
 20
138.136063
 30
0.0
 11
190.478561
 21
138.136063
 31
0.0
1001
TCAD
1000
TCW40_DEV_WIDTH
1002
{
1040
0.0137795275077224
1002
}
  0
LINE
  5
163
330
1F
100
AcDbEntity
  8
0
 62
     7
370
    35
100
AcDbLine
 10
197.478561
 20
113.636063
 30
0.0
 11
204.478561
 21
113.636063
 31
0.0
1001
TCAD
1000
TCW40_DEV_WIDTH
1002
{
1040
0.0137795275077224
1002
}
  0
LINE
  5
164
330
1F
100
AcDbEntity
  8
0
 62
     7
370
    35
100
AcDbLine
 10
204.478561
 20
113.636063
 30
0.0
 11
206.278564
 21
113.636063
 31
0.0
1001
TCAD
1000
TCW40_DEV_WIDTH
1002
{
1040
0.0137795275077224
1002
}
  0
LINE
  5
165
330
1F
100
AcDbEntity
  8
0
 62
     7
370
    35
100
AcDbLine
 10
197.478561
 20
114.636063
 30
0.0
 11
197.478561
 21
113.636063
 31
0.0
1001
TCAD
1000
TCW40_DEV_WIDTH
1002
{
1040
0.0137795275077224
1002
}
  0
LINE
  5
166
330
1F
100
AcDbEntity
  8
0
 62
     7
370
    35
100
AcDbLine
 10
197.478561
 20
114.636063
 30
0.0
 11
204.478561
 21
114.636063
 31
0.0
1001
TCAD
1000
TCW40_DEV_WIDTH
1002
{
1040
0.0137795275077224
1002
}
  0
LINE
  5
167
330
1F
100
AcDbEntity
  8
0
 62
     7
370
    35
100
AcDbLine
 10
204.478561
 20
117.636063
 30
0.0
 11
197.478561
 21
117.636063
 31
0.0
1001
TCAD
1000
TCW40_DEV_WIDTH
1002
{
1040
0.0137795275077224
1002
}
  0
LINE
  5
168
330
1F
100
AcDbEntity
  8
0
 62
     7
370
    35
100
AcDbLine
 10
197.478561
 20
118.636063
 30
0.0
 11
197.478561
 21
117.636063
 31
0.0
1001
TCAD
1000
TCW40_DEV_WIDTH
1002
{
1040
0.0137795275077224
1002
}
  0
LINE
  5
169
330
1F
100
AcDbEntity
  8
0
 62
     7
370
    35
100
AcDbLine
 10
204.478561
 20
118.636063
 30
0.0
 11
197.478561
 21
118.636063
 31
0.0
1001
TCAD
1000
TCW40_DEV_WIDTH
1002
{
1040
0.0137795275077224
1002
}
  0
LINE
  5
16A
330
1F
100
AcDbEntity
  8
0
 62
     7
370
    35
100
AcDbLine
 10
206.278564
 20
118.636063
 30
0.0
 11
204.478561
 21
118.636063
 31
0.0
1001
TCAD
1000
TCW40_DEV_WIDTH
1002
{
1040
0.0137795275077224
1002
}
  0
LINE
  5
16B
330
1F
100
AcDbEntity
  8
0
 62
     7
370
    35
100
AcDbLine
 10
204.478561
 20
141.636063
 30
0.0
 11
197.478561
 21
141.636063
 31
0.0
1001
TCAD
1000
TCW40_DEV_WIDTH
1002
{
1040
0.0137795275077224
1002
}
  0
LINE
  5
16C
330
1F
100
AcDbEntity
  8
0
 62
     7
370
    35
100
AcDbLine
 10
206.278564
 20
141.636063
 30
0.0
 11
204.478561
 21
141.636063
 31
0.0
1001
TCAD
1000
TCW40_DEV_WIDTH
1002
{
1040
0.0137795275077224
1002
}
  0
LINE
  5
16D
330
1F
100
AcDbEntity
  8
0
 62
     7
370
    35
100
AcDbLine
 10
197.478561
 20
142.636063
 30
0.0
 11
197.478561
 21
141.636063
 31
0.0
1001
TCAD
1000
TCW40_DEV_WIDTH
1002
{
1040
0.0137795275077224
1002
}
  0
LINE
  5
16E
330
1F
100
AcDbEntity
  8
0
 62
     7
370
    35
100
AcDbLine
 10
197.478561
 20
142.636063
 30
0.0
 11
204.478561
 21
142.636063
 31
0.0
1001
TCAD
1000
TCW40_DEV_WIDTH
1002
{
1040
0.0137795275077224
1002
}
  0
LINE
  5
16F
330
1F
100
AcDbEntity
  8
0
 62
     7
370
    35
100
AcDbLine
 10
204.478561
 20
145.636063
 30
0.0
 11
197.478561
 21
145.636063
 31
0.0
1001
TCAD
1000
TCW40_DEV_WIDTH
1002
{
1040
0.0137795275077224
1002
}
  0
LINE
  5
170
330
1F
100
AcDbEntity
  8
0
 62
     7
370
    35
100
AcDbLine
 10
197.478561
 20
146.636063
 30
0.0
 11
197.478561
 21
145.636063
 31
0.0
1001
TCAD
1000
TCW40_DEV_WIDTH
1002
{
1040
0.0137795275077224
1002
}
  0
LINE
  5
171
330
1F
100
AcDbEntity
  8
0
 62
     7
370
    35
100
AcDbLine
 10
204.478561
 20
146.636063
 30
0.0
 11
206.278564
 21
146.636063
 31
0.0
1001
TCAD
1000
TCW40_DEV_WIDTH
1002
{
1040
0.0137795275077224
1002
}
  0
LINE
  5
172
330
1F
100
AcDbEntity
  8
0
 62
     7
370
    35
100
AcDbLine
 10
197.478561
 20
146.636063
 30
0.0
 11
204.478561
 21
146.636063
 31
0.0
1001
TCAD
1000
TCW40_DEV_WIDTH
1002
{
1040
0.0137795275077224
1002
}
  0
LINE
  5
173
330
1F
100
AcDbEntity
  8
0
 62
     7
370
    35
100
AcDbLine
 10
206.278564
 20
113.636063
 30
0.0
 11
206.278564
 21
118.636063
 31
0.0
1001
TCAD
1000
TCW40_DEV_WIDTH
1002
{
1040
0.0137795275077224
1002
}
  0
LINE
  5
174
330
1F
100
AcDbEntity
  8
0
 62
     7
370
    35
100
AcDbLine
 10
206.278564
 20
141.636063
 30
0.0
 11
206.278564
 21
146.636063
 31
0.0
1001
TCAD
1000
TCW40_DEV_WIDTH
1002
{
1040
0.0137795275077224
1002
}
  0
LINE
  5
175
330
1F
100
AcDbEntity
  8
0
 62
     7
370
    35
100
AcDbLine
 10
191.478561
 20
155.136063
 30
0.0
 11
191.478561
 21
153.636063
 31
0.0
1001
TCAD
1000
TCW40_DEV_WIDTH
1002
{
1040
0.0137795275077224
1002
}
  0
LINE
  5
176
330
1F
100
AcDbEntity
  8
0
 62
     7
370
    35
100
AcDbLine
 10
195.478561
 20
155.136063
 30
0.0
 11
195.478561
 21
153.636063
 31
0.0
1001
TCAD
1000
TCW40_DEV_WIDTH
1002
{
1040
0.0137795275077224
1002
}
  0
LINE
  5
177
330
1F
100
AcDbEntity
  8
0
 62
     7
370
    35
100
AcDbLine
 10
195.478561
 20
108.636063
 30
0.0
 11
195.478561
 21
107.136063
 31
0.0
1001
TCAD
1000
TCW40_DEV_WIDTH
1002
{
1040
0.0137795275077224
1002
}
  0
LINE
  5
178
330
1F
100
AcDbEntity
  8
0
 62
     7
370
    35
100
AcDbLine
 10
191.478561
 20
108.636063
 30
0.0
 11
191.478561
 21
107.136063
 31
0.0
1001
TCAD
1000
TCW40_DEV_WIDTH
1002
{
1040
0.0137795275077224
1002
}
  0
LINE
  5
179
330
1F
100
AcDbEntity
  8
0
 62
     7
370
    35
100
AcDbLine
 10
191.478561
 20
107.136063
 30
0.0
 11
195.478561
 21
107.136063
 31
0.0
1001
TCAD
1000
TCW40_DEV_WIDTH
1002
{
1040
0.0137795275077224
1002
}
  0
LINE
  5
17A
330
1F
100
AcDbEntity
  8
0
 62
     7
370
    35
100
AcDbLine
 10
191.478561
 20
155.136063
 30
0.0
 11
195.478561
 21
155.136063
 31
0.0
1001
TCAD
1000
TCW40_DEV_WIDTH
1002
{
1040
0.0137795275077224
1002
}
  0
LINE
  5
17B
330
1F
100
AcDbEntity
  8
0
 62
     7
370
    35
100
AcDbLine
 10
215.978561
 20
110.136063
 30
0.0
 11
216.478561
 21
109.636063
 31
0.0
1001
TCAD
1000
TCW40_DEV_WIDTH
1002
{
1040
0.0137795275077224
1002
}
  0
LINE
  5
17C
330
1F
100
AcDbEntity
  8
0
 62
     7
370
    35
100
AcDbLine
 10
216.478561
 20
109.33606
 30
0.0
 11
216.478561
 21
109.636063
 31
0.0
1001
TCAD
1000
TCW40_DEV_WIDTH
1002
{
1040
0.0137795275077224
1002
}
  0
LINE
  5
17D
330
1F
100
AcDbEntity
  8
0
 62
     7
370
    13
100
AcDbLine
 10
195.478561
 20
109.33606
 30
0.0
 11
216.478561
 21
109.33606
 31
0.0
1001
TCAD
1000
TCW40_DEV_WIDTH
1002
{
1040
0.005118110217154
1002
}
  0
LINE
  5
17E
330
1F
100
AcDbEntity
  8
0
 62
     7
370
    13
100
AcDbLine
 10
195.478561
 20
152.936066
 30
0.0
 11
216.478561
 21
152.936066
 31
0.0
1001
TCAD
1000
TCW40_DEV_WIDTH
1002
{
1040
0.005118110217154
1002
}
  0
LINE
  5
17F
330
1F
100
AcDbEntity
  8
0
 62
     7
370
    35
100
AcDbLine
 10
216.478561
 20
152.936066
 30
0.0
 11
216.478561
 21
152.636063
 31
0.0
1001
TCAD
1000
TCW40_DEV_WIDTH
1002
{
1040
0.0137795275077224
1002
}
  0
LINE
  5
180
330
1F
100
AcDbEntity
  8
0
 62
     7
370
    35
100
AcDbLine
 10
215.978561
 20
152.136063
 30
0.0
 11
216.478561
 21
152.636063
 31
0.0
1001
TCAD
1000
TCW40_DEV_WIDTH
1002
{
1040
0.0137795275077224
1002
}
  0
LINE
  5
181
330
1F
100
AcDbEntity
  8
0
 62
     7
370
    35
100
AcDbLine
 10
199.478561
 20
152.136063
 30
0.0
 11
215.978561
 21
152.136063
 31
0.0
1001
TCAD
1000
TCW40_DEV_WIDTH
1002
{
1040
0.0137795275077224
1002
}
  0
LINE
  5
182
330
1F
100
AcDbEntity
  8
0
 62
     7
370
    35
100
AcDbLine
 10
199.478561
 20
152.136063
 30
0.0
 11
199.478561
 21
150.736069
 31
0.0
1001
TCAD
1000
TCW40_DEV_WIDTH
1002
{
1040
0.0137795275077224
1002
}
  0
LINE
  5
183
330
1F
100
AcDbEntity
  8
0
 62
     7
370
    35
100
AcDbLine
 10
199.478561
 20
150.736069
 30
0.0
 11
225.978561
 21
150.736069
 31
0.0
1001
TCAD
1000
TCW40_DEV_WIDTH
1002
{
1040
0.0137795275077224
1002
}
  0
LINE
  5
184
330
1F
100
AcDbEntity
  8
0
 62
     7
370
    13
100
AcDbLine
 10
225.978561
 20
111.536064
 30
0.0
 11
225.978561
 21
150.736069
 31
0.0
1001
TCAD
1000
TCW40_DEV_WIDTH
1002
{
1040
0.005118110217154
1002
}
  0
LINE
  5
185
330
1F
100
AcDbEntity
  8
0
 62
     7
370
    35
100
AcDbLine
 10
199.478561
 20
111.536064
 30
0.0
 11
225.978561
 21
111.536064
 31
0.0
1001
TCAD
1000
TCW40_DEV_WIDTH
1002
{
1040
0.0137795275077224
1002
}
  0
LINE
  5
186
330
1F
100
AcDbEntity
  8
0
 62
     7
370
    35
100
AcDbLine
 10
199.478561
 20
111.536064
 30
0.0
 11
199.478561
 21
110.136063
 31
0.0
1001
TCAD
1000
TCW40_DEV_WIDTH
1002
{
1040
0.0137795275077224
1002
}
  0
LINE
  5
187
330
1F
100
AcDbEntity
  8
0
 62
     7
370
    35
100
AcDbLine
 10
199.478561
 20
110.136063
 30
0.0
 11
215.978561
 21
110.136063
 31
0.0
1001
TCAD
1000
TCW40_DEV_WIDTH
1002
{
1040
0.0137795275077224
1002
}
  0
LINE
  5
188
330
1F
100
AcDbEntity
  8
0
 62
     7
370
    35
100
AcDbLine
 10
224.978561
 20
145.136063
 30
0.0
 11
224.978561
 21
143.136063
 31
0.0
1001
TCAD
1000
TCW40_DEV_WIDTH
1002
{
1040
0.0137795275077224
1002
}
  0
LINE
  5
189
330
1F
100
AcDbEntity
  8
0
 62
     7
370
    35
100
AcDbLine
 10
207.778564
 20
145.136063
 30
0.0
 11
224.978561
 21
145.136063
 31
0.0
1001
TCAD
1000
TCW40_DEV_WIDTH
1002
{
1040
0.0137795275077224
1002
}
  0
LINE
  5
18A
330
1F
100
AcDbEntity
  8
0
 62
     7
370
    35
100
AcDbLine
 10
207.778564
 20
143.136063
 30
0.0
 11
207.778564
 21
145.136063
 31
0.0
1001
TCAD
1000
TCW40_DEV_WIDTH
1002
{
1040
0.0137795275077224
1002
}
  0
LINE
  5
18B
330
1F
100
AcDbEntity
  8
0
 62
     7
370
    35
100
AcDbLine
 10
224.978561
 20
143.136063
 30
0.0
 11
207.778564
 21
143.136063
 31
0.0
1001
TCAD
1000
TCW40_DEV_WIDTH
1002
{
1040
0.0137795275077224
1002
}
  0
LINE
  5
18C
330
1F
100
AcDbEntity
  8
0
 62
     7
370
    35
100
AcDbLine
 10
224.978561
 20
117.136063
 30
0.0
 11
224.978561
 21
115.136063
 31
0.0
1001
TCAD
1000
TCW40_DEV_WIDTH
1002
{
1040
0.0137795275077224
1002
}
  0
LINE
  5
18D
330
1F
100
AcDbEntity
  8
0
 62
     7
370
    35
100
AcDbLine
 10
207.778564
 20
117.136063
 30
0.0
 11
224.978561
 21
117.136063
 31
0.0
1001
TCAD
1000
TCW40_DEV_WIDTH
1002
{
1040
0.0137795275077224
1002
}
  0
LINE
  5
18E
330
1F
100
AcDbEntity
  8
0
 62
     7
370
    35
100
AcDbLine
 10
207.778564
 20
115.136063
 30
0.0
 11
207.778564
 21
117.136063
 31
0.0
1001
TCAD
1000
TCW40_DEV_WIDTH
1002
{
1040
0.0137795275077224
1002
}
  0
LINE
  5
18F
330
1F
100
AcDbEntity
  8
0
 62
     7
370
    35
100
AcDbLine
 10
224.978561
 20
115.136063
 30
0.0
 11
207.778564
 21
115.136063
 31
0.0
1001
TCAD
1000
TCW40_DEV_WIDTH
1002
{
1040
0.0137795275077224
1002
}
  0
LINE
  5
190
330
1F
100
AcDbEntity
  8
0
 62
     7
370
    35
100
AcDbLine
 10
204.478561
 20
117.636063
 30
0.0
 11
204.478561
 21
114.636063
 31
0.0
1001
TCAD
1000
TCW40_DEV_WIDTH
1002
{
1040
0.0137795275077224
1002
}
  0
LINE
  5
191
330
1F
100
AcDbEntity
  8
0
 62
     7
370
    35
100
AcDbLine
 10
204.478561
 20
145.636063
 30
0.0
 11
204.478561
 21
142.636063
 31
0.0
1001
TCAD
1000
TCW40_DEV_WIDTH
1002
{
1040
0.0137795275077224
1002
}
  0
LINE
  5
192
330
1F
100
AcDbEntity
  8
0
 62
     7
370
    35
100
AcDbLine
 10
216.478561
 20
153.436066
 30
0.0
 11
225.978561
 21
153.436066
 31
0.0
1001
TCAD
1000
TCW40_DEV_WIDTH
1002
{
1040
0.0137795275077224
1002
}
  0
LINE
  5
193
330
1F
100
AcDbEntity
  8
0
 62
     7
370
    35
100
AcDbLine
 10
195.478561
 20
153.436066
 30
0.0
 11
216.478561
 21
153.436066
 31
0.0
1001
TCAD
1000
TCW40_DEV_WIDTH
1002
{
1040
0.0137795275077224
1002
}
  0
LINE
  5
194
330
1F
100
AcDbEntity
  8
0
 62
     7
370
    35
100
AcDbLine
 10
216.478561
 20
153.436066
 30
0.0
 11
216.478561
 21
152.936066
 31
0.0
1001
TCAD
1000
TCW40_DEV_WIDTH
1002
{
1040
0.0137795275077224
1002
}
  0
LINE
  5
195
330
1F
100
AcDbEntity
  8
0
 62
     7
370
    35
100
AcDbLine
 10
195.478561
 20
108.83606
 30
0.0
 11
216.478561
 21
108.83606
 31
0.0
1001
TCAD
1000
TCW40_DEV_WIDTH
1002
{
1040
0.0137795275077224
1002
}
  0
LINE
  5
196
330
1F
100
AcDbEntity
  8
0
 62
     7
370
    35
100
AcDbLine
 10
216.478561
 20
109.33606
 30
0.0
 11
216.478561
 21
108.83606
 31
0.0
1001
TCAD
1000
TCW40_DEV_WIDTH
1002
{
1040
0.0137795275077224
1002
}
  0
LINE
  5
197
330
1F
100
AcDbEntity
  8
0
 62
     7
370
    35
100
AcDbLine
 10
216.478561
 20
108.83606
 30
0.0
 11
225.978561
 21
108.83606
 31
0.0
1001
TCAD
1000
TCW40_DEV_WIDTH
1002
{
1040
0.0137795275077224
1002
}
  0
LINE
  5
198
330
1F
100
AcDbEntity
  8
0
 62
     7
370
    35
100
AcDbLine
 10
225.978561
 20
111.536064
 30
0.0
 11
226.436813
 21
111.536064
 31
0.0
1001
TCAD
1000
TCW40_DEV_WIDTH
1002
{
1040
0.0137795275077224
1002
}
  0
LINE
  5
199
330
1F
100
AcDbEntity
  8
0
 62
     7
370
    35
100
AcDbLine
 10
226.478561
 20
111.236061
 30
0.0
 11
226.478561
 21
151.036057
 31
0.0
1001
TCAD
1000
TCW40_DEV_WIDTH
1002
{
1040
0.0137795275077224
1002
}
  0
ARC
  5
19A
330
1F
100
AcDbEntity
  8
0
 62
     7
370
    35
100
AcDbCircle
 10
225.398849
 20
151.032959
 30
0.0
 40
1.079663841581089
100
AcDbArc
 50
-15.96197300000022
 51
0.1650980000000393
1001
TCAD
1000
TCW40_DEV_WIDTH
1002
{
1040
0.0137795275077224
1002
}
  0
LINE
  5
19B
330
1F
100
AcDbEntity
  8
0
 62
     7
370
    35
100
AcDbLine
 10
226.436813
 20
150.736069
 30
0.0
 11
225.978561
 21
150.736069
 31
0.0
1001
TCAD
1000
TCW40_DEV_WIDTH
1002
{
1040
0.0137795275077224
1002
}
  0
ARC
  5
19C
330
1F
100
AcDbEntity
  8
0
 62
     7
370
    35
100
AcDbCircle
 10
225.398849
 20
111.239174
 30
0.0
 40
1.079663841581756
100
AcDbArc
 50
-0.1650979999999372
 51
15.96197300000031
1001
TCAD
1000
TCW40_DEV_WIDTH
1002
{
1040
0.0137795275077224
1002
}
  0
LINE
  5
19D
330
1F
100
AcDbEntity
  8
0
 62
     7
370
    35
100
AcDbLine
 10
226.478561
 20
110.33606
 30
0.0
 11
226.478561
 21
109.33606
 31
0.0
1001
TCAD
1000
TCW40_DEV_WIDTH
1002
{
1040
0.0137795275077224
1002
}
  0
LINE
  5
19E
330
1F
100
AcDbEntity
  8
0
 62
     7
370
    35
100
AcDbLine
 10
226.478561
 20
110.33606
 30
0.0
 11
226.478561
 21
111.236061
 31
0.0
1001
TCAD
1000
TCW40_DEV_WIDTH
1002
{
1040
0.0137795275077224
1002
}
  0
LINE
  5
19F
330
1F
100
AcDbEntity
  8
0
 62
     7
370
    35
100
AcDbLine
 10
226.478561
 20
151.936066
 30
0.0
 11
226.478561
 21
151.036057
 31
0.0
1001
TCAD
1000
TCW40_DEV_WIDTH
1002
{
1040
0.0137795275077224
1002
}
  0
LINE
  5
1A0
330
1F
100
AcDbEntity
  8
0
 62
     7
370
    35
100
AcDbLine
 10
226.478561
 20
151.936066
 30
0.0
 11
226.478561
 21
152.936066
 31
0.0
1001
TCAD
1000
TCW40_DEV_WIDTH
1002
{
1040
0.0137795275077224
1002
}
  0
LINE
  5
1A1
330
1F
100
AcDbEntity
  8
0
 62
     7
370
    35
100
AcDbLine
 10
199.478561
 20
151.936066
 30
0.0
 11
226.478561
 21
151.936066
 31
0.0
1001
TCAD
1000
TCW40_DEV_WIDTH
1002
{
1040
0.0137795275077224
1002
}
  0
ARC
  5
1A2
330
1F
100
AcDbEntity
  8
0
 62
     7
370
    35
100
AcDbCircle
 10
225.978561
 20
152.936066
 30
0.0
 40
0.5
100
AcDbArc
 50
0.0
 51
90.00000300000096
1001
TCAD
1000
TCW40_DEV_WIDTH
1002
{
1040
0.0137795275077224
1002
}
  0
ARC
  5
1A3
330
1F
100
AcDbEntity
  8
0
 62
     7
370
    35
100
AcDbCircle
 10
225.978561
 20
109.33606
 30
0.0
 40
0.5
100
AcDbArc
 50
-90.0
 51
0.0
1001
TCAD
1000
TCW40_DEV_WIDTH
1002
{
1040
0.0137795275077224
1002
}
  0
LINE
  5
1A4
330
1F
100
AcDbEntity
  8
0
 62
     7
370
    35
100
AcDbLine
 10
199.478561
 20
110.33606
 30
0.0
 11
226.478561
 21
110.33606
 31
0.0
1001
TCAD
1000
TCW40_DEV_WIDTH
1002
{
1040
0.0137795275077224
1002
}
  0
LINE
  5
1A5
330
1F
100
AcDbEntity
  8
0
 62
     7
370
    35
100
AcDbLine
 10
275.113007
 20
107.136063
 30
0.0
 11
320.113007
 21
107.136063
 31
0.0
1001
TCAD
1000
TCW40_DEV_WIDTH
1002
{
1040
0.0137795275077224
1002
}
  0
LINE
  5
1A6
330
1F
100
AcDbEntity
  8
0
 62
     7
370
    35
100
AcDbLine
 10
321.613007
 20
121.136063
 30
0.0
 11
321.613007
 21
121.448563
 31
0.0
1001
TCAD
1000
TCW40_DEV_WIDTH
1002
{
1040
0.0137795275077224
1002
}
  0
LINE
  5
1A7
330
1F
100
AcDbEntity
  8
0
 62
     7
370
    35
100
AcDbLine
 10
321.613007
 20
108.636063
 30
0.0
 11
321.613007
 21
121.136063
 31
0.0
1001
TCAD
1000
TCW40_DEV_WIDTH
1002
{
1040
0.0137795275077224
1002
}
  0
LINE
  5
1A8
330
1F
100
AcDbEntity
  8
0
 62
     7
370
    35
100
AcDbLine
 10
321.613007
 20
141.136063
 30
0.0
 11
321.613007
 21
140.823563
 31
0.0
1001
TCAD
1000
TCW40_DEV_WIDTH
1002
{
1040
0.0137795275077224
1002
}
  0
LINE
  5
1A9
330
1F
100
AcDbEntity
  8
0
 62
     7
370
    35
100
AcDbLine
 10
321.613007
 20
141.136063
 30
0.0
 11
321.613007
 21
153.636063
 31
0.0
1001
TCAD
1000
TCW40_DEV_WIDTH
1002
{
1040
0.0137795275077224
1002
}
  0
ARC
  5
1AA
330
1F
100
AcDbEntity
  8
0
 62
     7
370
    35
100
AcDbCircle
 10
320.113007
 20
108.636063
 30
0.0
 40
1.5
100
AcDbArc
 50
-90.0
 51
0.0
1001
TCAD
1000
TCW40_DEV_WIDTH
1002
{
1040
0.0137795275077224
1002
}
  0
ARC
  5
1AB
330
1F
100
AcDbEntity
  8
0
 62
     7
370
    35
100
AcDbCircle
 10
275.113007
 20
108.636063
 30
0.0
 40
1.5
100
AcDbArc
 50
180.0
 51
269.9999970000001
1001
TCAD
1000
TCW40_DEV_WIDTH
1002
{
1040
0.0137795275077224
1002
}
  0
LINE
  5
1AC
330
1F
100
AcDbEntity
  8
0
 62
     7
370
    35
100
AcDbLine
 10
280.613007
 20
117.636063
 30
0.0
 11
280.613007
 21
120.636063
 31
0.0
1001
TCAD
1000
TCW40_DEV_WIDTH
1002
{
1040
0.0137795275077224
1002
}
  0
LINE
  5
1AD
330
1F
100
AcDbEntity
  8
0
 62
     7
370
    35
100
AcDbLine
 10
282.311737
 20
120.636063
 30
0.0
 11
280.613007
 21
120.636063
 31
0.0
1001
TCAD
1000
TCW40_DEV_WIDTH
1002
{
1040
0.0137795275077224
1002
}
  0
LINE
  5
1AE
330
1F
100
AcDbEntity
  8
0
 62
     7
370
    35
100
AcDbLine
 10
290.984497
 20
120.636063
 30
0.0
 11
282.311737
 21
120.636063
 31
0.0
1001
TCAD
1000
TCW40_DEV_WIDTH
1002
{
1040
0.0137795275077224
1002
}
  0
LINE
  5
1AF
330
1F
100
AcDbEntity
  8
0
 62
     7
370
    35
100
AcDbLine
 10
291.001862
 20
120.636063
 30
0.0
 11
290.984497
 21
120.636063
 31
0.0
1001
TCAD
1000
TCW40_DEV_WIDTH
1002
{
1040
0.0137795275077224
1002
}
  0
LINE
  5
1B0
330
1F
100
AcDbEntity
  8
0
 62
     7
370
    35
100
AcDbLine
 10
282.311737
 20
117.636063
 30
0.0
 11
280.613007
 21
117.636063
 31
0.0
1001
TCAD
1000
TCW40_DEV_WIDTH
1002
{
1040
0.0137795275077224
1002
}
  0
LINE
  5
1B1
330
1F
100
AcDbEntity
  8
0
 62
     7
370
    35
100
AcDbLine
 10
282.311737
 20
117.636063
 30
0.0
 11
282.311737
 21
120.636063
 31
0.0
1001
TCAD
1000
TCW40_DEV_WIDTH
1002
{
1040
0.0137795275077224
1002
}
  0
LINE
  5
1B2
330
1F
100
AcDbEntity
  8
0
 62
     7
370
    35
100
AcDbLine
 10
290.984497
 20
117.636063
 30
0.0
 11
282.311737
 21
117.636063
 31
0.0
1001
TCAD
1000
TCW40_DEV_WIDTH
1002
{
1040
0.0137795275077224
1002
}
  0
LINE
  5
1B3
330
1F
100
AcDbEntity
  8
0
 62
     7
370
    35
100
AcDbLine
 10
291.001862
 20
117.636063
 30
0.0
 11
290.984497
 21
117.636063
 31
0.0
1001
TCAD
1000
TCW40_DEV_WIDTH
1002
{
1040
0.0137795275077224
1002
}
  0
LINE
  5
1B4
330
1F
100
AcDbEntity
  8
0
 62
     7
370
    35
100
AcDbLine
 10
291.001862
 20
117.636063
 30
0.0
 11
291.001862
 21
120.636063
 31
0.0
1001
TCAD
1000
TCW40_DEV_WIDTH
1002
{
1040
0.0137795275077224
1002
}
  0
LINE
  5
1B5
330
1F
100
AcDbEntity
  8
0
 62
     7
370
    35
100
AcDbLine
 10
290.984497
 20
117.636063
 30
0.0
 11
290.984497
 21
120.636063
 31
0.0
1001
TCAD
1000
TCW40_DEV_WIDTH
1002
{
1040
0.0137795275077224
1002
}
  0
LINE
  5
1B6
330
1F
100
AcDbEntity
  8
0
 62
     7
370
    35
100
AcDbLine
 10
304.224121
 20
117.636063
 30
0.0
 11
304.224121
 21
120.636063
 31
0.0
1001
TCAD
1000
TCW40_DEV_WIDTH
1002
{
1040
0.0137795275077224
1002
}
  0
LINE
  5
1B7
330
1F
100
AcDbEntity
  8
0
 62
     7
370
    35
100
AcDbLine
 10
304.224121
 20
117.636063
 30
0.0
 11
304.241516
 21
117.636063
 31
0.0
1001
TCAD
1000
TCW40_DEV_WIDTH
1002
{
1040
0.0137795275077224
1002
}
  0
LINE
  5
1B8
330
1F
100
AcDbEntity
  8
0
 62
     7
370
    35
100
AcDbLine
 10
304.241516
 20
117.636063
 30
0.0
 11
312.914276
 21
117.636063
 31
0.0
1001
TCAD
1000
TCW40_DEV_WIDTH
1002
{
1040
0.0137795275077224
1002
}
  0
LINE
  5
1B9
330
1F
100
AcDbEntity
  8
0
 62
     7
370
    35
100
AcDbLine
 10
312.914276
 20
117.636063
 30
0.0
 11
314.613007
 21
117.636063
 31
0.0
1001
TCAD
1000
TCW40_DEV_WIDTH
1002
{
1040
0.0137795275077224
1002
}
  0
LINE
  5
1BA
330
1F
100
AcDbEntity
  8
0
 62
     7
370
    35
100
AcDbLine
 10
304.241516
 20
117.636063
 30
0.0
 11
304.241516
 21
120.636063
 31
0.0
1001
TCAD
1000
TCW40_DEV_WIDTH
1002
{
1040
0.0137795275077224
1002
}
  0
LINE
  5
1BB
330
1F
100
AcDbEntity
  8
0
 62
     7
370
    35
100
AcDbLine
 10
304.224121
 20
120.636063
 30
0.0
 11
304.241516
 21
120.636063
 31
0.0
1001
TCAD
1000
TCW40_DEV_WIDTH
1002
{
1040
0.0137795275077224
1002
}
  0
LINE
  5
1BC
330
1F
100
AcDbEntity
  8
0
 62
     7
370
    35
100
AcDbLine
 10
304.241516
 20
120.636063
 30
0.0
 11
312.914276
 21
120.636063
 31
0.0
1001
TCAD
1000
TCW40_DEV_WIDTH
1002
{
1040
0.0137795275077224
1002
}
  0
LINE
  5
1BD
330
1F
100
AcDbEntity
  8
0
 62
     7
370
    35
100
AcDbLine
 10
312.914276
 20
120.636063
 30
0.0
 11
314.613007
 21
120.636063
 31
0.0
1001
TCAD
1000
TCW40_DEV_WIDTH
1002
{
1040
0.0137795275077224
1002
}
  0
LINE
  5
1BE
330
1F
100
AcDbEntity
  8
0
 62
     7
370
    35
100
AcDbLine
 10
312.914276
 20
117.636063
 30
0.0
 11
312.914276
 21
120.636063
 31
0.0
1001
TCAD
1000
TCW40_DEV_WIDTH
1002
{
1040
0.0137795275077224
1002
}
  0
LINE
  5
1BF
330
1F
100
AcDbEntity
  8
0
 62
     7
370
    35
100
AcDbLine
 10
314.613007
 20
117.636063
 30
0.0
 11
314.613007
 21
120.636063
 31
0.0
1001
TCAD
1000
TCW40_DEV_WIDTH
1002
{
1040
0.0137795275077224
1002
}
  0
LINE
  5
1C0
330
1F
100
AcDbEntity
  8
0
 62
     7
370
    35
100
AcDbLine
 10
313.613007
 20
120.636063
 30
0.0
 11
313.613007
 21
123.386063
 31
0.0
1001
TCAD
1000
TCW40_DEV_WIDTH
1002
{
1040
0.0137795275077224
1002
}
  0
LINE
  5
1C1
330
1F
100
AcDbEntity
  8
0
 62
     7
370
    35
100
AcDbLine
 10
313.613007
 20
114.886063
 30
0.0
 11
313.613007
 21
117.636063
 31
0.0
1001
TCAD
1000
TCW40_DEV_WIDTH
1002
{
1040
0.0137795275077224
1002
}
  0
LINE
  5
1C2
330
1F
100
AcDbEntity
  8
0
 62
     7
370
    35
100
AcDbLine
 10
281.613007
 20
114.886063
 30
0.0
 11
284.613007
 21
114.886063
 31
0.0
1001
TCAD
1000
TCW40_DEV_WIDTH
1002
{
1040
0.0137795275077224
1002
}
  0
LINE
  5
1C3
330
1F
100
AcDbEntity
  8
0
 62
     7
370
    35
100
AcDbLine
 10
284.613007
 20
114.886063
 30
0.0
 11
288.613007
 21
114.886063
 31
0.0
1001
TCAD
1000
TCW40_DEV_WIDTH
1002
{
1040
0.0137795275077224
1002
}
  0
LINE
  5
1C4
330
1F
100
AcDbEntity
  8
0
 62
     7
370
    35
100
AcDbLine
 10
288.613007
 20
114.886063
 30
0.0
 11
289.613007
 21
114.886063
 31
0.0
1001
TCAD
1000
TCW40_DEV_WIDTH
1002
{
1040
0.0137795275077224
1002
}
  0
LINE
  5
1C5
330
1F
100
AcDbEntity
  8
0
 62
     7
370
    35
100
AcDbLine
 10
289.613007
 20
114.886063
 30
0.0
 11
305.613007
 21
114.886063
 31
0.0
1001
TCAD
1000
TCW40_DEV_WIDTH
1002
{
1040
0.0137795275077224
1002
}
  0
LINE
  5
1C6
330
1F
100
AcDbEntity
  8
0
 62
     7
370
    35
100
AcDbLine
 10
305.613007
 20
114.886063
 30
0.0
 11
306.613007
 21
114.886063
 31
0.0
1001
TCAD
1000
TCW40_DEV_WIDTH
1002
{
1040
0.0137795275077224
1002
}
  0
LINE
  5
1C7
330
1F
100
AcDbEntity
  8
0
 62
     7
370
    35
100
AcDbLine
 10
306.613007
 20
114.886063
 30
0.0
 11
310.613007
 21
114.886063
 31
0.0
1001
TCAD
1000
TCW40_DEV_WIDTH
1002
{
1040
0.0137795275077224
1002
}
  0
LINE
  5
1C8
330
1F
100
AcDbEntity
  8
0
 62
     7
370
    35
100
AcDbLine
 10
310.613007
 20
114.886063
 30
0.0
 11
313.613007
 21
114.886063
 31
0.0
1001
TCAD
1000
TCW40_DEV_WIDTH
1002
{
1040
0.0137795275077224
1002
}
  0
LINE
  5
1C9
330
1F
100
AcDbEntity
  8
0
 62
     7
370
    35
100
AcDbLine
 10
281.613007
 20
114.886063
 30
0.0
 11
281.613007
 21
117.636063
 31
0.0
1001
TCAD
1000
TCW40_DEV_WIDTH
1002
{
1040
0.0137795275077224
1002
}
  0
LINE
  5
1CA
330
1F
100
AcDbEntity
  8
0
 62
     7
370
    35
100
AcDbLine
 10
281.613007
 20
120.636063
 30
0.0
 11
281.613007
 21
123.386063
 31
0.0
1001
TCAD
1000
TCW40_DEV_WIDTH
1002
{
1040
0.0137795275077224
1002
}
  0
LINE
  5
1CB
330
1F
100
AcDbEntity
  8
0
 62
     7
370
    35
100
AcDbLine
 10
299.662994
 20
123.386063
 30
0.0
 11
305.613007
 21
123.386063
 31
0.0
1001
TCAD
1000
TCW40_DEV_WIDTH
1002
{
1040
0.0137795275077224
1002
}
  0
LINE
  5
1CC
330
1F
100
AcDbEntity
  8
0
 62
     7
370
    35
100
AcDbLine
 10
305.613007
 20
123.386063
 30
0.0
 11
306.613007
 21
123.386063
 31
0.0
1001
TCAD
1000
TCW40_DEV_WIDTH
1002
{
1040
0.0137795275077224
1002
}
  0
LINE
  5
1CD
330
1F
100
AcDbEntity
  8
0
 62
     7
370
    35
100
AcDbLine
 10
306.613007
 20
123.386063
 30
0.0
 11
310.613007
 21
123.386063
 31
0.0
1001
TCAD
1000
TCW40_DEV_WIDTH
1002
{
1040
0.0137795275077224
1002
}
  0
LINE
  5
1CE
330
1F
100
AcDbEntity
  8
0
 62
     7
370
    35
100
AcDbLine
 10
310.613007
 20
123.386063
 30
0.0
 11
313.613007
 21
123.386063
 31
0.0
1001
TCAD
1000
TCW40_DEV_WIDTH
1002
{
1040
0.0137795275077224
1002
}
  0
LINE
  5
1CF
330
1F
100
AcDbEntity
  8
0
 62
     7
370
    35
100
AcDbLine
 10
281.613007
 20
123.386063
 30
0.0
 11
284.613007
 21
123.386063
 31
0.0
1001
TCAD
1000
TCW40_DEV_WIDTH
1002
{
1040
0.0137795275077224
1002
}
  0
LINE
  5
1D0
330
1F
100
AcDbEntity
  8
0
 62
     7
370
    35
100
AcDbLine
 10
284.613007
 20
123.386063
 30
0.0
 11
288.613007
 21
123.386063
 31
0.0
1001
TCAD
1000
TCW40_DEV_WIDTH
1002
{
1040
0.0137795275077224
1002
}
  0
LINE
  5
1D1
330
1F
100
AcDbEntity
  8
0
 62
     7
370
    35
100
AcDbLine
 10
288.613007
 20
123.386063
 30
0.0
 11
289.613007
 21
123.386063
 31
0.0
1001
TCAD
1000
TCW40_DEV_WIDTH
1002
{
1040
0.0137795275077224
1002
}
  0
LINE
  5
1D2
330
1F
100
AcDbEntity
  8
0
 62
     7
370
    35
100
AcDbLine
 10
289.613007
 20
123.386063
 30
0.0
 11
295.562988
 21
123.386063
 31
0.0
1001
TCAD
1000
TCW40_DEV_WIDTH
1002
{
1040
0.0137795275077224
1002
}
  0
LINE
  5
1D3
330
1F
100
AcDbEntity
  8
0
 62
     7
370
    35
100
AcDbLine
 10
295.562988
 20
123.386063
 30
0.0
 11
299.662994
 21
123.386063
 31
0.0
1001
TCAD
1000
TCW40_DEV_WIDTH
1002
{
1040
0.0137795275077224
1002
}
  0
LINE
  5
1D4
330
1F
100
AcDbEntity
  8
0
 62
     7
370
    35
100
AcDbLine
 10
310.613007
 20
120.636063
 30
0.0
 11
310.613007
 21
123.386063
 31
0.0
1001
TCAD
1000
TCW40_DEV_WIDTH
1002
{
1040
0.0137795275077224
1002
}
  0
LINE
  5
1D5
330
1F
100
AcDbEntity
  8
0
 62
     7
370
    35
100
AcDbLine
 10
310.613007
 20
114.886063
 30
0.0
 11
310.613007
 21
117.636063
 31
0.0
1001
TCAD
1000
TCW40_DEV_WIDTH
1002
{
1040
0.0137795275077224
1002
}
  0
LINE
  5
1D6
330
1F
100
AcDbEntity
  8
0
 62
     7
370
    35
100
AcDbLine
 10
284.613007
 20
114.886063
 30
0.0
 11
284.613007
 21
117.636063
 31
0.0
1001
TCAD
1000
TCW40_DEV_WIDTH
1002
{
1040
0.0137795275077224
1002
}
  0
LINE
  5
1D7
330
1F
100
AcDbEntity
  8
0
 62
     7
370
    35
100
AcDbLine
 10
288.613007
 20
114.886063
 30
0.0
 11
288.613007
 21
115.986061
 31
0.0
1001
TCAD
1000
TCW40_DEV_WIDTH
1002
{
1040
0.0137795275077224
1002
}
  0
LINE
  5
1D8
330
1F
100
AcDbEntity
  8
0
 62
     7
370
    35
100
AcDbLine
 10
288.613007
 20
115.986061
 30
0.0
 11
288.613007
 21
117.636063
 31
0.0
1001
TCAD
1000
TCW40_DEV_WIDTH
1002
{
1040
0.0137795275077224
1002
}
  0
LINE
  5
1D9
330
1F
100
AcDbEntity
  8
0
 62
     7
370
    35
100
AcDbLine
 10
288.47995
 20
117.636063
 30
0.0
 11
288.613007
 21
117.636063
 31
0.0
1001
TCAD
1000
TCW40_DEV_WIDTH
1002
{
1040
0.0137795275077224
1002
}
  0
LINE
  5
1DA
330
1F
100
AcDbEntity
  8
0
 62
     7
370
    35
100
AcDbLine
 10
289.613007
 20
114.886063
 30
0.0
 11
289.613007
 21
115.986061
 31
0.0
1001
TCAD
1000
TCW40_DEV_WIDTH
1002
{
1040
0.0137795275077224
1002
}
  0
LINE
  5
1DB
330
1F
100
AcDbEntity
  8
0
 62
     7
370
    35
100
AcDbLine
 10
288.613007
 20
115.986061
 30
0.0
 11
289.613007
 21
115.986061
 31
0.0
1001
TCAD
1000
TCW40_DEV_WIDTH
1002
{
1040
0.0137795275077224
1002
}
  0
LINE
  5
1DC
330
1F
100
AcDbEntity
  8
0
 62
     7
370
    35
100
AcDbLine
 10
305.613007
 20
114.886063
 30
0.0
 11
305.613007
 21
115.986061
 31
0.0
1001
TCAD
1000
TCW40_DEV_WIDTH
1002
{
1040
0.0137795275077224
1002
}
  0
LINE
  5
1DD
330
1F
100
AcDbEntity
  8
0
 62
     7
370
    35
100
AcDbLine
 10
289.613007
 20
115.986061
 30
0.0
 11
305.613007
 21
115.986061
 31
0.0
1001
TCAD
1000
TCW40_DEV_WIDTH
1002
{
1040
0.0137795275077224
1002
}
  0
LINE
  5
1DE
330
1F
100
AcDbEntity
  8
0
 62
     7
370
    35
100
AcDbLine
 10
306.613007
 20
114.886063
 30
0.0
 11
306.613007
 21
115.986061
 31
0.0
1001
TCAD
1000
TCW40_DEV_WIDTH
1002
{
1040
0.0137795275077224
1002
}
  0
LINE
  5
1DF
330
1F
100
AcDbEntity
  8
0
 62
     7
370
    35
100
AcDbLine
 10
306.613007
 20
115.986061
 30
0.0
 11
305.613007
 21
115.986061
 31
0.0
1001
TCAD
1000
TCW40_DEV_WIDTH
1002
{
1040
0.0137795275077224
1002
}
  0
LINE
  5
1E0
330
1F
100
AcDbEntity
  8
0
 62
     7
370
    35
100
AcDbLine
 10
306.613007
 20
117.636063
 30
0.0
 11
306.613007
 21
115.986061
 31
0.0
1001
TCAD
1000
TCW40_DEV_WIDTH
1002
{
1040
0.0137795275077224
1002
}
  0
LINE
  5
1E1
330
1F
100
AcDbEntity
  8
0
 62
     7
370
    35
100
AcDbLine
 10
306.613007
 20
117.636063
 30
0.0
 11
306.746063
 21
117.636063
 31
0.0
1001
TCAD
1000
TCW40_DEV_WIDTH
1002
{
1040
0.0137795275077224
1002
}
  0
LINE
  5
1E2
330
1F
100
AcDbEntity
  8
0
 62
     7
370
    35
100
AcDbLine
 10
284.613007
 20
120.636063
 30
0.0
 11
284.613007
 21
123.386063
 31
0.0
1001
TCAD
1000
TCW40_DEV_WIDTH
1002
{
1040
0.0137795275077224
1002
}
  0
LINE
  5
1E3
330
1F
100
AcDbEntity
  8
0
 62
     7
370
    35
100
AcDbLine
 10
299.662994
 20
122.286064
 30
0.0
 11
305.613007
 21
122.286064
 31
0.0
1001
TCAD
1000
TCW40_DEV_WIDTH
1002
{
1040
0.0137795275077224
1002
}
  0
LINE
  5
1E4
330
1F
100
AcDbEntity
  8
0
 62
     7
370
    35
100
AcDbLine
 10
305.613007
 20
122.286064
 30
0.0
 11
305.613007
 21
123.386063
 31
0.0
1001
TCAD
1000
TCW40_DEV_WIDTH
1002
{
1040
0.0137795275077224
1002
}
  0
LINE
  5
1E5
330
1F
100
AcDbEntity
  8
0
 62
     7
370
    35
100
AcDbLine
 10
299.662994
 20
122.286064
 30
0.0
 11
299.662994
 21
123.386063
 31
0.0
1001
TCAD
1000
TCW40_DEV_WIDTH
1002
{
1040
0.0137795275077224
1002
}
  0
LINE
  5
1E6
330
1F
100
AcDbEntity
  8
0
 62
     7
370
    35
100
AcDbLine
 10
306.613007
 20
122.286064
 30
0.0
 11
306.613007
 21
123.386063
 31
0.0
1001
TCAD
1000
TCW40_DEV_WIDTH
1002
{
1040
0.0137795275077224
1002
}
  0
LINE
  5
1E7
330
1F
100
AcDbEntity
  8
0
 62
     7
370
    35
100
AcDbLine
 10
306.613007
 20
122.286064
 30
0.0
 11
305.613007
 21
122.286064
 31
0.0
1001
TCAD
1000
TCW40_DEV_WIDTH
1002
{
1040
0.0137795275077224
1002
}
  0
LINE
  5
1E8
330
1F
100
AcDbEntity
  8
0
 62
     7
370
    35
100
AcDbLine
 10
306.613007
 20
122.286064
 30
0.0
 11
306.613007
 21
120.636063
 31
0.0
1001
TCAD
1000
TCW40_DEV_WIDTH
1002
{
1040
0.0137795275077224
1002
}
  0
LINE
  5
1E9
330
1F
100
AcDbEntity
  8
0
 62
     7
370
    35
100
AcDbLine
 10
288.613007
 20
120.636063
 30
0.0
 11
288.613007
 21
122.286064
 31
0.0
1001
TCAD
1000
TCW40_DEV_WIDTH
1002
{
1040
0.0137795275077224
1002
}
  0
LINE
  5
1EA
330
1F
100
AcDbEntity
  8
0
 62
     7
370
    35
100
AcDbLine
 10
288.613007
 20
122.286064
 30
0.0
 11
288.613007
 21
123.386063
 31
0.0
1001
TCAD
1000
TCW40_DEV_WIDTH
1002
{
1040
0.0137795275077224
1002
}
  0
LINE
  5
1EB
330
1F
100
AcDbEntity
  8
0
 62
     7
370
    35
100
AcDbLine
 10
289.613007
 20
122.286064
 30
0.0
 11
289.613007
 21
123.386063
 31
0.0
1001
TCAD
1000
TCW40_DEV_WIDTH
1002
{
1040
0.0137795275077224
1002
}
  0
LINE
  5
1EC
330
1F
100
AcDbEntity
  8
0
 62
     7
370
    35
100
AcDbLine
 10
288.613007
 20
122.286064
 30
0.0
 11
289.613007
 21
122.286064
 31
0.0
1001
TCAD
1000
TCW40_DEV_WIDTH
1002
{
1040
0.0137795275077224
1002
}
  0
LINE
  5
1ED
330
1F
100
AcDbEntity
  8
0
 62
     7
370
    35
100
AcDbLine
 10
289.613007
 20
122.286064
 30
0.0
 11
295.562988
 21
122.286064
 31
0.0
1001
TCAD
1000
TCW40_DEV_WIDTH
1002
{
1040
0.0137795275077224
1002
}
  0
LINE
  5
1EE
330
1F
100
AcDbEntity
  8
0
 62
     7
370
    35
100
AcDbLine
 10
295.562988
 20
122.286064
 30
0.0
 11
295.562988
 21
123.386063
 31
0.0
1001
TCAD
1000
TCW40_DEV_WIDTH
1002
{
1040
0.0137795275077224
1002
}
  0
LWPOLYLINE
  5
1EF
330
1F
100
AcDbEntity
  8
0
 62
     7
370
    35
100
AcDbPolyline
 90
        3
 70
     1
 10
297.863007
 20
120.406067
 40
0.0137795275077224
 41
0.0137795275077224
 42
0.4142135623731
 10
297.613007
 20
120.656067
 40
0.0137795275077224
 41
0.0137795275077224
 42
2.414213562373
 10
297.863007
 20
120.406067
 40
0.0137795275077224
 41
0.0137795275077224
  0
LWPOLYLINE
  5
1F0
330
1F
100
AcDbEntity
  8
0
 62
     7
370
    35
100
AcDbPolyline
 90
        3
 70
     1
 10
297.863007
 20
117.866058
 40
0.0137795275077224
 41
0.0137795275077224
 42
0.4142135623731
 10
297.613007
 20
118.116058
 40
0.0137795275077224
 41
0.0137795275077224
 42
2.414213562373
 10
297.863007
 20
117.866058
 40
0.0137795275077224
 41
0.0137795275077224
  0
LWPOLYLINE
  5
1F1
330
1F
100
AcDbEntity
  8
0
 62
     7
370
    35
100
AcDbPolyline
 90
        3
 70
     1
 10
295.322998
 20
120.406067
 40
0.0137795275077224
 41
0.0137795275077224
 42
0.4142135623731
 10
295.072998
 20
120.656067
 40
0.0137795275077224
 41
0.0137795275077224
 42
2.414213562373
 10
295.322998
 20
120.406067
 40
0.0137795275077224
 41
0.0137795275077224
  0
LWPOLYLINE
  5
1F2
330
1F
100
AcDbEntity
  8
0
 62
     7
370
    35
100
AcDbPolyline
 90
        3
 70
     1
 10
295.322998
 20
117.866058
 40
0.0137795275077224
 41
0.0137795275077224
 42
0.4142135623731
 10
295.072998
 20
118.116058
 40
0.0137795275077224
 41
0.0137795275077224
 42
2.414213562373
 10
295.322998
 20
117.866058
 40
0.0137795275077224
 41
0.0137795275077224
  0
LWPOLYLINE
  5
1F3
330
1F
100
AcDbEntity
  8
0
 62
     7
370
    35
100
AcDbPolyline
 90
        3
 70
     1
 10
292.78302
 20
120.406067
 40
0.0137795275077224
 41
0.0137795275077224
 42
0.4142135623731
 10
292.53302
 20
120.656067
 40
0.0137795275077224
 41
0.0137795275077224
 42
2.414213562373
 10
292.78302
 20
120.406067
 40
0.0137795275077224
 41
0.0137795275077224
  0
LWPOLYLINE
  5
1F4
330
1F
100
AcDbEntity
  8
0
 62
     7
370
    35
100
AcDbPolyline
 90
        3
 70
     1
 10
292.78302
 20
117.866058
 40
0.0137795275077224
 41
0.0137795275077224
 42
0.4142135623731
 10
292.53302
 20
118.116058
 40
0.0137795275077224
 41
0.0137795275077224
 42
2.414213562373
 10
292.78302
 20
117.866058
 40
0.0137795275077224
 41
0.0137795275077224
  0
LWPOLYLINE
  5
1F5
330
1F
100
AcDbEntity
  8
0
 62
     7
370
    35
100
AcDbPolyline
 90
        3
 70
     1
 10
300.403015
 20
120.406067
 40
0.0137795275077224
 41
0.0137795275077224
 42
0.4142135623731
 10
300.153015
 20
120.656067
 40
0.0137795275077224
 41
0.0137795275077224
 42
2.414213562373
 10
300.403015
 20
120.406067
 40
0.0137795275077224
 41
0.0137795275077224
  0
LWPOLYLINE
  5
1F6
330
1F
100
AcDbEntity
  8
0
 62
     7
370
    35
100
AcDbPolyline
 90
        3
 70
     1
 10
300.403015
 20
117.866058
 40
0.0137795275077224
 41
0.0137795275077224
 42
0.4142135623731
 10
300.153015
 20
118.116058
 40
0.0137795275077224
 41
0.0137795275077224
 42
2.414213562373
 10
300.403015
 20
117.866058
 40
0.0137795275077224
 41
0.0137795275077224
  0
LWPOLYLINE
  5
1F7
330
1F
100
AcDbEntity
  8
0
 62
     7
370
    35
100
AcDbPolyline
 90
        3
 70
     1
 10
302.942993
 20
120.406067
 40
0.0137795275077224
 41
0.0137795275077224
 42
0.4142135623731
 10
302.692993
 20
120.656067
 40
0.0137795275077224
 41
0.0137795275077224
 42
2.414213562373
 10
302.942993
 20
120.406067
 40
0.0137795275077224
 41
0.0137795275077224
  0
LWPOLYLINE
  5
1F8
330
1F
100
AcDbEntity
  8
0
 62
     7
370
    35
100
AcDbPolyline
 90
        3
 70
     1
 10
302.942993
 20
117.866058
 40
0.0137795275077224
 41
0.0137795275077224
 42
0.4142135623731
 10
302.692993
 20
118.116058
 40
0.0137795275077224
 41
0.0137795275077224
 42
2.414213562373
 10
302.942993
 20
117.866058
 40
0.0137795275077224
 41
0.0137795275077224
  0
LINE
  5
1F9
330
1F
100
AcDbEntity
  8
0
 62
     7
370
    35
100
AcDbLine
 10
321.613007
 20
108.636063
 30
0.0
 11
321.613007
 21
153.636063
 31
0.0
1001
TCAD
1000
TCW40_DEV_WIDTH
1002
{
1040
0.0137795275077224
1002
}
  0
LINE
  5
1FA
330
1F
100
AcDbEntity
  8
0
 62
     7
370
    35
100
AcDbLine
 10
273.613007
 20
153.636063
 30
0.0
 11
273.613007
 21
108.636063
 31
0.0
1001
TCAD
1000
TCW40_DEV_WIDTH
1002
{
1040
0.0137795275077224
1002
}
  0
LINE
  5
1FB
330
1F
100
AcDbEntity
  8
0
 62
     7
370
    35
100
AcDbLine
 10
319.912994
 20
110.136063
 30
0.0
 11
319.912994
 21
109.636063
 31
0.0
1001
TCAD
1000
TCW40_DEV_WIDTH
1002
{
1040
0.0137795275077224
1002
}
  0
LINE
  5
1FC
330
1F
100
AcDbEntity
  8
0
 62
     7
370
    35
100
AcDbLine
 10
319.912994
 20
111.536064
 30
0.0
 11
319.912994
 21
110.136063
 31
0.0
1001
TCAD
1000
TCW40_DEV_WIDTH
1002
{
1040
0.0137795275077224
1002
}
  0
LINE
  5
1FD
330
1F
100
AcDbEntity
  8
0
 62
     7
370
    35
100
AcDbLine
 10
319.912994
 20
111.536064
 30
0.0
 11
319.912994
 21
150.736069
 31
0.0
1001
TCAD
1000
TCW40_DEV_WIDTH
1002
{
1040
0.0137795275077224
1002
}
  0
LINE
  5
1FE
330
1F
100
AcDbEntity
  8
0
 62
     7
370
    35
100
AcDbLine
 10
319.912994
 20
152.136063
 30
0.0
 11
319.912994
 21
150.736069
 31
0.0
1001
TCAD
1000
TCW40_DEV_WIDTH
1002
{
1040
0.0137795275077224
1002
}
  0
LINE
  5
1FF
330
1F
100
AcDbEntity
  8
0
 62
     7
370
    35
100
AcDbLine
 10
319.912994
 20
152.136063
 30
0.0
 11
319.912994
 21
152.636063
 31
0.0
1001
TCAD
1000
TCW40_DEV_WIDTH
1002
{
1040
0.0137795275077224
1002
}
  0
LINE
  5
200
330
1F
100
AcDbEntity
  8
0
 62
     7
370
    35
100
AcDbLine
 10
319.912994
 20
152.936066
 30
0.0
 11
319.912994
 21
152.636063
 31
0.0
1001
TCAD
1000
TCW40_DEV_WIDTH
1002
{
1040
0.0137795275077224
1002
}
  0
LINE
  5
201
330
1F
100
AcDbEntity
  8
0
 62
     7
370
    35
100
AcDbLine
 10
319.912994
 20
109.33606
 30
0.0
 11
319.912994
 21
109.636063
 31
0.0
1001
TCAD
1000
TCW40_DEV_WIDTH
1002
{
1040
0.0137795275077224
1002
}
  0
ARC
  5
202
330
1F
100
AcDbEntity
  8
0
 62
     7
370
    35
100
AcDbCircle
 10
320.113007
 20
153.636063
 30
0.0
 40
1.5
100
AcDbArc
 50
0.0
 51
90.00000299999986
1001
TCAD
1000
TCW40_DEV_WIDTH
1002
{
1040
0.0137795275077224
1002
}
  0
ARC
  5
203
330
1F
100
AcDbEntity
  8
0
 62
     7
370
    35
100
AcDbCircle
 10
275.113007
 20
153.636063
 30
0.0
 40
1.5
100
AcDbArc
 50
90.0
 51
180.0000050000005
1001
TCAD
1000
TCW40_DEV_WIDTH
1002
{
1040
0.0137795275077224
1002
}
  0
LINE
  5
204
330
1F
100
AcDbEntity
  8
0
 62
     7
370
    35
100
AcDbLine
 10
320.113007
 20
155.136063
 30
0.0
 11
275.113007
 21
155.136063
 31
0.0
1001
TCAD
1000
TCW40_DEV_WIDTH
1002
{
1040
0.0137795275077224
1002
}
  0
ARC
  5
205
330
1F
100
AcDbEntity
  8
0
 62
     7
370
    35
100
AcDbCircle
 10
320.113007
 20
108.636063
 30
0.0
 40
1.5
100
AcDbArc
 50
-90.0
 51
0.0
1001
TCAD
1000
TCW40_DEV_WIDTH
1002
{
1040
0.0137795275077224
1002
}
  0
LINE
  5
206
330
1F
100
AcDbEntity
  8
0
 62
     7
370
    35
100
AcDbLine
 10
275.113007
 20
107.136063
 30
0.0
 11
320.113007
 21
107.136063
 31
0.0
1001
TCAD
1000
TCW40_DEV_WIDTH
1002
{
1040
0.0137795275077224
1002
}
  0
ARC
  5
207
330
1F
100
AcDbEntity
  8
0
 62
     7
370
    35
100
AcDbCircle
 10
275.113007
 20
108.636063
 30
0.0
 40
1.5
100
AcDbArc
 50
180.0
 51
269.9999970000001
1001
TCAD
1000
TCW40_DEV_WIDTH
1002
{
1040
0.0137795275077224
1002
}
  0
LINE
  5
208
330
1F
100
AcDbEntity
  8
0
 62
     7
370
    35
100
AcDbLine
 10
275.312988
 20
110.136063
 30
0.0
 11
275.312988
 21
109.636063
 31
0.0
1001
TCAD
1000
TCW40_DEV_WIDTH
1002
{
1040
0.0137795275077224
1002
}
  0
LINE
  5
209
330
1F
100
AcDbEntity
  8
0
 62
     7
370
    35
100
AcDbLine
 10
275.312988
 20
109.33606
 30
0.0
 11
275.312988
 21
109.636063
 31
0.0
1001
TCAD
1000
TCW40_DEV_WIDTH
1002
{
1040
0.0137795275077224
1002
}
  0
LINE
  5
20A
330
1F
100
AcDbEntity
  8
0
 62
     7
370
    35
100
AcDbLine
 10
275.312988
 20
152.936066
 30
0.0
 11
275.312988
 21
152.636063
 31
0.0
1001
TCAD
1000
TCW40_DEV_WIDTH
1002
{
1040
0.0137795275077224
1002
}
  0
LINE
  5
20B
330
1F
100
AcDbEntity
  8
0
 62
     7
370
    35
100
AcDbLine
 10
275.312988
 20
152.136063
 30
0.0
 11
275.312988
 21
152.636063
 31
0.0
1001
TCAD
1000
TCW40_DEV_WIDTH
1002
{
1040
0.0137795275077224
1002
}
  0
LINE
  5
20C
330
1F
100
AcDbEntity
  8
0
 62
     7
370
    35
100
AcDbLine
 10
275.312988
 20
152.136063
 30
0.0
 11
275.312988
 21
150.736069
 31
0.0
1001
TCAD
1000
TCW40_DEV_WIDTH
1002
{
1040
0.0137795275077224
1002
}
  0
LINE
  5
20D
330
1F
100
AcDbEntity
  8
0
 62
     7
370
    35
100
AcDbLine
 10
275.312988
 20
111.536064
 30
0.0
 11
275.312988
 21
150.736069
 31
0.0
1001
TCAD
1000
TCW40_DEV_WIDTH
1002
{
1040
0.0137795275077224
1002
}
  0
LINE
  5
20E
330
1F
100
AcDbEntity
  8
0
 62
     7
370
    35
100
AcDbLine
 10
275.312988
 20
111.536064
 30
0.0
 11
275.312988
 21
110.136063
 31
0.0
1001
TCAD
1000
TCW40_DEV_WIDTH
1002
{
1040
0.0137795275077224
1002
}
  0
LINE
  5
20F
330
1F
100
AcDbEntity
  8
0
 62
     7
370
    35
100
AcDbLine
 10
315.363007
 20
114.136063
 30
0.0
 11
279.863007
 21
114.136063
 31
0.0
1001
TCAD
1000
TCW40_DEV_WIDTH
1002
{
1040
0.0137795275077224
1002
}
  0
LINE
  5
210
330
1F
100
AcDbEntity
  8
0
 62
     7
370
    35
100
AcDbLine
 10
314.363007
 20
117.63607
 30
0.0
 11
314.363007
 21
114.136063
 31
0.0
1001
TCAD
1000
TCW40_DEV_WIDTH
1002
{
1040
0.0137795275077224
1002
}
  0
LINE
  5
211
330
1F
100
AcDbEntity
  8
0
 62
     7
370
    35
100
AcDbLine
 10
314.363007
 20
124.136063
 30
0.0
 11
314.363007
 21
120.63607
 31
0.0
1001
TCAD
1000
TCW40_DEV_WIDTH
1002
{
1040
0.0137795275077224
1002
}
  0
LINE
  5
212
330
1F
100
AcDbEntity
  8
0
 62
     7
370
    35
100
AcDbLine
 10
315.363007
 20
124.136063
 30
0.0
 11
279.863007
 21
124.136063
 31
0.0
1001
TCAD
1000
TCW40_DEV_WIDTH
1002
{
1040
0.0137795275077224
1002
}
  0
LINE
  5
213
330
1F
100
AcDbEntity
  8
0
 62
     7
370
    35
100
AcDbLine
 10
280.863007
 20
120.63607
 30
0.0
 11
280.863007
 21
124.136063
 31
0.0
1001
TCAD
1000
TCW40_DEV_WIDTH
1002
{
1040
0.0137795275077224
1002
}
  0
LINE
  5
214
330
1F
100
AcDbEntity
  8
0
 62
     7
370
    35
100
AcDbLine
 10
280.863007
 20
114.136063
 30
0.0
 11
280.863007
 21
117.63607
 31
0.0
1001
TCAD
1000
TCW40_DEV_WIDTH
1002
{
1040
0.0137795275077224
1002
}
  0
ARC
  5
215
330
1F
100
AcDbEntity
  8
0
 62
     7
370
    35
100
AcDbCircle
 10
319.412994
 20
109.33606
 30
0.0
 40
0.5
100
AcDbArc
 50
-90.0
 51
0.0
1001
TCAD
1000
TCW40_DEV_WIDTH
1002
{
1040
0.0137795275077224
1002
}
  0
LINE
  5
216
330
1F
100
AcDbEntity
  8
0
 62
     7
370
    35
100
AcDbLine
 10
318.812988
 20
108.83606
 30
0.0
 11
319.412994
 21
108.83606
 31
0.0
1001
TCAD
1000
TCW40_DEV_WIDTH
1002
{
1040
0.0137795275077224
1002
}
  0
LINE
  5
217
330
1F
100
AcDbEntity
  8
0
 62
     7
370
    35
100
AcDbLine
 10
318.812988
 20
109.636063
 30
0.0
 11
319.912994
 21
109.636063
 31
0.0
1001
TCAD
1000
TCW40_DEV_WIDTH
1002
{
1040
0.0137795275077224
1002
}
  0
ARC
  5
218
330
1F
100
AcDbEntity
  8
0
 62
     7
370
    35
100
AcDbCircle
 10
319.412994
 20
152.936066
 30
0.0
 40
0.5
100
AcDbArc
 50
0.0
 51
90.00000299999769
1001
TCAD
1000
TCW40_DEV_WIDTH
1002
{
1040
0.0137795275077224
1002
}
  0
LINE
  5
219
330
1F
100
AcDbEntity
  8
0
 62
     7
370
    35
100
AcDbLine
 10
318.812988
 20
153.436066
 30
0.0
 11
319.412994
 21
153.436066
 31
0.0
1001
TCAD
1000
TCW40_DEV_WIDTH
1002
{
1040
0.0137795275077224
1002
}
  0
LINE
  5
21A
330
1F
100
AcDbEntity
  8
0
 62
     7
370
    35
100
AcDbLine
 10
319.912994
 20
152.636063
 30
0.0
 11
318.812988
 21
152.636063
 31
0.0
1001
TCAD
1000
TCW40_DEV_WIDTH
1002
{
1040
0.0137795275077224
1002
}
  0
LINE
  5
21B
330
1F
100
AcDbEntity
  8
0
 62
     7
370
    35
100
AcDbLine
 10
319.912994
 20
152.136063
 30
0.0
 11
318.812988
 21
152.136063
 31
0.0
1001
TCAD
1000
TCW40_DEV_WIDTH
1002
{
1040
0.0137795275077224
1002
}
  0
LINE
  5
21C
330
1F
100
AcDbEntity
  8
0
 62
     7
370
    35
100
AcDbLine
 10
319.912994
 20
150.736069
 30
0.0
 11
319.613007
 21
150.736069
 31
0.0
1001
TCAD
1000
TCW40_DEV_WIDTH
1002
{
1040
0.0137795275077224
1002
}
  0
LINE
  5
21D
330
1F
100
AcDbEntity
  8
0
 62
     7
370
    35
100
AcDbLine
 10
319.613007
 20
150.736069
 30
0.0
 11
319.412994
 21
151.036057
 31
0.0
1001
TCAD
1000
TCW40_DEV_WIDTH
1002
{
1040
0.0137795275077224
1002
}
  0
LINE
  5
21E
330
1F
100
AcDbEntity
  8
0
 62
     7
370
    13
100
AcDbLine
 10
319.412994
 20
111.236061
 30
0.0
 11
319.412994
 21
151.036057
 31
0.0
1001
TCAD
1000
TCW40_DEV_WIDTH
1002
{
1040
0.005118110217154
1002
}
  0
LINE
  5
21F
330
1F
100
AcDbEntity
  8
0
 62
     7
370
    35
100
AcDbLine
 10
319.613007
 20
111.536064
 30
0.0
 11
319.412994
 21
111.236061
 31
0.0
1001
TCAD
1000
TCW40_DEV_WIDTH
1002
{
1040
0.0137795275077224
1002
}
  0
LINE
  5
220
330
1F
100
AcDbEntity
  8
0
 62
     7
370
    35
100
AcDbLine
 10
319.613007
 20
111.536064
 30
0.0
 11
319.912994
 21
111.536064
 31
0.0
1001
TCAD
1000
TCW40_DEV_WIDTH
1002
{
1040
0.0137795275077224
1002
}
  0
LINE
  5
221
330
1F
100
AcDbEntity
  8
0
 62
     7
370
    35
100
AcDbLine
 10
318.812988
 20
110.136063
 30
0.0
 11
319.912994
 21
110.136063
 31
0.0
1001
TCAD
1000
TCW40_DEV_WIDTH
1002
{
1040
0.0137795275077224
1002
}
  0
LINE
  5
222
330
1F
100
AcDbEntity
  8
0
 62
     7
370
    35
100
AcDbLine
 10
304.113007
 20
153.436066
 30
0.0
 11
318.812988
 21
153.436066
 31
0.0
1001
TCAD
1000
TCW40_DEV_WIDTH
1002
{
1040
0.0137795275077224
1002
}
  0
LINE
  5
223
330
1F
100
AcDbEntity
  8
0
 62
     7
370
    35
100
AcDbLine
 10
276.412994
 20
153.436066
 30
0.0
 11
291.113007
 21
153.436066
 31
0.0
1001
TCAD
1000
TCW40_DEV_WIDTH
1002
{
1040
0.0137795275077224
1002
}
  0
LINE
  5
224
330
1F
100
AcDbEntity
  8
0
 62
     7
370
    35
100
AcDbLine
 10
276.412994
 20
153.436066
 30
0.0
 11
275.812988
 21
153.436066
 31
0.0
1001
TCAD
1000
TCW40_DEV_WIDTH
1002
{
1040
0.0137795275077224
1002
}
  0
ARC
  5
225
330
1F
100
AcDbEntity
  8
0
 62
     7
370
    35
100
AcDbCircle
 10
275.812988
 20
152.936066
 30
0.0
 40
0.5
100
AcDbArc
 50
90.0
 51
179.9999949999995
1001
TCAD
1000
TCW40_DEV_WIDTH
1002
{
1040
0.0137795275077224
1002
}
  0
ARC
  5
226
330
1F
100
AcDbEntity
  8
0
 62
     7
370
    35
100
AcDbCircle
 10
275.812988
 20
109.33606
 30
0.0
 40
0.5
100
AcDbArc
 50
180.0
 51
269.9999970000023
1001
TCAD
1000
TCW40_DEV_WIDTH
1002
{
1040
0.0137795275077224
1002
}
  0
LINE
  5
227
330
1F
100
AcDbEntity
  8
0
 62
     7
370
    35
100
AcDbLine
 10
276.412994
 20
108.83606
 30
0.0
 11
275.812988
 21
108.83606
 31
0.0
1001
TCAD
1000
TCW40_DEV_WIDTH
1002
{
1040
0.0137795275077224
1002
}
  0
LINE
  5
228
330
1F
100
AcDbEntity
  8
0
 62
     7
370
    35
100
AcDbLine
 10
291.113007
 20
108.83606
 30
0.0
 11
276.412994
 21
108.83606
 31
0.0
1001
TCAD
1000
TCW40_DEV_WIDTH
1002
{
1040
0.0137795275077224
1002
}
  0
LINE
  5
229
330
1F
100
AcDbEntity
  8
0
 62
     7
370
    35
100
AcDbLine
 10
291.113007
 20
108.83606
 30
0.0
 11
304.113007
 21
108.83606
 31
0.0
1001
TCAD
1000
TCW40_DEV_WIDTH
1002
{
1040
0.0137795275077224
1002
}
  0
LINE
  5
22A
330
1F
100
AcDbEntity
  8
0
 62
     7
370
    35
100
AcDbLine
 10
318.812988
 20
108.83606
 30
0.0
 11
304.113007
 21
108.83606
 31
0.0
1001
TCAD
1000
TCW40_DEV_WIDTH
1002
{
1040
0.0137795275077224
1002
}
  0
LINE
  5
22B
330
1F
100
AcDbEntity
  8
0
 62
     7
370
    35
100
AcDbLine
 10
275.312988
 20
110.136063
 30
0.0
 11
276.412994
 21
110.136063
 31
0.0
1001
TCAD
1000
TCW40_DEV_WIDTH
1002
{
1040
0.0137795275077224
1002
}
  0
LINE
  5
22C
330
1F
100
AcDbEntity
  8
0
 62
     7
370
    35
100
AcDbLine
 10
275.312988
 20
111.536064
 30
0.0
 11
275.613007
 21
111.536064
 31
0.0
1001
TCAD
1000
TCW40_DEV_WIDTH
1002
{
1040
0.0137795275077224
1002
}
  0
LINE
  5
22D
330
1F
100
AcDbEntity
  8
0
 62
     7
370
    13
100
AcDbLine
 10
275.812988
 20
111.236061
 30
0.0
 11
275.812988
 21
151.036057
 31
0.0
1001
TCAD
1000
TCW40_DEV_WIDTH
1002
{
1040
0.005118110217154
1002
}
  0
LINE
  5
22E
330
1F
100
AcDbEntity
  8
0
 62
     7
370
    35
100
AcDbLine
 10
275.613007
 20
150.736069
 30
0.0
 11
275.812988
 21
151.036057
 31
0.0
1001
TCAD
1000
TCW40_DEV_WIDTH
1002
{
1040
0.0137795275077224
1002
}
  0
LINE
  5
22F
330
1F
100
AcDbEntity
  8
0
 62
     7
370
    35
100
AcDbLine
 10
275.613007
 20
150.736069
 30
0.0
 11
275.312988
 21
150.736069
 31
0.0
1001
TCAD
1000
TCW40_DEV_WIDTH
1002
{
1040
0.0137795275077224
1002
}
  0
LINE
  5
230
330
1F
100
AcDbEntity
  8
0
 62
     7
370
    35
100
AcDbLine
 10
275.613007
 20
111.536064
 30
0.0
 11
275.812988
 21
111.236061
 31
0.0
1001
TCAD
1000
TCW40_DEV_WIDTH
1002
{
1040
0.0137795275077224
1002
}
  0
LINE
  5
231
330
1F
100
AcDbEntity
  8
0
 62
     7
370
    35
100
AcDbLine
 10
276.412994
 20
152.136063
 30
0.0
 11
275.312988
 21
152.136063
 31
0.0
1001
TCAD
1000
TCW40_DEV_WIDTH
1002
{
1040
0.0137795275077224
1002
}
  0
LINE
  5
232
330
1F
100
AcDbEntity
  8
0
 62
     7
370
    35
100
AcDbLine
 10
276.412994
 20
152.636063
 30
0.0
 11
275.312988
 21
152.636063
 31
0.0
1001
TCAD
1000
TCW40_DEV_WIDTH
1002
{
1040
0.0137795275077224
1002
}
  0
LINE
  5
233
330
1F
100
AcDbEntity
  8
0
 62
     7
370
    35
100
AcDbLine
 10
275.312988
 20
109.636063
 30
0.0
 11
276.412994
 21
109.636063
 31
0.0
1001
TCAD
1000
TCW40_DEV_WIDTH
1002
{
1040
0.0137795275077224
1002
}
  0
LINE
  5
234
330
1F
100
AcDbEntity
  8
0
 62
     7
370
    35
100
AcDbLine
 10
315.363007
 20
124.136063
 30
0.0
 11
315.363007
 21
114.136063
 31
0.0
1001
TCAD
1000
TCW40_DEV_WIDTH
1002
{
1040
0.0137795275077224
1002
}
  0
LINE
  5
235
330
1F
100
AcDbEntity
  8
0
 62
     7
370
    13
100
AcDbLine
 10
318.812988
 20
109.33606
 30
0.0
 11
304.113007
 21
109.33606
 31
0.0
1001
TCAD
1000
TCW40_DEV_WIDTH
1002
{
1040
0.005118110217154
1002
}
  0
LINE
  5
236
330
1F
100
AcDbEntity
  8
0
 62
     7
370
    35
100
AcDbLine
 10
304.113007
 20
109.33606
 30
0.0
 11
304.113007
 21
109.636063
 31
0.0
1001
TCAD
1000
TCW40_DEV_WIDTH
1002
{
1040
0.0137795275077224
1002
}
  0
LINE
  5
237
330
1F
100
AcDbEntity
  8
0
 62
     7
370
    35
100
AcDbLine
 10
291.113007
 20
109.636063
 30
0.0
 11
304.113007
 21
109.636063
 31
0.0
1001
TCAD
1000
TCW40_DEV_WIDTH
1002
{
1040
0.0137795275077224
1002
}
  0
LINE
  5
238
330
1F
100
AcDbEntity
  8
0
 62
     7
370
    35
100
AcDbLine
 10
291.113007
 20
109.33606
 30
0.0
 11
291.113007
 21
109.636063
 31
0.0
1001
TCAD
1000
TCW40_DEV_WIDTH
1002
{
1040
0.0137795275077224
1002
}
  0
LINE
  5
239
330
1F
100
AcDbEntity
  8
0
 62
     7
370
    13
100
AcDbLine
 10
291.113007
 20
109.33606
 30
0.0
 11
276.412994
 21
109.33606
 31
0.0
1001
TCAD
1000
TCW40_DEV_WIDTH
1002
{
1040
0.005118110217154
1002
}
  0
LINE
  5
23A
330
1F
100
AcDbEntity
  8
0
 62
     7
370
    35
100
AcDbLine
 10
276.412994
 20
110.33606
 30
0.0
 11
276.412994
 21
109.33606
 31
0.0
1001
TCAD
1000
TCW40_DEV_WIDTH
1002
{
1040
0.0137795275077224
1002
}
  0
LINE
  5
23B
330
1F
100
AcDbEntity
  8
0
 62
     7
370
    35
100
AcDbLine
 10
276.412994
 20
110.33606
 30
0.0
 11
275.812988
 21
111.236061
 31
0.0
1001
TCAD
1000
TCW40_DEV_WIDTH
1002
{
1040
0.0137795275077224
1002
}
  0
LINE
  5
23C
330
1F
100
AcDbEntity
  8
0
 62
     7
370
    35
100
AcDbLine
 10
276.412994
 20
151.936066
 30
0.0
 11
275.812988
 21
151.036057
 31
0.0
1001
TCAD
1000
TCW40_DEV_WIDTH
1002
{
1040
0.0137795275077224
1002
}
  0
LINE
  5
23D
330
1F
100
AcDbEntity
  8
0
 62
     7
370
    35
100
AcDbLine
 10
276.412994
 20
151.936066
 30
0.0
 11
276.412994
 21
152.936066
 31
0.0
1001
TCAD
1000
TCW40_DEV_WIDTH
1002
{
1040
0.0137795275077224
1002
}
  0
LINE
  5
23E
330
1F
100
AcDbEntity
  8
0
 62
     7
370
    13
100
AcDbLine
 10
276.412994
 20
152.936066
 30
0.0
 11
291.113007
 21
152.936066
 31
0.0
1001
TCAD
1000
TCW40_DEV_WIDTH
1002
{
1040
0.005118110217154
1002
}
  0
LINE
  5
23F
330
1F
100
AcDbEntity
  8
0
 62
     7
370
    35
100
AcDbLine
 10
291.113007
 20
152.936066
 30
0.0
 11
291.113007
 21
152.636063
 31
0.0
1001
TCAD
1000
TCW40_DEV_WIDTH
1002
{
1040
0.0137795275077224
1002
}
  0
LINE
  5
240
330
1F
100
AcDbEntity
  8
0
 62
     7
370
    35
100
AcDbLine
 10
291.113007
 20
152.636063
 30
0.0
 11
304.113007
 21
152.636063
 31
0.0
1001
TCAD
1000
TCW40_DEV_WIDTH
1002
{
1040
0.0137795275077224
1002
}
  0
LINE
  5
241
330
1F
100
AcDbEntity
  8
0
 62
     7
370
    35
100
AcDbLine
 10
304.113007
 20
152.936066
 30
0.0
 11
304.113007
 21
152.636063
 31
0.0
1001
TCAD
1000
TCW40_DEV_WIDTH
1002
{
1040
0.0137795275077224
1002
}
  0
LINE
  5
242
330
1F
100
AcDbEntity
  8
0
 62
     7
370
    13
100
AcDbLine
 10
304.113007
 20
152.936066
 30
0.0
 11
318.812988
 21
152.936066
 31
0.0
1001
TCAD
1000
TCW40_DEV_WIDTH
1002
{
1040
0.005118110217154
1002
}
  0
LINE
  5
243
330
1F
100
AcDbEntity
  8
0
 62
     7
370
    35
100
AcDbLine
 10
318.812988
 20
151.936066
 30
0.0
 11
318.812988
 21
152.936066
 31
0.0
1001
TCAD
1000
TCW40_DEV_WIDTH
1002
{
1040
0.0137795275077224
1002
}
  0
LINE
  5
244
330
1F
100
AcDbEntity
  8
0
 62
     7
370
    35
100
AcDbLine
 10
318.812988
 20
151.936066
 30
0.0
 11
319.412994
 21
151.036057
 31
0.0
1001
TCAD
1000
TCW40_DEV_WIDTH
1002
{
1040
0.0137795275077224
1002
}
  0
LINE
  5
245
330
1F
100
AcDbEntity
  8
0
 62
     7
370
    35
100
AcDbLine
 10
318.812988
 20
110.33606
 30
0.0
 11
319.412994
 21
111.236061
 31
0.0
1001
TCAD
1000
TCW40_DEV_WIDTH
1002
{
1040
0.0137795275077224
1002
}
  0
LINE
  5
246
330
1F
100
AcDbEntity
  8
0
 62
     7
370
    35
100
AcDbLine
 10
318.812988
 20
110.33606
 30
0.0
 11
318.812988
 21
109.33606
 31
0.0
1001
TCAD
1000
TCW40_DEV_WIDTH
1002
{
1040
0.0137795275077224
1002
}
  0
LINE
  5
247
330
1F
100
AcDbEntity
  8
0
 62
     7
370
    35
100
AcDbLine
 10
279.863007
 20
114.136063
 30
0.0
 11
279.863007
 21
124.136063
 31
0.0
1001
TCAD
1000
TCW40_DEV_WIDTH
1002
{
1040
0.0137795275077224
1002
}
  0
LINE
  5
248
330
1F
100
AcDbEntity
  8
0
 62
     7
370
    35
100
AcDbLine
 10
318.812988
 20
108.83606
 30
0.0
 11
318.812988
 21
109.33606
 31
0.0
1001
TCAD
1000
TCW40_DEV_WIDTH
1002
{
1040
0.0137795275077224
1002
}
  0
LINE
  5
249
330
1F
100
AcDbEntity
  8
0
 62
     7
370
    35
100
AcDbLine
 10
318.812988
 20
152.936066
 30
0.0
 11
318.812988
 21
153.436066
 31
0.0
1001
TCAD
1000
TCW40_DEV_WIDTH
1002
{
1040
0.0137795275077224
1002
}
  0
LINE
  5
24A
330
1F
100
AcDbEntity
  8
0
 62
     7
370
    35
100
AcDbLine
 10
276.412994
 20
152.936066
 30
0.0
 11
276.412994
 21
153.436066
 31
0.0
1001
TCAD
1000
TCW40_DEV_WIDTH
1002
{
1040
0.0137795275077224
1002
}
  0
LINE
  5
24B
330
1F
100
AcDbEntity
  8
0
 62
     7
370
    35
100
AcDbLine
 10
291.113007
 20
153.436066
 30
0.0
 11
291.113007
 21
152.936066
 31
0.0
1001
TCAD
1000
TCW40_DEV_WIDTH
1002
{
1040
0.0137795275077224
1002
}
  0
LINE
  5
24C
330
1F
100
AcDbEntity
  8
0
 62
     7
370
    35
100
AcDbLine
 10
304.113007
 20
153.436066
 30
0.0
 11
304.113007
 21
152.936066
 31
0.0
1001
TCAD
1000
TCW40_DEV_WIDTH
1002
{
1040
0.0137795275077224
1002
}
  0
LINE
  5
24D
330
1F
100
AcDbEntity
  8
0
 62
     7
370
    35
100
AcDbLine
 10
304.113007
 20
109.33606
 30
0.0
 11
304.113007
 21
108.83606
 31
0.0
1001
TCAD
1000
TCW40_DEV_WIDTH
1002
{
1040
0.0137795275077224
1002
}
  0
LINE
  5
24E
330
1F
100
AcDbEntity
  8
0
 62
     7
370
    35
100
AcDbLine
 10
291.113007
 20
109.33606
 30
0.0
 11
291.113007
 21
108.83606
 31
0.0
1001
TCAD
1000
TCW40_DEV_WIDTH
1002
{
1040
0.0137795275077224
1002
}
  0
LINE
  5
24F
330
1F
100
AcDbEntity
  8
0
 62
     7
370
    35
100
AcDbLine
 10
276.412994
 20
108.83606
 30
0.0
 11
276.412994
 21
109.33606
 31
0.0
1001
TCAD
1000
TCW40_DEV_WIDTH
1002
{
1040
0.0137795275077224
1002
}
  0
LINE
  5
250
330
1F
100
AcDbEntity
  8
0
 62
     7
370
    35
100
AcDbLine
 10
291.113007
 20
153.436066
 30
0.0
 11
304.113007
 21
153.436066
 31
0.0
1001
TCAD
1000
TCW40_DEV_WIDTH
1002
{
1040
0.0137795275077224
1002
}
  0
LINE
  5
251
330
1F
100
AcDbEntity
  8
0
 62
     7
370
    35
100
AcDbLine
 10
291.113007
 20
108.83606
 30
0.0
 11
304.113007
 21
108.83606
 31
0.0
1001
TCAD
1000
TCW40_DEV_WIDTH
1002
{
1040
0.0137795275077224
1002
}
  0
LINE
  5
252
330
1F
100
AcDbEntity
  8
0
 62
     7
370
    35
100
AcDbLine
 10
291.113007
 20
108.83606
 30
0.0
 11
304.113007
 21
108.83606
 31
0.0
1001
TCAD
1000
TCW40_DEV_WIDTH
1002
{
1040
0.0137795275077224
1002
}
  0
LINE
  5
253
330
1F
100
AcDbEntity
  8
0
 62
     7
370
    35
100
AcDbLine
 10
291.113007
 20
108.83606
 30
0.0
 11
304.113007
 21
108.83606
 31
0.0
1001
TCAD
1000
TCW40_DEV_WIDTH
1002
{
1040
0.0137795275077224
1002
}
  0
LINE
  5
254
330
1F
100
AcDbEntity
  8
0
 62
     7
370
    35
100
AcDbLine
 10
291.113007
 20
108.83606
 30
0.0
 11
304.113007
 21
108.83606
 31
0.0
1001
TCAD
1000
TCW40_DEV_WIDTH
1002
{
1040
0.0137795275077224
1002
}
  0
LINE
  5
255
330
1F
100
AcDbEntity
  8
0
 62
     7
370
    35
100
AcDbLine
 10
291.113007
 20
108.83606
 30
0.0
 11
304.113007
 21
108.83606
 31
0.0
1001
TCAD
1000
TCW40_DEV_WIDTH
1002
{
1040
0.0137795275077224
1002
}
  0
LINE
  5
256
330
1F
100
AcDbEntity
  8
0
 62
     7
370
    35
100
AcDbLine
 10
291.113007
 20
108.83606
 30
0.0
 11
304.113007
 21
108.83606
 31
0.0
1001
TCAD
1000
TCW40_DEV_WIDTH
1002
{
1040
0.0137795275077224
1002
}
  0
LINE
  5
257
330
1F
100
AcDbEntity
  8
0
 62
     7
370
    35
100
AcDbLine
 10
291.113007
 20
108.83606
 30
0.0
 11
304.113007
 21
108.83606
 31
0.0
1001
TCAD
1000
TCW40_DEV_WIDTH
1002
{
1040
0.0137795275077224
1002
}
  0
LINE
  5
258
330
1F
100
AcDbEntity
  8
0
 62
     7
370
    35
100
AcDbLine
 10
291.113007
 20
108.83606
 30
0.0
 11
304.113007
 21
108.83606
 31
0.0
1001
TCAD
1000
TCW40_DEV_WIDTH
1002
{
1040
0.0137795275077224
1002
}
  0
LINE
  5
259
330
1F
100
AcDbEntity
  8
0
 62
     7
370
    35
100
AcDbLine
 10
291.113007
 20
108.83606
 30
0.0
 11
304.113007
 21
108.83606
 31
0.0
1001
TCAD
1000
TCW40_DEV_WIDTH
1002
{
1040
0.0137795275077224
1002
}
  0
LINE
  5
25A
330
1F
100
AcDbEntity
  8
0
 62
     7
370
    35
100
AcDbLine
 10
291.113007
 20
108.83606
 30
0.0
 11
304.113007
 21
108.83606
 31
0.0
1001
TCAD
1000
TCW40_DEV_WIDTH
1002
{
1040
0.0137795275077224
1002
}
  0
LINE
  5
25B
330
1F
100
AcDbEntity
  8
0
  6
DASHSPACE
 62
     7
 48
0.0049999998882413
370
    35
100
AcDbLine
 10
223.411942
 20
105.309448
 30
0.0
 11
223.411942
 21
107.809448
 31
0.0
1001
TCAD
1000
TCW40_DEV_WIDTH
1002
{
1040
0.0137795275077224
1002
}
  0
LINE
  5
25C
330
1F
100
AcDbEntity
  8
0
  6
DASHSPACE
 62
     7
 48
0.0049999998882413
370
    35
100
AcDbLine
 10
221.74762
 20
107.809448
 30
0.0
 11
223.411942
 21
107.809448
 31
0.0
1001
TCAD
1000
TCW40_DEV_WIDTH
1002
{
1040
0.0137795275077224
1002
}
  0
LINE
  5
25D
330
1F
100
AcDbEntity
  8
0
  6
DASHSPACE
 62
     7
 48
0.0049999998882413
370
    35
100
AcDbLine
 10
222.586838
 20
105.309448
 30
0.0
 11
223.411942
 21
105.309448
 31
0.0
1001
TCAD
1000
TCW40_DEV_WIDTH
1002
{
1040
0.0137795275077224
1002
}
  0
LINE
  5
25E
330
1F
100
AcDbEntity
  8
0
  6
DASHSPACE
 62
     7
 48
0.0049999998882413
370
    35
100
AcDbLine
 10
212.711945
 20
107.309448
 30
0.0
 11
212.711945
 21
111.809448
 31
0.0
1001
TCAD
1000
TCW40_DEV_WIDTH
1002
{
1040
0.0137795275077224
1002
}
  0
LINE
  5
25F
330
1F
100
AcDbEntity
  8
0
  6
DASHSPACE
 62
     7
 48
0.0049999998882413
370
    35
100
AcDbLine
 10
212.711945
 20
105.309448
 30
0.0
 11
212.711945
 21
107.309448
 31
0.0
1001
TCAD
1000
TCW40_DEV_WIDTH
1002
{
1040
0.0137795275077224
1002
}
  0
LINE
  5
260
330
1F
100
AcDbEntity
  8
0
  6
DASHSPACE
 62
     7
 48
0.0049999998882413
370
    35
100
AcDbLine
 10
206.011932
 20
105.309448
 30
0.0
 11
206.011932
 21
106.20945
 31
0.0
1001
TCAD
1000
TCW40_DEV_WIDTH
1002
{
1040
0.0137795275077224
1002
}
  0
LINE
  5
261
330
1F
100
AcDbEntity
  8
0
  6
DASHSPACE
 62
     7
 48
0.0049999998882413
370
    35
100
AcDbLine
 10
206.011932
 20
105.309448
 30
0.0
 11
207.611938
 21
105.309448
 31
0.0
1001
TCAD
1000
TCW40_DEV_WIDTH
1002
{
1040
0.0137795275077224
1002
}
  0
LINE
  5
262
330
1F
100
AcDbEntity
  8
0
  6
DASHSPACE
 62
     7
 48
0.0049999998882413
370
    35
100
AcDbLine
 10
207.611938
 20
105.309448
 30
0.0
 11
207.611938
 21
106.20945
 31
0.0
1001
TCAD
1000
TCW40_DEV_WIDTH
1002
{
1040
0.0137795275077224
1002
}
  0
LINE
  5
263
330
1F
100
AcDbEntity
  8
0
  6
DASHSPACE
 62
     7
 48
0.0049999998882413
370
    35
100
AcDbLine
 10
207.611938
 20
106.20945
 30
0.0
 11
210.911942
 21
106.20945
 31
0.0
1001
TCAD
1000
TCW40_DEV_WIDTH
1002
{
1040
0.0137795275077224
1002
}
  0
LINE
  5
264
330
1F
100
AcDbEntity
  8
0
  6
DASHSPACE
 62
     7
 48
0.0049999998882413
370
    35
100
AcDbLine
 10
210.911942
 20
105.309448
 30
0.0
 11
210.911942
 21
106.20945
 31
0.0
1001
TCAD
1000
TCW40_DEV_WIDTH
1002
{
1040
0.0137795275077224
1002
}
  0
LINE
  5
265
330
1F
100
AcDbEntity
  8
0
  6
DASHSPACE
 62
     7
 48
0.0049999998882413
370
    35
100
AcDbLine
 10
210.911942
 20
105.309448
 30
0.0
 11
212.711945
 21
105.309448
 31
0.0
1001
TCAD
1000
TCW40_DEV_WIDTH
1002
{
1040
0.0137795275077224
1002
}
  0
LINE
  5
266
330
1F
100
AcDbEntity
  8
0
  6
DASHSPACE
 62
     7
 48
0.0049999998882413
370
    35
100
AcDbLine
 10
200.711945
 20
107.309448
 30
0.0
 11
212.711945
 21
107.309448
 31
0.0
1001
TCAD
1000
TCW40_DEV_WIDTH
1002
{
1040
0.0137795275077224
1002
}
  0
LINE
  5
267
330
1F
100
AcDbEntity
  8
0
  6
DASHSPACE
 62
     7
 48
0.0049999998882413
370
    35
100
AcDbLine
 10
200.711945
 20
105.309448
 30
0.0
 11
200.711945
 21
107.309448
 31
0.0
1001
TCAD
1000
TCW40_DEV_WIDTH
1002
{
1040
0.0137795275077224
1002
}
  0
LINE
  5
268
330
1F
100
AcDbEntity
  8
0
  6
DASHSPACE
 62
     7
 48
0.0049999998882413
370
    35
100
AcDbLine
 10
202.511932
 20
105.309448
 30
0.0
 11
200.711945
 21
105.309448
 31
0.0
1001
TCAD
1000
TCW40_DEV_WIDTH
1002
{
1040
0.0137795275077224
1002
}
  0
LINE
  5
269
330
1F
100
AcDbEntity
  8
0
  6
DASHSPACE
 62
     7
 48
0.0049999998882413
370
    35
100
AcDbLine
 10
202.511932
 20
105.309448
 30
0.0
 11
202.511932
 21
106.20945
 31
0.0
1001
TCAD
1000
TCW40_DEV_WIDTH
1002
{
1040
0.0137795275077224
1002
}
  0
LINE
  5
26A
330
1F
100
AcDbEntity
  8
0
  6
DASHSPACE
 62
     7
 48
0.0049999998882413
370
    35
100
AcDbLine
 10
202.511932
 20
106.20945
 30
0.0
 11
206.011932
 21
106.20945
 31
0.0
1001
TCAD
1000
TCW40_DEV_WIDTH
1002
{
1040
0.0137795275077224
1002
}
  0
LINE
  5
26B
330
1F
100
AcDbEntity
  8
0
  6
DASHSPACE
 62
     7
 48
0.0049999998882413
370
    35
100
AcDbLine
 10
207.611938
 20
105.309448
 30
0.0
 11
210.911942
 21
105.309448
 31
0.0
1001
TCAD
1000
TCW40_DEV_WIDTH
1002
{
1040
0.0137795275077224
1002
}
  0
LINE
  5
26C
330
1F
100
AcDbEntity
  8
0
  6
DASHSPACE
 62
     7
 48
0.0049999998882413
370
    35
100
AcDbLine
 10
205.211945
 20
105.309448
 30
0.0
 11
202.511932
 21
105.309448
 31
0.0
1001
TCAD
1000
TCW40_DEV_WIDTH
1002
{
1040
0.0137795275077224
1002
}
  0
LINE
  5
26D
330
1F
100
AcDbEntity
  8
0
  6
DASHSPACE
 62
     7
 48
0.0049999998882413
370
    35
100
AcDbLine
 10
205.211945
 20
105.309448
 30
0.0
 11
205.211945
 21
99.809448
 31
0.0
1001
TCAD
1000
TCW40_DEV_WIDTH
1002
{
1040
0.0137795275077224
1002
}
  0
ARC
  5
26E
330
1F
100
AcDbEntity
  8
0
  6
DASHSPACE
 62
     7
 48
0.0049999998882413
370
    35
100
AcDbCircle
 10
206.211945
 20
99.809448
 30
0.0
 40
1.0
100
AcDbArc
 50
180.0
 51
360.0
1001
TCAD
1000
TCW40_DEV_WIDTH
1002
{
1040
0.0137795275077224
1002
}
  0
LINE
  5
26F
330
1F
100
AcDbEntity
  8
0
  6
DASHSPACE
 62
     7
 48
0.0049999998882413
370
    35
100
AcDbLine
 10
207.211945
 20
99.809448
 30
0.0
 11
207.211945
 21
105.309448
 31
0.0
1001
TCAD
1000
TCW40_DEV_WIDTH
1002
{
1040
0.0137795275077224
1002
}
  0
LINE
  5
270
330
1F
100
AcDbEntity
  8
0
  6
DASHSPACE
 62
     7
 48
0.0049999998882413
370
    35
100
AcDbLine
 10
208.711945
 20
105.309448
 30
0.0
 11
208.711945
 21
101.809448
 31
0.0
1001
TCAD
1000
TCW40_DEV_WIDTH
1002
{
1040
0.0137795275077224
1002
}
  0
LINE
  5
271
330
1F
100
AcDbEntity
  8
0
  6
DASHSPACE
 62
     7
 48
0.0049999998882413
370
    13
100
AcDbLine
 10
207.211945
 20
101.809448
 30
0.0
 11
208.711945
 21
101.809448
 31
0.0
1001
TCAD
1000
TCW40_DEV_WIDTH
1002
{
1040
0.005118110217154
1002
}
  0
LINE
  5
272
330
1F
100
AcDbEntity
  8
0
  6
DASHSPACE
 62
     7
 48
0.0049999998882413
370
    35
100
AcDbLine
 10
208.711945
 20
101.809448
 30
0.0
 11
208.711945
 21
98.809448
 31
0.0
1001
TCAD
1000
TCW40_DEV_WIDTH
1002
{
1040
0.0137795275077224
1002
}
  0
LINE
  5
273
330
1F
100
AcDbEntity
  8
0
  6
DASHSPACE
 62
     7
 48
0.0049999998882413
370
    35
100
AcDbLine
 10
221.411942
 20
110.409454
 30
0.0
 11
221.411942
 21
108.809448
 31
0.0
1001
TCAD
1000
TCW40_DEV_WIDTH
1002
{
1040
0.0137795275077224
1002
}
  0
LINE
  5
274
330
1F
100
AcDbEntity
  8
0
  6
DASHSPACE
 62
     7
 48
0.0049999998882413
370
    35
100
AcDbLine
 10
221.411942
 20
110.409454
 30
0.0
 11
219.690613
 21
108.688133
 31
0.0
1001
TCAD
1000
TCW40_DEV_WIDTH
1002
{
1040
0.0137795275077224
1002
}
  0
ARC
  5
275
330
1F
100
AcDbEntity
  8
0
  6
DASHSPACE
 62
     7
 48
0.0049999998882413
370
    35
100
AcDbCircle
 10
217.56929
 20
110.809448
 30
0.0
 40
3.0
100
AcDbArc
 50
-90.0
 51
-45.00000100000015
1001
TCAD
1000
TCW40_DEV_WIDTH
1002
{
1040
0.0137795275077224
1002
}
  0
LINE
  5
276
330
1F
100
AcDbEntity
  8
0
  6
DASHSPACE
 62
     7
 48
0.0049999998882413
370
    35
100
AcDbLine
 10
217.56929
 20
107.809448
 30
0.0
 11
212.711945
 21
107.809448
 31
0.0
1001
TCAD
1000
TCW40_DEV_WIDTH
1002
{
1040
0.0137795275077224
1002
}
  0
LINE
  5
277
330
1F
100
AcDbEntity
  8
0
  6
DASHSPACE
 62
     7
 48
0.025000000372529
370
    35
100
AcDbLine
 10
200.711945
 20
108.509453
 30
0.0
 11
199.711929
 21
108.509453
 31
0.0
1001
TCAD
1000
TCW40_DEV_WIDTH
1002
{
1040
0.0137795275077224
1002
}
  0
LINE
  5
278
330
1F
100
AcDbEntity
  8
0
  6
DASHSPACE
 62
     7
 48
0.0049999998882413
370
    35
100
AcDbLine
 10
212.711945
 20
111.809448
 30
0.0
 11
200.711945
 21
111.809448
 31
0.0
1001
TCAD
1000
TCW40_DEV_WIDTH
1002
{
1040
0.0137795275077224
1002
}
  0
LINE
  5
279
330
1F
100
AcDbEntity
  8
0
  6
DASHSPACE
 62
     7
 48
0.0049999998882413
370
    35
100
AcDbLine
 10
200.711945
 20
111.809448
 30
0.0
 11
200.711945
 21
107.309448
 31
0.0
1001
TCAD
1000
TCW40_DEV_WIDTH
1002
{
1040
0.0137795275077224
1002
}
  0
LINE
  5
27A
330
1F
100
AcDbEntity
  8
0
  6
DASHSPACE
 62
     7
 48
0.0049999998882413
370
    35
100
AcDbLine
 10
200.711945
 20
105.309448
 30
0.0
 11
199.711929
 21
105.309448
 31
0.0
1001
TCAD
1000
TCW40_DEV_WIDTH
1002
{
1040
0.0137795275077224
1002
}
  0
LINE
  5
27B
330
1F
100
AcDbEntity
  8
0
  6
DASHSPACE
 62
     7
 48
0.0049999998882413
370
    35
100
AcDbLine
 10
206.211945
 20
98.809448
 30
0.0
 11
208.711945
 21
98.809448
 31
0.0
1001
TCAD
1000
TCW40_DEV_WIDTH
1002
{
1040
0.0137795275077224
1002
}
  0
LINE
  5
27C
330
1F
100
AcDbEntity
  8
0
  6
DASHSPACE
 62
     7
 48
0.0049999998882413
370
    35
100
AcDbLine
 10
199.711929
 20
98.809448
 30
0.0
 11
206.211945
 21
98.809448
 31
0.0
1001
TCAD
1000
TCW40_DEV_WIDTH
1002
{
1040
0.0137795275077224
1002
}
  0
LINE
  5
27D
330
1F
100
AcDbEntity
  8
0
  6
DASHSPACE
 62
     7
 48
0.0049999998882413
370
    35
100
AcDbLine
 10
199.711929
 20
101.809448
 30
0.0
 11
199.711929
 21
98.809448
 31
0.0
1001
TCAD
1000
TCW40_DEV_WIDTH
1002
{
1040
0.0137795275077224
1002
}
  0
LINE
  5
27E
330
1F
100
AcDbEntity
  8
0
  6
DASHSPACE
 62
     7
 48
0.0049999998882413
370
    35
100
AcDbLine
 10
199.711929
 20
105.309448
 30
0.0
 11
199.711929
 21
101.809448
 31
0.0
1001
TCAD
1000
TCW40_DEV_WIDTH
1002
{
1040
0.0137795275077224
1002
}
  0
LINE
  5
27F
330
1F
100
AcDbEntity
  8
0
  6
DASHSPACE
 62
     7
 48
0.0049999998882413
370
    35
100
AcDbLine
 10
197.711929
 20
108.809448
 30
0.0
 11
200.711929
 21
108.809448
 31
0.0
1001
TCAD
1000
TCW40_DEV_WIDTH
1002
{
1040
0.0137795275077224
1002
}
  0
LINE
  5
280
330
1F
100
AcDbEntity
  8
0
  6
DASHSPACE
 62
     7
 48
0.0049999998882413
370
    35
100
AcDbLine
 10
199.711929
 20
108.509453
 30
0.0
 11
199.711929
 21
105.309448
 31
0.0
1001
TCAD
1000
TCW40_DEV_WIDTH
1002
{
1040
0.0137795275077224
1002
}
  0
LINE
  5
281
330
1F
100
AcDbEntity
  8
0
  6
DASHSPACE
 62
     7
 48
0.0049999998882413
370
    13
100
AcDbLine
 10
199.711929
 20
101.809448
 30
0.0
 11
205.211945
 21
101.809448
 31
0.0
1001
TCAD
1000
TCW40_DEV_WIDTH
1002
{
1040
0.005118110217154
1002
}
  0
LINE
  5
282
330
1F
100
AcDbEntity
  8
0
  6
DASHSPACE
 62
     7
 48
0.0049999998882413
370
    35
100
AcDbLine
 10
197.711929
 20
105.309448
 30
0.0
 11
199.711777
 21
105.309448
 31
0.0
1001
TCAD
1000
TCW40_DEV_WIDTH
1002
{
1040
0.0137795275077224
1002
}
  0
LINE
  5
283
330
1F
100
AcDbEntity
  8
0
  6
DASHSPACE
 62
     7
 48
0.0049999998882413
370
    35
100
AcDbLine
 10
220.477173
 20
105.309448
 30
0.0
 11
217.077423
 21
105.309448
 31
0.0
1001
TCAD
1000
TCW40_DEV_WIDTH
1002
{
1040
0.0137795275077224
1002
}
  0
LINE
  5
284
330
1F
100
AcDbEntity
  8
0
  6
DASHSPACE
 62
     7
 48
0.0049999998882413
370
    35
100
AcDbLine
 10
217.077423
 20
105.309448
 30
0.0
 11
212.711945
 21
105.309448
 31
0.0
1001
TCAD
1000
TCW40_DEV_WIDTH
1002
{
1040
0.0137795275077224
1002
}
  0
LINE
  5
285
330
1F
100
AcDbEntity
  8
0
  6
DASHSPACE
 62
     7
 48
0.0049999998882413
370
    35
100
AcDbLine
 10
220.477173
 20
105.309448
 30
0.0
 11
222.463928
 21
99.390976
 31
0.0
1001
TCAD
1000
TCW40_DEV_WIDTH
1002
{
1040
0.0137795275077224
1002
}
  0
LINE
  5
286
330
1F
100
AcDbEntity
  8
0
  6
DASHSPACE
 62
     7
 48
0.0049999998882413
370
    35
100
AcDbLine
 10
220.477173
 20
105.309448
 30
0.0
 11
219.805786
 21
107.309448
 31
0.0
1001
TCAD
1000
TCW40_DEV_WIDTH
1002
{
1040
0.0137795275077224
1002
}
  0
LINE
  5
287
330
1F
100
AcDbEntity
  8
0
  6
DASHSPACE
 62
     7
 48
0.0049999998882413
370
    35
100
AcDbLine
 10
222.586838
 20
105.309448
 30
0.0
 11
220.477173
 21
105.309448
 31
0.0
1001
TCAD
1000
TCW40_DEV_WIDTH
1002
{
1040
0.0137795275077224
1002
}
  0
LINE
  5
288
330
1F
100
AcDbEntity
  8
0
  6
DASHSPACE
 62
     7
 48
0.0049999998882413
370
    35
100
AcDbLine
 10
221.915466
 20
107.309448
 30
0.0
 11
222.586838
 21
105.309448
 31
0.0
1001
TCAD
1000
TCW40_DEV_WIDTH
1002
{
1040
0.0137795275077224
1002
}
  0
LINE
  5
289
330
1F
100
AcDbEntity
  8
0
  6
DASHSPACE
 62
     7
 48
0.0049999998882413
370
    13
100
AcDbLine
 10
219.805786
 20
107.309448
 30
0.0
 11
221.915466
 21
107.309448
 31
0.0
1001
TCAD
1000
TCW40_DEV_WIDTH
1002
{
1040
0.005118110217154
1002
}
  0
LINE
  5
28A
330
1F
100
AcDbEntity
  8
0
  6
DASHSPACE
 62
     7
 48
0.0049999998882413
370
    35
100
AcDbLine
 10
221.411942
 20
108.809448
 30
0.0
 11
221.915466
 21
107.309448
 31
0.0
1001
TCAD
1000
TCW40_DEV_WIDTH
1002
{
1040
0.0137795275077224
1002
}
  0
LINE
  5
28B
330
1F
100
AcDbEntity
  8
0
  6
DASHSPACE
 62
     7
 48
0.0049999998882413
370
    35
100
AcDbLine
 10
222.586838
 20
105.309448
 30
0.0
 11
224.359955
 21
100.027451
 31
0.0
1001
TCAD
1000
TCW40_DEV_WIDTH
1002
{
1040
0.0137795275077224
1002
}
  0
LINE
  5
28C
330
1F
100
AcDbEntity
  8
0
  6
DASHSPACE
 62
     7
 48
0.0049999998882413
370
    13
100
AcDbLine
 10
222.463928
 20
99.390976
 30
0.0
 11
224.359955
 21
100.027451
 31
0.0
1001
TCAD
1000
TCW40_DEV_WIDTH
1002
{
1040
0.005118110217154
1002
}
  0
ARC
  5
28D
330
1F
100
AcDbEntity
  8
0
  6
DASHSPACE
 62
     7
 48
0.0049999998882413
370
    35
100
AcDbCircle
 10
223.411942
 20
99.709213
 30
0.0
 40
0.9999999999999984
100
AcDbArc
 50
-161.443733
 51
18.55627199999962
1001
TCAD
1000
TCW40_DEV_WIDTH
1002
{
1040
0.0137795275077224
1002
}
  0
LINE
  5
28E
330
1F
100
AcDbEntity
  8
0
  6
DASHSPACE
 62
     7
 48
0.0049999998882413
370
    35
100
AcDbLine
 10
197.711929
 20
108.809448
 30
0.0
 11
197.711929
 21
105.309448
 31
0.0
1001
TCAD
1000
TCW40_DEV_WIDTH
1002
{
1040
0.0137795275077224
1002
}
  0
LINE
  5
28F
330
1F
100
AcDbEntity
  8
0
  6
DASHSPACE
 62
     7
 48
0.0049999998882413
370
    35
100
AcDbLine
 10
197.711929
 20
108.809448
 30
0.0
 11
197.711929
 21
105.309448
 31
0.0
1001
TCAD
1000
TCW40_DEV_WIDTH
1002
{
1040
0.0137795275077224
1002
}
  0
LINE
  5
290
330
1F
100
AcDbEntity
  8
0
  6
DASHSPACE
 62
     7
 48
0.0049999998882413
370
    35
100
AcDbLine
 10
223.264252
 20
154.409454
 30
0.0
 11
223.264252
 21
156.909454
 31
0.0
1001
TCAD
1000
TCW40_DEV_WIDTH
1002
{
1040
0.0137795275077224
1002
}
  0
LINE
  5
291
330
1F
100
AcDbEntity
  8
0
  6
DASHSPACE
 62
     7
 48
0.0049999998882413
370
    35
100
AcDbLine
 10
221.59993
 20
154.409454
 30
0.0
 11
223.264252
 21
154.409454
 31
0.0
1001
TCAD
1000
TCW40_DEV_WIDTH
1002
{
1040
0.0137795275077224
1002
}
  0
LINE
  5
292
330
1F
100
AcDbEntity
  8
0
  6
DASHSPACE
 62
     7
 48
0.0049999998882413
370
    35
100
AcDbLine
 10
222.439148
 20
156.909454
 30
0.0
 11
223.264252
 21
156.909454
 31
0.0
1001
TCAD
1000
TCW40_DEV_WIDTH
1002
{
1040
0.0137795275077224
1002
}
  0
LINE
  5
293
330
1F
100
AcDbEntity
  8
0
  6
DASHSPACE
 62
     7
 48
0.0049999998882413
370
    35
100
AcDbLine
 10
200.56424
 20
154.909454
 30
0.0
 11
212.56424
 21
154.909454
 31
0.0
1001
TCAD
1000
TCW40_DEV_WIDTH
1002
{
1040
0.0137795275077224
1002
}
  0
LINE
  5
294
330
1F
100
AcDbEntity
  8
0
  6
DASHSPACE
 62
     7
 48
0.0049999998882413
370
    35
100
AcDbLine
 10
200.56424
 20
150.409454
 30
0.0
 11
200.56424
 21
154.909454
 31
0.0
1001
TCAD
1000
TCW40_DEV_WIDTH
1002
{
1040
0.0137795275077224
1002
}
  0
LINE
  5
295
330
1F
100
AcDbEntity
  8
0
  6
DASHSPACE
 62
     7
 48
0.0049999998882413
370
    35
100
AcDbLine
 10
212.56424
 20
150.409454
 30
0.0
 11
200.56424
 21
150.409454
 31
0.0
1001
TCAD
1000
TCW40_DEV_WIDTH
1002
{
1040
0.0137795275077224
1002
}
  0
LINE
  5
296
330
1F
100
AcDbEntity
  8
0
  6
DASHSPACE
 62
     7
 48
0.0049999998882413
370
    35
100
AcDbLine
 10
212.56424
 20
150.409454
 30
0.0
 11
212.56424
 21
154.909454
 31
0.0
1001
TCAD
1000
TCW40_DEV_WIDTH
1002
{
1040
0.0137795275077224
1002
}
  0
LINE
  5
297
330
1F
100
AcDbEntity
  8
0
  6
DASHSPACE
 62
     7
 48
0.0049999998882413
370
    35
100
AcDbLine
 10
205.864243
 20
156.909454
 30
0.0
 11
207.464249
 21
156.909454
 31
0.0
1001
TCAD
1000
TCW40_DEV_WIDTH
1002
{
1040
0.0137795275077224
1002
}
  0
LINE
  5
298
330
1F
100
AcDbEntity
  8
0
  6
DASHSPACE
 62
     7
 48
0.0049999998882413
370
    35
100
AcDbLine
 10
205.864243
 20
156.009445
 30
0.0
 11
205.864243
 21
156.909454
 31
0.0
1001
TCAD
1000
TCW40_DEV_WIDTH
1002
{
1040
0.0137795275077224
1002
}
  0
LINE
  5
299
330
1F
100
AcDbEntity
  8
0
  6
DASHSPACE
 62
     7
 48
0.0049999998882413
370
    35
100
AcDbLine
 10
202.364243
 20
156.009445
 30
0.0
 11
205.864243
 21
156.009445
 31
0.0
1001
TCAD
1000
TCW40_DEV_WIDTH
1002
{
1040
0.0137795275077224
1002
}
  0
LINE
  5
29A
330
1F
100
AcDbEntity
  8
0
  6
DASHSPACE
 62
     7
 48
0.0049999998882413
370
    35
100
AcDbLine
 10
202.364243
 20
156.909454
 30
0.0
 11
202.364243
 21
156.009445
 31
0.0
1001
TCAD
1000
TCW40_DEV_WIDTH
1002
{
1040
0.0137795275077224
1002
}
  0
LINE
  5
29B
330
1F
100
AcDbEntity
  8
0
  6
DASHSPACE
 62
     7
 48
0.0049999998882413
370
    35
100
AcDbLine
 10
200.56424
 20
156.909454
 30
0.0
 11
202.364243
 21
156.909454
 31
0.0
1001
TCAD
1000
TCW40_DEV_WIDTH
1002
{
1040
0.0137795275077224
1002
}
  0
LINE
  5
29C
330
1F
100
AcDbEntity
  8
0
  6
DASHSPACE
 62
     7
 48
0.0049999998882413
370
    35
100
AcDbLine
 10
200.56424
 20
154.909454
 30
0.0
 11
200.56424
 21
156.909454
 31
0.0
1001
TCAD
1000
TCW40_DEV_WIDTH
1002
{
1040
0.0137795275077224
1002
}
  0
LINE
  5
29D
330
1F
100
AcDbEntity
  8
0
  6
DASHSPACE
 62
     7
 48
0.0049999998882413
370
    35
100
AcDbLine
 10
212.56424
 20
154.909454
 30
0.0
 11
212.56424
 21
156.909454
 31
0.0
1001
TCAD
1000
TCW40_DEV_WIDTH
1002
{
1040
0.0137795275077224
1002
}
  0
LINE
  5
29E
330
1F
100
AcDbEntity
  8
0
  6
DASHSPACE
 62
     7
 48
0.0049999998882413
370
    35
100
AcDbLine
 10
210.764252
 20
156.909454
 30
0.0
 11
212.56424
 21
156.909454
 31
0.0
1001
TCAD
1000
TCW40_DEV_WIDTH
1002
{
1040
0.0137795275077224
1002
}
  0
LINE
  5
29F
330
1F
100
AcDbEntity
  8
0
  6
DASHSPACE
 62
     7
 48
0.0049999998882413
370
    35
100
AcDbLine
 10
210.764252
 20
156.909454
 30
0.0
 11
210.764252
 21
156.009445
 31
0.0
1001
TCAD
1000
TCW40_DEV_WIDTH
1002
{
1040
0.0137795275077224
1002
}
  0
LINE
  5
2A0
330
1F
100
AcDbEntity
  8
0
  6
DASHSPACE
 62
     7
 48
0.0049999998882413
370
    35
100
AcDbLine
 10
207.464249
 20
156.009445
 30
0.0
 11
210.764252
 21
156.009445
 31
0.0
1001
TCAD
1000
TCW40_DEV_WIDTH
1002
{
1040
0.0137795275077224
1002
}
  0
LINE
  5
2A1
330
1F
100
AcDbEntity
  8
0
  6
DASHSPACE
 62
     7
 48
0.0049999998882413
370
    35
100
AcDbLine
 10
207.464249
 20
156.009445
 30
0.0
 11
207.464249
 21
156.909454
 31
0.0
1001
TCAD
1000
TCW40_DEV_WIDTH
1002
{
1040
0.0137795275077224
1002
}
  0
LINE
  5
2A2
330
1F
100
AcDbEntity
  8
0
  6
DASHSPACE
 62
     7
 48
0.0049999998882413
370
    35
100
AcDbLine
 10
199.56424
 20
156.909454
 30
0.0
 11
200.56424
 21
156.909454
 31
0.0
1001
TCAD
1000
TCW40_DEV_WIDTH
1002
{
1040
0.0137795275077224
1002
}
  0
LINE
  5
2A3
330
1F
100
AcDbEntity
  8
0
  6
DASHSPACE
 62
     7
 48
0.0049999998882413
370
    35
100
AcDbLine
 10
205.06424
 20
156.909454
 30
0.0
 11
202.364243
 21
156.909454
 31
0.0
1001
TCAD
1000
TCW40_DEV_WIDTH
1002
{
1040
0.0137795275077224
1002
}
  0
LINE
  5
2A4
330
1F
100
AcDbEntity
  8
0
  6
DASHSPACE
 62
     7
 48
0.0049999998882413
370
    35
100
AcDbLine
 10
199.56424
 20
153.709457
 30
0.0
 11
200.56424
 21
153.709457
 31
0.0
1001
TCAD
1000
TCW40_DEV_WIDTH
1002
{
1040
0.0137795275077224
1002
}
  0
LINE
  5
2A5
330
1F
100
AcDbEntity
  8
0
  6
DASHSPACE
 62
     7
 48
0.0049999998882413
370
    35
100
AcDbLine
 10
199.56424
 20
153.709457
 30
0.0
 11
199.56424
 21
156.909454
 31
0.0
1001
TCAD
1000
TCW40_DEV_WIDTH
1002
{
1040
0.0137795275077224
1002
}
  0
LINE
  5
2A6
330
1F
100
AcDbEntity
  8
0
  6
DASHSPACE
 62
     7
 48
0.0049999998882413
370
    35
100
AcDbLine
 10
207.464249
 20
156.909454
 30
0.0
 11
210.764252
 21
156.909454
 31
0.0
1001
TCAD
1000
TCW40_DEV_WIDTH
1002
{
1040
0.0137795275077224
1002
}
  0
LINE
  5
2A7
330
1F
100
AcDbEntity
  8
0
  6
DASHSPACE
 62
     7
 48
0.0049999998882413
370
    35
100
AcDbLine
 10
208.56424
 20
160.409454
 30
0.0
 11
208.56424
 21
156.909454
 31
0.0
1001
TCAD
1000
TCW40_DEV_WIDTH
1002
{
1040
0.0137795275077224
1002
}
  0
LINE
  5
2A8
330
1F
100
AcDbEntity
  8
0
  6
DASHSPACE
 62
     7
 48
0.0049999998882413
370
    35
100
AcDbLine
 10
208.56424
 20
163.409454
 30
0.0
 11
208.56424
 21
160.409454
 31
0.0
1001
TCAD
1000
TCW40_DEV_WIDTH
1002
{
1040
0.0137795275077224
1002
}
  0
LINE
  5
2A9
330
1F
100
AcDbEntity
  8
0
  6
DASHSPACE
 62
     7
 48
0.0049999998882413
370
    13
100
AcDbLine
 10
207.06424
 20
160.409454
 30
0.0
 11
208.56424
 21
160.409454
 31
0.0
1001
TCAD
1000
TCW40_DEV_WIDTH
1002
{
1040
0.005118110217154
1002
}
  0
LINE
  5
2AA
330
1F
100
AcDbEntity
  8
0
  6
DASHSPACE
 62
     7
 48
0.0049999998882413
370
    35
100
AcDbLine
 10
207.06424
 20
162.409454
 30
0.0
 11
207.06424
 21
156.909454
 31
0.0
1001
TCAD
1000
TCW40_DEV_WIDTH
1002
{
1040
0.0137795275077224
1002
}
  0
ARC
  5
2AB
330
1F
100
AcDbEntity
  8
0
  6
DASHSPACE
 62
     7
 48
0.0049999998882413
370
    35
100
AcDbCircle
 10
206.06424
 20
162.409454
 30
0.0
 40
1.0
100
AcDbArc
 50
0.0
 51
179.9999949999995
1001
TCAD
1000
TCW40_DEV_WIDTH
1002
{
1040
0.0137795275077224
1002
}
  0
LINE
  5
2AC
330
1F
100
AcDbEntity
  8
0
  6
DASHSPACE
 62
     7
 48
0.0049999998882413
370
    35
100
AcDbLine
 10
205.06424
 20
156.909454
 30
0.0
 11
205.06424
 21
162.409454
 31
0.0
1001
TCAD
1000
TCW40_DEV_WIDTH
1002
{
1040
0.0137795275077224
1002
}
  0
LINE
  5
2AD
330
1F
100
AcDbEntity
  8
0
  6
DASHSPACE
 62
     7
 48
0.0049999998882413
370
    35
100
AcDbLine
 10
199.56424
 20
160.409454
 30
0.0
 11
199.56424
 21
156.909454
 31
0.0
1001
TCAD
1000
TCW40_DEV_WIDTH
1002
{
1040
0.0137795275077224
1002
}
  0
LINE
  5
2AE
330
1F
100
AcDbEntity
  8
0
  6
DASHSPACE
 62
     7
 48
0.0049999998882413
370
    13
100
AcDbLine
 10
199.56424
 20
160.409454
 30
0.0
 11
205.06424
 21
160.409454
 31
0.0
1001
TCAD
1000
TCW40_DEV_WIDTH
1002
{
1040
0.005118110217154
1002
}
  0
LINE
  5
2AF
330
1F
100
AcDbEntity
  8
0
  6
DASHSPACE
 62
     7
 48
0.0049999998882413
370
    35
100
AcDbLine
 10
204.06424
 20
156.909454
 30
0.0
 11
203.569504
 21
156.909454
 31
0.0
1001
TCAD
1000
TCW40_DEV_WIDTH
1002
{
1040
0.0137795275077224
1002
}
  0
LINE
  5
2B0
330
1F
100
AcDbEntity
  8
0
  6
DASHSPACE
 62
     7
 48
0.0049999998882413
370
    35
100
AcDbLine
 10
221.264252
 20
151.809448
 30
0.0
 11
221.264252
 21
153.409454
 31
0.0
1001
TCAD
1000
TCW40_DEV_WIDTH
1002
{
1040
0.0137795275077224
1002
}
  0
LINE
  5
2B1
330
1F
100
AcDbEntity
  8
0
  6
DASHSPACE
 62
     7
 48
0.0049999998882413
370
    35
100
AcDbLine
 10
221.264252
 20
151.809448
 30
0.0
 11
219.542923
 21
153.530777
 31
0.0
1001
TCAD
1000
TCW40_DEV_WIDTH
1002
{
1040
0.0137795275077224
1002
}
  0
ARC
  5
2B2
330
1F
100
AcDbEntity
  8
0
  6
DASHSPACE
 62
     7
 48
0.0049999998882413
370
    35
100
AcDbCircle
 10
217.4216
 20
151.409454
 30
0.0
 40
2.999999999999984
100
AcDbArc
 50
45.00000099999996
 51
90.00000299999986
1001
TCAD
1000
TCW40_DEV_WIDTH
1002
{
1040
0.0137795275077224
1002
}
  0
LINE
  5
2B3
330
1F
100
AcDbEntity
  8
0
  6
DASHSPACE
 62
     7
 48
0.0049999998882413
370
    35
100
AcDbLine
 10
217.4216
 20
154.409454
 30
0.0
 11
212.564255
 21
154.409454
 31
0.0
1001
TCAD
1000
TCW40_DEV_WIDTH
1002
{
1040
0.0137795275077224
1002
}
  0
LINE
  5
2B4
330
1F
100
AcDbEntity
  8
0
  6
DASHSPACE
 62
     7
 48
0.0049999998882413
370
    35
100
AcDbLine
 10
206.06424
 20
163.409454
 30
0.0
 11
208.56424
 21
163.409454
 31
0.0
1001
TCAD
1000
TCW40_DEV_WIDTH
1002
{
1040
0.0137795275077224
1002
}
  0
LINE
  5
2B5
330
1F
100
AcDbEntity
  8
0
  6
DASHSPACE
 62
     7
 48
0.0049999998882413
370
    35
100
AcDbLine
 10
199.56424
 20
163.409454
 30
0.0
 11
199.56424
 21
160.409454
 31
0.0
1001
TCAD
1000
TCW40_DEV_WIDTH
1002
{
1040
0.0137795275077224
1002
}
  0
LINE
  5
2B6
330
1F
100
AcDbEntity
  8
0
  6
DASHSPACE
 62
     7
 48
0.0049999998882413
370
    35
100
AcDbLine
 10
199.56424
 20
163.409454
 30
0.0
 11
206.06424
 21
163.409454
 31
0.0
1001
TCAD
1000
TCW40_DEV_WIDTH
1002
{
1040
0.0137795275077224
1002
}
  0
LINE
  5
2B7
330
1F
100
AcDbEntity
  8
0
  6
DASHSPACE
 62
     7
 48
0.0049999998882413
370
    35
100
AcDbLine
 10
201.543213
 20
156.909454
 30
0.0
 11
197.56424
 21
156.909454
 31
0.0
1001
TCAD
1000
TCW40_DEV_WIDTH
1002
{
1040
0.0137795275077224
1002
}
  0
LINE
  5
2B8
330
1F
100
AcDbEntity
  8
0
  6
DASHSPACE
 62
     7
 48
0.0049999998882413
370
    35
100
AcDbLine
 10
201.543213
 20
156.909454
 30
0.0
 11
203.569504
 21
156.909454
 31
0.0
1001
TCAD
1000
TCW40_DEV_WIDTH
1002
{
1040
0.0137795275077224
1002
}
  0
LINE
  5
2B9
330
1F
100
AcDbEntity
  8
0
  6
DASHSPACE
 62
     7
 48
0.0049999998882413
370
    35
100
AcDbLine
 10
200.56424
 20
153.409454
 30
0.0
 11
197.56424
 21
153.409454
 31
0.0
1001
TCAD
1000
TCW40_DEV_WIDTH
1002
{
1040
0.0137795275077224
1002
}
  0
LINE
  5
2BA
330
1F
100
AcDbEntity
  8
0
  6
DASHSPACE
 62
     7
 48
0.0049999998882413
370
    35
100
AcDbLine
 10
212.564255
 20
156.909454
 30
0.0
 11
216.929733
 21
156.909454
 31
0.0
1001
TCAD
1000
TCW40_DEV_WIDTH
1002
{
1040
0.0137795275077224
1002
}
  0
LINE
  5
2BB
330
1F
100
AcDbEntity
  8
0
  6
DASHSPACE
 62
     7
 48
0.0049999998882413
370
    35
100
AcDbLine
 10
216.929733
 20
156.909454
 30
0.0
 11
220.329468
 21
156.909454
 31
0.0
1001
TCAD
1000
TCW40_DEV_WIDTH
1002
{
1040
0.0137795275077224
1002
}
  0
LINE
  5
2BC
330
1F
100
AcDbEntity
  8
0
  6
DASHSPACE
 62
     7
 48
0.0049999998882413
370
    35
100
AcDbLine
 10
221.767776
 20
154.909454
 30
0.0
 11
222.439148
 21
156.909454
 31
0.0
1001
TCAD
1000
TCW40_DEV_WIDTH
1002
{
1040
0.0137795275077224
1002
}
  0
LINE
  5
2BD
330
1F
100
AcDbEntity
  8
0
  6
DASHSPACE
 62
     7
 48
0.0049999998882413
370
    35
100
AcDbLine
 10
221.264252
 20
153.409454
 30
0.0
 11
221.767776
 21
154.909454
 31
0.0
1001
TCAD
1000
TCW40_DEV_WIDTH
1002
{
1040
0.0137795275077224
1002
}
  0
LINE
  5
2BE
330
1F
100
AcDbEntity
  8
0
  6
DASHSPACE
 62
     7
 48
0.0049999998882413
370
    35
100
AcDbLine
 10
222.439148
 20
156.909454
 30
0.0
 11
224.21225
 21
162.191452
 31
0.0
1001
TCAD
1000
TCW40_DEV_WIDTH
1002
{
1040
0.0137795275077224
1002
}
  0
LINE
  5
2BF
330
1F
100
AcDbEntity
  8
0
  6
DASHSPACE
 62
     7
 48
0.0049999998882413
370
    35
100
AcDbLine
 10
220.329468
 20
156.909454
 30
0.0
 11
222.316238
 21
162.827927
 31
0.0
1001
TCAD
1000
TCW40_DEV_WIDTH
1002
{
1040
0.0137795275077224
1002
}
  0
LINE
  5
2C0
330
1F
100
AcDbEntity
  8
0
  6
DASHSPACE
 62
     7
 48
0.0049999998882413
370
    35
100
AcDbLine
 10
220.329468
 20
156.909454
 30
0.0
 11
219.658096
 21
154.909454
 31
0.0
1001
TCAD
1000
TCW40_DEV_WIDTH
1002
{
1040
0.0137795275077224
1002
}
  0
LINE
  5
2C1
330
1F
100
AcDbEntity
  8
0
  6
DASHSPACE
 62
     7
 48
0.0049999998882413
370
    35
100
AcDbLine
 10
222.439148
 20
156.909454
 30
0.0
 11
220.329468
 21
156.909454
 31
0.0
1001
TCAD
1000
TCW40_DEV_WIDTH
1002
{
1040
0.0137795275077224
1002
}
  0
LINE
  5
2C2
330
1F
100
AcDbEntity
  8
0
  6
DASHSPACE
 62
     7
 48
0.0049999998882413
370
    13
100
AcDbLine
 10
219.658096
 20
154.909454
 30
0.0
 11
221.767776
 21
154.909454
 31
0.0
1001
TCAD
1000
TCW40_DEV_WIDTH
1002
{
1040
0.005118110217154
1002
}
  0
LINE
  5
2C3
330
1F
100
AcDbEntity
  8
0
  6
DASHSPACE
 62
     7
 48
0.0049999998882413
370
    13
100
AcDbLine
 10
222.316238
 20
162.827927
 30
0.0
 11
224.21225
 21
162.191452
 31
0.0
1001
TCAD
1000
TCW40_DEV_WIDTH
1002
{
1040
0.005118110217154
1002
}
  0
ARC
  5
2C4
330
1F
100
AcDbEntity
  8
0
  6
DASHSPACE
 62
     7
 48
0.0049999998882413
370
    35
100
AcDbCircle
 10
223.264252
 20
162.509689
 30
0.0
 40
0.999999999999997
100
AcDbArc
 50
-18.55627199999978
 51
161.4437329999991
1001
TCAD
1000
TCW40_DEV_WIDTH
1002
{
1040
0.0137795275077224
1002
}
  0
LINE
  5
2C5
330
1F
100
AcDbEntity
  8
0
  6
DASHSPACE
 62
     7
 48
0.0049999998882413
370
    35
100
AcDbLine
 10
197.56424
 20
153.409454
 30
0.0
 11
197.56424
 21
156.909454
 31
0.0
1001
TCAD
1000
TCW40_DEV_WIDTH
1002
{
1040
0.0137795275077224
1002
}
  0
LINE
  5
2C6
330
1F
100
AcDbEntity
  8
0
  6
DASHSPACE
 62
     7
 48
0.0049999998882413
370
    35
100
AcDbLine
 10
197.56424
 20
153.409454
 30
0.0
 11
197.56424
 21
156.909454
 31
0.0
1001
TCAD
1000
TCW40_DEV_WIDTH
1002
{
1040
0.0137795275077224
1002
}
  0
ENDSEC
  0
SECTION
  2
OBJECTS
  0
DICTIONARY
  5
C
330
0
100
AcDbDictionary
281
     1
  3
ACAD_GROUP
350
D
  3
ACAD_LAYOUT
350
1A
  3
ACAD_MLINESTYLE
350
17
  3
ACAD_PLOTSETTINGS
350
19
  3
ACAD_PLOTSTYLENAME
350
E
  0
DICTIONARY
  5
D
102
{ACAD_REACTORS
330
C
102
}
330
C
100
AcDbDictionary
281
     1
  0
DICTIONARY
  5
1A
102
{ACAD_REACTORS
330
C
102
}
330
C
100
AcDbDictionary
281
     1
  3
Layout1
350
2C8
  3
Layout2
350
1E
  3
Model
350
22
  0
DICTIONARY
  5
17
102
{ACAD_REACTORS
330
C
102
}
330
C
100
AcDbDictionary
281
     1
  3
Standard
350
18
  0
DICTIONARY
  5
19
102
{ACAD_REACTORS
330
C
102
}
330
C
100
AcDbDictionary
281
     1
  0
ACDBDICTIONARYWDFLT
  5
E
102
{ACAD_REACTORS
330
C
102
}
330
C
100
AcDbDictionary
281
     1
  3
Normal
350
F
100
AcDbDictionaryWithDefault
340
F
  0
LAYOUT
  5
2C8
102
{ACAD_REACTORS
330
1A
102
}
330
1A
100
AcDbPlotSettings
  1

  2
none_device
  4

  6

 40
6.350005
 41
6.350005
 42
6.35
 43
6.35
 44
16.53543425338979
 45
11.69291422203993
 46
-5.357878944796613
 47
-5.648430146677605
 48
0.0
 49
0.0
140
0.0
141
0.0
142
1.0
143
22.102191
 70
   688
 72
     1
 73
     0
 74
     5
  7

 75
    16
 76
     0
 77
     2
 78
   300
147
0.0452443832378428
148
0.0
149
0.0
100
AcDbLayout
  1
Layout1
 70
     1
 71
     1
 10
-21.92815956818182
 20
-15.50634140892857
 11
343.5411665681818
 21
242.9326820732143
 12
0.0
 22
0.0
 32
0.0
 14
-21.92815956818182
 24
-15.50634140892857
 34
0.0
 15
343.5411665681818
 25
242.9326820732143
 35
0.0
146
0.0
 13
0.0
 23
0.0
 33
0.0
 16
1.0
 26
0.0
 36
0.0
 17
0.0
 27
1.0
 37
0.0
 76
     0
330
2C7
  0
LAYOUT
  5
1E
102
{ACAD_REACTORS
330
1A
102
}
330
1A
100
AcDbPlotSettings
  1

  2
none_device
  4

  6

 40
0.0
 41
0.0
 42
0.0
 43
0.0
 44
0.0
 45
0.0
 46
0.0
 47
0.0
 48
0.0
 49
0.0
140
0.0
141
0.0
142
1.0
143
25.4
 70
   688
 72
     1
 73
     0
 74
     5
  7

 75
    16
 76
     0
 77
     2
 78
   300
147
0.0393700787401575
148
0.0
149
0.0
100
AcDbLayout
  1
Layout2
 70
     1
 71
     2
 10
0.0
 20
0.0
 11
0.0
 21
0.0
 12
0.0
 22
0.0
 32
0.0
 14
0.0
 24
0.0
 34
0.0
 15
0.0
 25
0.0
 35
0.0
146
0.0
 13
0.0
 23
0.0
 33
0.0
 16
1.0
 26
0.0
 36
0.0
 17
0.0
 27
1.0
 37
0.0
 76
     0
330
1B
  0
LAYOUT
  5
22
102
{ACAD_REACTORS
330
1A
102
}
330
1A
100
AcDbPlotSettings
  1

  2
none_device
  4

  6

 40
0.0
 41
0.0
 42
0.0
 43
0.0
 44
11.0
 45
8.499999999999998
 46
0.25
 47
0.25
 48
0.0
 49
0.0
140
0.0
141
0.0
142
1.0
143
25.4
 70
  1712
 72
     0
 73
     0
 74
     0
  7

 75
     0
 76
     0
 77
     2
 78
   300
147
0.0393700787401575
148
0.0
149
0.0
100
AcDbLayout
  1
Model
 70
     1
 71
     0
 10
-0.25
 20
-0.25
 11
10.75
 21
8.25
 12
0.0
 22
0.0
 32
0.0
 14
-0.25
 24
-0.25
 34
0.0
 15
10.75
 25
8.25
 35
0.0
146
0.0
 13
0.0
 23
0.0
 33
0.0
 16
1.0
 26
0.0
 36
0.0
 17
0.0
 27
1.0
 37
0.0
 76
     0
330
1F
  0
MLINESTYLE
  5
18
102
{ACAD_REACTORS
330
17
102
}
330
17
100
AcDbMlineStyle
  2
Standard
 70
     0
  3

 62
   256
 51
90.0
 52
90.0
 71
     4
 49
0.5
 62
   256
  6
BYLAYER
 49
-0.5
 62
   256
  6
BYLAYER
 49
0.5
 62
   256
  6
BYLAYER
 49
-0.5
 62
   256
  6
BYLAYER
  0
ACDBPLACEHOLDER
  5
F
102
{ACAD_REACTORS
330
E
102
}
330
E
  0
ENDSEC
  0
SECTION
  2
THUMBNAILIMAGE
 90
    16364
310
28000000B40000005500000001000800000000000000000000000000000000000000000000000000FFFFFF000000FF0000FFFF0000FF0000FFFF0000FF000000FF00FF000000000080808000C0C0C0000000FF007F7FFF000000A5005252A50000007F003F3F7F0000004C0026264C000000260013132600003FFF007F9FFF
310
000029A5005267A500001F7F003F4F7F0000134C00262F4C000009260013172600007FFF007FBFFF000052A500527CA500003F7F003F5F7F0000264C0026394C0000132600131C260000BFFF007FDFFF00007CA5005291A500005F7F003F6F7F0000394C0026424C00001C26001321260000FFFF007FFFFF0000A5A50052A5
310
A500007F7F003F7F7F00004C4C00264C4C00002626001326260000FFBF007FFFDF0000A57C0052A59100007F5F003F7F6F00004C3900264C420000261C001326210000FF7F007FFFBF0000A5520052A57C00007F3F003F7F5F00004C2600264C39000026130013261C0000FF3F007FFF9F0000A5290052A56700007F1F003F
310
7F4F00004C1300264C2F00002609001326170000FF00007FFF7F0000A5000052A55200007F00003F7F3F00004C0000264C260000260000132613003FFF00009FFF7F0029A5000067A552001F7F00004F7F3F00134C00002F4C260009260000172613007FFF0000BFFF7F0052A500007CA552003F7F00005F7F3F00264C0000
310
394C2600132600001C261300BFFF0000DFFF7F007CA5000091A552005F7F00006F7F3F00394C0000424C26001C26000021261300FFFF0000FFFF7F00A5A50000A5A552007F7F00007F7F3F004C4C00004C4C26002626000026261300FFBF0000FFDF7F00A57C0000A59152007F5F00007F6F3F004C3900004C422600261C00
310
0026211300FF7F0000FFBF7F00A5520000A57C52007F3F00007F5F3F004C2600004C39260026130000261C1300FF3F0000FF9F7F00A5290000A56752007F1F00007F4F3F004C1300004C2F26002609000026171300FF000000FF7F7F00A5000000A55252007F0000007F3F3F004C0000004C2626002600000026131300FF00
310
3F00FF7F9F00A5002900A55267007F001F007F3F4F004C0013004C262F002600090026131700FF007F00FF7FBF00A5005200A5527C007F003F007F3F5F004C0026004C2639002600130026131C00FF00BF00FF7FDF00A5007C00A55291007F005F007F3F6F004C0039004C26420026001C0026132100FF00FF00FF7FFF00A5
310
00A500A552A5007F007F007F3F7F004C004C004C264C002600260026132600BF00FF00DF7FFF007C00A5009152A5005F007F006F3F7F0039004C0042264C001C002600211326007F00FF00BF7FFF005200A5007C52A5003F007F005F3F7F0026004C0039264C00130026001C1326003F00FF009F7FFF002900A5006752A500
310
1F007F004F3F7F0013004C002F264C000900260017132600000000002D2D2D005B5B5B0089898900B7B7B700B3B3B30000000000000000000000000000000000000000000000000000000000000000000000000000000000000000000000000000000000000000000000000000000000000000000000000000000000000000
310
00000000000000000000000000000000000000000000000000000000000000000000000000000000000000000000000000000000000000000000000000000000000000000000000000000000000000000000000000000000000000000000000000000000000000000000000000000000000000000000000000000000000000
310
00000000000000000000000000000000000000000000000000000000000000000000000000000000000000000000000000000000000000000000000000000000000000000000000000000000000000000000000000000000000000000000000000000000000000000000000000000000000000000000000000000000000000
310
00000000000000000000000000000000000000000000000000000000000000000000000000000000000000000000000000000000000000000000000000000000000000000000000000000000000000000000000000000000000000000000000000000000000000000000000000000000000000000000000000000000000000
310
00000000000000000000000000000000000000000000000000000000000000000000000000000000000000000000000000000000000000000000000000000000000000000000000000000000000000000000000000000000000000000000000000000000000000000000000000000000000000000000000000000000000000
310
00000000000000000000000000000000000000000000000000000000000000000000000000000000000000000000000000000000000000000000000000000000000000000000000000000000000000000000000000000000000000000000000000000000000000000000000000000000000000000000000000000000000000
310
00000000000000000000000000000000000000000000000000000000000000000000000000000000000000000000000000000000000000000000000000000000000000000000000000000000000000000000000000000000000000000000000000000000000000000000000000000000000000000000000000000000000000
310
00000000000000000000000000000000000000000000000000000000000000000000000000000000000000000000000000000000000000000000000000000000000000000000000000000000000000000000000000000000000000000000000000000000000000000000000000000000000000000000000000000000000000
310
00000000000000000000000000000000000000000000000000000000000000000000000000000000000000000000000000000000000000000000000000000000000000000000000000000000000000000000000000000000000000000000000000000000000000000000000000000000000000000000000000000000000000
310
00000000000000000000000000000000000000000000000000000000000000000000000000000000000000000000000000000000000000000000000000000000000000000000000000000000000000000000000000000000000000000000000000000000000000000000000000000000000000000000000000000000000000
310
00000000000000000000000000000000000000000000000000000000000000000000000000000000000000000000000000000000000000000000000000000000000000000000000000000000000000000000000000000000000000000000000000000000000000000000000000000000000000000000000000000000000000
310
00000000000000000000000000000000000000000000000000000000000000000000000000000000000000000000000000000000000000000000000000000000000000000000000000000000000000000000000000000000000000000000000000000000000000000000000000000000000000000000000000000000000000
310
00000000000000000000000000000000000000000000000000000000000000000000000000000000000000000000000000000000000000000000000000000000000000000000000000000000000000000000000000000000000000000000000000000000000000000000000000000000000000000000000000000000000000
310
00000000000000000000000000000000000000000000000000000000000000000000000000000000000000000000000000000000000000000000000000000000000000000000000000000000000000000000000000000000000000000000000000000000000000000000000000000000000000000000000000000000000000
310
00000000000000000000000000000000000000000000000000000000000000000000000000000000000000000000000000000000000000000000000000000000000000000000000000000000000000000000000000000000000000000000000000000000000000000000000000000000000000000000000000000000000000
310
00000000000000000000000000000000000000000000000000000000000000000000000000000000000000000000000000000000000000000000000000000000000000000000000000000000000000000000000000000000000000000000000000000000000000000000000000000000000000000000000000000000000000
310
00000000000000000000000000000000000000000000000000000000000000000000000000000000000000000000000000000000000000000000000000000000000000000000000000000000000000000000000000000000000000000000000000000000000000000000000000000000000000000000000000000000000000
310
00000000000000000000000000000000000000000000000000000000000000000000000000000000000000000000000000000000000000000000000000000000000000000000000000000000000000000000000000000000000000000000000000000000000000000000000000000000000000000000000000000000000000
310
00000000000000000000000000000000000000000000000000000000000000000000000000000000000000000000000000000000000000000000000000000000000000000000000000000000000000000000000000000000000000000000000000000000000000000000000000000000000000000000000000000000000000
310
00000000000000000000000000000000000000000000000000000000000000000000000000000000000000000000000000000000000000000000000000000000000000000000000000000000000000000000000000000000000000000000000000000000000000000000000000000000000000000000000000000000000000
310
00000000000000000000000000000000000000000000000000000000000000000000000000000000000000000000000000000000000000000000000000000000000000000000000000000000000000000000000000000000000000000000000000000000000000000000000000000000000000000000000000000000000000
310
00000000000000000000000000000000000000000000000000000000000000000000000000000000000000000000000000000000000000000000000000000000000000000000000000000000000000000000000000000000000000000000000000000000000000000000000000000000000000000000000000000000000000
310
00000000000000000000000000000000000000000000000000000000000000000000000000000000000000000000000000000000000000000000000000000000000000000000000000000000000000000000000000000000000000000000000000000000000000000000000000000000000000000000000000000000000000
310
00000000000000000000000000000000000000000000000000000000000000000000000000000000000000000000000000000000000000000000000000000000000000000000000000000000000000000000000000000000000000000000000000000000000000000000000000000000000000000000000000000000000000
310
00000000000000000000000000000000000000000000000000000000000000000000000000000000000000000000000000000000000000000000000000000000000000000000000000000000000000000000000000000000000000000000000000000000000000000000000000000000000000000000000000000000000000
310
00000000000000000000000000000000000000000000000000000000000000000000000000000000000000000000000000000000000000000000000000000000000000000000000000000000000000000000000000000000000000000000000000000000000000000000000000000000000000000000000000000000000000
310
00000000000000000000000000000000000000000000000000000000000000000000000000000000000000000000000000000000000000000000000000000000000000000000000000000000000000000000000000000000000000000000000000000000000000000000000000000000000000000000000000000000000000
310
00000000000000000000000000000000000000000000000000000000000000000000000000000000000000000000000000000000000000000000000000000000000000000000000000000000000000000000000000000000000000000000000000000000000000000000000000000000000000000000000000000000000000
310
00000000000000000000000000000000000000000000000000000000000000000000000000000000000000000000000000000000000000000000000000000000000000000000000000000000000000000000000000000000000000000000000000000000000000000000000000000000000000000000000000000000000000
310
00000000000000000000000000000000000000000000000000000000000000000000000000000000000000000000000000000000000000000000000000000000000000000000000000000000000000000000000000000000000000000000000000000000000000000000000000000000000000000000000000000000000000
310
00000000000000000000000000000000000000000000000000000000000000000000000000000000000000000000000000000000000000000000000000000000000000000000000000000000000000000000000000000000000000000000000000000000000000000000000000000000000000000000000000000000000000
310
00000000000000000000000000000000000000000000000000000000000000000000000000000000000000000000000000000000000000000000000000000000000000000000000000000000000000000000000000000000000000000000000000000000000000000000000000000000000000000000000000000000000000
310
00000000000000000000000000000000000000000000000000000000000000000000000000000000000000000000000000000000000000000000000000000000000000000000000000000000000000000000000000000000000000000000000000000000000000000000000000000000000000000000000000000000000000
310
00000000000000000000000000000000000000000000000000000000000000000000000000000000000000000000000000000000000000000000000000000000000000000000000000000000000000000000000000000000000000000000000000000000000000000000000000000000000000000000000000000000000000
310
00000000000000000000000000000000000000000000000000000000000000000000000000000000000000000000000000000000000000000000000000000000000000000000000000000000000000000000000000000000000000000000000000000000000000000000000000000000000000000000000000000000000000
310
07070707070700000000000000070700000000000000000000000000000000000000000000000000000000000000000000000000000000000000000000000000000000000000000000000000000000000000000000000000000000000000000000000000000000000000000000000000000000000000000000000000000000
310
00000000000000000000000000000000000000000000000000000000000000000000000000000000000000000000000000000000000707070707070000000000000007070000000000000000000000000000000000000000000000000000000000000000000000000000000000000000000000000000000000000000000000
310
00000000000000000000000000000000000000000000000000000000000000000000000000000000000000000000000000000000000000000000000000000000000000000000000000000000000000000000000000000000000000000000000000000000000000000000070000070707000000000000070700000000000000
310
00000000000000000000000000000000000000000000000000000000000000000000000000000000000000000000000000000000000000000000000000000000000000000000000000000000000000000000000000000000000000000000000000000000000000000000000000000000000000000000000000000000000000
310
00000000000000000000000000000000000000000000000000000000000000000700000707070000000000000707000000000000000000000000000000000000000000000000000000000000000000000000000000000000000000000000000000000000000000000000000000000000000000000000000000000000000000
310
00000000000000000000000000000000000000000000000000000000000000000000000000000000000000000000000000000000000000000000000000000000000000000000000000000000000000000000000007070707070707070707070707070707000000000000000000000000000000000000000000000000000000
310
00000000000000000000000000000000000000000000000000000000000000000000000000000000000000000000000000000000000000000000000000000000000000000000000000000000070707070707070707070707070707070707070707070707070707070700000000000000000000000000000000000000000000
310
00000000070707070700070707070707070707070707000707070000000000000000000000000000000000000000000000000000000007070707070707070707070707070707070707070707070707070707070000000000000000000000000000000000000000000000000000000000000000000000000000000000000000
310
00000707070707070707070707070707070707070707070707070707070707000000000000000000000000000000000000000000000000000007070700070707070707070707070707070707070707070700000000000000000000000000000000000000000000000000000707070707070707070707070707070707070707
310
07070707070707070700000000000000000000000000000000000000000000000000000000000000000000000000000000000000000000070700000000000000000000000000000000000000000000000000070700000000000000000000000000000000000000000000000000000707070007000007070707070707070707
310
07070707070707000000000000000000000000000000000000000000000000000007070000000000000000000000000000000000000000000000000007070000000000000000000000000000000000000000000000000000000000000000000000000000000000000000000007070000000707000000000707000000000707
310
00000007070700000707000000000000000000000000000000000000000000000000070707070700070007070707070700000000000000000000070700000000000000000000000000000000000000000000000000000707000000000000000000000000000000000000000000000000000707000000000000000000000000
310
00000000000000000000000000000000000000000000000000000000000000000000070700000707070707070707070700070707070700070707070700070700000000000000000000000000000000000000000000000007000707070007000707070707070707070707070707070707070000000000000000000000000000
310
00000000000000000000000007070000070707070707070707070707070707070707070707070007070000000000000000000000000000000000000000000000000000000000000000000000000000000000000000000007070007070000070707070000070007070000070007070000070007070000000000000000000000
310
00000000000000000000000000070007070700070000000000070707070707070707070707070700000000000000000000000000000000000000000000000000000707000007070007000707070707070707070707000007000707000707000000000000000000000000000000000000000000000000000000000000000000
310
00000000000000000000000000070700000707070700000707070700000707070700070707070700070700000000000000000000000000000000000000000000000007070707070007000707070707070000000000000000000007070707070700000000000000000000000000000000000000000000070700000707070707
310
07070700070700070707070707070707070007070000000000000000000000000000000000000000000000000000000000000000000000000000000000000000000007070000000000000000000000000000000000000000000000000007070000000000000000000000000000000000000000000000000000070707000700
310
00000000000000000000000000000000070707000707000000000000000000000000000000000000000000000707000007070000000007070007070007070700000000070707000707000000000000000000000000000000000000000000000000000000000000000000000000000000000000000000000707000000000000
310
00000000000000000000000000000000000000070700000000000000000000000000000000000000000000000000000707070707000000000000000000000000000000000007070707070700000000000000000000000000000000000000000000070700000707070707070707070707070707070707070707070700070700
310
00000000000000000000000000000000000000000000000000000000000000000000000000000000000000000007070000000000000000000000000000000007070707000000000007070000000000000000000000000000000000000000000000000000070000000700000000000000000000000000000000000707000000
310
00000000000000000000000000000000000000000000000707000007070707070707070707070707070707070707070707000707000000000000000000000000000000000000000000000000000000000000000000000000000000000000000000000707000000070707070707070707070707070700000707070700000707
310
00000000000000000000000000000000000000000000000000000707070007000000000000000000000000000000000007070000000000000000000000000000000000000000000000000000070700000707070707070707070707070707070707070707070700070700000000000000000000000000000000000000000000
310
00000000000000000000000000000000000000000000000007070000000700000000000000000000000000000000000007000007070000000000000000000000000000000000000000000000000000070707000700000000000000000000000000000000000707000000000000000000000000000000000000000000000000
310
00000707000000000000000000000000000000000000000000000000000707000000000000000000000000000000000000000000000000000000000000000000000000000000000000000000000707000000070000000000000000000000000000000000000700000707000000000000000000000000000000000000000000
310
00000000000707070007000000000000000000000000000000000007070000000000000000000000000000000000000000000000000000070700000000000000000000000000000000000000000000000000070700000000000000000000000000000000000000000000000000000000000000000000000000000000000000
310
00000007070000000700000000000000000000000000000000000007000007070000000000000000000000000000000000000000000000000000070000000700000000000000000000000000000000000707000000000000000000000000000000000000000000000000000007070000000000000000000000000000000000
310
00000000000000000707000000000000000000000000000000000000000000000000000000000000000000000000000000000000000000000707000000070000000000000000000000000000000000000700000707000000000000000000000000000000000000000000000000000007000000070000000000000000000000
310
00000000000007070000000000000000000000000000000000000000000000000000070700000000000000000000000000000000000000000000000000070700000000000000000000000000000000000000000000000000000000000000000000000000000000000000000000070700000007000000000000000000000000
310
00000000000007000007070000000000000000000000000000000000000000000000000000070707000700000000000000000000000000000000000707000000000000000000000000000000000000000000000000000007070000000000000000000000000000000000000000000000000007070000000000000000000000
310
00000000000000000000000000000000000000000000000000000000000000000000000707000000070000000000000000000000000000000000000700000707000000000000000000000000000000000000000000000000000007070700070000000000000000000000000000000000070700000000000000000000000000
310
00000000000000000000000000070700000000000000000000000000000000000000000000000000070700000000000000000000000000000000000000000000000000000000000000000000000000000000000000000000070700000007000000000000000000000000000000000000070000070700000000000000000000
310
00000000000000000000000000000000070707000700000000000000000000000000000000000707000000000000000000000000000000000000000000000000000007070000000000000000000000000000000000000000000000000007070000000000000000000000000000000000000000000000000000000000000000
310
00000000000000000000000000000707000000070000000000000000000000000000000000000700000707000000000000000000000000000000000000000000000000000007070700070000000000000000000000000000000000070700000000000000000000000000000000000000000000000000000707000000000000
310
00000000000000000000000000000000000000070700000000000000000000000000000000000000000000000000000000000000000000000000000000000000000000070700000007000000000000000000000000000000000000070000070700000000000000000000000000000000000000000000000000000707070707
310
00000000000000000000000000000000000707000000000000000000000000000000000000000000000000000007070000000000000000000000000000000000000000000000000007070000000000000000000000000000000000000000000000000000000000000000000000000000000000000000000007070000000700
310
00000000000000000000000000000000000700000707000000000000000000000000000000000000000000000000000007070707070007070707070700000000000000000000070700000000000000000000000000000000000000000000000000000707000000000000000000000000000000000000000000000000000707
310
00000000000000000000000000000000000000000000000000000000000000000000000000000000000000000000070700000007000000000000000000000000000000000000070000070700000000000000000000000000000000000000000000000000000707070007000000000007070707070707070707070707070000
310
00000000000000000000000000000000000000000000000007070000000000000000000000000000000000000000000000000007070000000000000000000000000000000000000000000000000000000000000000000000000000000000000000000007070000000700000000000000000000000000000000000007000007
310
07000000000000000000000000000000000000000000000000000007070700070007070707070707070707070707070707070700000000000000000000000000000000000000000000000000000707000000000000000000000000000000000000000000000000000707000000000000000000000000000000000000000000
310
00000000000000000000000000000000000000000000000000070700000007070707070707070707070707070707070707070000070700000000000000000000000000000000000000000000000000000707070007000707070707070000000000000000000007070000000000000000000000000000000000000000000000
310
00000007070000000000000000000000000000000000000000000000000007070000000000000000000000000000000000000000000000000000000000000000000000000000000000000000000007070000000000000000000000000000000000000000000000000007070000000000000000000000000000000000000000
310
00000000000007070700070000000000000000000000000000000000070700000000000000000000000000000000000000000000000000000707000000000000000000000000000000000000000000000000000707000000000000000000000000000000000000000000000000000000000000000000000000000000000000
310
00000000070700000000000000000000000000000000000000000000000000070700000000000000000000000000000000000000000000000000000707070007000007070707070707070707070707070707070000000000000000000000000000000000000000000000000000070700000000000000000000000000000000
310
00000000000000000007070000000000000000000000000000000000000000000000000000000000000000000000000000000000000000000007070000000000000000000000000000000000000000000000000007070000000000000000000000000000000000000000000000000000070707000707070707070707070707
310
07070707070707070700000000000000000000000000000000000000000000000000000707070707070707070707070707070707070707070707070707070707000000000000000000000000000000000000000000000000000000000000000000000000000000000000000000000707070707070707070707070707070707
310
07070707070707070707070700000000000000000000000000000000000000000000000000000707070707070707070707070707070707070707070707000000000000000000000000000000000000000000000000000000070707070707070707070707070707070707070707070707070707070700000000000000000000
310
00000000000000000000000000000000000000000000000000000000000000000000000000070707070707070707070707070707070707070707070707070707000000000000000000000000000000000000000000000000000000000707070700070707070707070707000000000707070000000000000000000000000000
310
00000000000000000000000000000007070707070707070707070707070707070707070707070707070700000000000000000000000000000000000000000000000000000000000000000000000000000000000000000000000000000000000000000000000000000000000000000000000000000000000000000000000000
310
00000000000000000000000000000000000000000000000707070707070707070707070707070700000000000000000000000000000000000000000000000000000000000000000000000000000000000000000000000000000000000000000000000000000000000000000000000000000000000000000000000000000000
310
00000000000000000000000000000000000000000000000000000000000000000000000000000000000000000000000000000000000000000000000000000000000000000000000000000000000700000707070000000000000707000000000000000000000000000000000000000000000000000000000000000000000000
310
00000000000000000000000000000000000000000000000000000000000000000000000000000000000000000000000000000000000000000000000000000000000000000000000000000000000000000000000000000000000000000000000000000000000000000000000000000000000000000000000000000000000000
310
00000007070707070700000000000000070700000000000000000000000000000000000000000000000000000000000000000000000000000000000000000000000000000000000000000000000000000000000000000000000000000000000000000000000000000000000000000000000000000000000000000000000000
310
00000000000000000000000000000000000000000000000000000000000000000000000000000000000000000000000000000000000000000700000707070000000000000007070000000000000000000000000000000000000000000000000000000000000000000000000000000000000000000000000000000000000000
310
00000000000000000000000000000000000000000000000000000000000000000000000000000000000000000000000000000000000000000000000000000000000000000000000000000000000000000000000000000000000000000000000000000000000000000000000000070707070707000000000000000007000000
310
00000000000000000000000000000000000000000000000000000000000000000000000000000000000000000000000000000000000000000000000000000000000000000000000000000000000000000000000000000000000000000000000000000000000000000000000000000000000000000000000000000000000000
310
00000000000000000000000000000000000000000000000000000000000000000000000000000000000000000000000000000000000000000000000000000000000000000000000000000000000000000000000000000000000000000000000000000000000000000000000000000000000000000000000000000000000000
310
00000000000000000000000000000000000000000000000000000000000000000000000000000000000000000000000000000000000000000000000000000000000000000000000000000000000000000000000000000000000000000000000000000000000000000000000000000000000000000000000000000000000000
310
00000000000000000000000000000000000000000000000000000000000000000000000000000000000000000000000000000000000000000000000000000000000000000000000000000000000000000000000000000000000000000000000000000000000000000000000000000000000000000000000000000000000000
310
00000000000000000000000000000000000000000000000000000000000000000000000000000000000000000000000000000000000000000000000000000000000000000000000000000000000000000000000000000000000000000000000000000000000000000000000000000000000000000000000000000000000000
310
00000000000000000000000000000000000000000000000000000000000000000000000000000000000000000000000000000000000000000000000000000000000000000000000000000000000000000000000000000000000000000000000000000000000000000000000000000000000000000000000000000000000000
310
00000000000000000000000000000000000000000000000000000000000000000000000000000000000000000000000000000000000000000000000000000000000000000000000000000000000000000000000000000000000000000000000000000000000000000000000000000000000000000000000000000000000000
310
00000000000000000000000000000000000000000000000000000000000000000000000000000000000000000000000000000000000000000000000000000000000000000000000000000000000000000000000000000000000000000000000000000000000000000000000000000000000000000000000000000000000000
310
00000000000000000000000000000000000000000000000000000000000000000000000000000000000000000000000000000000000000000000000000000000000000000000000000000000000000000000000000000000000000000000000000000000000000000000000000000000000000000000000000000000000000
310
00000000000000000000000000000000000000000000000000000000000000000000000000000000000000000000000000000000000000000000000000000000000000000000000000000000000000000000000000000000000000000000000000000000000000000000000000000000000000000000000000000000000000
310
00000000000000000000000000000000000000000000000000000000000000000000000000000000000000000000000000000000000000000000000000000000000000000000000000000000000000000000000000000000000000000000000000000000000000000000000000000000000000000000000000000000000000
310
00000000000000000000000000000000000000000000000000000000000000000000000000000000000000000000000000000000000000000000000000000000000000000000000000000000000000000000000000000000000000000000000000000000000000000000000000000000000000000000000000000000000000
310
00000000000000000000000000000000000000000000000000000000000000000000000000000000000000000000000000000000000000000000000000000000000000000000000000000000000000000000000000000000000000000000000000000000000000000000000000000000000000000000000000000000000000
310
00000000000000000000000000000000000000000000000000000000000000000000000000000000000000000000000000000000000000000000000000000000000000000000000000000000000000000000000000000000000000000000000000000000000000000000000000000000000000000000000000000000000000
310
00000000000000000000000000000000000000000000000000000000000000000000000000000000000000000000000000000000000000000000000000000000000000000000000000000000000000000000000000000000000000000000000000000000000000000000000000000000000000000000000000000000000000
310
00000000000000000000000000000000000000000000000000000000000000000000000000000000000000000000000000000000000000000000000000000000000000000000000000000000000000000000000000000000000000000000000000000000000000000000000000000000000000000000000000000000000000
310
00000000000000000000000000000000000000000000000000000000000000000000000000000000000000000000000000000000000000000000000000000000000000000000000000000000000000000000000000000000000000000000000000000000000000000000000000000000000000000000000000000000000000
310
00000000000000000000000000000000000000000000000000000000000000000000000000000000000000000000000000000000000000000000000000000000000000000000000000000000000000000000000000000000000000000000000000000000000000000000000000000000000000000000000000000000000000
310
00000000000000000000000000000000000000000000000000000000000000000000000000000000000000000000000000000000000000000000000000000000000000000000000000000000000000000000000000000000000000000000000000000000000000000000000000000000000000000000000000000000000000
310
00000000000000000000000000000000000000000000000000000000000000000000000000000000000000000000000000000000000000000000000000000000000000000000000000000000000000000000000000000000000000000000000000000000000000000000000000000000000000000000000000000000000000
310
00000000000000000000000000000000000000000000000000000000000000000000000000000000000000000000000000000000000000000000000000000000000000000000000000000000000000000000000000000000000000000000000000000000000000000000000000000000000000000000000000000000000000
310
00000000000000000000000000000000000000000000000000000000000000000000000000000000000000000000000000000000000000000000000000000000000000000000000000000000000000000000000000000000000000000000000000000000000000000000000000000000000000000000000000000000000000
310
00000000000000000000000000000000000000000000000000000000000000000000000000000000000000000000000000000000000000000000000000000000000000000000000000000000000000000000000000000000000000000000000000000000000000000000000000000000000000000000000000000000000000
310
00000000000000000000000000000000000000000000000000000000000000000000000000000000000000000000000000000000000000000000000000000000000000000000000000000000000000000000000000000000000000000000000000000000000000000000000000000000000000000000000000000000000000
310
00000000000000000000000000000000000000000000000000000000000000000000000000000000000000000000000000000000000000000000000000000000000000000000000000000000000000000000000000000000000000000000000000000000000000000000000000000000000000000000000000000000000000
310
00000000000000000000000000000000000000000000000000000000000000000000000000000000000000000000000000000000000000000000000000000000000000000000000000000000000000000000000000000000000000000000000000000000000000000000000000000000000000000000000000000000000000
310
00000000000000000000000000000000000000000000000000000000000000000000000000000000000000000000000000000000000000000000000000000000000000000000000000000000000000000000000000000000000000000000000000000000000000000000000000000000000000000000000000000000000000
310
00000000000000000000000000000000000000000000000000000000000000000000000000000000000000000000000000000000000000000000000000000000000000000000000000000000000000000000000000000000000000000000000000000000000000000000000000000000000000000000000000000000000000
310
00000000000000000000000000000000000000000000000000000000000000000000000000000000000000000000000000000000000000000000000000000000000000000000000000000000000000000000000000000000000000000000000000000000000000000000000000000000000000000000000000000000000000
310
00000000000000000000000000000000000000000000000000000000000000000000000000000000000000000000000000000000000000000000000000000000000000000000000000000000000000000000000000000000000000000000000000000000000000000000000000000000000000000000000000000000000000
310
00000000000000000000000000000000000000000000000000000000000000000000000000000000000000000000000000000000000000000000000000000000000000000000000000000000000000000000000000000000000000000000000000000000000000000000000000000000000000000000000000000000000000
310
000000000000000000000000000000000000000000000000000000000000000000000000000000000000000000000000000000000000000000000000000000000000000000000000000000000000000000000000000000000000000000000000000000000000000000000000
  0
ENDSEC
  0
EOF
