  0
SECTION
  2
HEADER
  9
$ACADVER
  1
AC1015
  9
$ACADMAINTVER
 70
    10
  9
$DWGCODEPAGE
  3
ANSI_932
  9
$INSBASE
 10
0.0
 20
0.0
 30
0.0
  9
$EXTMIN
 10
331.9501893377718
 20
245.2306883896985
 30
0.0
  9
$EXTMAX
 10
622.3644029001445
 20
397.7159697639365
 30
0.0
  9
$LIMMIN
 10
0.0
 20
0.0
  9
$LIMMAX
 10
420.0
 20
297.0
  9
$ORTHOMODE
 70
     0
  9
$REGENMODE
 70
     1
  9
$FILLMODE
 70
     1
  9
$QTEXTMODE
 70
     0
  9
$MIRRTEXT
 70
     1
  9
$LTSCALE
 40
1.0
  9
$ATTMODE
 70
     1
  9
$TEXTSIZE
 40
2.5
  9
$TRACEWID
 40
1.0
  9
$TEXTSTYLE
  7
Standard
  9
$CLAYER
  8
0
  9
$CELTYPE
  6
ByLayer
  9
$CECOLOR
 62
   256
  9
$CELTSCALE
 40
1.0
  9
$DISPSILH
 70
     0
  9
$DIMSCALE
 40
1.0
  9
$DIMASZ
 40
2.5
  9
$DIMEXO
 40
0.625
  9
$DIMDLI
 40
3.75
  9
$DIMRND
 40
0.0
  9
$DIMDLE
 40
0.0
  9
$DIMEXE
 40
1.25
  9
$DIMTP
 40
0.0
  9
$DIMTM
 40
0.0
  9
$DIMTXT
 40
2.5
  9
$DIMCEN
 40
2.5
  9
$DIMTSZ
 40
0.0
  9
$DIMTOL
 70
     0
  9
$DIMLIM
 70
     0
  9
$DIMTIH
 70
     0
  9
$DIMTOH
 70
     0
  9
$DIMSE1
 70
     0
  9
$DIMSE2
 70
     0
  9
$DIMTAD
 70
     1
  9
$DIMZIN
 70
     8
  9
$DIMBLK
  1

  9
$DIMASO
 70
     1
  9
$DIMSHO
 70
     1
  9
$DIMPOST
  1

  9
$DIMAPOST
  1

  9
$DIMALT
 70
     0
  9
$DIMALTD
 70
     3
  9
$DIMALTF
 40
0.03937007874016
  9
$DIMLFAC
 40
1.0
  9
$DIMTOFL
 70
     1
  9
$DIMTVP
 40
0.0
  9
$DIMTIX
 70
     0
  9
$DIMSOXD
 70
     0
  9
$DIMSAH
 70
     0
  9
$DIMBLK1
  1

  9
$DIMBLK2
  1

  9
$DIMSTYLE
  2
ISO-25
  9
$DIMCLRD
 70
     0
  9
$DIMCLRE
 70
     0
  9
$DIMCLRT
 70
     0
  9
$DIMTFAC
 40
1.0
  9
$DIMGAP
 40
0.625
  9
$DIMJUST
 70
     0
  9
$DIMSD1
 70
     0
  9
$DIMSD2
 70
     0
  9
$DIMTOLJ
 70
     0
  9
$DIMTZIN
 70
     8
  9
$DIMALTZ
 70
     0
  9
$DIMALTTZ
 70
     0
  9
$DIMUPT
 70
     0
  9
$DIMDEC
 70
     2
  9
$DIMTDEC
 70
     2
  9
$DIMALTU
 70
     2
  9
$DIMALTTD
 70
     3
  9
$DIMTXSTY
  7
Standard
  9
$DIMAUNIT
 70
     0
  9
$DIMADEC
 70
     0
  9
$DIMALTRND
 40
0.0
  9
$DIMAZIN
 70
     0
  9
$DIMDSEP
 70
    44
  9
$DIMATFIT
 70
     3
  9
$DIMFRAC
 70
     0
  9
$DIMLDRBLK
  1

  9
$DIMLUNIT
 70
     2
  9
$DIMLWD
 70
    -2
  9
$DIMLWE
 70
    -2
  9
$DIMTMOVE
 70
     0
  9
$LUNITS
 70
     2
  9
$LUPREC
 70
     4
  9
$SKETCHINC
 40
1.0
  9
$FILLETRAD
 40
10.0
  9
$AUNITS
 70
     0
  9
$AUPREC
 70
     0
  9
$MENU
  1
.
  9
$ELEVATION
 40
0.0
  9
$PELEVATION
 40
0.0
  9
$THICKNESS
 40
0.0
  9
$LIMCHECK
 70
     0
  9
$CHAMFERA
 40
10.0
  9
$CHAMFERB
 40
10.0
  9
$CHAMFERC
 40
20.0
  9
$CHAMFERD
 40
0.0
  9
$SKPOLY
 70
     0
  9
$TDCREATE
 40
2456497.729708726
  9
$TDUCREATE
 40
2456497.354708726
  9
$TDUPDATE
 40
2456500.612801169
  9
$TDUUPDATE
 40
2456500.237801169
  9
$TDINDWG
 40
0.0242913773
  9
$TDUSRTIMER
 40
0.0242910185
  9
$USRTIMER
 70
     1
  9
$ANGBASE
 50
0.0
  9
$ANGDIR
 70
     0
  9
$PDMODE
 70
     0
  9
$PDSIZE
 40
0.0
  9
$PLINEWID
 40
0.0
  9
$SPLFRAME
 70
     0
  9
$SPLINETYPE
 70
     6
  9
$SPLINESEGS
 70
     8
  9
$HANDSEED
  5
106D
  9
$SURFTAB1
 70
     6
  9
$SURFTAB2
 70
     6
  9
$SURFTYPE
 70
     6
  9
$SURFU
 70
     6
  9
$SURFV
 70
     6
  9
$UCSBASE
  2

  9
$UCSNAME
  2

  9
$UCSORG
 10
0.0
 20
0.0
 30
0.0
  9
$UCSXDIR
 10
1.0
 20
0.0
 30
0.0
  9
$UCSYDIR
 10
0.0
 20
1.0
 30
0.0
  9
$UCSORTHOREF
  2

  9
$UCSORTHOVIEW
 70
     0
  9
$UCSORGTOP
 10
0.0
 20
0.0
 30
0.0
  9
$UCSORGBOTTOM
 10
0.0
 20
0.0
 30
0.0
  9
$UCSORGLEFT
 10
0.0
 20
0.0
 30
0.0
  9
$UCSORGRIGHT
 10
0.0
 20
0.0
 30
0.0
  9
$UCSORGFRONT
 10
0.0
 20
0.0
 30
0.0
  9
$UCSORGBACK
 10
0.0
 20
0.0
 30
0.0
  9
$PUCSBASE
  2

  9
$PUCSNAME
  2

  9
$PUCSORG
 10
0.0
 20
0.0
 30
0.0
  9
$PUCSXDIR
 10
1.0
 20
0.0
 30
0.0
  9
$PUCSYDIR
 10
0.0
 20
1.0
 30
0.0
  9
$PUCSORTHOREF
  2

  9
$PUCSORTHOVIEW
 70
     0
  9
$PUCSORGTOP
 10
0.0
 20
0.0
 30
0.0
  9
$PUCSORGBOTTOM
 10
0.0
 20
0.0
 30
0.0
  9
$PUCSORGLEFT
 10
0.0
 20
0.0
 30
0.0
  9
$PUCSORGRIGHT
 10
0.0
 20
0.0
 30
0.0
  9
$PUCSORGFRONT
 10
0.0
 20
0.0
 30
0.0
  9
$PUCSORGBACK
 10
0.0
 20
0.0
 30
0.0
  9
$USERI1
 70
     0
  9
$USERI2
 70
     0
  9
$USERI3
 70
     0
  9
$USERI4
 70
     0
  9
$USERI5
 70
     0
  9
$USERR1
 40
0.0
  9
$USERR2
 40
0.0
  9
$USERR3
 40
0.0
  9
$USERR4
 40
0.0
  9
$USERR5
 40
0.0
  9
$WORLDVIEW
 70
     1
  9
$SHADEDGE
 70
     3
  9
$SHADEDIF
 70
    70
  9
$TILEMODE
 70
     1
  9
$MAXACTVP
 70
    64
  9
$PINSBASE
 10
0.0
 20
0.0
 30
0.0
  9
$PLIMCHECK
 70
     0
  9
$PEXTMIN
 10
0.0
 20
0.0
 30
0.0
  9
$PEXTMAX
 10
0.0
 20
0.0
 30
0.0
  9
$PLIMMIN
 10
0.0
 20
0.0
  9
$PLIMMAX
 10
12.0
 20
9.0
  9
$UNITMODE
 70
     0
  9
$VISRETAIN
 70
     1
  9
$PLINEGEN
 70
     0
  9
$PSLTSCALE
 70
     1
  9
$TREEDEPTH
 70
  3020
  9
$CMLSTYLE
  2
Standard
  9
$CMLJUST
 70
     0
  9
$CMLSCALE
 40
20.0
  9
$PROXYGRAPHICS
 70
     1
  9
$MEASUREMENT
 70
     1
  9
$CELWEIGHT
370
    -1
  9
$ENDCAPS
280
     0
  9
$JOINSTYLE
280
     0
  9
$LWDISPLAY
290
     0
  9
$INSUNITS
 70
     4
  9
$HYPERLINKBASE
  1

  9
$STYLESHEET
  1

  9
$XEDIT
290
     1
  9
$CEPSNTYPE
380
     0
  9
$PSTYLEMODE
290
     1
  9
$FINGERPRINTGUID
  2
{FDEAD578-A652-11D2-9A35-0060089B3A3F}
  9
$VERSIONGUID
  2
{A6F34F51-BA2D-4212-8766-B381A8ACCE28}
  9
$EXTNAMES
290
     1
  9
$PSVPSCALE
 40
0.0
  9
$OLESTARTUP
290
     0
  0
ENDSEC
  0
SECTION
  2
CLASSES
  0
CLASS
  1
ACDBDICTIONARYWDFLT
  2
AcDbDictionaryWithDefault
  3
AutoCAD 2000
 90
        0
280
     0
281
     0
  0
CLASS
  1
ACDBPLACEHOLDER
  2
AcDbPlaceHolder
  3
AutoCAD 2000
 90
        0
280
     0
281
     0
  0
CLASS
  1
LAYOUT
  2
AcDbLayout
  3
AutoCAD 2000
 90
        0
280
     0
281
     0
  0
ENDSEC
  0
SECTION
  2
TABLES
  0
TABLE
  2
VPORT
  5
8
330
0
100
AcDbSymbolTable
 70
     2
  0
VPORT
  5
106C
330
8
100
AcDbSymbolTableRecord
100
AcDbViewportTableRecord
  2
*Active
 70
     0
 10
0.0
 20
0.0
 11
1.0
 21
1.0
 12
481.7988253788216
 22
317.2760563991006
 13
0.0
 23
0.0
 14
10.0
 24
10.0
 15
10.0
 25
10.0
 16
0.0
 26
0.0
 36
1.0
 17
0.0
 27
0.0
 37
0.0
 40
204.7489123893536
 41
1.781954887218045
 42
50.0
 43
0.0
 44
0.0
 50
0.0
 51
0.0
 71
     0
 72
   100
 73
     1
 74
     3
 75
     0
 76
     0
 77
     0
 78
     0
281
     0
 65
     1
110
0.0
120
0.0
130
0.0
111
1.0
121
0.0
131
0.0
112
0.0
122
1.0
132
0.0
 79
     0
146
0.0
  0
ENDTAB
  0
TABLE
  2
LTYPE
  5
5
330
0
100
AcDbSymbolTable
 70
     2
  0
LTYPE
  5
14
330
5
100
AcDbSymbolTableRecord
100
AcDbLinetypeTableRecord
  2
ByBlock
 70
     0
  3

 72
    65
 73
     0
 40
0.0
  0
LTYPE
  5
15
330
5
100
AcDbSymbolTableRecord
100
AcDbLinetypeTableRecord
  2
ByLayer
 70
     0
  3

 72
    65
 73
     0
 40
0.0
  0
LTYPE
  5
16
330
5
100
AcDbSymbolTableRecord
100
AcDbLinetypeTableRecord
  2
Continuous
 70
     0
  3
Solid line
 72
    65
 73
     0
 40
0.0
  0
LTYPE
  5
67
330
5
100
AcDbSymbolTableRecord
100
AcDbLinetypeTableRecord
  2
DASHED
 70
     0
  3
DASHED
 72
    65
 73
     2
 40
0.75
 49
0.5
 74
     0
 49
-0.25
 74
     0
  0
ENDTAB
  0
TABLE
  2
LAYER
  5
2
330
0
100
AcDbSymbolTable
 70
     1
  0
LAYER
  5
10
330
2
100
AcDbSymbolTableRecord
100
AcDbLayerTableRecord
  2
0
 70
     0
 62
     7
  6
Continuous
370
    -3
390
F
  0
ENDTAB
  0
TABLE
  2
STYLE
  5
3
330
0
100
AcDbSymbolTable
 70
     2
  0
STYLE
  5
11
330
3
100
AcDbSymbolTableRecord
100
AcDbTextStyleTableRecord
  2
Standard
 70
     0
 40
0.0
 41
1.0
 50
0.0
 71
     0
 42
2.5
  3
txt
  4

  0
STYLE
  5
68
330
3
100
AcDbSymbolTableRecord
100
AcDbTextStyleTableRecord
  2
_TCW_TXTSTY_1
 70
     0
 40
0.0
 41
1.0
 50
0.0
 71
     0
 42
0.6875
  3
MS PGothic.ttf
  4

1001
ACAD
1000
ＭＳ Ｐゴシック
1071
    32802
  0
ENDTAB
  0
TABLE
  2
VIEW
  5
6
330
0
100
AcDbSymbolTable
 70
     0
  0
ENDTAB
  0
TABLE
  2
UCS
  5
7
330
0
100
AcDbSymbolTable
 70
     0
  0
ENDTAB
  0
TABLE
  2
APPID
  5
9
330
0
100
AcDbSymbolTable
 70
     2
  0
APPID
  5
12
330
9
100
AcDbSymbolTableRecord
100
AcDbRegAppTableRecord
  2
ACAD
 70
     0
  0
APPID
  5
6A
330
9
100
AcDbSymbolTableRecord
100
AcDbRegAppTableRecord
  2
TCAD
 70
     0
  0
ENDTAB
  0
TABLE
  2
DIMSTYLE
  5
A
330
0
100
AcDbSymbolTable
 70
     2
100
AcDbDimStyleTable
 71
     1
340
27
  0
DIMSTYLE
105
27
330
A
100
AcDbSymbolTableRecord
100
AcDbDimStyleTableRecord
  2
ISO-25
 70
     0
 41
2.5
 42
0.625
 43
3.75
 44
1.25
 73
     0
 74
     0
 77
     1
 78
     8
140
2.5
141
2.5
143
0.03937007874016
147
0.625
171
     3
172
     1
271
     2
272
     2
274
     3
278
    44
283
     0
284
     8
340
11
  0
DIMSTYLE
105
69
330
A
100
AcDbSymbolTableRecord
100
AcDbDimStyleTableRecord
  2
STANDARD
 70
     0
 41
3.0
 42
1.0
 43
7.5
 44
2.0
 45
0.1
 73
     0
 74
     0
 77
     1
 78
     8
140
2.439393939393998
143
1.0
147
0.5
148
0.01
176
     7
177
     7
178
     7
179
     2
271
     2
272
     8
274
     8
286
     8
340
68
341
61
342
61
  0
ENDTAB
  0
TABLE
  2
BLOCK_RECORD
  5
1
330
0
100
AcDbSymbolTable
 70
     1
  0
BLOCK_RECORD
  5
1F
330
1
100
AcDbSymbolTableRecord
100
AcDbBlockTableRecord
  2
*Model_Space
340
22
  0
BLOCK_RECORD
  5
50
330
1
100
AcDbSymbolTableRecord
100
AcDbBlockTableRecord
  2
*Paper_Space
340
51
  0
BLOCK_RECORD
  5
61
330
1
100
AcDbSymbolTableRecord
100
AcDbBlockTableRecord
  2
_OPEN
340
0
  0
ENDTAB
  0
ENDSEC
  0
SECTION
  2
BLOCKS
  0
BLOCK
  5
20
330
1F
100
AcDbEntity
  8
0
100
AcDbBlockBegin
  2
*Model_Space
 70
     0
 10
0.0
 20
0.0
 30
0.0
  3
*Model_Space
  1

  0
ENDBLK
  5
21
330
1F
100
AcDbEntity
  8
0
100
AcDbBlockEnd
  0
BLOCK
  5
52
330
50
100
AcDbEntity
 67
     1
  8
0
100
AcDbBlockBegin
  2
*Paper_Space
 70
     0
 10
0.0
 20
0.0
 30
0.0
  3
*Paper_Space
  1

  0
ENDBLK
  5
53
330
50
100
AcDbEntity
 67
     1
  8
0
100
AcDbBlockEnd
  0
BLOCK
  5
65
330
61
100
AcDbEntity
  8
0
100
AcDbBlockBegin
  2
_OPEN
 70
     0
 10
0.0
 20
0.0
 30
0.0
  3
_OPEN
  1

  0
LINE
  5
62
330
61
100
AcDbEntity
  8
0
  6
ByBlock
 62
     0
100
AcDbLine
 10
-1.0
 20
0.166667
 30
0.0
 11
0.0
 21
0.0
 31
0.0
  0
LINE
  5
63
330
61
100
AcDbEntity
  8
0
  6
ByBlock
 62
     0
100
AcDbLine
 10
0.0
 20
0.0
 30
0.0
 11
-1.0
 21
-0.166667
 31
0.0
  0
LINE
  5
64
330
61
100
AcDbEntity
  8
0
  6
ByBlock
 62
     0
100
AcDbLine
 10
0.0
 20
0.0
 30
0.0
 11
-1.0
 21
0.0
 31
0.0
  0
ENDBLK
  5
66
330
61
100
AcDbEntity
  8
0
100
AcDbBlockEnd
  0
ENDSEC
  0
SECTION
  2
ENTITIES
  0
LINE
  5
3CD
330
1F
100
AcDbEntity
  8
0
  6
Continuous
 62
     7
100
AcDbLine
 10
465.9501893377719
 20
382.4733290768175
 30
0.0
 11
495.4501893377718
 21
382.4733290768175
 31
0.0
  0
LINE
  5
3CE
330
1F
100
AcDbEntity
  8
0
  6
Continuous
 62
     7
100
AcDbLine
 10
475.9501893377716
 20
368.4733290768176
 30
0.0
 11
495.4501893377718
 21
368.4733290768176
 31
0.0
  0
LINE
  5
3CF
330
1F
100
AcDbEntity
  8
0
  6
Continuous
 62
     7
100
AcDbLine
 10
465.9501893377719
 20
260.4733290768176
 30
0.0
 11
495.4501893377718
 21
260.4733290768176
 31
0.0
  0
LINE
  5
3D0
330
1F
100
AcDbEntity
  8
0
  6
Continuous
 62
     7
100
AcDbLine
 10
475.9501893377716
 20
276.9733290768176
 30
0.0
 11
495.4501893377718
 21
276.9733290768176
 31
0.0
  0
LINE
  5
3D1
330
1F
100
AcDbEntity
  8
0
  6
Continuous
 62
     7
100
AcDbLine
 10
331.9501893377718
 20
383.9733290768176
 30
0.0
 11
495.9501893377717
 21
383.9733290768176
 31
0.0
  0
LINE
  5
3D2
330
1F
100
AcDbEntity
  8
0
  6
Continuous
 62
     7
100
AcDbLine
 10
331.9501893377718
 20
258.9733290768176
 30
0.0
 11
495.9501893377717
 21
258.9733290768176
 31
0.0
  0
LINE
  5
3D3
330
1F
100
AcDbEntity
  8
0
  6
Continuous
 62
     7
100
AcDbLine
 10
465.9501893377719
 20
260.1733290768176
 30
0.0
 11
495.7501893377717
 21
260.1733290768176
 31
0.0
  0
LINE
  5
3D4
330
1F
100
AcDbEntity
  8
0
  6
Continuous
 62
     7
100
AcDbLine
 10
465.9501893377719
 20
382.7733290768176
 30
0.0
 11
495.7501893377717
 21
382.7733290768176
 31
0.0
  0
LINE
  5
3D5
330
1F
100
AcDbEntity
  8
0
  6
Continuous
 62
     7
100
AcDbLine
 10
488.9501893377718
 20
365.9233290767285
 30
0.0
 11
480.9501893377718
 21
365.9233290766736
 31
0.0
  0
LINE
  5
3D6
330
1F
100
AcDbEntity
  8
0
  6
Continuous
 62
     7
100
AcDbLine
 10
488.9501893377718
 20
359.6233290767285
 30
0.0
 11
480.9501893377718
 21
359.6233290766736
 31
0.0
  0
LINE
  5
3D7
330
1F
100
AcDbEntity
  8
0
  6
Continuous
 62
     7
100
AcDbLine
 10
480.9501893377718
 20
358.3033290766486
 30
0.0
 11
488.9501893377718
 21
358.3033290766926
 31
0.0
  0
LINE
  5
3D8
330
1F
100
AcDbEntity
  8
0
  6
Continuous
 62
     7
100
AcDbLine
 10
488.9501893377718
 20
352.0033290766956
 30
0.0
 11
480.9501893377718
 21
352.0033290766746
 31
0.0
  0
LINE
  5
3D9
330
1F
100
AcDbEntity
  8
0
  6
Continuous
 62
     7
100
AcDbLine
 10
480.9501893377718
 20
350.6833290766486
 30
0.0
 11
488.9501893377718
 21
350.6833290766926
 31
0.0
  0
LINE
  5
3DA
330
1F
100
AcDbEntity
  8
0
  6
Continuous
 62
     7
100
AcDbLine
 10
488.9501893377718
 20
344.3833290767296
 30
0.0
 11
480.9501893377718
 21
344.3833290766826
 31
0.0
  0
LINE
  5
3DB
330
1F
100
AcDbEntity
  8
0
  6
Continuous
 62
     7
100
AcDbLine
 10
480.9501893377718
 20
343.0633290766746
 30
0.0
 11
488.9501893377718
 21
343.0633290766956
 31
0.0
  0
LINE
  5
3DC
330
1F
100
AcDbEntity
  8
0
  6
Continuous
 62
     7
100
AcDbLine
 10
488.9501893377718
 20
336.7633290766927
 30
0.0
 11
480.9501893377718
 21
336.7633290766486
 31
0.0
  0
LINE
  5
3DD
330
1F
100
AcDbEntity
  8
0
  6
Continuous
 62
     7
100
AcDbLine
 10
480.9501893377718
 20
335.4433290766736
 30
0.0
 11
488.9501893377718
 21
335.4433290767286
 31
0.0
  0
LINE
  5
3DE
330
1F
100
AcDbEntity
  8
0
  6
Continuous
 62
     7
100
AcDbLine
 10
488.9501893377718
 20
329.1433290766956
 30
0.0
 11
480.9501893377718
 21
329.1433290766746
 31
0.0
  0
LINE
  5
3DF
330
1F
100
AcDbEntity
  8
0
  6
Continuous
 62
     7
100
AcDbLine
 10
480.9501893377718
 20
327.8233290766736
 30
0.0
 11
488.9501893377718
 21
327.8233290767285
 31
0.0
  0
LINE
  5
3E0
330
1F
100
AcDbEntity
  8
0
  6
Continuous
 62
     7
100
AcDbLine
 10
488.9501893377718
 20
321.5233290767246
 30
0.0
 11
480.9501893377718
 21
321.5233290766476
 31
0.0
  0
LINE
  5
3E1
330
1F
100
AcDbEntity
  8
0
  6
Continuous
 62
     7
100
AcDbLine
 10
480.9501893377718
 20
320.2033290766486
 30
0.0
 11
488.9501893377718
 21
320.2033290766926
 31
0.0
  0
LINE
  5
3E2
330
1F
100
AcDbEntity
  8
0
  6
Continuous
 62
     7
100
AcDbLine
 10
488.9501893377718
 20
313.9033290766926
 30
0.0
 11
480.9501893377718
 21
313.9033290766486
 31
0.0
  0
LINE
  5
3E3
330
1F
100
AcDbEntity
  8
0
  6
Continuous
 62
     7
100
AcDbLine
 10
480.9501893377718
 20
312.5833290766736
 30
0.0
 11
488.9501893377718
 21
312.5833290767283
 31
0.0
  0
LINE
  5
3E4
330
1F
100
AcDbEntity
  8
0
  6
Continuous
 62
     7
100
AcDbLine
 10
488.9501893377718
 20
306.2833290767286
 30
0.0
 11
480.9501893377718
 21
306.2833290766736
 31
0.0
  0
LINE
  5
3E5
330
1F
100
AcDbEntity
  8
0
  6
Continuous
 62
     7
100
AcDbLine
 10
480.9501893377718
 20
304.9633290766486
 30
0.0
 11
488.9501893377718
 21
304.9633290766927
 31
0.0
  0
LINE
  5
3E6
330
1F
100
AcDbEntity
  8
0
  6
Continuous
 62
     7
100
AcDbLine
 10
488.9501893377718
 20
298.6633290767286
 30
0.0
 11
480.9501893377718
 21
298.6633290766736
 31
0.0
  0
LINE
  5
3E7
330
1F
100
AcDbEntity
  8
0
  6
Continuous
 62
     7
100
AcDbLine
 10
480.9501893377718
 20
297.3433290766486
 30
0.0
 11
488.9501893377718
 21
297.3433290766926
 31
0.0
  0
LINE
  5
3E8
330
1F
100
AcDbEntity
  8
0
  6
Continuous
 62
     7
100
AcDbLine
 10
488.9501893377718
 20
291.0433290767286
 30
0.0
 11
480.9501893377718
 21
291.0433290766736
 31
0.0
  0
LINE
  5
3E9
330
1F
100
AcDbEntity
  8
0
  6
Continuous
 62
     7
100
AcDbLine
 10
480.9501893377718
 20
282.1033290766736
 30
0.0
 11
488.9501893377718
 21
282.1033290767286
 31
0.0
  0
LINE
  5
3EA
330
1F
100
AcDbEntity
  8
0
  6
Continuous
 62
     7
100
AcDbLine
 10
494.9501893377719
 20
367.2833290767536
 30
0.0
 11
475.9501893377716
 21
367.2833290767536
 31
0.0
  0
LINE
  5
3EB
330
1F
100
AcDbEntity
  8
0
  6
Continuous
 62
     7
100
AcDbLine
 10
475.9501893377716
 20
278.4733290768176
 30
0.0
 11
494.9501893377719
 21
278.4733290768176
 31
0.0
  0
LINE
  5
3EC
330
1F
100
AcDbEntity
  8
0
  6
Continuous
 62
     7
100
AcDbLine
 10
465.9501893377719
 20
383.9733290768176
 30
0.0
 11
465.9501893377719
 21
258.9733290768176
 31
0.0
  0
LINE
  5
3ED
330
1F
100
AcDbEntity
  8
0
  6
Continuous
 62
     7
100
AcDbLine
 10
475.9501893377716
 20
368.4733290768176
 30
0.0
 11
475.9501893377716
 21
276.9733290768176
 31
0.0
  0
LINE
  5
3EE
330
1F
100
AcDbEntity
  8
0
  6
Continuous
 62
     7
100
AcDbLine
 10
331.9501893377718
 20
396.4733290768176
 30
0.0
 11
331.9501893377718
 21
246.4733290768176
 31
0.0
  0
LINE
  5
3EF
330
1F
100
AcDbEntity
  8
0
  6
Continuous
 62
     7
100
AcDbLine
 10
480.9501893377718
 20
367.2833290767536
 30
0.0
 11
480.9501893377718
 21
278.4733290768176
 31
0.0
  0
LINE
  5
3F0
330
1F
100
AcDbEntity
  8
0
  6
DASHED
 62
     4
 48
4.0
100
AcDbLine
 10
446.9501893377716
 20
290.8291041690996
 30
0.0
 11
446.9501893377716
 21
277.6326404102984
 31
0.0
  0
LINE
  5
3F1
330
1F
100
AcDbEntity
  8
0
  6
DASHED
 62
     4
 48
4.0
100
AcDbLine
 10
443.9501893377718
 20
292.0907638302176
 30
0.0
 11
443.9501893377718
 21
277.6326404102984
 31
0.0
  0
LINE
  5
3F2
330
1F
100
AcDbEntity
  8
0
  6
Continuous
 62
     7
100
AcDbLine
 10
333.1501893377716
 20
258.9733290768176
 30
0.0
 11
333.1501893377716
 21
246.4733290768176
 31
0.0
  0
LINE
  5
3F3
330
1F
100
AcDbEntity
  8
0
  6
Continuous
 62
     7
100
AcDbLine
 10
331.9501893377718
 20
246.4733290768176
 30
0.0
 11
333.1501893377716
 21
246.4733290768176
 31
0.0
  0
CIRCLE
  5
3F4
330
1F
100
AcDbEntity
  8
0
  6
Continuous
 62
     7
370
     0
100
AcDbCircle
 10
379.9501893377712
 20
264.9733290768171
 30
0.0
 40
4.500000000000428
  0
CIRCLE
  5
3F5
330
1F
100
AcDbEntity
  8
0
  6
Continuous
 62
     7
370
     0
100
AcDbCircle
 10
379.9501893377712
 20
264.9733290768171
 30
0.0
 40
3.500000000000428
  0
CIRCLE
  5
3F6
330
1F
100
AcDbEntity
  8
0
  6
Continuous
 62
     7
370
     0
100
AcDbCircle
 10
379.9501893377712
 20
264.9733290768171
 30
0.0
 40
2.750000000000444
  0
LINE
  5
3F7
330
1F
100
AcDbEntity
  8
0
  6
Continuous
 62
     7
100
AcDbLine
 10
379.5501893377716
 20
267.1874880593656
 30
0.0
 11
379.5501893377716
 21
265.3733290768176
 31
0.0
  0
LINE
  5
3F8
330
1F
100
AcDbEntity
  8
0
  6
Continuous
 62
     7
100
AcDbLine
 10
380.3501893377717
 20
267.1874880593656
 30
0.0
 11
380.3501893377717
 21
265.3733290768176
 31
0.0
  0
LINE
  5
3F9
330
1F
100
AcDbEntity
  8
0
  6
Continuous
 62
     7
100
AcDbLine
 10
380.3501893377717
 20
265.3733290768176
 30
0.0
 11
382.1643483203196
 21
265.3733290768176
 31
0.0
  0
LINE
  5
3FA
330
1F
100
AcDbEntity
  8
0
  6
Continuous
 62
     7
100
AcDbLine
 10
380.3501893377717
 20
264.5733290768175
 30
0.0
 11
382.1643483203196
 21
264.5733290768175
 31
0.0
  0
ARC
  5
3FB
330
1F
100
AcDbEntity
  8
0
  6
Continuous
 62
     7
100
AcDbCircle
 10
379.9501893377711
 20
264.973329076822
 30
0.0
 40
2.250000000003909
100
AcDbArc
 50
259.7596519672973
 51
280.240348321184
  0
ARC
  5
3FC
330
1F
100
AcDbEntity
  8
0
  6
Continuous
 62
     7
100
AcDbCircle
 10
379.950189337771
 20
264.973329076818
 30
0.0
 40
2.249999999998895
100
AcDbArc
 50
169.7596526505298
 51
190.2403483212061
  0
LINE
  5
3FD
330
1F
100
AcDbEntity
  8
0
  6
Continuous
 62
     7
100
AcDbLine
 10
379.5501893377716
 20
264.5733290768175
 30
0.0
 11
379.5501893377716
 21
262.7591700942696
 31
0.0
  0
LINE
  5
3FE
330
1F
100
AcDbEntity
  8
0
  6
Continuous
 62
     7
100
AcDbLine
 10
380.3501893377717
 20
264.5733290768175
 30
0.0
 11
380.3501893377717
 21
262.7591700942696
 31
0.0
  0
LINE
  5
3FF
330
1F
100
AcDbEntity
  8
0
  6
Continuous
 62
     7
100
AcDbLine
 10
377.7360303552236
 20
265.3733290768176
 30
0.0
 11
379.5501893377716
 21
265.3733290768176
 31
0.0
  0
LINE
  5
400
330
1F
100
AcDbEntity
  8
0
  6
Continuous
 62
     7
100
AcDbLine
 10
377.7360303552236
 20
264.5733290768175
 30
0.0
 11
379.5501893377716
 21
264.5733290768175
 31
0.0
  0
ARC
  5
401
330
1F
100
AcDbEntity
  8
0
  6
Continuous
 62
     7
100
AcDbCircle
 10
379.9501893377688
 20
264.9733290768177
 30
0.0
 40
2.250000000002446
100
AcDbArc
 50
349.7596519104466
 51
10.24034832117127
  0
ARC
  5
402
330
1F
100
AcDbEntity
  8
0
  6
Continuous
 62
     7
100
AcDbCircle
 10
379.9501893377711
 20
264.9733290768133
 30
0.0
 40
2.250000000003908
100
AcDbArc
 50
79.75965167881556
 51
100.2403480326991
  0
LINE
  5
403
330
1F
100
AcDbEntity
  8
0
  6
DASHED
 62
     4
 48
3.0
100
AcDbLine
 10
431.4478745820657
 20
272.5940168095505
 30
0.0
 11
431.4478745820657
 21
265.0340168095814
 31
0.0
  0
LINE
  5
404
330
1F
100
AcDbEntity
  8
0
  6
DASHED
 62
     4
 48
4.0
100
AcDbLine
 10
430.9501893377718
 20
277.4733290780815
 30
0.0
 11
430.9501893377718
 21
260.8140177445994
 31
0.0
  0
LINE
  5
405
330
1F
100
AcDbEntity
  8
0
  6
DASHED
 62
     4
 48
4.0
100
AcDbLine
 10
427.9501893377719
 20
277.4733290780815
 30
0.0
 11
427.9501893377719
 21
260.8140177445994
 31
0.0
  0
ELLIPSE
  5
406
330
1F
100
AcDbEntity
  8
0
  6
DASHED
 62
     4
 48
3.0
100
AcDbEllipse
 10
432.4478745820656
 20
267.6140168095256
 30
0.0
 11
0.0000000000000001
 21
-1.799999999999999
 31
0.0
210
0.0
220
0.0
230
1.0
 40
0.8333333333329999
 41
0.0
 42
1.570796326794896
1001
ACAD
1000
TCW40_DEV_WIDTH
1002
{
1040
-3.0
1002
}
  0
LINE
  5
407
330
1F
100
AcDbEntity
  8
0
  6
DASHED
 62
     4
 48
4.0
100
AcDbLine
 10
427.9501893377719
 20
260.8140177445994
 30
0.0
 11
430.9501893377718
 21
260.8140177445994
 31
0.0
  0
LINE
  5
408
330
1F
100
AcDbEntity
  8
0
  6
DASHED
 62
     4
 48
3.0
100
AcDbLine
 10
431.4478745820657
 20
265.8140168095254
 30
0.0
 11
432.4478745820656
 21
265.8140168095254
 31
0.0
  0
ELLIPSE
  5
409
330
1F
100
AcDbEntity
  8
0
  6
DASHED
 62
     4
 48
3.0
100
AcDbEllipse
 10
432.4478745820656
 20
270.0140168095256
 30
0.0
 11
0.0000000000000001
 21
-1.799999999999995
 31
0.0
210
0.0
220
0.0
230
1.0
 40
0.8333333333329997
 41
1.570796326794896
 42
3.141592653589792
1001
ACAD
1000
TCW40_DEV_WIDTH
1002
{
1040
-3.0
1002
}
  0
LINE
  5
40A
330
1F
100
AcDbEntity
  8
0
  6
DASHED
 62
     4
 48
3.0
100
AcDbLine
 10
431.4478745820657
 20
271.8140168095254
 30
0.0
 11
432.4478745820656
 21
271.8140168095254
 31
0.0
  0
LINE
  5
40B
330
1F
100
AcDbEntity
  8
0
  6
DASHED
 62
     4
 48
3.0
100
AcDbLine
 10
430.9501893377718
 20
272.5940168095474
 30
0.0
 11
431.4478745820657
 21
272.5940168095505
 31
0.0
  0
LINE
  5
40C
330
1F
100
AcDbEntity
  8
0
  6
Continuous
 62
     4
100
AcDbLine
 10
433.9478745820656
 20
270.0140168095256
 30
0.0
 11
433.9478745820656
 21
267.6140168095256
 31
0.0
  0
ELLIPSE
  5
40D
330
1F
100
AcDbEntity
  8
0
  6
DASHED
 62
     4
 48
3.0
100
AcDbEllipse
 10
448.4478745820656
 20
282.4577851963166
 30
0.0
 11
0.0000000000000001
 21
-1.8
 31
0.0
210
0.0
220
0.0
230
1.0
 40
0.8333333333329997
 41
0.0
 42
1.570796326794896
1001
ACAD
1000
TCW40_DEV_WIDTH
1002
{
1040
-3.0
1002
}
  0
ELLIPSE
  5
40E
330
1F
100
AcDbEntity
  8
0
  6
DASHED
 62
     4
 48
3.0
100
AcDbEllipse
 10
448.4478745820656
 20
284.8577851963166
 30
0.0
 11
0.0000000000000001
 21
-1.799999999999995
 31
0.0
210
0.0
220
0.0
230
1.0
 40
0.8333333333329997
 41
1.570796326794896
 42
3.141592653589792
1001
ACAD
1000
TCW40_DEV_WIDTH
1002
{
1040
-3.0
1002
}
  0
LINE
  5
40F
330
1F
100
AcDbEntity
  8
0
  6
DASHED
 62
     4
 48
3.0
100
AcDbLine
 10
447.4478745820656
 20
287.4377851963416
 30
0.0
 11
447.4478745820656
 21
279.8777851963726
 31
0.0
  0
LINE
  5
410
330
1F
100
AcDbEntity
  8
0
  6
DASHED
 62
     4
 48
4.0
100
AcDbLine
 10
446.9501893377716
 20
277.6326404102984
 30
0.0
 11
443.9501893377718
 21
277.6326404102984
 31
0.0
  0
LINE
  5
411
330
1F
100
AcDbEntity
  8
0
  6
DASHED
 62
     4
 48
3.0
100
AcDbLine
 10
447.4478745820656
 20
280.6577851963164
 30
0.0
 11
448.4478745820656
 21
280.6577851963164
 31
0.0
  0
LINE
  5
412
330
1F
100
AcDbEntity
  8
0
  6
DASHED
 62
     4
 48
3.0
100
AcDbLine
 10
446.9501893377716
 20
287.4377851963386
 30
0.0
 11
447.4478745820656
 21
287.4377851963416
 31
0.0
  0
LINE
  5
413
330
1F
100
AcDbEntity
  8
0
  6
DASHED
 62
     4
 48
3.0
100
AcDbLine
 10
447.4478745820656
 20
286.6577851963166
 30
0.0
 11
448.4478745820656
 21
286.6577851963166
 31
0.0
  0
LINE
  5
414
330
1F
100
AcDbEntity
  8
0
  6
Continuous
 62
     4
100
AcDbLine
 10
449.9478745820656
 20
284.8577851963166
 30
0.0
 11
449.9478745820656
 21
282.4577851963166
 31
0.0
  0
LINE
  5
415
330
1F
100
AcDbEntity
  8
0
  6
DASHED
 62
     4
 48
3.0
100
AcDbLine
 10
461.4478745820656
 20
272.7533281417686
 30
0.0
 11
461.4478745820656
 21
265.1933281417996
 31
0.0
  0
LINE
  5
416
330
1F
100
AcDbEntity
  8
0
  6
DASHED
 62
     4
 48
4.0
100
AcDbLine
 10
460.9501893377718
 20
279.3148532917895
 30
0.0
 11
460.9501893377718
 21
262.4461494531715
 31
0.0
  0
LINE
  5
417
330
1F
100
AcDbEntity
  8
0
  6
DASHED
 62
     4
 48
4.0
100
AcDbLine
 10
457.9501893377718
 20
278.4737468510436
 30
0.0
 11
457.9501893377718
 21
262.4461494531715
 31
0.0
  0
ELLIPSE
  5
418
330
1F
100
AcDbEntity
  8
0
  6
DASHED
 62
     4
 48
3.0
100
AcDbEllipse
 10
462.4478745820656
 20
267.7733281417435
 30
0.0
 11
0.0000000000000001
 21
-1.799999999999999
 31
0.0
210
0.0
220
0.0
230
1.0
 40
0.8333333333329999
 41
0.0
 42
1.570796326794896
1001
ACAD
1000
TCW40_DEV_WIDTH
1002
{
1040
-3.0
1002
}
  0
LINE
  5
419
330
1F
100
AcDbEntity
  8
0
  6
DASHED
 62
     4
 48
4.0
100
AcDbLine
 10
457.9501893377718
 20
262.4461494531715
 30
0.0
 11
460.9501893377718
 21
262.4461494531715
 31
0.0
  0
LINE
  5
41A
330
1F
100
AcDbEntity
  8
0
  6
DASHED
 62
     4
 48
3.0
100
AcDbLine
 10
461.4478745820656
 20
265.1933281417996
 30
0.0
 11
460.9501893377718
 21
265.1933281417955
 31
0.0
  0
LINE
  5
41B
330
1F
100
AcDbEntity
  8
0
  6
DASHED
 62
     4
 48
3.0
100
AcDbLine
 10
461.4478745820656
 20
265.9733281417436
 30
0.0
 11
462.4478745820656
 21
265.9733281417436
 31
0.0
  0
ELLIPSE
  5
41C
330
1F
100
AcDbEntity
  8
0
  6
DASHED
 62
     4
 48
3.0
100
AcDbEllipse
 10
462.4478745820656
 20
270.1733281417435
 30
0.0
 11
0.0000000000000001
 21
-1.799999999999995
 31
0.0
210
0.0
220
0.0
230
1.0
 40
0.8333333333329997
 41
1.570796326794896
 42
3.141592653589792
1001
ACAD
1000
TCW40_DEV_WIDTH
1002
{
1040
-3.0
1002
}
  0
LINE
  5
41D
330
1F
100
AcDbEntity
  8
0
  6
DASHED
 62
     4
 48
3.0
100
AcDbLine
 10
460.9501893377718
 20
272.7533281417644
 30
0.0
 11
461.4478745820656
 21
272.7533281417686
 31
0.0
  0
LINE
  5
41E
330
1F
100
AcDbEntity
  8
0
  6
DASHED
 62
     4
 48
3.0
100
AcDbLine
 10
461.4478745820656
 20
271.9733281417436
 30
0.0
 11
462.4478745820656
 21
271.9733281417436
 31
0.0
  0
LINE
  5
41F
330
1F
100
AcDbEntity
  8
0
  6
Continuous
 62
     4
100
AcDbLine
 10
463.9478745820656
 20
270.1733281417435
 30
0.0
 11
463.9478745820656
 21
267.7733281417435
 31
0.0
  0
LINE
  5
420
330
1F
100
AcDbEntity
  8
0
  6
Continuous
 62
     7
100
AcDbLine
 10
333.1501893377716
 20
396.4733290768176
 30
0.0
 11
333.1501893377716
 21
383.9733290768176
 31
0.0
  0
LINE
  5
421
330
1F
100
AcDbEntity
  8
0
  6
Continuous
 62
     7
100
AcDbLine
 10
331.9501893377718
 20
396.4733290768176
 30
0.0
 11
333.1501893377716
 21
396.4733290768176
 31
0.0
  0
CIRCLE
  5
422
330
1F
100
AcDbEntity
  8
0
  6
Continuous
 62
     7
370
     0
100
AcDbCircle
 10
356.9501893377712
 20
377.9733292556308
 30
0.0
 40
4.500000000000428
  0
CIRCLE
  5
423
330
1F
100
AcDbEntity
  8
0
  6
Continuous
 62
     7
370
     0
100
AcDbCircle
 10
356.9501893377712
 20
377.9733292556308
 30
0.0
 40
3.500000000000428
  0
CIRCLE
  5
424
330
1F
100
AcDbEntity
  8
0
  6
Continuous
 62
     7
370
     0
100
AcDbCircle
 10
356.9501893377712
 20
377.9733292556308
 30
0.0
 40
2.750000000000444
  0
LINE
  5
425
330
1F
100
AcDbEntity
  8
0
  6
Continuous
 62
     7
100
AcDbLine
 10
357.3501893377716
 20
378.3733292556314
 30
0.0
 11
359.1643483203196
 21
378.3733292556314
 31
0.0
  0
LINE
  5
426
330
1F
100
AcDbEntity
  8
0
  6
Continuous
 62
     7
100
AcDbLine
 10
357.3501893377716
 20
377.5733292556314
 30
0.0
 11
359.1643483203196
 21
377.5733292556314
 31
0.0
  0
LINE
  5
427
330
1F
100
AcDbEntity
  8
0
  6
Continuous
 62
     7
100
AcDbLine
 10
356.5501893377716
 20
377.5733292556314
 30
0.0
 11
356.5501893377716
 21
375.7591702730825
 31
0.0
  0
LINE
  5
428
330
1F
100
AcDbEntity
  8
0
  6
Continuous
 62
     7
100
AcDbLine
 10
357.3501893377716
 20
377.5733292556314
 30
0.0
 11
357.3501893377716
 21
375.7591702730825
 31
0.0
  0
ARC
  5
429
330
1F
100
AcDbEntity
  8
0
  6
Continuous
 62
     7
100
AcDbCircle
 10
356.9501893377741
 20
377.9733292556353
 30
0.0
 40
2.250000000003915
100
AcDbArc
 50
259.7596519672213
 51
280.2403483211083
  0
ARC
  5
42A
330
1F
100
AcDbEntity
  8
0
  6
Continuous
 62
     7
100
AcDbCircle
 10
356.9501893377711
 20
377.9733292556271
 30
0.0
 40
2.250000000003922
100
AcDbArc
 50
79.75965167881556
 51
100.2403480326991
  0
ARC
  5
42B
330
1F
100
AcDbEntity
  8
0
  6
Continuous
 62
     7
100
AcDbCircle
 10
356.9501893377712
 20
377.9733292556321
 30
0.0
 40
2.249999999999166
100
AcDbArc
 50
169.7596526505293
 51
190.2403483212044
  0
LINE
  5
42C
330
1F
100
AcDbEntity
  8
0
  6
Continuous
 62
     7
100
AcDbLine
 10
356.5501893377716
 20
380.1874882381796
 30
0.0
 11
356.5501893377716
 21
378.3733292556314
 31
0.0
  0
LINE
  5
42D
330
1F
100
AcDbEntity
  8
0
  6
Continuous
 62
     7
100
AcDbLine
 10
357.3501893377716
 20
380.1874882381796
 30
0.0
 11
357.3501893377716
 21
378.3733292556314
 31
0.0
  0
LINE
  5
42E
330
1F
100
AcDbEntity
  8
0
  6
Continuous
 62
     7
100
AcDbLine
 10
354.7360303552236
 20
378.3733292556314
 30
0.0
 11
356.5501893377716
 21
378.3733292556314
 31
0.0
  0
LINE
  5
42F
330
1F
100
AcDbEntity
  8
0
  6
Continuous
 62
     7
100
AcDbLine
 10
354.7360303552236
 20
377.5733292556314
 30
0.0
 11
356.5501893377716
 21
377.5733292556314
 31
0.0
  0
ARC
  5
430
330
1F
100
AcDbEntity
  8
0
  6
Continuous
 62
     7
100
AcDbCircle
 10
356.950189337769
 20
377.9733292556317
 30
0.0
 40
2.250000000002184
100
AcDbArc
 50
349.7596519104466
 51
10.24034832117127
  0
LINE
  5
431
330
1F
100
AcDbEntity
  8
0
  6
Continuous
 62
     7
100
AcDbLine
 10
467.4501893377716
 20
372.4733290768176
 30
0.0
 11
467.4501893377716
 21
358.4733290768176
 31
0.0
  0
ARC
  5
433
330
1F
100
AcDbEntity
  8
0
  6
Continuous
 62
     7
100
AcDbCircle
 10
482.9501893377712
 20
308.4333290766338
 30
0.0
 40
1.500000000000244
100
AcDbArc
 50
270.0000000000094
 51
359.9999999999901
  0
LINE
  5
434
330
1F
100
AcDbEntity
  8
0
  6
Continuous
 62
     7
100
AcDbLine
 10
481.9501893377718
 20
312.5833290766546
 30
0.0
 11
481.9501893377718
 21
306.2833290766806
 31
0.0
  0
ARC
  5
435
330
1F
100
AcDbEntity
  8
0
  6
Continuous
 62
     7
100
AcDbCircle
 10
482.9501893377712
 20
293.1933290766338
 30
0.0
 40
1.500000000000241
100
AcDbArc
 50
270.0000000000094
 51
359.9999999999901
  0
LINE
  5
436
330
1F
100
AcDbEntity
  8
0
  6
Continuous
 62
     7
100
AcDbLine
 10
481.9501893377718
 20
297.3433290766546
 30
0.0
 11
481.9501893377718
 21
291.0433290766806
 31
0.0
  0
LINE
  5
437
330
1F
100
AcDbEntity
  8
0
  6
Continuous
 62
     7
100
AcDbLine
 10
481.9501893377718
 20
291.6933290766336
 30
0.0
 11
482.9501893377718
 21
291.6933290766336
 31
0.0
  0
LINE
  5
438
330
1F
100
AcDbEntity
  8
0
  6
Continuous
 62
     7
100
AcDbLine
 10
481.9501893377718
 20
296.6933290766336
 30
0.0
 11
482.9501893377718
 21
296.6933290766336
 31
0.0
  0
ARC
  5
439
330
1F
100
AcDbEntity
  8
0
  6
Continuous
 62
     7
100
AcDbCircle
 10
482.9501893377712
 20
295.1933290766334
 30
0.0
 40
1.500000000000254
100
AcDbArc
 50
0.0000000000097707
 51
89.99999999999024
  0
LINE
  5
43A
330
1F
100
AcDbEntity
  8
0
  6
Continuous
 62
     7
100
AcDbLine
 10
484.4501893377716
 20
295.1933290766336
 30
0.0
 11
484.4501893377716
 21
293.1933290766336
 31
0.0
  0
ARC
  5
43B
330
1F
100
AcDbEntity
  8
0
  6
Continuous
 62
     7
100
AcDbCircle
 10
482.9501893377712
 20
302.8133290766333
 30
0.0
 40
1.500000000000254
100
AcDbArc
 50
0.0000000000097707
 51
89.99999999999024
  0
LINE
  5
43C
330
1F
100
AcDbEntity
  8
0
  6
Continuous
 62
     7
100
AcDbLine
 10
481.9501893377718
 20
304.9633290766546
 30
0.0
 11
481.9501893377718
 21
298.6633290766807
 31
0.0
  0
LINE
  5
43D
330
1F
100
AcDbEntity
  8
0
  6
Continuous
 62
     7
100
AcDbLine
 10
481.9501893377718
 20
299.3133290766333
 30
0.0
 11
482.9501893377718
 21
299.3133290766333
 31
0.0
  0
ARC
  5
43E
330
1F
100
AcDbEntity
  8
0
  6
Continuous
 62
     7
100
AcDbCircle
 10
482.9501893377712
 20
300.8133290766338
 30
0.0
 40
1.500000000000241
100
AcDbArc
 50
270.0000000000094
 51
359.9999999999901
  0
LINE
  5
43F
330
1F
100
AcDbEntity
  8
0
  6
Continuous
 62
     7
100
AcDbLine
 10
484.4501893377716
 20
302.8133290766333
 30
0.0
 11
484.4501893377716
 21
300.8133290766333
 31
0.0
  0
LINE
  5
440
330
1F
100
AcDbEntity
  8
0
  6
Continuous
 62
     7
100
AcDbLine
 10
481.9501893377718
 20
304.3133290766333
 30
0.0
 11
482.9501893377718
 21
304.3133290766333
 31
0.0
  0
LINE
  5
441
330
1F
100
AcDbEntity
  8
0
  6
Continuous
 62
     7
100
AcDbLine
 10
481.9501893377718
 20
306.9333290766333
 30
0.0
 11
482.9501893377718
 21
306.9333290766333
 31
0.0
  0
ARC
  5
442
330
1F
100
AcDbEntity
  8
0
  6
Continuous
 62
     7
100
AcDbCircle
 10
482.9501893377712
 20
318.0533290766084
 30
0.0
 40
1.500000000000254
100
AcDbArc
 50
0.0000000000097707
 51
89.99999999999024
  0
LINE
  5
443
330
1F
100
AcDbEntity
  8
0
  6
Continuous
 62
     7
100
AcDbLine
 10
481.9501893377718
 20
320.2033290766296
 30
0.0
 11
481.9501893377718
 21
313.9033290766556
 31
0.0
  0
LINE
  5
444
330
1F
100
AcDbEntity
  8
0
  6
Continuous
 62
     7
100
AcDbLine
 10
481.9501893377718
 20
311.9333290766336
 30
0.0
 11
482.9501893377718
 21
311.9333290766336
 31
0.0
  0
ARC
  5
445
330
1F
100
AcDbEntity
  8
0
  6
Continuous
 62
     7
100
AcDbCircle
 10
482.9501893377712
 20
310.4333290766333
 30
0.0
 40
1.500000000000223
100
AcDbArc
 50
0.0000000000097707
 51
89.99999999999024
  0
LINE
  5
446
330
1F
100
AcDbEntity
  8
0
  6
Continuous
 62
     7
100
AcDbLine
 10
484.4501893377716
 20
310.4333290766333
 30
0.0
 11
484.4501893377716
 21
308.4333290766333
 31
0.0
  0
LINE
  5
447
330
1F
100
AcDbEntity
  8
0
  6
Continuous
 62
     7
100
AcDbLine
 10
481.9501893377718
 20
314.5533290766086
 30
0.0
 11
482.9501893377718
 21
314.5533290766086
 31
0.0
  0
ARC
  5
448
330
1F
100
AcDbEntity
  8
0
  6
Continuous
 62
     7
100
AcDbCircle
 10
482.9501893377712
 20
316.0533290766088
 30
0.0
 40
1.500000000000241
100
AcDbArc
 50
270.0000000000094
 51
359.9999999999901
  0
LINE
  5
449
330
1F
100
AcDbEntity
  8
0
  6
Continuous
 62
     7
100
AcDbLine
 10
484.4501893377716
 20
318.0533290766086
 30
0.0
 11
484.4501893377716
 21
316.0533290766086
 31
0.0
  0
LINE
  5
44A
330
1F
100
AcDbEntity
  8
0
  6
Continuous
 62
     7
100
AcDbLine
 10
484.4501893377716
 20
325.6733290766076
 30
0.0
 11
484.4501893377716
 21
323.6733290766076
 31
0.0
  0
LINE
  5
44B
330
1F
100
AcDbEntity
  8
0
  6
Continuous
 62
     7
100
AcDbLine
 10
481.9501893377718
 20
327.8233290766286
 30
0.0
 11
481.9501893377718
 21
321.5233290766546
 31
0.0
  0
LINE
  5
44C
330
1F
100
AcDbEntity
  8
0
  6
Continuous
 62
     7
100
AcDbLine
 10
481.9501893377718
 20
319.5533290766086
 30
0.0
 11
482.9501893377718
 21
319.5533290766086
 31
0.0
  0
LINE
  5
44D
330
1F
100
AcDbEntity
  8
0
  6
Continuous
 62
     7
100
AcDbLine
 10
481.9501893377718
 20
322.1733290766076
 30
0.0
 11
482.9501893377718
 21
322.1733290766076
 31
0.0
  0
ARC
  5
44E
330
1F
100
AcDbEntity
  8
0
  6
Continuous
 62
     7
100
AcDbCircle
 10
482.9501893377712
 20
323.6733290766078
 30
0.0
 40
1.500000000000244
100
AcDbArc
 50
270.0000000000094
 51
359.9999999999901
  0
LINE
  5
44F
330
1F
100
AcDbEntity
  8
0
  6
Continuous
 62
     7
100
AcDbLine
 10
481.9501893377718
 20
327.1733290766076
 30
0.0
 11
482.9501893377718
 21
327.1733290766076
 31
0.0
  0
ARC
  5
450
330
1F
100
AcDbEntity
  8
0
  6
Continuous
 62
     7
100
AcDbCircle
 10
482.9501893377712
 20
325.6733290766073
 30
0.0
 40
1.500000000000254
100
AcDbArc
 50
0.0000000000097707
 51
89.99999999999024
  0
ARC
  5
451
330
1F
100
AcDbEntity
  8
0
  6
Continuous
 62
     7
100
AcDbCircle
 10
482.9501893377712
 20
348.5333290766423
 30
0.0
 40
1.500000000000223
100
AcDbArc
 50
0.0000000000097707
 51
89.99999999999024
  0
LINE
  5
452
330
1F
100
AcDbEntity
  8
0
  6
Continuous
 62
     7
100
AcDbLine
 10
481.9501893377718
 20
350.6833290766625
 30
0.0
 11
481.9501893377718
 21
344.3833290766885
 31
0.0
  0
LINE
  5
453
330
1F
100
AcDbEntity
  8
0
  6
Continuous
 62
     7
100
AcDbLine
 10
484.4501893377716
 20
340.9133290766086
 30
0.0
 11
484.4501893377716
 21
338.9133290766086
 31
0.0
  0
LINE
  5
454
330
1F
100
AcDbEntity
  8
0
  6
Continuous
 62
     7
100
AcDbLine
 10
481.9501893377718
 20
343.0633290766296
 30
0.0
 11
481.9501893377718
 21
336.7633290766556
 31
0.0
  0
ARC
  5
455
330
1F
100
AcDbEntity
  8
0
  6
Continuous
 62
     7
100
AcDbCircle
 10
482.9501893377712
 20
333.2933290766344
 30
0.0
 40
1.500000000000254
100
AcDbArc
 50
0.0000000000097707
 51
89.99999999999024
  0
LINE
  5
456
330
1F
100
AcDbEntity
  8
0
  6
Continuous
 62
     7
100
AcDbLine
 10
481.9501893377718
 20
335.4433290766546
 30
0.0
 11
481.9501893377718
 21
329.1433290766806
 31
0.0
  0
LINE
  5
457
330
1F
100
AcDbEntity
  8
0
  6
Continuous
 62
     7
100
AcDbLine
 10
481.9501893377718
 20
329.7933290766347
 30
0.0
 11
482.9501893377718
 21
329.7933290766347
 31
0.0
  0
ARC
  5
458
330
1F
100
AcDbEntity
  8
0
  6
Continuous
 62
     7
100
AcDbCircle
 10
482.9501893377712
 20
331.2933290766348
 30
0.0
 40
1.500000000000241
100
AcDbArc
 50
270.0000000000094
 51
359.9999999999901
  0
LINE
  5
459
330
1F
100
AcDbEntity
  8
0
  6
Continuous
 62
     7
100
AcDbLine
 10
484.4501893377716
 20
333.2933290766346
 30
0.0
 11
484.4501893377716
 21
331.2933290766346
 31
0.0
  0
LINE
  5
45A
330
1F
100
AcDbEntity
  8
0
  6
Continuous
 62
     7
100
AcDbLine
 10
481.9501893377718
 20
334.7933290766346
 30
0.0
 11
482.9501893377718
 21
334.7933290766346
 31
0.0
  0
LINE
  5
45B
330
1F
100
AcDbEntity
  8
0
  6
Continuous
 62
     7
100
AcDbLine
 10
481.9501893377718
 20
337.4133290766086
 30
0.0
 11
482.9501893377718
 21
337.4133290766086
 31
0.0
  0
ARC
  5
45C
330
1F
100
AcDbEntity
  8
0
  6
Continuous
 62
     7
100
AcDbCircle
 10
482.9501893377712
 20
338.9133290766088
 30
0.0
 40
1.500000000000241
100
AcDbArc
 50
270.0000000000094
 51
359.9999999999901
  0
ARC
  5
45D
330
1F
100
AcDbEntity
  8
0
  6
Continuous
 62
     7
100
AcDbCircle
 10
482.9501893377712
 20
346.5333290766428
 30
0.0
 40
1.500000000000241
100
AcDbArc
 50
270.0000000000094
 51
359.9999999999901
  0
LINE
  5
45E
330
1F
100
AcDbEntity
  8
0
  6
Continuous
 62
     7
100
AcDbLine
 10
481.9501893377718
 20
342.4133290766086
 30
0.0
 11
482.9501893377718
 21
342.4133290766086
 31
0.0
  0
ARC
  5
45F
330
1F
100
AcDbEntity
  8
0
  6
Continuous
 62
     7
100
AcDbCircle
 10
482.9501893377712
 20
340.9133290766082
 30
0.0
 40
1.500000000000254
100
AcDbArc
 50
0.0000000000097707
 51
89.99999999999024
  0
LINE
  5
460
330
1F
100
AcDbEntity
  8
0
  6
Continuous
 62
     7
100
AcDbLine
 10
481.9501893377718
 20
345.0333290766426
 30
0.0
 11
482.9501893377718
 21
345.0333290766426
 31
0.0
  0
LINE
  5
461
330
1F
100
AcDbEntity
  8
0
  6
Continuous
 62
     7
100
AcDbLine
 10
484.4501893377716
 20
348.5333290766425
 30
0.0
 11
484.4501893377716
 21
346.5333290766425
 31
0.0
  0
LINE
  5
462
330
1F
100
AcDbEntity
  8
0
  6
Continuous
 62
     7
100
AcDbLine
 10
465.9501893377719
 20
358.4733290768176
 30
0.0
 11
467.4501893377716
 21
358.4733290768176
 31
0.0
  0
ARC
  5
463
330
1F
100
AcDbEntity
  8
0
  6
Continuous
 62
     7
100
AcDbCircle
 10
482.9501893377712
 20
361.7733290766338
 30
0.0
 40
1.500000000000241
100
AcDbArc
 50
270.0000000000094
 51
359.9999999999901
  0
LINE
  5
464
330
1F
100
AcDbEntity
  8
0
  6
Continuous
 62
     7
100
AcDbLine
 10
481.9501893377718
 20
365.9233290766545
 30
0.0
 11
481.9501893377718
 21
359.6233290766805
 31
0.0
  0
LINE
  5
465
330
1F
100
AcDbEntity
  8
0
  6
Continuous
 62
     7
100
AcDbLine
 10
484.4501893377716
 20
356.1533290766345
 30
0.0
 11
484.4501893377716
 21
354.1533290766345
 31
0.0
  0
LINE
  5
466
330
1F
100
AcDbEntity
  8
0
  6
Continuous
 62
     7
100
AcDbLine
 10
481.9501893377718
 20
358.3033290766546
 30
0.0
 11
481.9501893377718
 21
352.0033290766816
 31
0.0
  0
LINE
  5
467
330
1F
100
AcDbEntity
  8
0
  6
Continuous
 62
     7
100
AcDbLine
 10
481.9501893377718
 20
350.0333290766425
 30
0.0
 11
482.9501893377718
 21
350.0333290766425
 31
0.0
  0
LINE
  5
468
330
1F
100
AcDbEntity
  8
0
  6
Continuous
 62
     7
100
AcDbLine
 10
481.9501893377718
 20
352.6533290766347
 30
0.0
 11
482.9501893377718
 21
352.6533290766347
 31
0.0
  0
ARC
  5
469
330
1F
100
AcDbEntity
  8
0
  6
Continuous
 62
     7
100
AcDbCircle
 10
482.9501893377712
 20
354.1533290766349
 30
0.0
 40
1.500000000000241
100
AcDbArc
 50
270.0000000000094
 51
359.9999999999901
  0
LINE
  5
46A
330
1F
100
AcDbEntity
  8
0
  6
Continuous
 62
     7
100
AcDbLine
 10
481.9501893377718
 20
357.6533290766345
 30
0.0
 11
482.9501893377718
 21
357.6533290766345
 31
0.0
  0
LINE
  5
46B
330
1F
100
AcDbEntity
  8
0
  6
Continuous
 62
     7
100
AcDbLine
 10
481.9501893377718
 20
360.2733290766336
 30
0.0
 11
482.9501893377718
 21
360.2733290766336
 31
0.0
  0
ARC
  5
46C
330
1F
100
AcDbEntity
  8
0
  6
Continuous
 62
     7
100
AcDbCircle
 10
482.9501893377712
 20
356.1533290766342
 30
0.0
 40
1.500000000000254
100
AcDbArc
 50
0.0000000000097707
 51
89.99999999999024
  0
ARC
  5
46D
330
1F
100
AcDbEntity
  8
0
  6
Continuous
 62
     7
100
AcDbCircle
 10
482.9501893377716
 20
363.7733290766332
 30
0.0
 40
1.500000000000198
100
AcDbArc
 50
0.0000000000113991
 51
89.99999999999348
  0
LINE
  5
46E
330
1F
100
AcDbEntity
  8
0
  6
Continuous
 62
     7
100
AcDbLine
 10
481.9501893377718
 20
365.2733290766335
 30
0.0
 11
482.9501893377718
 21
365.2733290766335
 31
0.0
  0
LINE
  5
46F
330
1F
100
AcDbEntity
  8
0
  6
Continuous
 62
     7
100
AcDbLine
 10
484.4501893377716
 20
363.7733290766336
 30
0.0
 11
484.4501893377716
 21
361.7733290766336
 31
0.0
  0
CIRCLE
  5
470
330
1F
100
AcDbEntity
  8
0
  6
Continuous
 62
     7
370
     0
100
AcDbCircle
 10
455.9501893377658
 20
377.9733292556272
 30
0.0
 40
2.750000000000444
  0
CIRCLE
  5
471
330
1F
100
AcDbEntity
  8
0
  6
Continuous
 62
     7
370
     0
100
AcDbCircle
 10
455.9501893377658
 20
377.9733292556272
 30
0.0
 40
3.500000000000428
  0
CIRCLE
  5
472
330
1F
100
AcDbEntity
  8
0
  6
Continuous
 62
     7
370
     0
100
AcDbCircle
 10
455.9501893377658
 20
377.9733292556272
 30
0.0
 40
4.500000000000428
  0
ARC
  5
473
330
1F
100
AcDbEntity
  8
0
  6
Continuous
 62
     7
100
AcDbCircle
 10
455.9501893377713
 20
377.973329255631
 30
0.0
 40
2.750000000000397
100
AcDbArc
 50
0.0000000000081422
 51
89.99999999999024
  0
ARC
  5
474
330
1F
100
AcDbEntity
  8
0
  6
Continuous
 62
     7
100
AcDbCircle
 10
455.950189337771
 20
377.9733292556271
 30
0.0
 40
2.250000000003939
100
AcDbArc
 50
79.75965167881532
 51
100.2403480326991
  0
ARC
  5
475
330
1F
100
AcDbEntity
  8
0
  6
Continuous
 62
     7
100
AcDbCircle
 10
455.9501893377738
 20
377.9733292556353
 30
0.0
 40
2.250000000003929
100
AcDbArc
 50
259.7596519672213
 51
280.2403483211083
  0
LINE
  5
476
330
1F
100
AcDbEntity
  8
0
  6
Continuous
 62
     7
100
AcDbLine
 10
455.5501893377716
 20
377.5733292556314
 30
0.0
 11
455.5501893377716
 21
375.7591702730825
 31
0.0
  0
ARC
  5
477
330
1F
100
AcDbEntity
  8
0
  6
Continuous
 62
     7
100
AcDbCircle
 10
455.9501893377712
 20
377.9733292556321
 30
0.0
 40
2.249999999999163
100
AcDbArc
 50
169.7596526505313
 51
190.2403483212061
  0
LINE
  5
478
330
1F
100
AcDbEntity
  8
0
  6
Continuous
 62
     7
100
AcDbLine
 10
455.5501893377716
 20
380.1874882381796
 30
0.0
 11
455.5501893377716
 21
378.3733292556314
 31
0.0
  0
LINE
  5
479
330
1F
100
AcDbEntity
  8
0
  6
Continuous
 62
     7
100
AcDbLine
 10
453.7360303552237
 20
378.3733292556314
 30
0.0
 11
455.5501893377716
 21
378.3733292556314
 31
0.0
  0
LINE
  5
47A
330
1F
100
AcDbEntity
  8
0
  6
Continuous
 62
     7
100
AcDbLine
 10
453.7360303552237
 20
377.5733292556314
 30
0.0
 11
455.5501893377716
 21
377.5733292556314
 31
0.0
  0
LINE
  5
47B
330
1F
100
AcDbEntity
  8
0
  6
Continuous
 62
     7
100
AcDbLine
 10
456.3501893377718
 20
377.5733292556314
 30
0.0
 11
456.3501893377718
 21
375.7591702730825
 31
0.0
  0
ARC
  5
47C
330
1F
100
AcDbEntity
  8
0
  6
Continuous
 62
     7
100
AcDbCircle
 10
455.9501893377688
 20
377.9733292556317
 30
0.0
 40
2.250000000002196
100
AcDbArc
 50
349.7596519104451
 51
10.2403483211697
  0
LINE
  5
47D
330
1F
100
AcDbEntity
  8
0
  6
Continuous
 62
     7
100
AcDbLine
 10
456.3501893377718
 20
380.1874882381796
 30
0.0
 11
456.3501893377718
 21
378.3733292556314
 31
0.0
  0
LINE
  5
47E
330
1F
100
AcDbEntity
  8
0
  6
Continuous
 62
     7
100
AcDbLine
 10
456.3501893377718
 20
378.3733292556314
 30
0.0
 11
458.1643483203198
 21
378.3733292556314
 31
0.0
  0
LINE
  5
47F
330
1F
100
AcDbEntity
  8
0
  6
Continuous
 62
     7
100
AcDbLine
 10
456.3501893377718
 20
377.5733292556314
 30
0.0
 11
458.1643483203198
 21
377.5733292556314
 31
0.0
  0
LINE
  5
480
330
1F
100
AcDbEntity
  8
0
  6
Continuous
 62
     7
100
AcDbLine
 10
465.9501893377719
 20
372.4733290768176
 30
0.0
 11
467.4501893377716
 21
372.4733290768176
 31
0.0
  0
LINE
  5
492
330
1F
100
AcDbEntity
  8
0
  6
Continuous
 62
     7
100
AcDbLine
 10
496.9501893377716
 20
382.9733290768176
 30
0.0
 11
496.9501893377716
 21
259.9733290768176
 31
0.0
  0
LINE
  5
493
330
1F
100
AcDbEntity
  8
0
  6
Continuous
 62
     7
100
AcDbLine
 10
495.7501893377717
 20
382.7733290768176
 30
0.0
 11
495.7501893377717
 21
260.1733290768176
 31
0.0
  0
LINE
  5
494
330
1F
100
AcDbEntity
  8
0
  6
Continuous
 62
     7
100
AcDbLine
 10
488.9501893377718
 20
367.2833290768084
 30
0.0
 11
488.9501893377718
 21
278.4733290768176
 31
0.0
  0
LINE
  5
495
330
1F
100
AcDbEntity
  8
0
  6
Continuous
 62
     7
100
AcDbLine
 10
494.9501893377719
 20
367.2833290767536
 30
0.0
 11
494.9501893377719
 21
278.4733290768176
 31
0.0
  0
LINE
  5
496
330
1F
100
AcDbEntity
  8
0
  6
Continuous
 62
     7
100
AcDbLine
 10
489.9501893377718
 20
293.5333290767516
 30
0.0
 11
489.9501893377718
 21
287.2333290767776
 31
0.0
  0
LINE
  5
49E
330
1F
100
AcDbEntity
  8
0
  6
Continuous
 62
     7
100
AcDbLine
 10
495.4501893377718
 20
276.9733290768176
 30
0.0
 11
495.4501893377718
 21
260.4733290768176
 31
0.0
  0
ARC
  5
49F
330
1F
100
AcDbEntity
  8
0
  6
Continuous
 62
     7
100
AcDbCircle
 10
495.9501893377716
 20
259.9733290768178
 30
0.0
 40
1.00000000000016
100
AcDbArc
 50
270.0000000000094
 51
359.9999999999901
  0
LINE
  5
4A0
330
1F
100
AcDbEntity
  8
0
  6
Continuous
 62
     7
100
AcDbLine
 10
488.9501893377718
 20
287.2333290767706
 30
0.0
 11
494.9501893377719
 21
287.2333290767866
 31
0.0
  0
LINE
  5
4A1
330
1F
100
AcDbEntity
  8
0
  6
Continuous
 62
     7
100
AcDbLine
 10
488.9501893377718
 20
285.9133290767706
 30
0.0
 11
494.9501893377719
 21
285.9133290767866
 31
0.0
  0
LINE
  5
4A2
330
1F
100
AcDbEntity
  8
0
  6
Continuous
 62
     7
100
AcDbLine
 10
495.7501893377717
 20
277.9733290768175
 30
0.0
 11
496.9501893377716
 21
277.9733290768175
 31
0.0
  0
LINE
  5
4A3
330
1F
100
AcDbEntity
  8
0
  6
Continuous
 62
     7
100
AcDbLine
 10
495.7501893377717
 20
278.4733290768176
 30
0.0
 11
496.9501893377716
 21
278.4733290768176
 31
0.0
  0
LINE
  5
545
330
1F
100
AcDbEntity
  8
0
  6
Continuous
 62
     7
100
AcDbLine
 10
495.4501893377718
 20
382.4733290768175
 30
0.0
 11
495.4501893377718
 21
368.4733290768176
 31
0.0
  0
LINE
  5
547
330
1F
100
AcDbEntity
  8
0
  6
Continuous
 62
     7
100
AcDbLine
 10
492.4501893377716
 20
329.4833290767056
 30
0.0
 11
492.4501893377716
 21
327.4833290767056
 31
0.0
  0
LINE
  5
548
330
1F
100
AcDbEntity
  8
0
  6
Continuous
 62
     7
100
AcDbLine
 10
489.9501893377718
 20
331.6333290767266
 30
0.0
 11
489.9501893377718
 21
325.3333290767526
 31
0.0
  0
ARC
  5
549
330
1F
100
AcDbEntity
  8
0
  6
Continuous
 62
     7
100
AcDbCircle
 10
490.9501893377712
 20
306.6233290767303
 30
0.0
 40
1.500000000000254
100
AcDbArc
 50
0.0000000000097707
 51
89.99999999999024
  0
LINE
  5
54A
330
1F
100
AcDbEntity
  8
0
  6
Continuous
 62
     7
100
AcDbLine
 10
489.9501893377718
 20
308.7733290767516
 30
0.0
 11
489.9501893377718
 21
302.4733290767773
 31
0.0
  0
LINE
  5
54B
330
1F
100
AcDbEntity
  8
0
  6
Continuous
 62
     7
100
AcDbLine
 10
492.4501893377716
 20
299.0033290767306
 30
0.0
 11
492.4501893377716
 21
297.0033290767306
 31
0.0
  0
LINE
  5
54C
330
1F
100
AcDbEntity
  8
0
  6
Continuous
 62
     7
100
AcDbLine
 10
489.9501893377718
 20
301.1533290767516
 30
0.0
 11
489.9501893377718
 21
294.8533290767773
 31
0.0
  0
LINE
  5
54D
330
1F
100
AcDbEntity
  8
0
  6
Continuous
 62
     7
100
AcDbLine
 10
488.9501893377718
 20
294.8533290767656
 30
0.0
 11
494.9501893377719
 21
294.8533290768076
 31
0.0
  0
LINE
  5
54E
330
1F
100
AcDbEntity
  8
0
  6
Continuous
 62
     7
100
AcDbLine
 10
488.9501893377718
 20
293.5333290767656
 30
0.0
 11
494.9501893377719
 21
293.5333290768076
 31
0.0
  0
ARC
  5
54F
330
1F
100
AcDbEntity
  8
0
  6
Continuous
 62
     7
100
AcDbCircle
 10
490.9501893377712
 20
291.3833290767303
 30
0.0
 40
1.500000000000254
100
AcDbArc
 50
0.0000000000097707
 51
89.99999999999024
  0
ARC
  5
550
330
1F
100
AcDbEntity
  8
0
  6
Continuous
 62
     7
100
AcDbCircle
 10
490.9501893377712
 20
289.3833290767308
 30
0.0
 40
1.500000000000244
100
AcDbArc
 50
270.0000000000094
 51
359.9999999999901
  0
LINE
  5
551
330
1F
100
AcDbEntity
  8
0
  6
Continuous
 62
     7
100
AcDbLine
 10
492.4501893377716
 20
291.3833290767306
 30
0.0
 11
492.4501893377716
 21
289.3833290767306
 31
0.0
  0
LINE
  5
552
330
1F
100
AcDbEntity
  8
0
  6
Continuous
 62
     7
100
AcDbLine
 10
489.9501893377718
 20
287.8833290767305
 30
0.0
 11
490.9501893377719
 21
287.8833290767305
 31
0.0
  0
LINE
  5
553
330
1F
100
AcDbEntity
  8
0
  6
Continuous
 62
     7
100
AcDbLine
 10
489.9501893377718
 20
292.8833290767306
 30
0.0
 11
490.9501893377719
 21
292.8833290767306
 31
0.0
  0
ARC
  5
554
330
1F
100
AcDbEntity
  8
0
  6
Continuous
 62
     7
100
AcDbCircle
 10
490.9501893377712
 20
297.0033290767306
 30
0.0
 40
1.500000000000241
100
AcDbArc
 50
270.0000000000094
 51
359.9999999999901
  0
LINE
  5
555
330
1F
100
AcDbEntity
  8
0
  6
Continuous
 62
     7
100
AcDbLine
 10
489.9501893377718
 20
295.5033290767307
 30
0.0
 11
490.9501893377719
 21
295.5033290767307
 31
0.0
  0
LINE
  5
556
330
1F
100
AcDbEntity
  8
0
  6
Continuous
 62
     7
100
AcDbLine
 10
488.9501893377718
 20
302.4733290767706
 30
0.0
 11
494.9501893377719
 21
302.4733290767866
 31
0.0
  0
LINE
  5
557
330
1F
100
AcDbEntity
  8
0
  6
Continuous
 62
     7
100
AcDbLine
 10
488.9501893377718
 20
301.1533290767836
 30
0.0
 11
494.9501893377719
 21
301.1533290767916
 31
0.0
  0
ARC
  5
558
330
1F
100
AcDbEntity
  8
0
  6
Continuous
 62
     7
100
AcDbCircle
 10
490.9501893377712
 20
304.6233290767306
 30
0.0
 40
1.500000000000244
100
AcDbArc
 50
270.0000000000094
 51
359.9999999999901
  0
ARC
  5
559
330
1F
100
AcDbEntity
  8
0
  6
Continuous
 62
     7
100
AcDbCircle
 10
490.9501893377712
 20
299.0033290767303
 30
0.0
 40
1.500000000000254
100
AcDbArc
 50
0.0000000000097707
 51
89.99999999999024
  0
LINE
  5
55A
330
1F
100
AcDbEntity
  8
0
  6
Continuous
 62
     7
100
AcDbLine
 10
489.9501893377718
 20
300.5033290767306
 30
0.0
 11
490.9501893377719
 21
300.5033290767306
 31
0.0
  0
LINE
  5
55B
330
1F
100
AcDbEntity
  8
0
  6
Continuous
 62
     7
100
AcDbLine
 10
492.4501893377716
 20
306.6233290767306
 30
0.0
 11
492.4501893377716
 21
304.6233290767306
 31
0.0
  0
LINE
  5
55C
330
1F
100
AcDbEntity
  8
0
  6
Continuous
 62
     7
100
AcDbLine
 10
489.9501893377718
 20
308.1233290767306
 30
0.0
 11
490.9501893377719
 21
308.1233290767306
 31
0.0
  0
LINE
  5
55D
330
1F
100
AcDbEntity
  8
0
  6
Continuous
 62
     7
100
AcDbLine
 10
489.9501893377718
 20
303.1233290767306
 30
0.0
 11
490.9501893377719
 21
303.1233290767306
 31
0.0
  0
ARC
  5
55E
330
1F
100
AcDbEntity
  8
0
  6
Continuous
 62
     7
100
AcDbCircle
 10
490.9501893377712
 20
319.8633290767068
 30
0.0
 40
1.500000000000241
100
AcDbArc
 50
270.0000000000094
 51
359.9999999999901
  0
LINE
  5
55F
330
1F
100
AcDbEntity
  8
0
  6
Continuous
 62
     7
100
AcDbLine
 10
489.9501893377718
 20
324.0133290767266
 30
0.0
 11
489.9501893377718
 21
317.7133290767536
 31
0.0
  0
LINE
  5
560
330
1F
100
AcDbEntity
  8
0
  6
Continuous
 62
     7
100
AcDbLine
 10
494.9501893377719
 20
317.7133290767866
 30
0.0
 11
488.9501893377718
 21
317.7133290767706
 31
0.0
  0
LINE
  5
561
330
1F
100
AcDbEntity
  8
0
  6
Continuous
 62
     7
100
AcDbLine
 10
488.9501893377718
 20
316.3933290767426
 30
0.0
 11
494.9501893377719
 21
316.3933290767756
 31
0.0
  0
LINE
  5
562
330
1F
100
AcDbEntity
  8
0
  6
Continuous
 62
     7
100
AcDbLine
 10
488.9501893377718
 20
310.0933290767426
 30
0.0
 11
494.9501893377719
 21
310.0933290767756
 31
0.0
  0
LINE
  5
563
330
1F
100
AcDbEntity
  8
0
  6
Continuous
 62
     7
100
AcDbLine
 10
488.9501893377718
 20
308.7733290767656
 30
0.0
 11
494.9501893377719
 21
308.7733290768076
 31
0.0
  0
LINE
  5
564
330
1F
100
AcDbEntity
  8
0
  6
Continuous
 62
     7
100
AcDbLine
 10
492.4501893377716
 20
314.2433290767306
 30
0.0
 11
492.4501893377716
 21
312.2433290767306
 31
0.0
  0
LINE
  5
565
330
1F
100
AcDbEntity
  8
0
  6
Continuous
 62
     7
100
AcDbLine
 10
489.9501893377718
 20
316.3933290767516
 30
0.0
 11
489.9501893377718
 21
310.0933290767776
 31
0.0
  0
ARC
  5
566
330
1F
100
AcDbEntity
  8
0
  6
Continuous
 62
     7
100
AcDbCircle
 10
490.9501893377712
 20
312.2433290767308
 30
0.0
 40
1.500000000000241
100
AcDbArc
 50
270.0000000000094
 51
359.9999999999901
  0
LINE
  5
567
330
1F
100
AcDbEntity
  8
0
  6
Continuous
 62
     7
100
AcDbLine
 10
489.9501893377718
 20
310.7433290767307
 30
0.0
 11
490.9501893377719
 21
310.7433290767307
 31
0.0
  0
ARC
  5
568
330
1F
100
AcDbEntity
  8
0
  6
Continuous
 62
     7
100
AcDbCircle
 10
490.9501893377712
 20
314.2433290767304
 30
0.0
 40
1.500000000000254
100
AcDbArc
 50
0.0000000000097707
 51
89.99999999999024
  0
LINE
  5
569
330
1F
100
AcDbEntity
  8
0
  6
Continuous
 62
     7
100
AcDbLine
 10
489.9501893377718
 20
315.7433290767306
 30
0.0
 11
490.9501893377719
 21
315.7433290767306
 31
0.0
  0
LINE
  5
56A
330
1F
100
AcDbEntity
  8
0
  6
Continuous
 62
     7
100
AcDbLine
 10
489.9501893377718
 20
318.3633290767066
 30
0.0
 11
490.9501893377719
 21
318.3633290767066
 31
0.0
  0
LINE
  5
56B
330
1F
100
AcDbEntity
  8
0
  6
Continuous
 62
     7
100
AcDbLine
 10
488.9501893377718
 20
324.0133290767426
 30
0.0
 11
494.9501893377719
 21
324.0133290767756
 31
0.0
  0
LINE
  5
56C
330
1F
100
AcDbEntity
  8
0
  6
Continuous
 62
     7
100
AcDbLine
 10
494.9501893377719
 20
325.3333290767756
 30
0.0
 11
488.9501893377718
 21
325.3333290767426
 31
0.0
  0
ARC
  5
56D
330
1F
100
AcDbEntity
  8
0
  6
Continuous
 62
     7
100
AcDbCircle
 10
490.9501893377712
 20
321.8633290767064
 30
0.0
 40
1.500000000000254
100
AcDbArc
 50
0.0000000000097707
 51
89.99999999999024
  0
LINE
  5
56E
330
1F
100
AcDbEntity
  8
0
  6
Continuous
 62
     7
100
AcDbLine
 10
492.4501893377716
 20
321.8633290767066
 30
0.0
 11
492.4501893377716
 21
319.8633290767066
 31
0.0
  0
LINE
  5
56F
330
1F
100
AcDbEntity
  8
0
  6
Continuous
 62
     7
100
AcDbLine
 10
489.9501893377718
 20
323.3633290767066
 30
0.0
 11
490.9501893377719
 21
323.3633290767066
 31
0.0
  0
ARC
  5
570
330
1F
100
AcDbEntity
  8
0
  6
Continuous
 62
     7
100
AcDbCircle
 10
490.9501893377712
 20
327.4833290767058
 30
0.0
 40
1.500000000000241
100
AcDbArc
 50
270.0000000000094
 51
359.9999999999901
  0
LINE
  5
571
330
1F
100
AcDbEntity
  8
0
  6
Continuous
 62
     7
100
AcDbLine
 10
489.9501893377718
 20
325.9833290767056
 30
0.0
 11
490.9501893377719
 21
325.9833290767056
 31
0.0
  0
ARC
  5
572
330
1F
100
AcDbEntity
  8
0
  6
Continuous
 62
     7
100
AcDbCircle
 10
490.9501893377712
 20
350.3433290767399
 30
0.0
 40
1.500000000000241
100
AcDbArc
 50
270.0000000000094
 51
359.9999999999901
  0
LINE
  5
573
330
1F
100
AcDbEntity
  8
0
  6
Continuous
 62
     7
100
AcDbLine
 10
489.9501893377718
 20
354.4933290767606
 30
0.0
 11
489.9501893377718
 21
348.1933290767866
 31
0.0
  0
LINE
  5
574
330
1F
100
AcDbEntity
  8
0
  6
Continuous
 62
     7
100
AcDbLine
 10
488.9501893377718
 20
339.2533290767376
 30
0.0
 11
494.9501893377719
 21
339.2533290767965
 31
0.0
  0
LINE
  5
575
330
1F
100
AcDbEntity
  8
0
  6
Continuous
 62
     7
100
AcDbLine
 10
494.9501893377719
 20
332.9533290768076
 30
0.0
 11
488.9501893377718
 21
332.9533290767656
 31
0.0
  0
LINE
  5
576
330
1F
100
AcDbEntity
  8
0
  6
Continuous
 62
     7
100
AcDbLine
 10
488.9501893377718
 20
331.6333290767426
 30
0.0
 11
494.9501893377719
 21
331.6333290767756
 31
0.0
  0
ARC
  5
577
330
1F
100
AcDbEntity
  8
0
  6
Continuous
 62
     7
100
AcDbCircle
 10
490.9501893377712
 20
335.1033290767316
 30
0.0
 40
1.500000000000241
100
AcDbArc
 50
270.0000000000094
 51
359.9999999999901
  0
LINE
  5
578
330
1F
100
AcDbEntity
  8
0
  6
Continuous
 62
     7
100
AcDbLine
 10
489.9501893377718
 20
339.2533290767526
 30
0.0
 11
489.9501893377718
 21
332.9533290767786
 31
0.0
  0
ARC
  5
579
330
1F
100
AcDbEntity
  8
0
  6
Continuous
 62
     7
100
AcDbCircle
 10
490.9501893377712
 20
329.4833290767054
 30
0.0
 40
1.500000000000254
100
AcDbArc
 50
0.0000000000097707
 51
89.99999999999024
  0
LINE
  5
57A
330
1F
100
AcDbEntity
  8
0
  6
Continuous
 62
     7
100
AcDbLine
 10
489.9501893377718
 20
330.9833290767056
 30
0.0
 11
490.9501893377719
 21
330.9833290767056
 31
0.0
  0
LINE
  5
57B
330
1F
100
AcDbEntity
  8
0
  6
Continuous
 62
     7
100
AcDbLine
 10
489.9501893377718
 20
333.6033290767316
 30
0.0
 11
490.9501893377719
 21
333.6033290767316
 31
0.0
  0
ARC
  5
57C
330
1F
100
AcDbEntity
  8
0
  6
Continuous
 62
     7
100
AcDbCircle
 10
490.9501893377712
 20
337.1033290767313
 30
0.0
 40
1.500000000000254
100
AcDbArc
 50
0.0000000000097707
 51
89.99999999999024
  0
LINE
  5
57D
330
1F
100
AcDbEntity
  8
0
  6
Continuous
 62
     7
100
AcDbLine
 10
492.4501893377716
 20
337.1033290767316
 30
0.0
 11
492.4501893377716
 21
335.1033290767316
 31
0.0
  0
LINE
  5
57E
330
1F
100
AcDbEntity
  8
0
  6
Continuous
 62
     7
100
AcDbLine
 10
489.9501893377718
 20
338.6033290767316
 30
0.0
 11
490.9501893377719
 21
338.6033290767316
 31
0.0
  0
LINE
  5
57F
330
1F
100
AcDbEntity
  8
0
  6
Continuous
 62
     7
100
AcDbLine
 10
494.9501893377719
 20
348.1933290767755
 30
0.0
 11
488.9501893377718
 21
348.1933290767426
 31
0.0
  0
LINE
  5
580
330
1F
100
AcDbEntity
  8
0
  6
Continuous
 62
     7
100
AcDbLine
 10
488.9501893377718
 20
346.8733290767376
 30
0.0
 11
494.9501893377719
 21
346.8733290767966
 31
0.0
  0
LINE
  5
581
330
1F
100
AcDbEntity
  8
0
  6
Continuous
 62
     7
100
AcDbLine
 10
494.9501893377719
 20
340.5733290767963
 30
0.0
 11
488.9501893377718
 21
340.5733290767376
 31
0.0
  0
ARC
  5
582
330
1F
100
AcDbEntity
  8
0
  6
Continuous
 62
     7
100
AcDbCircle
 10
490.9501893377712
 20
344.7233290767063
 30
0.0
 40
1.500000000000254
100
AcDbArc
 50
0.0000000000097707
 51
89.99999999999024
  0
LINE
  5
583
330
1F
100
AcDbEntity
  8
0
  6
Continuous
 62
     7
100
AcDbLine
 10
489.9501893377718
 20
346.8733290767266
 30
0.0
 11
489.9501893377718
 21
340.5733290767536
 31
0.0
  0
ARC
  5
584
330
1F
100
AcDbEntity
  8
0
  6
Continuous
 62
     7
100
AcDbCircle
 10
490.9501893377712
 20
342.7233290767068
 30
0.0
 40
1.500000000000241
100
AcDbArc
 50
270.0000000000094
 51
359.9999999999901
  0
LINE
  5
585
330
1F
100
AcDbEntity
  8
0
  6
Continuous
 62
     7
100
AcDbLine
 10
492.4501893377716
 20
344.7233290767066
 30
0.0
 11
492.4501893377716
 21
342.7233290767066
 31
0.0
  0
LINE
  5
586
330
1F
100
AcDbEntity
  8
0
  6
Continuous
 62
     7
100
AcDbLine
 10
489.9501893377718
 20
341.2233290767066
 30
0.0
 11
490.9501893377719
 21
341.2233290767066
 31
0.0
  0
LINE
  5
587
330
1F
100
AcDbEntity
  8
0
  6
Continuous
 62
     7
100
AcDbLine
 10
489.9501893377718
 20
346.2233290767063
 30
0.0
 11
490.9501893377719
 21
346.2233290767063
 31
0.0
  0
LINE
  5
588
330
1F
100
AcDbEntity
  8
0
  6
Continuous
 62
     7
100
AcDbLine
 10
489.9501893377718
 20
348.8433290767396
 30
0.0
 11
490.9501893377719
 21
348.8433290767396
 31
0.0
  0
ARC
  5
589
330
1F
100
AcDbEntity
  8
0
  6
Continuous
 62
     7
100
AcDbCircle
 10
490.9501893377712
 20
359.9633290767313
 30
0.0
 40
1.500000000000254
100
AcDbArc
 50
0.0000000000097707
 51
89.99999999999024
  0
LINE
  5
58A
330
1F
100
AcDbEntity
  8
0
  6
Continuous
 62
     7
100
AcDbLine
 10
489.9501893377718
 20
362.1133290767526
 30
0.0
 11
489.9501893377718
 21
355.8133290767786
 31
0.0
  0
LINE
  5
58B
330
1F
100
AcDbEntity
  8
0
  6
Continuous
 62
     7
100
AcDbLine
 10
494.9501893377719
 20
355.8133290768076
 30
0.0
 11
488.9501893377718
 21
355.8133290767655
 31
0.0
  0
LINE
  5
58C
330
1F
100
AcDbEntity
  8
0
  6
Continuous
 62
     7
100
AcDbLine
 10
488.9501893377718
 20
354.4933290767655
 30
0.0
 11
494.9501893377719
 21
354.4933290768076
 31
0.0
  0
ARC
  5
58D
330
1F
100
AcDbEntity
  8
0
  6
Continuous
 62
     7
100
AcDbCircle
 10
490.9501893377712
 20
352.3433290767393
 30
0.0
 40
1.500000000000254
100
AcDbArc
 50
0.0000000000097707
 51
89.99999999999024
  0
LINE
  5
58E
330
1F
100
AcDbEntity
  8
0
  6
Continuous
 62
     7
100
AcDbLine
 10
492.4501893377716
 20
352.3433290767396
 30
0.0
 11
492.4501893377716
 21
350.3433290767397
 31
0.0
  0
LINE
  5
58F
330
1F
100
AcDbEntity
  8
0
  6
Continuous
 62
     7
100
AcDbLine
 10
489.9501893377718
 20
353.8433290767396
 30
0.0
 11
490.9501893377719
 21
353.8433290767396
 31
0.0
  0
ARC
  5
590
330
1F
100
AcDbEntity
  8
0
  6
Continuous
 62
     7
100
AcDbCircle
 10
490.9501893377712
 20
357.9633290767318
 30
0.0
 40
1.500000000000241
100
AcDbArc
 50
270.0000000000094
 51
359.9999999999901
  0
LINE
  5
591
330
1F
100
AcDbEntity
  8
0
  6
Continuous
 62
     7
100
AcDbLine
 10
492.4501893377716
 20
359.9633290767316
 30
0.0
 11
492.4501893377716
 21
357.9633290767316
 31
0.0
  0
LINE
  5
592
330
1F
100
AcDbEntity
  8
0
  6
Continuous
 62
     7
100
AcDbLine
 10
489.9501893377718
 20
356.4633290767316
 30
0.0
 11
490.9501893377719
 21
356.4633290767316
 31
0.0
  0
LINE
  5
593
330
1F
100
AcDbEntity
  8
0
  6
Continuous
 62
     7
100
AcDbLine
 10
488.9501893377718
 20
363.4733290768175
 30
0.0
 11
494.9501893377719
 21
363.4733290768175
 31
0.0
  0
LINE
  5
594
330
1F
100
AcDbEntity
  8
0
  6
Continuous
 62
     7
100
AcDbLine
 10
488.9501893377718
 20
362.1133290767375
 30
0.0
 11
494.9501893377719
 21
362.1133290767965
 31
0.0
  0
LINE
  5
595
330
1F
100
AcDbEntity
  8
0
  6
Continuous
 62
     7
100
AcDbLine
 10
489.9501893377718
 20
361.4633290767315
 30
0.0
 11
490.9501893377719
 21
361.4633290767315
 31
0.0
  0
LINE
  5
596
330
1F
100
AcDbEntity
  8
0
  6
Continuous
 62
     7
100
AcDbLine
 10
495.7501893377717
 20
367.4733290768176
 30
0.0
 11
496.9501893377716
 21
367.4733290768176
 31
0.0
  0
LINE
  5
597
330
1F
100
AcDbEntity
  8
0
  6
Continuous
 62
     7
100
AcDbLine
 10
495.7501893377717
 20
366.9733290768173
 30
0.0
 11
496.9501893377716
 21
366.9733290768173
 31
0.0
  0
ARC
  5
675
330
1F
100
AcDbEntity
  8
0
  6
Continuous
 62
     7
100
AcDbCircle
 10
495.9501893377716
 20
382.9733290768171
 30
0.0
 40
1.00000000000017
100
AcDbArc
 50
0.0000000000097707
 51
89.99999999999024
  0
LINE
  5
DFE
330
1F
100
AcDbEntity
  8
0
  6
Continuous
 62
     7
100
AcDbLine
 10
611.9501893377718
 20
390.4733290768175
 30
0.0
 11
611.9501893377718
 21
383.9733290768176
 31
0.0
  0
LINE
  5
DFF
330
1F
100
AcDbEntity
  8
0
  6
Continuous
 62
     7
100
AcDbLine
 10
561.9501893377718
 20
390.4733290768175
 30
0.0
 11
561.9501893377718
 21
383.9733290768176
 31
0.0
  0
ARC
  5
E00
330
1F
100
AcDbEntity
  8
0
  6
Continuous
 62
     7
100
AcDbCircle
 10
586.9501893377712
 20
390.4733290768175
 30
0.0
 40
3.499999999999886
100
AcDbArc
 50
180.0
 51
0.0
  0
LINE
  5
E01
330
1F
100
AcDbEntity
  8
0
  6
Continuous
 62
     7
100
AcDbLine
 10
551.9501893377719
 20
383.9733290768176
 30
0.0
 11
621.9501893377719
 21
383.9733290768176
 31
0.0
  0
LINE
  5
E02
330
1F
100
AcDbEntity
  8
0
  6
Continuous
 62
     7
100
AcDbLine
 10
551.9501893377719
 20
374.4733290768176
 30
0.0
 11
621.9501893377719
 21
374.4733290768176
 31
0.0
  0
LINE
  5
E03
330
1F
100
AcDbEntity
  8
0
  6
Continuous
 62
     7
100
AcDbLine
 10
553.9501893377718
 20
383.9733290768176
 30
0.0
 11
619.9501893377719
 21
383.9733290768176
 31
0.0
  0
LINE
  5
E04
330
1F
100
AcDbEntity
  8
0
  6
Continuous
 62
     7
100
AcDbLine
 10
597.9501893377719
 20
281.2733290768175
 30
0.0
 11
602.9001893377717
 21
281.2733290768175
 31
0.0
  0
LINE
  5
E05
330
1F
100
AcDbEntity
  8
0
  6
Continuous
 62
     7
100
AcDbLine
 10
592.4501893377716
 20
246.4733290768176
 30
0.0
 11
605.9501893377719
 21
246.4733290768176
 31
0.0
  0
LINE
  5
E06
330
1F
100
AcDbEntity
  8
0
  6
Continuous
 62
     7
100
AcDbLine
 10
563.9501893377719
 20
269.4733290768176
 30
0.0
 11
609.9501893377719
 21
269.4733290768176
 31
0.0
  0
LINE
  5
E07
330
1F
100
AcDbEntity
  8
0
  6
Continuous
 62
     7
100
AcDbLine
 10
570.2001893377719
 20
280.4733290768173
 30
0.0
 11
603.7001893377719
 21
280.4733290768173
 31
0.0
  0
LINE
  5
E08
330
1F
100
AcDbEntity
  8
0
  6
Continuous
 62
     7
100
AcDbLine
 10
571.9001893377717
 20
282.1733290768176
 30
0.0
 11
602.0001893377719
 21
282.1733290768176
 31
0.0
  0
LINE
  5
E09
330
1F
100
AcDbEntity
  8
0
  6
Continuous
 62
     7
100
AcDbLine
 10
570.7001893377719
 20
280.9733290768176
 30
0.0
 11
603.2001893377719
 21
280.9733290768176
 31
0.0
  0
LINE
  5
E0A
330
1F
100
AcDbEntity
  8
0
  6
Continuous
 62
     7
100
AcDbLine
 10
551.9501893377719
 20
258.9733290768176
 30
0.0
 11
621.9501893377719
 21
258.9733290768176
 31
0.0
  0
LINE
  5
E0B
330
1F
100
AcDbEntity
  8
0
  6
Continuous
 62
     7
100
AcDbLine
 10
551.9501893377719
 20
268.4733290768176
 30
0.0
 11
621.9501893377719
 21
268.4733290768176
 31
0.0
  0
ARC
  5
E0E
330
1F
100
AcDbEntity
  8
0
  6
Continuous
 62
     7
100
AcDbCircle
 10
600.4501893377717
 20
355.8733290768174
 30
0.0
 40
1.00000000000017
100
AcDbArc
 50
0.0000000000113991
 51
89.99999999999348
  0
ARC
  5
E0F
330
1F
100
AcDbEntity
  8
0
  6
Continuous
 62
     7
100
AcDbCircle
 10
600.4501893377717
 20
347.8733290768177
 30
0.0
 40
1.000000000000198
100
AcDbArc
 50
270.0000000000065
 51
359.9999999999884
  0
ARC
  5
E10
330
1F
100
AcDbEntity
  8
0
  6
Continuous
 62
     7
100
AcDbCircle
 10
600.4501893377717
 20
340.4733290768173
 30
0.0
 40
1.00000000000017
100
AcDbArc
 50
0.0000000000113991
 51
89.99999999999348
  0
LINE
  5
E12
330
1F
100
AcDbEntity
  8
0
  6
Continuous
 62
     7
100
AcDbLine
 10
565.9501893377719
 20
364.4733290768176
 30
0.0
 11
607.9501893377718
 21
364.4733290768176
 31
0.0
  0
LINE
  5
E13
330
1F
100
AcDbEntity
  8
0
  6
Continuous
 62
     7
100
AcDbLine
 10
563.9501893377719
 20
373.4733290768176
 30
0.0
 11
609.9501893377719
 21
373.4733290768176
 31
0.0
  0
LINE
  5
E14
330
1F
100
AcDbEntity
  8
0
  6
Continuous
 62
     7
100
AcDbLine
 10
565.9501893377719
 20
364.4733290768176
 30
0.0
 11
607.9501893377718
 21
364.4733290768176
 31
0.0
  0
ARC
  5
E16
330
1F
100
AcDbEntity
  8
0
  6
Continuous
 62
     7
100
AcDbCircle
 10
600.4501893377717
 20
332.4733290768179
 30
0.0
 40
1.000000000000198
100
AcDbArc
 50
270.0000000000065
 51
359.9999999999884
  0
ARC
  5
E19
330
1F
100
AcDbEntity
  8
0
  6
Continuous
 62
     7
100
AcDbCircle
 10
601.9501893377719
 20
312.9733290768176
 30
0.0
 40
4.0
100
AcDbArc
 50
0.0
 51
180.0
  0
LINE
  5
E1B
330
1F
100
AcDbEntity
  8
0
  6
Continuous
 62
     7
100
AcDbLine
 10
597.9501893377719
 20
294.6733290768176
 30
0.0
 11
602.9001893377717
 21
294.6733290768176
 31
0.0
  0
ARC
  5
E1C
330
1F
100
AcDbEntity
  8
0
  6
Continuous
 62
     7
100
AcDbCircle
 10
601.9501893377719
 20
309.9733290768176
 30
0.0
 40
4.0
100
AcDbArc
 50
180.0
 51
0.0
  0
LINE
  5
E1E
330
1F
100
AcDbEntity
  8
0
  6
Continuous
 62
     7
100
AcDbLine
 10
565.9501893377719
 20
299.9733290768176
 30
0.0
 11
607.9501893377718
 21
299.9733290768176
 31
0.0
  0
LINE
  5
E1F
330
1F
100
AcDbEntity
  8
0
  6
Continuous
 62
     7
100
AcDbLine
 10
570.2001893377719
 20
295.4733290768176
 30
0.0
 11
603.7001893377719
 21
295.4733290768176
 31
0.0
  0
LINE
  5
E20
330
1F
100
AcDbEntity
  8
0
  6
Continuous
 62
     7
100
AcDbLine
 10
571.9001893377717
 20
293.7733290768176
 30
0.0
 11
602.0001893377719
 21
293.7733290768176
 31
0.0
  0
LINE
  5
E21
330
1F
100
AcDbEntity
  8
0
  6
Continuous
 62
     7
100
AcDbLine
 10
570.7001893377719
 20
294.9733290768175
 30
0.0
 11
603.2001893377719
 21
294.9733290768175
 31
0.0
  0
LINE
  5
E22
330
1F
100
AcDbEntity
  8
0
  6
Continuous
 62
     7
100
AcDbLine
 10
576.9501893377719
 20
329.4733290768176
 30
0.0
 11
604.4501893377719
 21
329.4733290768176
 31
0.0
  0
LINE
  5
E23
330
1F
100
AcDbEntity
  8
0
  6
Continuous
 62
     7
100
AcDbLine
 10
576.9501893377719
 20
320.4733290768176
 30
0.0
 11
604.4501893377719
 21
320.4733290768176
 31
0.0
  0
LINE
  5
E24
330
1F
100
AcDbEntity
  8
0
  6
Continuous
 62
     7
100
AcDbLine
 10
565.9501893377719
 20
299.9733290768176
 30
0.0
 11
607.9501893377718
 21
299.9733290768176
 31
0.0
  0
LINE
  5
E25
330
1F
100
AcDbEntity
  8
0
  6
Continuous
 62
     7
100
AcDbLine
 10
551.9501893377719
 20
383.9733290768176
 30
0.0
 11
551.9501893377719
 21
258.9733290768176
 31
0.0
  0
LINE
  5
E26
330
1F
100
AcDbEntity
  8
0
  6
Continuous
 62
     7
100
AcDbLine
 10
551.9501893377719
 20
260.9733290768176
 30
0.0
 11
551.9501893377719
 21
381.9733290768176
 31
0.0
  0
LINE
  5
E27
330
1F
100
AcDbEntity
  8
0
  6
Continuous
 62
     7
100
AcDbLine
 10
561.9501893377718
 20
371.4733290768176
 30
0.0
 11
561.9501893377718
 21
271.4733290768176
 31
0.0
  0
LINE
  5
E28
330
1F
100
AcDbEntity
  8
0
  6
Continuous
 62
     7
100
AcDbLine
 10
590.4501893377718
 20
252.4733290768175
 30
0.0
 11
590.4501893377718
 21
248.4733290768175
 31
0.0
  0
LINE
  5
E29
330
1F
100
AcDbEntity
  8
0
  6
Continuous
 62
     7
100
AcDbLine
 10
583.4501893377717
 20
252.4733290768175
 30
0.0
 11
583.4501893377717
 21
248.4733290768175
 31
0.0
  0
ARC
  5
E2A
330
1F
100
AcDbEntity
  8
0
  6
Continuous
 62
     7
100
AcDbCircle
 10
567.9501893377727
 20
252.4733290768185
 30
0.0
 40
6.000000000000964
100
AcDbArc
 50
180.0000000000089
 51
269.9999999999902
  0
LINE
  5
E2B
330
1F
100
AcDbEntity
  8
0
  6
Continuous
 62
     7
100
AcDbLine
 10
567.9501893377719
 20
246.4733290768176
 30
0.0
 11
581.4501893377719
 21
246.4733290768176
 31
0.0
  0
ARC
  5
E2C
330
1F
100
AcDbEntity
  8
0
  6
Continuous
 62
     7
100
AcDbCircle
 10
581.4501893377712
 20
248.473329076818
 30
0.0
 40
2.000000000000323
100
AcDbArc
 50
270.0000000000094
 51
359.9999999999906
  0
ARC
  5
E2D
330
1F
100
AcDbEntity
  8
0
  6
Continuous
 62
     7
100
AcDbCircle
 10
592.4501893377716
 20
248.473329076818
 30
0.0
 40
2.000000000000369
100
AcDbArc
 50
180.0000000000108
 51
269.9999999999934
  0
ARC
  5
E2F
330
1F
100
AcDbEntity
  8
0
  6
Continuous
 62
     7
100
AcDbCircle
 10
553.9501893377721
 20
260.973329076818
 30
0.0
 40
2.000000000000311
100
AcDbArc
 50
180.0000000000089
 51
269.9999999999902
  0
LINE
  5
E30
330
1F
100
AcDbEntity
  8
0
  6
Continuous
 62
     7
100
AcDbLine
 10
561.9501893377718
 20
258.9733290768176
 30
0.0
 11
561.9501893377718
 21
252.4733290768175
 31
0.0
  0
ARC
  5
E31
330
1F
100
AcDbEntity
  8
0
  6
Continuous
 62
     7
100
AcDbCircle
 10
563.9501893377721
 20
271.473329076818
 30
0.0
 40
2.000000000000311
100
AcDbArc
 50
180.000000000009
 51
269.9999999999902
  0
LINE
  5
E32
330
1F
100
AcDbEntity
  8
0
  6
Continuous
 62
     7
100
AcDbLine
 10
588.9501923657896
 20
271.9733298396517
 30
0.0
 11
588.9501923657848
 21
272.9733298396406
 31
0.0
  0
LINE
  5
E33
330
1F
100
AcDbEntity
  8
0
  6
Continuous
 62
     7
100
AcDbLine
 10
584.9501923657848
 20
272.9733298396185
 30
0.0
 11
584.9501923657896
 21
271.9733298396295
 31
0.0
  0
ARC
  5
E36
330
1F
100
AcDbEntity
  8
0
  6
Continuous
 62
     7
100
AcDbCircle
 10
586.9501893377718
 20
272.4733290768176
 30
0.0
 40
4.0
100
AcDbArc
 50
0.0
 51
180.0
  0
ARC
  5
E37
330
1F
100
AcDbEntity
  8
0
  6
Continuous
 62
     7
100
AcDbCircle
 10
586.9501893377712
 20
252.4733290768175
 30
0.0
 40
3.499999999999912
100
AcDbArc
 50
0.0
 51
180.0
  0
LINE
  5
E38
330
1F
100
AcDbEntity
  8
0
  6
Continuous
 62
     7
100
AcDbLine
 10
582.9501893377718
 20
272.4733290768176
 30
0.0
 11
582.9501893377718
 21
269.4733290768176
 31
0.0
  0
LINE
  5
E39
330
1F
100
AcDbEntity
  8
0
  6
Continuous
 62
     7
100
AcDbLine
 10
592.9501893377719
 20
260.9733290768176
 30
0.0
 11
592.9501893377719
 21
262.0858761065516
 31
0.0
  0
LINE
  5
E3A
330
1F
100
AcDbEntity
  8
0
  6
Continuous
 62
     7
100
AcDbLine
 10
588.9501893377719
 20
260.9733290768176
 30
0.0
 11
588.9501893377719
 21
262.0858663550706
 31
0.0
  0
LINE
  5
E3B
330
1F
100
AcDbEntity
  8
0
  6
Continuous
 62
     7
100
AcDbLine
 10
588.9501893377719
 20
260.9733290768176
 30
0.0
 11
586.9501893377718
 21
258.9733290768176
 31
0.0
  0
LINE
  5
E3C
330
1F
100
AcDbEntity
  8
0
  6
Continuous
 62
     7
100
AcDbLine
 10
592.9501893377719
 20
260.9733290768176
 30
0.0
 11
594.9501893377719
 21
258.9733290768176
 31
0.0
  0
LINE
  5
E3D
330
1F
100
AcDbEntity
  8
0
  6
Continuous
 62
     7
100
AcDbLine
 10
592.9501847363898
 20
264.4733298396406
 30
0.0
 11
591.4501847363898
 21
264.4733298396315
 31
0.0
  0
LINE
  5
E3E
330
1F
100
AcDbEntity
  8
0
  6
Continuous
 62
     7
100
AcDbLine
 10
591.4501847363957
 20
263.4733298396445
 30
0.0
 11
592.9501847363957
 21
263.4733298396517
 31
0.0
  0
LINE
  5
E41
330
1F
100
AcDbEntity
  8
0
  6
Continuous
 62
     7
100
AcDbLine
 10
591.4501847363817
 20
265.9733298396436
 30
0.0
 11
590.4501847363817
 21
265.9733298396385
 31
0.0
  0
LINE
  5
E42
330
1F
100
AcDbEntity
  8
0
  6
Continuous
 62
     7
100
AcDbLine
 10
590.4501847363817
 20
265.9733298396385
 30
0.0
 11
590.4501847363897
 21
264.4733298396386
 31
0.0
  0
LINE
  5
E43
330
1F
100
AcDbEntity
  8
0
  6
Continuous
 62
     7
100
AcDbLine
 10
590.4501847363897
 20
264.4733298396386
 30
0.0
 11
588.9501847363898
 21
264.4733298396185
 31
0.0
  0
LINE
  5
E44
330
1F
100
AcDbEntity
  8
0
  6
Continuous
 62
     7
100
AcDbLine
 10
591.4501847363898
 20
264.4733298396315
 30
0.0
 11
591.4501847363817
 21
265.9733298396436
 31
0.0
  0
LINE
  5
E45
330
1F
100
AcDbEntity
  8
0
  6
Continuous
 62
     7
100
AcDbLine
 10
591.4501847363817
 20
265.9733298396436
 30
0.0
 11
591.4501847363817
 21
265.9733298396436
 31
0.0
  0
LINE
  5
E46
330
1F
100
AcDbEntity
  8
0
  6
Continuous
 62
     7
100
AcDbLine
 10
588.9501847363957
 20
263.4733298396294
 30
0.0
 11
590.4501847363957
 21
263.4733298396386
 31
0.0
  0
LINE
  5
E47
330
1F
100
AcDbEntity
  8
0
  6
Continuous
 62
     7
100
AcDbLine
 10
590.4501847363957
 20
263.4733298396386
 30
0.0
 11
590.4501847364037
 21
261.9733298396265
 31
0.0
  0
LINE
  5
E48
330
1F
100
AcDbEntity
  8
0
  6
Continuous
 62
     7
100
AcDbLine
 10
590.4501847364037
 20
261.9733298396265
 30
0.0
 11
591.4501847364037
 21
261.9733298396436
 31
0.0
  0
LINE
  5
E49
330
1F
100
AcDbEntity
  8
0
  6
Continuous
 62
     7
100
AcDbLine
 10
591.4501847364037
 20
261.9733298396436
 30
0.0
 11
591.4501847363957
 21
263.4733298396445
 31
0.0
  0
LINE
  5
E4A
330
1F
100
AcDbEntity
  8
0
  6
Continuous
 62
     7
100
AcDbLine
 10
588.9501847363898
 20
264.4733298396185
 30
0.0
 11
588.9501847363957
 21
263.4733298396294
 31
0.0
  0
LINE
  5
E4B
330
1F
100
AcDbEntity
  8
0
  6
Continuous
 62
     7
100
AcDbLine
 10
587.4501923657899
 20
271.9733298396445
 30
0.0
 11
588.9501923657896
 21
271.9733298396517
 31
0.0
  0
LINE
  5
E4C
330
1F
100
AcDbEntity
  8
0
  6
Continuous
 62
     7
100
AcDbLine
 10
584.9501923657896
 20
271.9733298396295
 30
0.0
 11
586.4501923657896
 21
271.9733298396386
 31
0.0
  0
LINE
  5
E4D
330
1F
100
AcDbEntity
  8
0
  6
Continuous
 62
     7
100
AcDbLine
 10
586.4501923657896
 20
271.9733298396386
 30
0.0
 11
586.4501923657979
 21
270.4733298396265
 31
0.0
  0
LINE
  5
E4E
330
1F
100
AcDbEntity
  8
0
  6
Continuous
 62
     7
100
AcDbLine
 10
586.4501923657979
 20
270.4733298396265
 30
0.0
 11
587.4501923657978
 21
270.4733298396436
 31
0.0
  0
LINE
  5
E4F
330
1F
100
AcDbEntity
  8
0
  6
Continuous
 62
     7
100
AcDbLine
 10
587.4501923657978
 20
270.4733298396436
 30
0.0
 11
587.4501923657899
 21
271.9733298396445
 31
0.0
  0
LINE
  5
E51
330
1F
100
AcDbEntity
  8
0
  6
Continuous
 62
     7
100
AcDbLine
 10
590.9501893377719
 20
272.4733290768176
 30
0.0
 11
590.9501893377719
 21
269.4733290768176
 31
0.0
  0
LINE
  5
E53
330
1F
100
AcDbEntity
  8
0
  6
Continuous
 62
     7
100
AcDbLine
 10
592.9501847363957
 20
263.4733298396517
 30
0.0
 11
592.9501847363898
 21
264.4733298396406
 31
0.0
  0
LINE
  5
E54
330
1F
100
AcDbEntity
  8
0
  6
Continuous
 62
     7
100
AcDbLine
 10
577.9501893377719
 20
281.2733290768175
 30
0.0
 11
585.9501893377719
 21
281.2733290768175
 31
0.0
  0
LINE
  5
E55
330
1F
100
AcDbEntity
  8
0
  6
Continuous
 62
     7
100
AcDbLine
 10
577.9501893377719
 20
294.6733290768176
 30
0.0
 11
585.9501893377719
 21
294.6733290768176
 31
0.0
  0
LINE
  5
E56
330
1F
100
AcDbEntity
  8
0
  6
Continuous
 62
     7
100
AcDbLine
 10
571.0001893377717
 20
286.9733290768176
 30
0.0
 11
571.0001893377717
 21
281.2733290768175
 31
0.0
  0
LINE
  5
E57
330
1F
100
AcDbEntity
  8
0
  6
Continuous
 62
     7
100
AcDbLine
 10
570.2001893377719
 20
295.4733290768176
 30
0.0
 11
570.2001893377719
 21
280.4733290768173
 31
0.0
  0
LINE
  5
E58
330
1F
100
AcDbEntity
  8
0
  6
Continuous
 62
     7
100
AcDbLine
 10
571.9001893377717
 20
293.7733290768176
 30
0.0
 11
571.9001893377717
 21
282.1733290768176
 31
0.0
  0
LINE
  5
E59
330
1F
100
AcDbEntity
  8
0
  6
Continuous
 62
     7
100
AcDbLine
 10
570.7001893377719
 20
294.9733290768175
 30
0.0
 11
570.7001893377719
 21
280.9733290768176
 31
0.0
  0
LINE
  5
E5A
330
1F
100
AcDbEntity
  8
0
  6
Continuous
 62
     7
100
AcDbLine
 10
575.9501893377719
 20
281.4733290768176
 30
0.0
 11
577.9501893377719
 21
281.4733290768176
 31
0.0
  0
LINE
  5
E5B
330
1F
100
AcDbEntity
  8
0
  6
Continuous
 62
     7
100
AcDbLine
 10
571.0001893377717
 20
281.2733290768175
 30
0.0
 11
575.9501893377719
 21
281.2733290768175
 31
0.0
  0
LINE
  5
E5C
330
1F
100
AcDbEntity
  8
0
  6
Continuous
 62
     7
100
AcDbLine
 10
570.7001893377719
 20
280.9733290768176
 30
0.0
 11
570.2001893377719
 21
280.4733290768173
 31
0.0
  0
LINE
  5
E5D
330
1F
100
AcDbEntity
  8
0
  6
Continuous
 62
     7
100
AcDbLine
 10
571.9001893377717
 20
282.1733290768176
 30
0.0
 11
571.0001893377717
 21
281.2733290768175
 31
0.0
  0
LINE
  5
E5E
330
1F
100
AcDbEntity
  8
0
  6
Continuous
 62
     7
100
AcDbLine
 10
575.9501893377719
 20
281.4733290768176
 30
0.0
 11
575.9501893377719
 21
280.9733290768176
 31
0.0
  0
LINE
  5
E5F
330
1F
100
AcDbEntity
  8
0
  6
Continuous
 62
     7
100
AcDbLine
 10
577.9501893377719
 20
281.4733290768176
 30
0.0
 11
577.9501893377719
 21
280.9733290768176
 31
0.0
  0
LINE
  5
E60
330
1F
100
AcDbEntity
  8
0
  6
Continuous
 62
     7
100
AcDbLine
 10
575.9501893377719
 20
294.4733290768176
 30
0.0
 11
577.9501893377719
 21
294.4733290768176
 31
0.0
  0
LINE
  5
E61
330
1F
100
AcDbEntity
  8
0
  6
Continuous
 62
     7
100
AcDbLine
 10
571.0001893377717
 20
294.6733290768176
 30
0.0
 11
571.0001893377717
 21
288.9733290768176
 31
0.0
  0
LINE
  5
E62
330
1F
100
AcDbEntity
  8
0
  6
Continuous
 62
     7
100
AcDbLine
 10
570.7001893377719
 20
286.9733290768176
 30
0.0
 11
571.2001893377715
 21
286.9733290768176
 31
0.0
  0
LINE
  5
E63
330
1F
100
AcDbEntity
  8
0
  6
Continuous
 62
     7
100
AcDbLine
 10
571.2001893377715
 20
288.9733290768176
 30
0.0
 11
571.2001893377715
 21
286.9733290768176
 31
0.0
  0
LINE
  5
E64
330
1F
100
AcDbEntity
  8
0
  6
Continuous
 62
     7
100
AcDbLine
 10
570.7001893377719
 20
288.9733290768176
 30
0.0
 11
571.2001893377715
 21
288.9733290768176
 31
0.0
  0
LINE
  5
E65
330
1F
100
AcDbEntity
  8
0
  6
Continuous
 62
     7
100
AcDbLine
 10
571.0001893377717
 20
294.6733290768176
 30
0.0
 11
575.9501893377719
 21
294.6733290768176
 31
0.0
  0
LINE
  5
E66
330
1F
100
AcDbEntity
  8
0
  6
Continuous
 62
     7
100
AcDbLine
 10
571.9001893377717
 20
293.7733290768176
 30
0.0
 11
571.0001893377717
 21
294.6733290768176
 31
0.0
  0
LINE
  5
E67
330
1F
100
AcDbEntity
  8
0
  6
Continuous
 62
     7
100
AcDbLine
 10
570.7001893377719
 20
294.9733290768175
 30
0.0
 11
570.2001893377719
 21
295.4733290768176
 31
0.0
  0
LINE
  5
E68
330
1F
100
AcDbEntity
  8
0
  6
Continuous
 62
     7
100
AcDbLine
 10
575.9501893377719
 20
294.9733290768175
 30
0.0
 11
575.9501893377719
 21
294.4733290768176
 31
0.0
  0
LINE
  5
E69
330
1F
100
AcDbEntity
  8
0
  6
Continuous
 62
     7
100
AcDbLine
 10
577.9501893377719
 20
294.9733290768175
 30
0.0
 11
577.9501893377719
 21
294.4733290768176
 31
0.0
  0
LINE
  5
E6A
330
1F
100
AcDbEntity
  8
0
  6
Continuous
 62
     7
100
AcDbLine
 10
587.9501893377719
 20
281.2733290768175
 30
0.0
 11
595.9501893377717
 21
281.2733290768175
 31
0.0
  0
LINE
  5
E6B
330
1F
100
AcDbEntity
  8
0
  6
Continuous
 62
     7
100
AcDbLine
 10
588.9501923657848
 20
272.9733298396406
 30
0.0
 11
587.4501923657849
 21
272.9733298396315
 31
0.0
  0
LINE
  5
E6C
330
1F
100
AcDbEntity
  8
0
  6
Continuous
 62
     7
100
AcDbLine
 10
587.4501923657756
 20
274.4733298396436
 30
0.0
 11
586.4501923657757
 21
274.4733298396386
 31
0.0
  0
LINE
  5
E6D
330
1F
100
AcDbEntity
  8
0
  6
Continuous
 62
     7
100
AcDbLine
 10
586.4501923657757
 20
274.4733298396386
 30
0.0
 11
586.4501923657849
 21
272.9733298396386
 31
0.0
  0
LINE
  5
E6E
330
1F
100
AcDbEntity
  8
0
  6
Continuous
 62
     7
100
AcDbLine
 10
586.4501923657849
 20
272.9733298396386
 30
0.0
 11
584.9501923657848
 21
272.9733298396185
 31
0.0
  0
LINE
  5
E6F
330
1F
100
AcDbEntity
  8
0
  6
Continuous
 62
     7
100
AcDbLine
 10
587.4501923657849
 20
272.9733298396315
 30
0.0
 11
587.4501923657756
 21
274.4733298396436
 31
0.0
  0
LINE
  5
E70
330
1F
100
AcDbEntity
  8
0
  6
Continuous
 62
     7
100
AcDbLine
 10
587.4501923657756
 20
274.4733298396436
 30
0.0
 11
587.4501923657756
 21
274.4733298396436
 31
0.0
  0
LINE
  5
E71
330
1F
100
AcDbEntity
  8
0
  6
Continuous
 62
     7
100
AcDbLine
 10
585.9501893377719
 20
281.4733290768176
 30
0.0
 11
585.9501893377719
 21
280.9733290768176
 31
0.0
  0
LINE
  5
E72
330
1F
100
AcDbEntity
  8
0
  6
Continuous
 62
     7
100
AcDbLine
 10
587.9501893377719
 20
281.4733290768176
 30
0.0
 11
587.9501893377719
 21
280.9733290768176
 31
0.0
  0
LINE
  5
E73
330
1F
100
AcDbEntity
  8
0
  6
Continuous
 62
     7
100
AcDbLine
 10
585.9501893377719
 20
281.4733290768176
 30
0.0
 11
587.9501893377719
 21
281.4733290768176
 31
0.0
  0
LINE
  5
E74
330
1F
100
AcDbEntity
  8
0
  6
Continuous
 62
     7
100
AcDbLine
 10
595.9501893377717
 20
281.4733290768176
 30
0.0
 11
597.9501893377719
 21
281.4733290768176
 31
0.0
  0
LINE
  5
E75
330
1F
100
AcDbEntity
  8
0
  6
Continuous
 62
     7
100
AcDbLine
 10
595.9501893377717
 20
281.4733290768176
 30
0.0
 11
595.9501893377717
 21
280.9733290768176
 31
0.0
  0
LINE
  5
E76
330
1F
100
AcDbEntity
  8
0
  6
Continuous
 62
     7
100
AcDbLine
 10
597.9501893377719
 20
281.4733290768176
 30
0.0
 11
597.9501893377719
 21
280.9733290768176
 31
0.0
  0
LINE
  5
E77
330
1F
100
AcDbEntity
  8
0
  6
Continuous
 62
     7
100
AcDbLine
 10
587.9501893377719
 20
294.6733290768176
 30
0.0
 11
595.9501893377717
 21
294.6733290768176
 31
0.0
  0
LINE
  5
E78
330
1F
100
AcDbEntity
  8
0
  6
Continuous
 62
     7
100
AcDbLine
 10
585.9501893377719
 20
294.4733290768176
 30
0.0
 11
587.9501893377719
 21
294.4733290768176
 31
0.0
  0
LINE
  5
E79
330
1F
100
AcDbEntity
  8
0
  6
Continuous
 62
     7
100
AcDbLine
 10
587.9501893377719
 20
294.9733290768175
 30
0.0
 11
587.9501893377719
 21
294.4733290768176
 31
0.0
  0
LINE
  5
E7A
330
1F
100
AcDbEntity
  8
0
  6
Continuous
 62
     7
100
AcDbLine
 10
585.9501893377719
 20
294.9733290768175
 30
0.0
 11
585.9501893377719
 21
294.4733290768176
 31
0.0
  0
LINE
  5
E7B
330
1F
100
AcDbEntity
  8
0
  6
Continuous
 62
     7
100
AcDbLine
 10
595.9501893377717
 20
294.4733290768176
 30
0.0
 11
597.9501893377719
 21
294.4733290768176
 31
0.0
  0
LINE
  5
E7C
330
1F
100
AcDbEntity
  8
0
  6
Continuous
 62
     7
100
AcDbLine
 10
595.9501893377717
 20
294.9733290768175
 30
0.0
 11
595.9501893377717
 21
294.4733290768176
 31
0.0
  0
LINE
  5
E7D
330
1F
100
AcDbEntity
  8
0
  6
Continuous
 62
     7
100
AcDbLine
 10
597.9501893377719
 20
294.9733290768175
 30
0.0
 11
597.9501893377719
 21
294.4733290768176
 31
0.0
  0
LINE
  5
E7E
330
1F
100
AcDbEntity
  8
0
  6
Continuous
 62
     7
100
AcDbLine
 10
564.9501893377719
 20
363.4733290768175
 30
0.0
 11
564.9501893377719
 21
300.9733290768175
 31
0.0
  0
LINE
  5
E7F
330
1F
100
AcDbEntity
  8
0
  6
Continuous
 62
     7
100
AcDbLine
 10
564.9501893377719
 20
363.4733290768175
 30
0.0
 11
564.9501893377719
 21
300.9733290768175
 31
0.0
  0
ARC
  5
E80
330
1F
100
AcDbEntity
  8
0
  6
Continuous
 62
     7
100
AcDbCircle
 10
565.9501893377719
 20
300.9733290768178
 30
0.0
 40
1.00000000000017
100
AcDbArc
 50
180.000000000009
 51
269.9999999999902
  0
ARC
  5
E81
330
1F
100
AcDbEntity
  8
0
  6
Continuous
 62
     7
100
AcDbCircle
 10
565.9501893377719
 20
300.9733290768178
 30
0.0
 40
1.00000000000017
100
AcDbArc
 50
180.000000000009
 51
269.9999999999902
  0
ARC
  5
E82
330
1F
100
AcDbEntity
  8
0
  6
Continuous
 62
     7
100
AcDbCircle
 10
581.9501893377719
 20
309.9733290768176
 30
0.0
 40
4.0
100
AcDbArc
 50
180.0
 51
0.0
  0
ARC
  5
E83
330
1F
100
AcDbEntity
  8
0
  6
Continuous
 62
     7
100
AcDbCircle
 10
581.9501893377719
 20
312.9733290768176
 30
0.0
 40
4.0
100
AcDbArc
 50
0.0
 51
180.0
  0
ARC
  5
E86
330
1F
100
AcDbEntity
  8
0
  6
Continuous
 62
     7
100
AcDbCircle
 10
571.9501893377719
 20
309.9733290768176
 30
0.0
 40
4.0
100
AcDbArc
 50
180.0
 51
0.0
  0
ARC
  5
E88
330
1F
100
AcDbEntity
  8
0
  6
Continuous
 62
     7
100
AcDbCircle
 10
571.9501893377719
 20
312.9733290768176
 30
0.0
 40
4.0
100
AcDbArc
 50
0.0
 51
180.0
  0
LINE
  5
E8A
330
1F
100
AcDbEntity
  8
0
  6
Continuous
 62
     7
100
AcDbLine
 10
567.9501893377719
 20
312.9733290768176
 30
0.0
 11
567.9501893377719
 21
309.9733290768176
 31
0.0
  0
LINE
  5
E8B
330
1F
100
AcDbEntity
  8
0
  6
Continuous
 62
     7
 48
4.0
100
AcDbLine
 10
575.4501893377717
 20
311.4733290768175
 30
0.0
 11
575.4501893377717
 21
311.4733290768175
 31
0.0
  0
LINE
  5
E8C
330
1F
100
AcDbEntity
  8
0
  6
Continuous
 62
     7
100
AcDbLine
 10
575.9501893377719
 20
312.9733290768176
 30
0.0
 11
575.9501893377719
 21
309.9733290768176
 31
0.0
  0
LINE
  5
E8D
330
1F
100
AcDbEntity
  8
0
  6
Continuous
 62
     7
100
AcDbLine
 10
577.9501893377719
 20
312.9733290768176
 30
0.0
 11
577.9501893377719
 21
309.9733290768176
 31
0.0
  0
ARC
  5
E8E
330
1F
100
AcDbEntity
  8
0
  6
Continuous
 62
     7
100
AcDbCircle
 10
591.9501893377719
 20
309.9733290768176
 30
0.0
 40
4.0
100
AcDbArc
 50
180.0
 51
0.0
  0
ARC
  5
E8F
330
1F
100
AcDbEntity
  8
0
  6
Continuous
 62
     7
100
AcDbCircle
 10
591.9501893377719
 20
312.9733290768176
 30
0.0
 40
4.0
100
AcDbArc
 50
0.0
 51
180.0
  0
LINE
  5
E92
330
1F
100
AcDbEntity
  8
0
  6
Continuous
 62
     7
 48
4.0
100
AcDbLine
 10
585.4501893377719
 20
311.4733290768175
 30
0.0
 11
585.4501893377719
 21
311.4733290768175
 31
0.0
  0
LINE
  5
E93
330
1F
100
AcDbEntity
  8
0
  6
Continuous
 62
     7
100
AcDbLine
 10
585.9501893377719
 20
312.9733290768176
 30
0.0
 11
585.9501893377719
 21
309.9733290768176
 31
0.0
  0
LINE
  5
E94
330
1F
100
AcDbEntity
  8
0
  6
Continuous
 62
     7
100
AcDbLine
 10
587.9501893377719
 20
312.9733290768176
 30
0.0
 11
587.9501893377719
 21
309.9733290768176
 31
0.0
  0
LINE
  5
E95
330
1F
100
AcDbEntity
  8
0
  6
Continuous
 62
     7
 48
4.0
100
AcDbLine
 10
595.4501893377718
 20
311.4733290768175
 30
0.0
 11
595.4501893377718
 21
311.4733290768175
 31
0.0
  0
LINE
  5
E96
330
1F
100
AcDbEntity
  8
0
  6
Continuous
 62
     7
100
AcDbLine
 10
595.9501893377717
 20
312.9733290768176
 30
0.0
 11
595.9501893377717
 21
309.9733290768176
 31
0.0
  0
LINE
  5
E97
330
1F
100
AcDbEntity
  8
0
  6
Continuous
 62
     7
100
AcDbLine
 10
597.9501893377719
 20
312.9733290768176
 30
0.0
 11
597.9501893377719
 21
309.9733290768176
 31
0.0
  0
LINE
  5
E98
330
1F
100
AcDbEntity
  8
0
  6
Continuous
 62
     7
100
AcDbLine
 10
573.4501893377718
 20
341.4733290768176
 30
0.0
 11
600.4501893377717
 21
341.4733290768176
 31
0.0
  0
LINE
  5
E99
330
1F
100
AcDbEntity
  8
0
  6
Continuous
 62
     7
100
AcDbLine
 10
582.4977438905186
 20
340.4898203586626
 30
0.0
 11
585.2677967317197
 21
340.4898203586626
 31
0.0
  0
LINE
  5
E9A
330
1F
100
AcDbEntity
  8
0
  6
Continuous
 62
     7
100
AcDbLine
 10
582.5260119490057
 20
339.6865223056226
 30
0.0
 11
585.0955133982837
 21
339.6865223056226
 31
0.0
  0
LINE
  5
E9B
330
1F
100
AcDbEntity
  8
0
  6
Continuous
 62
     7
100
AcDbLine
 10
581.9524089412517
 20
336.0716810669426
 30
0.0
 11
584.5218380937057
 21
336.0716810669426
 31
0.0
  0
LINE
  5
E9C
330
1F
100
AcDbEntity
  8
0
  6
Continuous
 62
     7
100
AcDbLine
 10
582.0798682433276
 20
336.8749791199826
 30
0.0
 11
584.6492973957809
 21
336.8749791199826
 31
0.0
  0
LINE
  5
E9D
330
1F
100
AcDbEntity
  8
0
  6
Continuous
 62
     7
100
AcDbLine
 10
573.4501893377718
 20
331.4733290768176
 30
0.0
 11
600.4501893377717
 21
331.4733290768176
 31
0.0
  0
LINE
  5
E9E
330
1F
100
AcDbEntity
  8
0
  6
Continuous
 62
     7
100
AcDbLine
 10
584.4817856527807
 20
332.7223298347926
 30
0.0
 11
584.0756220912027
 21
333.2602182111076
 31
0.0
  0
LINE
  5
E9F
330
1F
100
AcDbEntity
  8
0
  6
Continuous
 62
     7
100
AcDbLine
 10
584.1970084599977
 20
332.4568398282626
 30
0.0
 11
584.7665628455636
 21
332.9878198413216
 31
0.0
  0
LINE
  5
EA0
330
1F
100
AcDbEntity
  8
0
  6
Continuous
 62
     7
100
AcDbLine
 10
584.5218380937057
 20
336.0716810669426
 30
0.0
 11
584.0756220912027
 21
333.2602182111076
 31
0.0
  0
ARC
  5
EA1
330
1F
100
AcDbEntity
  8
0
  6
Continuous
 62
     7
100
AcDbCircle
 10
576.9501893377719
 20
328.4733290768173
 30
0.0
 40
1.00000000000017
100
AcDbArc
 50
90.00000000000978
 51
179.9999999999899
  0
ARC
  5
EA2
330
1F
100
AcDbEntity
  8
0
  6
Continuous
 62
     7
100
AcDbCircle
 10
576.9501893377719
 20
321.4733290768178
 30
0.0
 40
1.00000000000017
100
AcDbArc
 50
180.000000000009
 51
269.9999999999902
  0
LINE
  5
EA6
330
1F
100
AcDbEntity
  8
0
  6
Continuous
 62
     7
100
AcDbLine
 10
575.9501893377719
 20
321.4733290768176
 30
0.0
 11
575.9501893377719
 21
328.4733290768176
 31
0.0
  0
LINE
  5
EB0
330
1F
100
AcDbEntity
  8
0
  6
Continuous
 62
     7
100
AcDbLine
 10
575.1977438905186
 20
340.4898203586626
 30
0.0
 11
577.9677967317197
 21
340.4898203586626
 31
0.0
  0
LINE
  5
EB1
330
1F
100
AcDbEntity
  8
0
  6
Continuous
 62
     7
100
AcDbLine
 10
575.2260119490057
 20
339.6865223056226
 30
0.0
 11
577.7955133982837
 21
339.6865223056226
 31
0.0
  0
LINE
  5
EB2
330
1F
100
AcDbEntity
  8
0
  6
Continuous
 62
     7
100
AcDbLine
 10
574.6524089412515
 20
336.0716810669426
 30
0.0
 11
577.2218380937057
 21
336.0716810669426
 31
0.0
  0
LINE
  5
EB3
330
1F
100
AcDbEntity
  8
0
  6
Continuous
 62
     7
100
AcDbLine
 10
574.7798682433276
 20
336.8749791199826
 30
0.0
 11
577.3492973957809
 21
336.8749791199826
 31
0.0
  0
LINE
  5
EB4
330
1F
100
AcDbEntity
  8
0
  6
Continuous
 62
     7
100
AcDbLine
 10
573.9230062761107
 20
332.4568398282626
 30
0.0
 11
576.8970084599978
 21
332.4568398282626
 31
0.0
  0
LINE
  5
EB5
330
1F
100
AcDbEntity
  8
0
  6
Continuous
 62
     7
100
AcDbLine
 10
576.7756220912027
 20
333.2602182111076
 30
0.0
 11
574.2061929387488
 21
333.2602182111076
 31
0.0
  0
LINE
  5
EB6
330
1F
100
AcDbEntity
  8
0
  6
Continuous
 62
     7
100
AcDbLine
 10
574.3490514645015
 20
336.4733300934626
 30
0.0
 11
573.9183069825007
 21
336.0716810669426
 31
0.0
  0
LINE
  5
EB7
330
1F
100
AcDbEntity
  8
0
  6
Continuous
 62
     7
100
AcDbLine
 10
574.3490514645015
 20
336.4733300934626
 30
0.0
 11
574.6524089412515
 21
336.0716810669426
 31
0.0
  0
LINE
  5
EB8
330
1F
100
AcDbEntity
  8
0
  6
Continuous
 62
     7
100
AcDbLine
 10
572.4501893377719
 20
340.4733290768175
 30
0.0
 11
572.4501893377719
 21
332.4733290768175
 31
0.0
  0
ARC
  5
EB9
330
1F
100
AcDbEntity
  8
0
  6
Continuous
 62
     7
100
AcDbCircle
 10
573.4501893377718
 20
332.4733290768177
 30
0.0
 40
1.000000000000113
100
AcDbArc
 50
180.0000000000061
 51
269.999999999987
  0
LINE
  5
EBA
330
1F
100
AcDbEntity
  8
0
  6
Continuous
 62
     7
100
AcDbLine
 10
573.6839929734099
 20
332.7732589313556
 30
0.0
 11
574.2061929387488
 21
333.2602182111076
 31
0.0
  0
LINE
  5
EBB
330
1F
100
AcDbEntity
  8
0
  6
Continuous
 62
     7
100
AcDbLine
 10
573.4450519675329
 20
333.0896780344476
 30
0.0
 11
573.9230062761107
 21
332.4568398282626
 31
0.0
  0
LINE
  5
EBC
330
1F
100
AcDbEntity
  8
0
  6
Continuous
 62
     7
100
AcDbLine
 10
573.9183069825007
 20
336.0716810669426
 30
0.0
 11
573.4450519675329
 21
333.0896780344476
 31
0.0
  0
LINE
  5
EBD
330
1F
100
AcDbEntity
  8
0
  6
Continuous
 62
     7
100
AcDbLine
 10
574.2061929387488
 20
333.2602182111076
 30
0.0
 11
574.6524089412515
 21
336.0716810669426
 31
0.0
  0
ARC
  5
EBE
330
1F
100
AcDbEntity
  8
0
  6
Continuous
 62
     7
100
AcDbCircle
 10
573.4501893377718
 20
340.4733290768175
 30
0.0
 40
1.000000000000113
100
AcDbArc
 50
90.00000000000978
 51
179.9999999999933
  0
LINE
  5
EBF
330
1F
100
AcDbEntity
  8
0
  6
Continuous
 62
     7
100
AcDbLine
 10
574.8583825950317
 20
340.1734012555706
 30
0.0
 11
575.2260119490057
 21
339.6865223056226
 31
0.0
  0
LINE
  5
EC0
330
1F
100
AcDbEntity
  8
0
  6
Continuous
 62
     7
100
AcDbLine
 10
574.5189490027196
 20
339.8569018226726
 30
0.0
 11
575.1977438905186
 21
340.4898203586626
 31
0.0
  0
LINE
  5
EC1
330
1F
100
AcDbEntity
  8
0
  6
Continuous
 62
     7
100
AcDbLine
 10
574.0457662845767
 20
336.8749791199826
 30
0.0
 11
574.3490514645015
 21
336.4733300934626
 31
0.0
  0
LINE
  5
EC2
330
1F
100
AcDbEntity
  8
0
  6
Continuous
 62
     7
100
AcDbLine
 10
574.7798682433276
 20
336.8749791199826
 30
0.0
 11
574.3490514645015
 21
336.4733300934626
 31
0.0
  0
LINE
  5
EC3
330
1F
100
AcDbEntity
  8
0
  6
Continuous
 62
     7
100
AcDbLine
 10
574.0457662845767
 20
336.8749791199826
 30
0.0
 11
574.5189490027196
 21
339.8569018226726
 31
0.0
  0
LINE
  5
EC4
330
1F
100
AcDbEntity
  8
0
  6
Continuous
 62
     7
100
AcDbLine
 10
574.7798682433276
 20
336.8749791199826
 30
0.0
 11
575.2260119490057
 21
339.6865223056226
 31
0.0
  0
LINE
  5
EC5
330
1F
100
AcDbEntity
  8
0
  6
Continuous
 62
     7
100
AcDbLine
 10
581.6490514645011
 20
336.4733300934626
 30
0.0
 11
581.2183069825007
 21
336.0716810669426
 31
0.0
  0
LINE
  5
EC6
330
1F
100
AcDbEntity
  8
0
  6
Continuous
 62
     7
100
AcDbLine
 10
581.6490514645011
 20
336.4733300934626
 30
0.0
 11
581.9524089412517
 21
336.0716810669426
 31
0.0
  0
LINE
  5
EC7
330
1F
100
AcDbEntity
  8
0
  6
Continuous
 62
     7
100
AcDbLine
 10
577.6526548725307
 20
336.4733300934626
 30
0.0
 11
577.9559400524568
 21
336.0716810669426
 31
0.0
  0
LINE
  5
EC8
330
1F
100
AcDbEntity
  8
0
  6
Continuous
 62
     7
100
AcDbLine
 10
577.6526548725307
 20
336.4733300934626
 30
0.0
 11
577.2218380937057
 21
336.0716810669426
 31
0.0
  0
LINE
  5
EC9
330
1F
100
AcDbEntity
  8
0
  6
Continuous
 62
     7
100
AcDbLine
 10
577.1817856527807
 20
332.7223298347926
 30
0.0
 11
576.7756220912027
 21
333.2602182111076
 31
0.0
  0
LINE
  5
ECA
330
1F
100
AcDbEntity
  8
0
  6
Continuous
 62
     7
100
AcDbLine
 10
576.8970084599978
 20
332.4568398282626
 30
0.0
 11
577.4665628455639
 21
332.9878198413216
 31
0.0
  0
LINE
  5
ECE
330
1F
100
AcDbEntity
  8
0
  6
Continuous
 62
     7
100
AcDbLine
 10
577.4665628455639
 20
332.9878198413216
 30
0.0
 11
577.9559400524568
 21
336.0716810669426
 31
0.0
  0
LINE
  5
ECF
330
1F
100
AcDbEntity
  8
0
  6
Continuous
 62
     7
100
AcDbLine
 10
577.2218380937057
 20
336.0716810669426
 30
0.0
 11
576.7756220912027
 21
333.2602182111076
 31
0.0
  0
LINE
  5
ED0
330
1F
100
AcDbEntity
  8
0
  6
Continuous
 62
     7
100
AcDbLine
 10
580.9839929734097
 20
332.7732589313556
 30
0.0
 11
581.5061929387487
 21
333.2602182111076
 31
0.0
  0
LINE
  5
ED1
330
1F
100
AcDbEntity
  8
0
  6
Continuous
 62
     7
100
AcDbLine
 10
581.2230062761106
 20
332.4568398282626
 30
0.0
 11
584.1970084599977
 21
332.4568398282626
 31
0.0
  0
LINE
  5
ED2
330
1F
100
AcDbEntity
  8
0
  6
Continuous
 62
     7
100
AcDbLine
 10
580.7450519675326
 20
333.0896780344476
 30
0.0
 11
581.2230062761106
 21
332.4568398282626
 31
0.0
  0
LINE
  5
ED3
330
1F
100
AcDbEntity
  8
0
  6
Continuous
 62
     7
100
AcDbLine
 10
584.0756220912027
 20
333.2602182111076
 30
0.0
 11
581.5061929387487
 21
333.2602182111076
 31
0.0
  0
LINE
  5
ED4
330
1F
100
AcDbEntity
  8
0
  6
Continuous
 62
     7
100
AcDbLine
 10
581.2183069825007
 20
336.0716810669426
 30
0.0
 11
580.7450519675326
 21
333.0896780344476
 31
0.0
  0
LINE
  5
ED5
330
1F
100
AcDbEntity
  8
0
  6
Continuous
 62
     7
100
AcDbLine
 10
581.5061929387487
 20
333.2602182111076
 30
0.0
 11
581.9524089412517
 21
336.0716810669426
 31
0.0
  0
LINE
  5
ED6
330
1F
100
AcDbEntity
  8
0
  6
Continuous
 62
     7
100
AcDbLine
 10
578.2525739245027
 20
340.1127522525653
 30
0.0
 11
577.7955133982837
 21
339.6865223056226
 31
0.0
  0
LINE
  5
ED7
330
1F
100
AcDbEntity
  8
0
  6
Continuous
 62
     7
100
AcDbLine
 10
577.9677967317197
 20
340.4898203586626
 30
0.0
 11
578.5374234141106
 21
339.7356038166636
 31
0.0
  0
LINE
  5
ED8
330
1F
100
AcDbEntity
  8
0
  6
Continuous
 62
     7
100
AcDbLine
 10
578.0833993545327
 20
336.8749791199826
 30
0.0
 11
577.6526548725307
 21
336.4733300934626
 31
0.0
  0
LINE
  5
ED9
330
1F
100
AcDbEntity
  8
0
  6
Continuous
 62
     7
100
AcDbLine
 10
577.3492973957809
 20
336.8749791199826
 30
0.0
 11
577.6526548725307
 21
336.4733300934626
 31
0.0
  0
LINE
  5
EDA
330
1F
100
AcDbEntity
  8
0
  6
Continuous
 62
     7
100
AcDbLine
 10
578.5374234141106
 20
339.7356038166636
 30
0.0
 11
578.0833993545327
 21
336.8749791199826
 31
0.0
  0
LINE
  5
EDB
330
1F
100
AcDbEntity
  8
0
  6
Continuous
 62
     7
100
AcDbLine
 10
577.7955133982837
 20
339.6865223056226
 30
0.0
 11
577.3492973957809
 21
336.8749791199826
 31
0.0
  0
LINE
  5
EDC
330
1F
100
AcDbEntity
  8
0
  6
Continuous
 62
     7
100
AcDbLine
 10
582.1583825950317
 20
340.1734012555706
 30
0.0
 11
582.5260119490057
 21
339.6865223056226
 31
0.0
  0
LINE
  5
EDD
330
1F
100
AcDbEntity
  8
0
  6
Continuous
 62
     7
100
AcDbLine
 10
581.8189490027196
 20
339.8569018226726
 30
0.0
 11
582.4977438905186
 21
340.4898203586626
 31
0.0
  0
LINE
  5
EDE
330
1F
100
AcDbEntity
  8
0
  6
Continuous
 62
     7
100
AcDbLine
 10
581.3457662845767
 20
336.8749791199826
 30
0.0
 11
581.6490514645011
 21
336.4733300934626
 31
0.0
  0
LINE
  5
EDF
330
1F
100
AcDbEntity
  8
0
  6
Continuous
 62
     7
100
AcDbLine
 10
582.0798682433276
 20
336.8749791199826
 30
0.0
 11
581.6490514645011
 21
336.4733300934626
 31
0.0
  0
LINE
  5
EE0
330
1F
100
AcDbEntity
  8
0
  6
Continuous
 62
     7
100
AcDbLine
 10
581.3457662845767
 20
336.8749791199826
 30
0.0
 11
581.8189490027196
 21
339.8569018226726
 31
0.0
  0
LINE
  5
EE1
330
1F
100
AcDbEntity
  8
0
  6
Continuous
 62
     7
100
AcDbLine
 10
582.0798682433276
 20
336.8749791199826
 30
0.0
 11
582.5260119490057
 21
339.6865223056226
 31
0.0
  0
LINE
  5
EEE
330
1F
100
AcDbEntity
  8
0
  6
Continuous
 62
     7
100
AcDbLine
 10
589.7977438905185
 20
340.4898203586626
 30
0.0
 11
592.5677967317198
 21
340.4898203586626
 31
0.0
  0
LINE
  5
EEF
330
1F
100
AcDbEntity
  8
0
  6
Continuous
 62
     7
100
AcDbLine
 10
592.2526548725317
 20
336.4733300934626
 30
0.0
 11
592.5559400524567
 21
336.0716810669426
 31
0.0
  0
LINE
  5
EF0
330
1F
100
AcDbEntity
  8
0
  6
Continuous
 62
     7
100
AcDbLine
 10
592.8525739245027
 20
340.1127522525653
 30
0.0
 11
592.3955133982838
 21
339.6865223056226
 31
0.0
  0
LINE
  5
EF1
330
1F
100
AcDbEntity
  8
0
  6
Continuous
 62
     7
100
AcDbLine
 10
592.6833993545328
 20
336.8749791199826
 30
0.0
 11
592.2526548725317
 21
336.4733300934626
 31
0.0
  0
LINE
  5
EF2
330
1F
100
AcDbEntity
  8
0
  6
Continuous
 62
     7
100
AcDbLine
 10
592.0665628455636
 20
332.9878198413216
 30
0.0
 11
592.5559400524567
 21
336.0716810669426
 31
0.0
  0
LINE
  5
EF3
330
1F
100
AcDbEntity
  8
0
  6
Continuous
 62
     7
100
AcDbLine
 10
592.2526548725317
 20
336.4733300934626
 30
0.0
 11
591.8218380937057
 21
336.0716810669426
 31
0.0
  0
LINE
  5
EF4
330
1F
100
AcDbEntity
  8
0
  6
Continuous
 62
     7
100
AcDbLine
 10
588.9490514645017
 20
336.4733300934626
 30
0.0
 11
588.5183069825008
 21
336.0716810669426
 31
0.0
  0
LINE
  5
EF5
330
1F
100
AcDbEntity
  8
0
  6
Continuous
 62
     7
100
AcDbLine
 10
588.9490514645017
 20
336.4733300934626
 30
0.0
 11
589.2524089412517
 21
336.0716810669426
 31
0.0
  0
LINE
  5
EF6
330
1F
100
AcDbEntity
  8
0
  6
Continuous
 62
     7
100
AcDbLine
 10
584.9526548725306
 20
336.4733300934626
 30
0.0
 11
585.2559400524569
 21
336.0716810669426
 31
0.0
  0
LINE
  5
EF7
330
1F
100
AcDbEntity
  8
0
  6
Continuous
 62
     7
100
AcDbLine
 10
584.9526548725306
 20
336.4733300934626
 30
0.0
 11
584.5218380937057
 21
336.0716810669426
 31
0.0
  0
LINE
  5
EF8
330
1F
100
AcDbEntity
  8
0
  6
Continuous
 62
     7
100
AcDbLine
 10
588.2839929734096
 20
332.7732589313556
 30
0.0
 11
588.8061929387487
 21
333.2602182111076
 31
0.0
  0
LINE
  5
EF9
330
1F
100
AcDbEntity
  8
0
  6
Continuous
 62
     7
100
AcDbLine
 10
588.0450519675327
 20
333.0896780344476
 30
0.0
 11
588.5230062761106
 21
332.4568398282626
 31
0.0
  0
LINE
  5
EFA
330
1F
100
AcDbEntity
  8
0
  6
Continuous
 62
     7
100
AcDbLine
 10
588.5183069825008
 20
336.0716810669426
 30
0.0
 11
588.0450519675327
 21
333.0896780344476
 31
0.0
  0
LINE
  5
EFE
330
1F
100
AcDbEntity
  8
0
  6
Continuous
 62
     7
100
AcDbLine
 10
584.7665628455636
 20
332.9878198413216
 30
0.0
 11
585.2559400524569
 21
336.0716810669426
 31
0.0
  0
LINE
  5
EFF
330
1F
100
AcDbEntity
  8
0
  6
Continuous
 62
     7
100
AcDbLine
 10
589.2524089412517
 20
336.0716810669426
 30
0.0
 11
591.8218380937057
 21
336.0716810669426
 31
0.0
  0
LINE
  5
F00
330
1F
100
AcDbEntity
  8
0
  6
Continuous
 62
     7
100
AcDbLine
 10
591.7817856527809
 20
332.7223298347926
 30
0.0
 11
591.3756220912027
 21
333.2602182111076
 31
0.0
  0
LINE
  5
F01
330
1F
100
AcDbEntity
  8
0
  6
Continuous
 62
     7
100
AcDbLine
 10
591.4970084599977
 20
332.4568398282626
 30
0.0
 11
592.0665628455636
 21
332.9878198413216
 31
0.0
  0
LINE
  5
F02
330
1F
100
AcDbEntity
  8
0
  6
Continuous
 62
     7
100
AcDbLine
 10
588.5230062761106
 20
332.4568398282626
 30
0.0
 11
591.4970084599977
 21
332.4568398282626
 31
0.0
  0
LINE
  5
F03
330
1F
100
AcDbEntity
  8
0
  6
Continuous
 62
     7
100
AcDbLine
 10
591.3756220912027
 20
333.2602182111076
 30
0.0
 11
588.8061929387487
 21
333.2602182111076
 31
0.0
  0
LINE
  5
F04
330
1F
100
AcDbEntity
  8
0
  6
Continuous
 62
     7
100
AcDbLine
 10
588.8061929387487
 20
333.2602182111076
 30
0.0
 11
589.2524089412517
 21
336.0716810669426
 31
0.0
  0
LINE
  5
F05
330
1F
100
AcDbEntity
  8
0
  6
Continuous
 62
     7
100
AcDbLine
 10
591.8218380937057
 20
336.0716810669426
 30
0.0
 11
591.3756220912027
 21
333.2602182111076
 31
0.0
  0
LINE
  5
F06
330
1F
100
AcDbEntity
  8
0
  6
Continuous
 62
     7
100
AcDbLine
 10
585.5525739245027
 20
340.1127522525653
 30
0.0
 11
585.0955133982837
 21
339.6865223056226
 31
0.0
  0
LINE
  5
F07
330
1F
100
AcDbEntity
  8
0
  6
Continuous
 62
     7
100
AcDbLine
 10
585.2677967317197
 20
340.4898203586626
 30
0.0
 11
585.8374234141107
 21
339.7356038166636
 31
0.0
  0
LINE
  5
F08
330
1F
100
AcDbEntity
  8
0
  6
Continuous
 62
     7
100
AcDbLine
 10
585.3833993545328
 20
336.8749791199826
 30
0.0
 11
584.9526548725306
 21
336.4733300934626
 31
0.0
  0
LINE
  5
F09
330
1F
100
AcDbEntity
  8
0
  6
Continuous
 62
     7
100
AcDbLine
 10
584.6492973957809
 20
336.8749791199826
 30
0.0
 11
584.9526548725306
 21
336.4733300934626
 31
0.0
  0
LINE
  5
F0A
330
1F
100
AcDbEntity
  8
0
  6
Continuous
 62
     7
100
AcDbLine
 10
585.8374234141107
 20
339.7356038166636
 30
0.0
 11
585.3833993545328
 21
336.8749791199826
 31
0.0
  0
LINE
  5
F0B
330
1F
100
AcDbEntity
  8
0
  6
Continuous
 62
     7
100
AcDbLine
 10
585.0955133982837
 20
339.6865223056226
 30
0.0
 11
584.6492973957809
 21
336.8749791199826
 31
0.0
  0
LINE
  5
F0C
330
1F
100
AcDbEntity
  8
0
  6
Continuous
 62
     7
100
AcDbLine
 10
589.4583825950319
 20
340.1734012555706
 30
0.0
 11
589.8260119490057
 21
339.6865223056226
 31
0.0
  0
LINE
  5
F0D
330
1F
100
AcDbEntity
  8
0
  6
Continuous
 62
     7
100
AcDbLine
 10
589.1189490027198
 20
339.8569018226726
 30
0.0
 11
589.7977438905185
 21
340.4898203586626
 31
0.0
  0
LINE
  5
F0E
330
1F
100
AcDbEntity
  8
0
  6
Continuous
 62
     7
100
AcDbLine
 10
589.8260119490057
 20
339.6865223056226
 30
0.0
 11
592.3955133982838
 21
339.6865223056226
 31
0.0
  0
LINE
  5
F0F
330
1F
100
AcDbEntity
  8
0
  6
Continuous
 62
     7
100
AcDbLine
 10
591.9492973957807
 20
336.8749791199826
 30
0.0
 11
592.2526548725317
 21
336.4733300934626
 31
0.0
  0
LINE
  5
F10
330
1F
100
AcDbEntity
  8
0
  6
Continuous
 62
     7
100
AcDbLine
 10
588.6457662845769
 20
336.8749791199826
 30
0.0
 11
588.9490514645017
 21
336.4733300934626
 31
0.0
  0
LINE
  5
F11
330
1F
100
AcDbEntity
  8
0
  6
Continuous
 62
     7
100
AcDbLine
 10
589.3798682433274
 20
336.8749791199826
 30
0.0
 11
588.9490514645017
 21
336.4733300934626
 31
0.0
  0
LINE
  5
F12
330
1F
100
AcDbEntity
  8
0
  6
Continuous
 62
     7
100
AcDbLine
 10
589.3798682433274
 20
336.8749791199826
 30
0.0
 11
591.9492973957807
 21
336.8749791199826
 31
0.0
  0
LINE
  5
F13
330
1F
100
AcDbEntity
  8
0
  6
Continuous
 62
     7
100
AcDbLine
 10
588.6457662845769
 20
336.8749791199826
 30
0.0
 11
589.1189490027198
 21
339.8569018226726
 31
0.0
  0
LINE
  5
F14
330
1F
100
AcDbEntity
  8
0
  6
Continuous
 62
     7
100
AcDbLine
 10
589.3798682433274
 20
336.8749791199826
 30
0.0
 11
589.8260119490057
 21
339.6865223056226
 31
0.0
  0
LINE
  5
F15
330
1F
100
AcDbEntity
  8
0
  6
Continuous
 62
     7
100
AcDbLine
 10
592.3955133982838
 20
339.6865223056226
 30
0.0
 11
591.9492973957807
 21
336.8749791199826
 31
0.0
  0
LINE
  5
F16
330
1F
100
AcDbEntity
  8
0
  6
Continuous
 62
     7
100
AcDbLine
 10
599.5526548725307
 20
336.4733300934626
 30
0.0
 11
599.8559400524567
 21
336.0716810669426
 31
0.0
  0
LINE
  5
F17
330
1F
100
AcDbEntity
  8
0
  6
Continuous
 62
     7
100
AcDbLine
 10
599.5526548725307
 20
336.4733300934626
 30
0.0
 11
599.1218380937056
 21
336.0716810669426
 31
0.0
  0
LINE
  5
F18
330
1F
100
AcDbEntity
  8
0
  6
Continuous
 62
     7
100
AcDbLine
 10
596.2490514645012
 20
336.4733300934626
 30
0.0
 11
595.8183069825008
 21
336.0716810669426
 31
0.0
  0
LINE
  5
F19
330
1F
100
AcDbEntity
  8
0
  6
Continuous
 62
     7
100
AcDbLine
 10
596.2490514645012
 20
336.4733300934626
 30
0.0
 11
596.5524089412517
 21
336.0716810669426
 31
0.0
  0
LINE
  5
F1A
330
1F
100
AcDbEntity
  8
0
  6
Continuous
 62
     7
100
AcDbLine
 10
596.5524089412517
 20
336.0716810669426
 30
0.0
 11
599.1218380937056
 21
336.0716810669426
 31
0.0
  0
LINE
  5
F1B
330
1F
100
AcDbEntity
  8
0
  6
Continuous
 62
     7
100
AcDbLine
 10
595.8230062761107
 20
332.4568398282626
 30
0.0
 11
598.7970084599976
 21
332.4568398282626
 31
0.0
  0
LINE
  5
F1C
330
1F
100
AcDbEntity
  8
0
  6
Continuous
 62
     7
100
AcDbLine
 10
598.6756220912027
 20
333.2602182111076
 30
0.0
 11
596.1061929387486
 21
333.2602182111076
 31
0.0
  0
LINE
  5
F1D
330
1F
100
AcDbEntity
  8
0
  6
Continuous
 62
     7
100
AcDbLine
 10
595.5839929734097
 20
332.7732589313556
 30
0.0
 11
596.1061929387486
 21
333.2602182111076
 31
0.0
  0
LINE
  5
F1E
330
1F
100
AcDbEntity
  8
0
  6
Continuous
 62
     7
100
AcDbLine
 10
595.3450519675327
 20
333.0896780344476
 30
0.0
 11
595.8230062761107
 21
332.4568398282626
 31
0.0
  0
LINE
  5
F22
330
1F
100
AcDbEntity
  8
0
  6
Continuous
 62
     7
100
AcDbLine
 10
595.8183069825008
 20
336.0716810669426
 30
0.0
 11
595.3450519675327
 21
333.0896780344476
 31
0.0
  0
LINE
  5
F23
330
1F
100
AcDbEntity
  8
0
  6
Continuous
 62
     7
100
AcDbLine
 10
596.1061929387486
 20
333.2602182111076
 30
0.0
 11
596.5524089412517
 21
336.0716810669426
 31
0.0
  0
LINE
  5
F24
330
1F
100
AcDbEntity
  8
0
  6
Continuous
 62
     7
100
AcDbLine
 10
599.0817856527808
 20
332.7223298347926
 30
0.0
 11
598.6756220912027
 21
333.2602182111076
 31
0.0
  0
LINE
  5
F25
330
1F
100
AcDbEntity
  8
0
  6
Continuous
 62
     7
100
AcDbLine
 10
598.7970084599976
 20
332.4568398282626
 30
0.0
 11
599.3665628455637
 21
332.9878198413216
 31
0.0
  0
LINE
  5
F26
330
1F
100
AcDbEntity
  8
0
  6
Continuous
 62
     7
100
AcDbLine
 10
599.3665628455637
 20
332.9878198413216
 30
0.0
 11
599.8559400524567
 21
336.0716810669426
 31
0.0
  0
LINE
  5
F27
330
1F
100
AcDbEntity
  8
0
  6
Continuous
 62
     7
100
AcDbLine
 10
599.1218380937056
 20
336.0716810669426
 30
0.0
 11
598.6756220912027
 21
333.2602182111076
 31
0.0
  0
LINE
  5
F28
330
1F
100
AcDbEntity
  8
0
  6
Continuous
 62
     7
100
AcDbLine
 10
596.4189490027197
 20
339.8569018226726
 30
0.0
 11
597.0977438905187
 21
340.4898203586626
 31
0.0
  0
LINE
  5
F29
330
1F
100
AcDbEntity
  8
0
  6
Continuous
 62
     7
100
AcDbLine
 10
596.6798682433277
 20
336.8749791199826
 30
0.0
 11
596.2490514645012
 21
336.4733300934626
 31
0.0
  0
LINE
  5
F2A
330
1F
100
AcDbEntity
  8
0
  6
Continuous
 62
     7
100
AcDbLine
 10
595.9457662845767
 20
336.8749791199826
 30
0.0
 11
596.2490514645012
 21
336.4733300934626
 31
0.0
  0
LINE
  5
F2B
330
1F
100
AcDbEntity
  8
0
  6
Continuous
 62
     7
100
AcDbLine
 10
595.9457662845767
 20
336.8749791199826
 30
0.0
 11
596.4189490027197
 21
339.8569018226726
 31
0.0
  0
LINE
  5
F2C
330
1F
100
AcDbEntity
  8
0
  6
Continuous
 62
     7
100
AcDbLine
 10
593.1374234141104
 20
339.7356038166636
 30
0.0
 11
592.6833993545328
 21
336.8749791199826
 31
0.0
  0
LINE
  5
F2D
330
1F
100
AcDbEntity
  8
0
  6
Continuous
 62
     7
100
AcDbLine
 10
592.5677967317198
 20
340.4898203586626
 30
0.0
 11
593.1374234141104
 21
339.7356038166636
 31
0.0
  0
LINE
  5
F2E
330
1F
100
AcDbEntity
  8
0
  6
Continuous
 62
     7
100
AcDbLine
 10
596.7583825950319
 20
340.1734012555706
 30
0.0
 11
597.1260119490059
 21
339.6865223056226
 31
0.0
  0
LINE
  5
F2F
330
1F
100
AcDbEntity
  8
0
  6
Continuous
 62
     7
100
AcDbLine
 10
600.1525739245026
 20
340.1127522525653
 30
0.0
 11
599.6955133982837
 21
339.6865223056226
 31
0.0
  0
LINE
  5
F30
330
1F
100
AcDbEntity
  8
0
  6
Continuous
 62
     7
100
AcDbLine
 10
599.8677967317197
 20
340.4898203586626
 30
0.0
 11
600.4374234141107
 21
339.7356038166636
 31
0.0
  0
LINE
  5
F31
330
1F
100
AcDbEntity
  8
0
  6
Continuous
 62
     7
100
AcDbLine
 10
597.0977438905187
 20
340.4898203586626
 30
0.0
 11
599.8677967317197
 21
340.4898203586626
 31
0.0
  0
LINE
  5
F32
330
1F
100
AcDbEntity
  8
0
  6
Continuous
 62
     7
100
AcDbLine
 10
597.1260119490059
 20
339.6865223056226
 30
0.0
 11
599.6955133982837
 21
339.6865223056226
 31
0.0
  0
LINE
  5
F33
330
1F
100
AcDbEntity
  8
0
  6
Continuous
 62
     7
100
AcDbLine
 10
599.9833993545328
 20
336.8749791199826
 30
0.0
 11
599.5526548725307
 21
336.4733300934626
 31
0.0
  0
LINE
  5
F34
330
1F
100
AcDbEntity
  8
0
  6
Continuous
 62
     7
100
AcDbLine
 10
599.2492973957807
 20
336.8749791199826
 30
0.0
 11
599.5526548725307
 21
336.4733300934626
 31
0.0
  0
LINE
  5
F35
330
1F
100
AcDbEntity
  8
0
  6
Continuous
 62
     7
100
AcDbLine
 10
596.6798682433277
 20
336.8749791199826
 30
0.0
 11
599.2492973957807
 21
336.8749791199826
 31
0.0
  0
LINE
  5
F36
330
1F
100
AcDbEntity
  8
0
  6
Continuous
 62
     7
100
AcDbLine
 10
600.4374234141107
 20
339.7356038166636
 30
0.0
 11
599.9833993545328
 21
336.8749791199826
 31
0.0
  0
LINE
  5
F37
330
1F
100
AcDbEntity
  8
0
  6
Continuous
 62
     7
100
AcDbLine
 10
596.6798682433277
 20
336.8749791199826
 30
0.0
 11
597.1260119490059
 21
339.6865223056226
 31
0.0
  0
LINE
  5
F38
330
1F
100
AcDbEntity
  8
0
  6
Continuous
 62
     7
100
AcDbLine
 10
599.6955133982837
 20
339.6865223056226
 30
0.0
 11
599.2492973957807
 21
336.8749791199826
 31
0.0
  0
ARC
  5
F39
330
1F
100
AcDbEntity
  8
0
  6
Continuous
 62
     7
100
AcDbCircle
 10
565.9501893377719
 20
363.4733290768173
 30
0.0
 40
1.00000000000017
100
AcDbArc
 50
90.00000000000978
 51
179.9999999999899
  0
ARC
  5
F3A
330
1F
100
AcDbEntity
  8
0
  6
Continuous
 62
     7
100
AcDbCircle
 10
565.9501893377719
 20
363.4733290768173
 30
0.0
 40
1.00000000000017
100
AcDbArc
 50
90.00000000000978
 51
179.9999999999899
  0
ARC
  5
F3B
330
1F
100
AcDbEntity
  8
0
  6
Continuous
 62
     7
100
AcDbCircle
 10
563.9501893377721
 20
371.4733290768171
 30
0.0
 40
2.000000000000323
100
AcDbArc
 50
90.00000000000978
 51
179.9999999999904
  0
ARC
  5
F3C
330
1F
100
AcDbEntity
  8
0
  6
Continuous
 62
     7
100
AcDbCircle
 10
553.9501893377721
 20
381.9733290768173
 30
0.0
 40
2.000000000000323
100
AcDbArc
 50
90.00000000000978
 51
179.9999999999904
  0
LINE
  5
F3D
330
1F
100
AcDbEntity
  8
0
  6
Continuous
 62
     7
100
AcDbLine
 10
573.4501893377718
 20
356.8733290768176
 30
0.0
 11
600.4501893377717
 21
356.8733290768176
 31
0.0
  0
LINE
  5
F3E
330
1F
100
AcDbEntity
  8
0
  6
Continuous
 62
     7
100
AcDbLine
 10
573.4501893377718
 20
346.8733290768176
 30
0.0
 11
600.4501893377717
 21
346.8733290768176
 31
0.0
  0
LINE
  5
F3F
330
1F
100
AcDbEntity
  8
0
  6
Continuous
 62
     7
100
AcDbLine
 10
584.4817856527807
 20
348.1223298347926
 30
0.0
 11
584.0756220912027
 21
348.6602182111076
 31
0.0
  0
LINE
  5
F40
330
1F
100
AcDbEntity
  8
0
  6
Continuous
 62
     7
100
AcDbLine
 10
584.1970084599977
 20
347.8568398282626
 30
0.0
 11
584.7665628455636
 21
348.3878198413216
 31
0.0
  0
LINE
  5
F41
330
1F
100
AcDbEntity
  8
0
  6
Continuous
 62
     7
100
AcDbLine
 10
582.4977438905186
 20
355.8898203586626
 30
0.0
 11
585.2677967317197
 21
355.8898203586626
 31
0.0
  0
LINE
  5
F42
330
1F
100
AcDbEntity
  8
0
  6
Continuous
 62
     7
100
AcDbLine
 10
584.5218380937057
 20
351.4716810669426
 30
0.0
 11
584.0756220912027
 21
348.6602182111076
 31
0.0
  0
LINE
  5
F43
330
1F
100
AcDbEntity
  8
0
  6
Continuous
 62
     7
100
AcDbLine
 10
582.5260119490057
 20
355.0865223056226
 30
0.0
 11
585.0955133982837
 21
355.0865223056226
 31
0.0
  0
LINE
  5
F44
330
1F
100
AcDbEntity
  8
0
  6
Continuous
 62
     7
100
AcDbLine
 10
581.9524089412517
 20
351.4716810669426
 30
0.0
 11
584.5218380937057
 21
351.4716810669426
 31
0.0
  0
LINE
  5
F45
330
1F
100
AcDbEntity
  8
0
  6
Continuous
 62
     7
100
AcDbLine
 10
582.0798682433276
 20
352.2749791199826
 30
0.0
 11
584.6492973957809
 21
352.2749791199826
 31
0.0
  0
LINE
  5
F46
330
1F
100
AcDbEntity
  8
0
  6
Continuous
 62
     7
100
AcDbLine
 10
581.3457662845767
 20
352.2749791199826
 30
0.0
 11
581.8189490027196
 21
355.2569018226726
 31
0.0
  0
LINE
  5
F47
330
1F
100
AcDbEntity
  8
0
  6
Continuous
 62
     7
100
AcDbLine
 10
582.0798682433276
 20
352.2749791199826
 30
0.0
 11
582.5260119490057
 21
355.0865223056226
 31
0.0
  0
LINE
  5
F48
330
1F
100
AcDbEntity
  8
0
  6
Continuous
 62
     7
100
AcDbLine
 10
578.5374234141106
 20
355.1356038166636
 30
0.0
 11
578.0833993545327
 21
352.2749791199826
 31
0.0
  0
LINE
  5
F49
330
1F
100
AcDbEntity
  8
0
  6
Continuous
 62
     7
100
AcDbLine
 10
577.7955133982837
 20
355.0865223056226
 30
0.0
 11
577.3492973957818
 21
352.2749791199826
 31
0.0
  0
LINE
  5
F4A
330
1F
100
AcDbEntity
  8
0
  6
Continuous
 62
     7
100
AcDbLine
 10
574.0457662845767
 20
352.2749791199826
 30
0.0
 11
574.5189490027196
 21
355.2569018226726
 31
0.0
  0
LINE
  5
F4B
330
1F
100
AcDbEntity
  8
0
  6
Continuous
 62
     7
100
AcDbLine
 10
574.7798682433276
 20
352.2749791199826
 30
0.0
 11
575.2260119490057
 21
355.0865223056226
 31
0.0
  0
LINE
  5
F4C
330
1F
100
AcDbEntity
  8
0
  6
Continuous
 62
     7
100
AcDbLine
 10
572.4501893377719
 20
355.8733290768176
 30
0.0
 11
572.4501893377719
 21
347.8733290768176
 31
0.0
  0
LINE
  5
F4D
330
1F
100
AcDbEntity
  8
0
  6
Continuous
 62
     7
100
AcDbLine
 10
573.9230062761107
 20
347.8568398282626
 30
0.0
 11
576.8970084599978
 21
347.8568398282626
 31
0.0
  0
LINE
  5
F4E
330
1F
100
AcDbEntity
  8
0
  6
Continuous
 62
     7
100
AcDbLine
 10
576.7756220912027
 20
348.6602182111076
 30
0.0
 11
574.2061929387488
 21
348.6602182111076
 31
0.0
  0
LINE
  5
F4F
330
1F
100
AcDbEntity
  8
0
  6
Continuous
 62
     7
100
AcDbLine
 10
574.6524089412515
 20
351.4716810669426
 30
0.0
 11
577.2218380937057
 21
351.4716810669426
 31
0.0
  0
LINE
  5
F50
330
1F
100
AcDbEntity
  8
0
  6
Continuous
 62
     7
100
AcDbLine
 10
574.7798682433276
 20
352.2749791199826
 30
0.0
 11
577.3492973957818
 21
352.2749791199826
 31
0.0
  0
LINE
  5
F51
330
1F
100
AcDbEntity
  8
0
  6
Continuous
 62
     7
100
AcDbLine
 10
573.4450519675329
 20
348.4896780344476
 30
0.0
 11
573.9230062761107
 21
347.8568398282626
 31
0.0
  0
ARC
  5
F52
330
1F
100
AcDbEntity
  8
0
  6
Continuous
 62
     7
100
AcDbCircle
 10
573.4501893377718
 20
347.8733290768177
 30
0.0
 40
1.000000000000113
100
AcDbArc
 50
180.0000000000061
 51
269.999999999987
  0
LINE
  5
F53
330
1F
100
AcDbEntity
  8
0
  6
Continuous
 62
     7
100
AcDbLine
 10
574.0457662845767
 20
352.2749791199826
 30
0.0
 11
574.3490514645015
 21
351.8733300934625
 31
0.0
  0
LINE
  5
F54
330
1F
100
AcDbEntity
  8
0
  6
Continuous
 62
     7
100
AcDbLine
 10
574.3490514645015
 20
351.8733300934625
 30
0.0
 11
573.9183069825007
 21
351.4716810669426
 31
0.0
  0
LINE
  5
F55
330
1F
100
AcDbEntity
  8
0
  6
Continuous
 62
     7
100
AcDbLine
 10
574.7798682433276
 20
352.2749791199826
 30
0.0
 11
574.3490514645015
 21
351.8733300934625
 31
0.0
  0
LINE
  5
F56
330
1F
100
AcDbEntity
  8
0
  6
Continuous
 62
     7
100
AcDbLine
 10
574.3490514645015
 20
351.8733300934625
 30
0.0
 11
574.6524089412515
 21
351.4716810669426
 31
0.0
  0
LINE
  5
F57
330
1F
100
AcDbEntity
  8
0
  6
Continuous
 62
     7
100
AcDbLine
 10
573.6839929734099
 20
348.1732589313546
 30
0.0
 11
574.2061929387488
 21
348.6602182111076
 31
0.0
  0
LINE
  5
F58
330
1F
100
AcDbEntity
  8
0
  6
Continuous
 62
     7
100
AcDbLine
 10
573.9183069825007
 20
351.4716810669426
 30
0.0
 11
573.4450519675329
 21
348.4896780344476
 31
0.0
  0
LINE
  5
F59
330
1F
100
AcDbEntity
  8
0
  6
Continuous
 62
     7
100
AcDbLine
 10
574.2061929387488
 20
348.6602182111076
 30
0.0
 11
574.6524089412515
 21
351.4716810669426
 31
0.0
  0
LINE
  5
F5A
330
1F
100
AcDbEntity
  8
0
  6
Continuous
 62
     7
100
AcDbLine
 10
580.7450519675326
 20
348.4896780344476
 30
0.0
 11
581.2230062761106
 21
347.8568398282626
 31
0.0
  0
LINE
  5
F5B
330
1F
100
AcDbEntity
  8
0
  6
Continuous
 62
     7
100
AcDbLine
 10
576.8970084599978
 20
347.8568398282626
 30
0.0
 11
577.4665628455639
 21
348.3878198413216
 31
0.0
  0
LINE
  5
F5D
330
1F
100
AcDbEntity
  8
0
  6
Continuous
 62
     7
100
AcDbLine
 10
581.2230062761106
 20
347.8568398282626
 30
0.0
 11
584.1970084599977
 21
347.8568398282626
 31
0.0
  0
LINE
  5
F5E
330
1F
100
AcDbEntity
  8
0
  6
Continuous
 62
     7
100
AcDbLine
 10
578.0833993545327
 20
352.2749791199826
 30
0.0
 11
577.6526548725307
 21
351.8733300934625
 31
0.0
  0
LINE
  5
F5F
330
1F
100
AcDbEntity
  8
0
  6
Continuous
 62
     7
100
AcDbLine
 10
577.6526548725307
 20
351.8733300934625
 30
0.0
 11
577.9559400524568
 21
351.4716810669426
 31
0.0
  0
LINE
  5
F60
330
1F
100
AcDbEntity
  8
0
  6
Continuous
 62
     7
100
AcDbLine
 10
577.3492973957818
 20
352.2749791199826
 30
0.0
 11
577.6526548725307
 21
351.8733300934625
 31
0.0
  0
LINE
  5
F61
330
1F
100
AcDbEntity
  8
0
  6
Continuous
 62
     7
100
AcDbLine
 10
577.6526548725307
 20
351.8733300934625
 30
0.0
 11
577.2218380937057
 21
351.4716810669426
 31
0.0
  0
LINE
  5
F62
330
1F
100
AcDbEntity
  8
0
  6
Continuous
 62
     7
100
AcDbLine
 10
577.1817856527807
 20
348.1223298347926
 30
0.0
 11
576.7756220912027
 21
348.6602182111076
 31
0.0
  0
LINE
  5
F65
330
1F
100
AcDbEntity
  8
0
  6
Continuous
 62
     7
100
AcDbLine
 10
577.4665628455639
 20
348.3878198413216
 30
0.0
 11
577.9559400524568
 21
351.4716810669426
 31
0.0
  0
LINE
  5
F66
330
1F
100
AcDbEntity
  8
0
  6
Continuous
 62
     7
100
AcDbLine
 10
577.2218380937057
 20
351.4716810669426
 30
0.0
 11
576.7756220912027
 21
348.6602182111076
 31
0.0
  0
LINE
  5
F67
330
1F
100
AcDbEntity
  8
0
  6
Continuous
 62
     7
100
AcDbLine
 10
581.3457662845767
 20
352.2749791199826
 30
0.0
 11
581.6490514645011
 21
351.8733300934625
 31
0.0
  0
LINE
  5
F68
330
1F
100
AcDbEntity
  8
0
  6
Continuous
 62
     7
100
AcDbLine
 10
581.6490514645011
 20
351.8733300934625
 30
0.0
 11
581.2183069825007
 21
351.4716810669426
 31
0.0
  0
LINE
  5
F69
330
1F
100
AcDbEntity
  8
0
  6
Continuous
 62
     7
100
AcDbLine
 10
582.0798682433276
 20
352.2749791199826
 30
0.0
 11
581.6490514645011
 21
351.8733300934625
 31
0.0
  0
LINE
  5
F6A
330
1F
100
AcDbEntity
  8
0
  6
Continuous
 62
     7
100
AcDbLine
 10
581.6490514645011
 20
351.8733300934625
 30
0.0
 11
581.9524089412517
 21
351.4716810669426
 31
0.0
  0
LINE
  5
F6B
330
1F
100
AcDbEntity
  8
0
  6
Continuous
 62
     7
100
AcDbLine
 10
580.9839929734097
 20
348.1732589313546
 30
0.0
 11
581.5061929387487
 21
348.6602182111076
 31
0.0
  0
LINE
  5
F6C
330
1F
100
AcDbEntity
  8
0
  6
Continuous
 62
     7
100
AcDbLine
 10
584.0756220912027
 20
348.6602182111076
 30
0.0
 11
581.5061929387487
 21
348.6602182111076
 31
0.0
  0
LINE
  5
F6D
330
1F
100
AcDbEntity
  8
0
  6
Continuous
 62
     7
100
AcDbLine
 10
581.2183069825007
 20
351.4716810669426
 30
0.0
 11
580.7450519675326
 21
348.4896780344476
 31
0.0
  0
LINE
  5
F6E
330
1F
100
AcDbEntity
  8
0
  6
Continuous
 62
     7
100
AcDbLine
 10
581.5061929387487
 20
348.6602182111076
 30
0.0
 11
581.9524089412517
 21
351.4716810669426
 31
0.0
  0
LINE
  5
F6F
330
1F
100
AcDbEntity
  8
0
  6
Continuous
 62
     7
100
AcDbLine
 10
575.1977438905186
 20
355.8898203586626
 30
0.0
 11
577.9677967317197
 21
355.8898203586626
 31
0.0
  0
LINE
  5
F70
330
1F
100
AcDbEntity
  8
0
  6
Continuous
 62
     7
100
AcDbLine
 10
575.2260119490057
 20
355.0865223056226
 30
0.0
 11
577.7955133982837
 21
355.0865223056226
 31
0.0
  0
ARC
  5
F71
330
1F
100
AcDbEntity
  8
0
  6
Continuous
 62
     7
100
AcDbCircle
 10
573.4501893377718
 20
355.8733290768174
 30
0.0
 40
1.000000000000113
100
AcDbArc
 50
90.00000000000978
 51
179.9999999999933
  0
LINE
  5
F72
330
1F
100
AcDbEntity
  8
0
  6
Continuous
 62
     7
100
AcDbLine
 10
574.8583825950317
 20
355.5734012555706
 30
0.0
 11
575.2260119490057
 21
355.0865223056226
 31
0.0
  0
LINE
  5
F73
330
1F
100
AcDbEntity
  8
0
  6
Continuous
 62
     7
100
AcDbLine
 10
574.5189490027196
 20
355.2569018226726
 30
0.0
 11
575.1977438905186
 21
355.8898203586626
 31
0.0
  0
LINE
  5
F74
330
1F
100
AcDbEntity
  8
0
  6
Continuous
 62
     7
100
AcDbLine
 10
578.2525739245027
 20
355.5127522525656
 30
0.0
 11
577.7955133982837
 21
355.0865223056226
 31
0.0
  0
LINE
  5
F75
330
1F
100
AcDbEntity
  8
0
  6
Continuous
 62
     7
100
AcDbLine
 10
577.9677967317197
 20
355.8898203586626
 30
0.0
 11
578.5374234141106
 21
355.1356038166636
 31
0.0
  0
LINE
  5
F76
330
1F
100
AcDbEntity
  8
0
  6
Continuous
 62
     7
100
AcDbLine
 10
582.1583825950317
 20
355.5734012555706
 30
0.0
 11
582.5260119490057
 21
355.0865223056226
 31
0.0
  0
LINE
  5
F77
330
1F
100
AcDbEntity
  8
0
  6
Continuous
 62
     7
100
AcDbLine
 10
581.8189490027196
 20
355.2569018226726
 30
0.0
 11
582.4977438905186
 21
355.8898203586626
 31
0.0
  0
LINE
  5
F78
330
1F
100
AcDbEntity
  8
0
  6
Continuous
 62
     7
100
AcDbLine
 10
600.4374234141107
 20
355.1356038166636
 30
0.0
 11
599.9833993545328
 21
352.2749791199826
 31
0.0
  0
LINE
  5
F79
330
1F
100
AcDbEntity
  8
0
  6
Continuous
 62
     7
100
AcDbLine
 10
599.6955133982837
 20
355.0865223056226
 30
0.0
 11
599.2492973957807
 21
352.2749791199826
 31
0.0
  0
LINE
  5
F7A
330
1F
100
AcDbEntity
  8
0
  6
Continuous
 62
     7
100
AcDbLine
 10
595.9457662845767
 20
352.2749791199826
 30
0.0
 11
596.4189490027197
 21
355.2569018226726
 31
0.0
  0
LINE
  5
F7B
330
1F
100
AcDbEntity
  8
0
  6
Continuous
 62
     7
100
AcDbLine
 10
593.1374234141104
 20
355.1356038166636
 30
0.0
 11
592.6833993545328
 21
352.2749791199826
 31
0.0
  0
LINE
  5
F7C
330
1F
100
AcDbEntity
  8
0
  6
Continuous
 62
     7
100
AcDbLine
 10
596.6798682433277
 20
352.2749791199826
 30
0.0
 11
597.1260119490059
 21
355.0865223056226
 31
0.0
  0
LINE
  5
F7D
330
1F
100
AcDbEntity
  8
0
  6
Continuous
 62
     7
100
AcDbLine
 10
588.6457662845769
 20
352.2749791199826
 30
0.0
 11
589.1189490027198
 21
355.2569018226726
 31
0.0
  0
LINE
  5
F7E
330
1F
100
AcDbEntity
  8
0
  6
Continuous
 62
     7
100
AcDbLine
 10
589.3798682433274
 20
352.2749791199826
 30
0.0
 11
589.8260119490057
 21
355.0865223056226
 31
0.0
  0
LINE
  5
F7F
330
1F
100
AcDbEntity
  8
0
  6
Continuous
 62
     7
100
AcDbLine
 10
592.3955133982838
 20
355.0865223056226
 30
0.0
 11
591.9492973957807
 21
352.2749791199826
 31
0.0
  0
LINE
  5
F80
330
1F
100
AcDbEntity
  8
0
  6
Continuous
 62
     7
100
AcDbLine
 10
585.8374234141107
 20
355.1356038166636
 30
0.0
 11
585.3833993545328
 21
352.2749791199826
 31
0.0
  0
LINE
  5
F81
330
1F
100
AcDbEntity
  8
0
  6
Continuous
 62
     7
100
AcDbLine
 10
585.0955133982837
 20
355.0865223056226
 30
0.0
 11
584.6492973957809
 21
352.2749791199826
 31
0.0
  0
LINE
  5
F82
330
1F
100
AcDbEntity
  8
0
  6
Continuous
 62
     7
100
AcDbLine
 10
592.2526548725317
 20
351.8733300934625
 30
0.0
 11
592.5559400524567
 21
351.4716810669426
 31
0.0
  0
LINE
  5
F83
330
1F
100
AcDbEntity
  8
0
  6
Continuous
 62
     7
100
AcDbLine
 10
592.0665628455636
 20
348.3878198413216
 30
0.0
 11
592.5559400524567
 21
351.4716810669426
 31
0.0
  0
LINE
  5
F84
330
1F
100
AcDbEntity
  8
0
  6
Continuous
 62
     7
100
AcDbLine
 10
592.6833993545328
 20
352.2749791199826
 30
0.0
 11
592.2526548725317
 21
351.8733300934625
 31
0.0
  0
LINE
  5
F85
330
1F
100
AcDbEntity
  8
0
  6
Continuous
 62
     7
100
AcDbLine
 10
591.4970084599977
 20
347.8568398282626
 30
0.0
 11
592.0665628455636
 21
348.3878198413216
 31
0.0
  0
LINE
  5
F87
330
1F
100
AcDbEntity
  8
0
  6
Continuous
 62
     7
100
AcDbLine
 10
588.0450519675327
 20
348.4896780344476
 30
0.0
 11
588.5230062761106
 21
347.8568398282626
 31
0.0
  0
LINE
  5
F88
330
1F
100
AcDbEntity
  8
0
  6
Continuous
 62
     7
100
AcDbLine
 10
588.5230062761106
 20
347.8568398282626
 30
0.0
 11
591.4970084599977
 21
347.8568398282626
 31
0.0
  0
LINE
  5
F89
330
1F
100
AcDbEntity
  8
0
  6
Continuous
 62
     7
100
AcDbLine
 10
588.2839929734096
 20
348.1732589313546
 30
0.0
 11
588.8061929387487
 21
348.6602182111076
 31
0.0
  0
LINE
  5
F8A
330
1F
100
AcDbEntity
  8
0
  6
Continuous
 62
     7
100
AcDbLine
 10
588.5183069825008
 20
351.4716810669426
 30
0.0
 11
588.0450519675327
 21
348.4896780344476
 31
0.0
  0
LINE
  5
F8B
330
1F
100
AcDbEntity
  8
0
  6
Continuous
 62
     7
100
AcDbLine
 10
585.3833993545328
 20
352.2749791199826
 30
0.0
 11
584.9526548725317
 21
351.8733300934625
 31
0.0
  0
LINE
  5
F8C
330
1F
100
AcDbEntity
  8
0
  6
Continuous
 62
     7
100
AcDbLine
 10
584.9526548725317
 20
351.8733300934625
 30
0.0
 11
585.2559400524569
 21
351.4716810669426
 31
0.0
  0
LINE
  5
F8D
330
1F
100
AcDbEntity
  8
0
  6
Continuous
 62
     7
100
AcDbLine
 10
584.6492973957809
 20
352.2749791199826
 30
0.0
 11
584.9526548725317
 21
351.8733300934625
 31
0.0
  0
LINE
  5
F8E
330
1F
100
AcDbEntity
  8
0
  6
Continuous
 62
     7
100
AcDbLine
 10
584.9526548725317
 20
351.8733300934625
 30
0.0
 11
584.5218380937057
 21
351.4716810669426
 31
0.0
  0
LINE
  5
F91
330
1F
100
AcDbEntity
  8
0
  6
Continuous
 62
     7
100
AcDbLine
 10
584.7665628455636
 20
348.3878198413216
 30
0.0
 11
585.2559400524569
 21
351.4716810669426
 31
0.0
  0
LINE
  5
F92
330
1F
100
AcDbEntity
  8
0
  6
Continuous
 62
     7
100
AcDbLine
 10
591.9492973957807
 20
352.2749791199826
 30
0.0
 11
592.2526548725317
 21
351.8733300934625
 31
0.0
  0
LINE
  5
F93
330
1F
100
AcDbEntity
  8
0
  6
Continuous
 62
     7
100
AcDbLine
 10
592.2526548725317
 20
351.8733300934625
 30
0.0
 11
591.8218380937057
 21
351.4716810669426
 31
0.0
  0
LINE
  5
F94
330
1F
100
AcDbEntity
  8
0
  6
Continuous
 62
     7
100
AcDbLine
 10
588.6457662845769
 20
352.2749791199826
 30
0.0
 11
588.9490514645017
 21
351.8733300934625
 31
0.0
  0
LINE
  5
F95
330
1F
100
AcDbEntity
  8
0
  6
Continuous
 62
     7
100
AcDbLine
 10
588.9490514645017
 20
351.8733300934625
 30
0.0
 11
588.5183069825008
 21
351.4716810669426
 31
0.0
  0
LINE
  5
F96
330
1F
100
AcDbEntity
  8
0
  6
Continuous
 62
     7
100
AcDbLine
 10
589.3798682433274
 20
352.2749791199826
 30
0.0
 11
588.9490514645017
 21
351.8733300934625
 31
0.0
  0
LINE
  5
F97
330
1F
100
AcDbEntity
  8
0
  6
Continuous
 62
     7
100
AcDbLine
 10
588.9490514645017
 20
351.8733300934625
 30
0.0
 11
589.2524089412517
 21
351.4716810669426
 31
0.0
  0
LINE
  5
F98
330
1F
100
AcDbEntity
  8
0
  6
Continuous
 62
     7
100
AcDbLine
 10
589.2524089412517
 20
351.4716810669426
 30
0.0
 11
591.8218380937057
 21
351.4716810669426
 31
0.0
  0
LINE
  5
F99
330
1F
100
AcDbEntity
  8
0
  6
Continuous
 62
     7
100
AcDbLine
 10
589.3798682433274
 20
352.2749791199826
 30
0.0
 11
591.9492973957807
 21
352.2749791199826
 31
0.0
  0
LINE
  5
F9A
330
1F
100
AcDbEntity
  8
0
  6
Continuous
 62
     7
100
AcDbLine
 10
591.7817856527809
 20
348.1223298347926
 30
0.0
 11
591.3756220912027
 21
348.6602182111076
 31
0.0
  0
LINE
  5
F9B
330
1F
100
AcDbEntity
  8
0
  6
Continuous
 62
     7
100
AcDbLine
 10
591.3756220912027
 20
348.6602182111076
 30
0.0
 11
588.8061929387487
 21
348.6602182111076
 31
0.0
  0
LINE
  5
F9C
330
1F
100
AcDbEntity
  8
0
  6
Continuous
 62
     7
100
AcDbLine
 10
588.8061929387487
 20
348.6602182111076
 30
0.0
 11
589.2524089412517
 21
351.4716810669426
 31
0.0
  0
LINE
  5
F9D
330
1F
100
AcDbEntity
  8
0
  6
Continuous
 62
     7
100
AcDbLine
 10
591.8218380937057
 20
351.4716810669426
 30
0.0
 11
591.3756220912027
 21
348.6602182111076
 31
0.0
  0
LINE
  5
F9E
330
1F
100
AcDbEntity
  8
0
  6
Continuous
 62
     7
100
AcDbLine
 10
598.7970084599976
 20
347.8568398282626
 30
0.0
 11
599.3665628455637
 21
348.3878198413216
 31
0.0
  0
LINE
  5
F9F
330
1F
100
AcDbEntity
  8
0
  6
Continuous
 62
     7
100
AcDbLine
 10
595.3450519675327
 20
348.4896780344476
 30
0.0
 11
595.8230062761107
 21
347.8568398282626
 31
0.0
  0
LINE
  5
FA1
330
1F
100
AcDbEntity
  8
0
  6
Continuous
 62
     7
100
AcDbLine
 10
595.8230062761107
 20
347.8568398282626
 30
0.0
 11
598.7970084599976
 21
347.8568398282626
 31
0.0
  0
LINE
  5
FA2
330
1F
100
AcDbEntity
  8
0
  6
Continuous
 62
     7
100
AcDbLine
 10
596.6798682433277
 20
352.2749791199826
 30
0.0
 11
596.2490514645012
 21
351.8733300934625
 31
0.0
  0
LINE
  5
FA3
330
1F
100
AcDbEntity
  8
0
  6
Continuous
 62
     7
100
AcDbLine
 10
596.5524089412517
 20
351.4716810669426
 30
0.0
 11
599.1218380937056
 21
351.4716810669426
 31
0.0
  0
LINE
  5
FA4
330
1F
100
AcDbEntity
  8
0
  6
Continuous
 62
     7
100
AcDbLine
 10
598.6756220912027
 20
348.6602182111076
 30
0.0
 11
596.1061929387486
 21
348.6602182111076
 31
0.0
  0
LINE
  5
FA5
330
1F
100
AcDbEntity
  8
0
  6
Continuous
 62
     7
100
AcDbLine
 10
595.9457662845767
 20
352.2749791199826
 30
0.0
 11
596.2490514645012
 21
351.8733300934625
 31
0.0
  0
LINE
  5
FA6
330
1F
100
AcDbEntity
  8
0
  6
Continuous
 62
     7
100
AcDbLine
 10
596.2490514645012
 20
351.8733300934625
 30
0.0
 11
595.8183069825008
 21
351.4716810669426
 31
0.0
  0
LINE
  5
FA7
330
1F
100
AcDbEntity
  8
0
  6
Continuous
 62
     7
100
AcDbLine
 10
596.2490514645012
 20
351.8733300934625
 30
0.0
 11
596.5524089412517
 21
351.4716810669426
 31
0.0
  0
LINE
  5
FA8
330
1F
100
AcDbEntity
  8
0
  6
Continuous
 62
     7
100
AcDbLine
 10
595.5839929734097
 20
348.1732589313546
 30
0.0
 11
596.1061929387486
 21
348.6602182111076
 31
0.0
  0
LINE
  5
FAB
330
1F
100
AcDbEntity
  8
0
  6
Continuous
 62
     7
100
AcDbLine
 10
595.8183069825008
 20
351.4716810669426
 30
0.0
 11
595.3450519675327
 21
348.4896780344476
 31
0.0
  0
LINE
  5
FAC
330
1F
100
AcDbEntity
  8
0
  6
Continuous
 62
     7
100
AcDbLine
 10
596.1061929387486
 20
348.6602182111076
 30
0.0
 11
596.5524089412517
 21
351.4716810669426
 31
0.0
  0
LINE
  5
FAD
330
1F
100
AcDbEntity
  8
0
  6
Continuous
 62
     7
100
AcDbLine
 10
599.9833993545328
 20
352.2749791199826
 30
0.0
 11
599.5526548725307
 21
351.8733300934625
 31
0.0
  0
LINE
  5
FAE
330
1F
100
AcDbEntity
  8
0
  6
Continuous
 62
     7
100
AcDbLine
 10
599.5526548725307
 20
351.8733300934625
 30
0.0
 11
599.8559400524567
 21
351.4716810669426
 31
0.0
  0
LINE
  5
FAF
330
1F
100
AcDbEntity
  8
0
  6
Continuous
 62
     7
100
AcDbLine
 10
599.2492973957807
 20
352.2749791199826
 30
0.0
 11
599.5526548725307
 21
351.8733300934625
 31
0.0
  0
LINE
  5
FB0
330
1F
100
AcDbEntity
  8
0
  6
Continuous
 62
     7
100
AcDbLine
 10
599.5526548725307
 20
351.8733300934625
 30
0.0
 11
599.1218380937056
 21
351.4716810669426
 31
0.0
  0
LINE
  5
FB1
330
1F
100
AcDbEntity
  8
0
  6
Continuous
 62
     7
100
AcDbLine
 10
596.6798682433277
 20
352.2749791199826
 30
0.0
 11
599.2492973957807
 21
352.2749791199826
 31
0.0
  0
LINE
  5
FB2
330
1F
100
AcDbEntity
  8
0
  6
Continuous
 62
     7
100
AcDbLine
 10
599.0817856527808
 20
348.1223298347926
 30
0.0
 11
598.6756220912027
 21
348.6602182111076
 31
0.0
  0
LINE
  5
FB3
330
1F
100
AcDbEntity
  8
0
  6
Continuous
 62
     7
100
AcDbLine
 10
599.3665628455637
 20
348.3878198413216
 30
0.0
 11
599.8559400524567
 21
351.4716810669426
 31
0.0
  0
LINE
  5
FB4
330
1F
100
AcDbEntity
  8
0
  6
Continuous
 62
     7
100
AcDbLine
 10
599.1218380937056
 20
351.4716810669426
 30
0.0
 11
598.6756220912027
 21
348.6602182111076
 31
0.0
  0
LINE
  5
FB5
330
1F
100
AcDbEntity
  8
0
  6
Continuous
 62
     7
100
AcDbLine
 10
589.7977438905185
 20
355.8898203586626
 30
0.0
 11
592.5677967317198
 21
355.8898203586626
 31
0.0
  0
LINE
  5
FB6
330
1F
100
AcDbEntity
  8
0
  6
Continuous
 62
     7
100
AcDbLine
 10
592.8525739245027
 20
355.5127522525656
 30
0.0
 11
592.3955133982838
 21
355.0865223056226
 31
0.0
  0
LINE
  5
FB7
330
1F
100
AcDbEntity
  8
0
  6
Continuous
 62
     7
100
AcDbLine
 10
585.5525739245027
 20
355.5127522525656
 30
0.0
 11
585.0955133982837
 21
355.0865223056226
 31
0.0
  0
LINE
  5
FB8
330
1F
100
AcDbEntity
  8
0
  6
Continuous
 62
     7
100
AcDbLine
 10
585.2677967317197
 20
355.8898203586626
 30
0.0
 11
585.8374234141107
 21
355.1356038166636
 31
0.0
  0
LINE
  5
FB9
330
1F
100
AcDbEntity
  8
0
  6
Continuous
 62
     7
100
AcDbLine
 10
589.4583825950319
 20
355.5734012555706
 30
0.0
 11
589.8260119490057
 21
355.0865223056226
 31
0.0
  0
LINE
  5
FBA
330
1F
100
AcDbEntity
  8
0
  6
Continuous
 62
     7
100
AcDbLine
 10
589.1189490027198
 20
355.2569018226726
 30
0.0
 11
589.7977438905185
 21
355.8898203586626
 31
0.0
  0
LINE
  5
FBB
330
1F
100
AcDbEntity
  8
0
  6
Continuous
 62
     7
100
AcDbLine
 10
589.8260119490057
 20
355.0865223056226
 30
0.0
 11
592.3955133982838
 21
355.0865223056226
 31
0.0
  0
LINE
  5
FBC
330
1F
100
AcDbEntity
  8
0
  6
Continuous
 62
     7
100
AcDbLine
 10
596.4189490027197
 20
355.2569018226726
 30
0.0
 11
597.0977438905187
 21
355.8898203586626
 31
0.0
  0
LINE
  5
FBD
330
1F
100
AcDbEntity
  8
0
  6
Continuous
 62
     7
100
AcDbLine
 10
592.5677967317198
 20
355.8898203586626
 30
0.0
 11
593.1374234141104
 21
355.1356038166636
 31
0.0
  0
LINE
  5
FBE
330
1F
100
AcDbEntity
  8
0
  6
Continuous
 62
     7
100
AcDbLine
 10
596.7583825950319
 20
355.5734012555706
 30
0.0
 11
597.1260119490059
 21
355.0865223056226
 31
0.0
  0
LINE
  5
FBF
330
1F
100
AcDbEntity
  8
0
  6
Continuous
 62
     7
100
AcDbLine
 10
600.1525739245026
 20
355.5127522525656
 30
0.0
 11
599.6955133982837
 21
355.0865223056226
 31
0.0
  0
LINE
  5
FC0
330
1F
100
AcDbEntity
  8
0
  6
Continuous
 62
     7
100
AcDbLine
 10
599.8677967317197
 20
355.8898203586626
 30
0.0
 11
600.4374234141107
 21
355.1356038166636
 31
0.0
  0
LINE
  5
FC1
330
1F
100
AcDbEntity
  8
0
  6
Continuous
 62
     7
100
AcDbLine
 10
597.0977438905187
 20
355.8898203586626
 30
0.0
 11
599.8677967317197
 21
355.8898203586626
 31
0.0
  0
LINE
  5
FC2
330
1F
100
AcDbEntity
  8
0
  6
Continuous
 62
     7
100
AcDbLine
 10
597.1260119490059
 20
355.0865223056226
 30
0.0
 11
599.6955133982837
 21
355.0865223056226
 31
0.0
  0
ARC
  5
FC5
330
1F
100
AcDbEntity
  8
0
  6
Continuous
 62
     7
100
AcDbCircle
 10
586.9501893377718
 20
370.4733290768176
 30
0.0
 40
4.0
100
AcDbArc
 50
180.0
 51
0.0
  0
LINE
  5
FC6
330
1F
100
AcDbEntity
  8
0
  6
Continuous
 62
     7
100
AcDbLine
 10
582.9501893377718
 20
373.4733290768176
 30
0.0
 11
582.9501893377718
 21
370.4733290768176
 31
0.0
  0
LINE
  5
FC8
330
1F
100
AcDbEntity
  8
0
  6
Continuous
 62
     7
100
AcDbLine
 10
586.4501847363957
 20
378.4733298396385
 30
0.0
 11
586.4501847364037
 21
376.9733298396264
 31
0.0
  0
LINE
  5
FC9
330
1F
100
AcDbEntity
  8
0
  6
Continuous
 62
     7
100
AcDbLine
 10
587.4501847364037
 20
376.9733298396436
 30
0.0
 11
587.4501847363957
 21
378.4733298396444
 31
0.0
  0
LINE
  5
FCA
330
1F
100
AcDbEntity
  8
0
  6
Continuous
 62
     7
100
AcDbLine
 10
588.9501893377719
 20
374.4733290768176
 30
0.0
 11
588.9501893377719
 21
377.0858761065515
 31
0.0
  0
LINE
  5
FCB
330
1F
100
AcDbEntity
  8
0
  6
Continuous
 62
     7
100
AcDbLine
 10
584.9501893377719
 20
374.4733290768176
 30
0.0
 11
584.9501893377719
 21
377.0858663550706
 31
0.0
  0
LINE
  5
FCC
330
1F
100
AcDbEntity
  8
0
  6
Continuous
 62
     7
100
AcDbLine
 10
590.9501893377719
 20
373.4733290768176
 30
0.0
 11
590.9501893377719
 21
370.4733290768176
 31
0.0
  0
LINE
  5
FCD
330
1F
100
AcDbEntity
  8
0
  6
Continuous
 62
     7
100
AcDbLine
 10
586.4501923657757
 20
372.4733298396386
 30
0.0
 11
586.4501923657849
 21
370.9733298396386
 31
0.0
  0
LINE
  5
FCE
330
1F
100
AcDbEntity
  8
0
  6
Continuous
 62
     7
100
AcDbLine
 10
587.4501923657849
 20
370.9733298396316
 30
0.0
 11
587.4501923657756
 21
372.4733298396436
 31
0.0
  0
LINE
  5
FD0
330
1F
100
AcDbEntity
  8
0
  6
Continuous
 62
     7
100
AcDbLine
 10
587.4501923657899
 20
369.9733298396444
 30
0.0
 11
588.9501923657896
 21
369.9733298396515
 31
0.0
  0
LINE
  5
FD1
330
1F
100
AcDbEntity
  8
0
  6
Continuous
 62
     7
100
AcDbLine
 10
588.9501923657848
 20
370.9733298396406
 30
0.0
 11
587.4501923657849
 21
370.9733298396316
 31
0.0
  0
LINE
  5
FD2
330
1F
100
AcDbEntity
  8
0
  6
Continuous
 62
     7
100
AcDbLine
 10
586.4501923657849
 20
370.9733298396386
 30
0.0
 11
584.9501923657848
 21
370.9733298396185
 31
0.0
  0
LINE
  5
FD3
330
1F
100
AcDbEntity
  8
0
  6
Continuous
 62
     7
100
AcDbLine
 10
584.9501923657848
 20
370.9733298396185
 30
0.0
 11
584.9501923657896
 21
369.9733298396295
 31
0.0
  0
LINE
  5
FD4
330
1F
100
AcDbEntity
  8
0
  6
Continuous
 62
     7
100
AcDbLine
 10
584.9501923657896
 20
369.9733298396295
 30
0.0
 11
586.4501923657896
 21
369.9733298396385
 31
0.0
  0
LINE
  5
FD5
330
1F
100
AcDbEntity
  8
0
  6
Continuous
 62
     7
100
AcDbLine
 10
586.4501923657979
 20
368.4733298396263
 30
0.0
 11
587.4501923657978
 21
368.4733298396436
 31
0.0
  0
LINE
  5
FD6
330
1F
100
AcDbEntity
  8
0
  6
Continuous
 62
     7
100
AcDbLine
 10
586.4501923657896
 20
369.9733298396385
 30
0.0
 11
586.4501923657979
 21
368.4733298396263
 31
0.0
  0
LINE
  5
FD7
330
1F
100
AcDbEntity
  8
0
  6
Continuous
 62
     7
100
AcDbLine
 10
587.4501923657978
 20
368.4733298396436
 30
0.0
 11
587.4501923657899
 21
369.9733298396444
 31
0.0
  0
LINE
  5
FD9
330
1F
100
AcDbEntity
  8
0
  6
Continuous
 62
     7
100
AcDbLine
 10
588.9501923657896
 20
369.9733298396515
 30
0.0
 11
588.9501923657848
 21
370.9733298396406
 31
0.0
  0
LINE
  5
FDA
330
1F
100
AcDbEntity
  8
0
  6
Continuous
 62
     7
100
AcDbLine
 10
586.4501847364037
 20
376.9733298396264
 30
0.0
 11
587.4501847364037
 21
376.9733298396436
 31
0.0
  0
LINE
  5
FDB
330
1F
100
AcDbEntity
  8
0
  6
Continuous
 62
     7
100
AcDbLine
 10
587.4501923657756
 20
372.4733298396436
 30
0.0
 11
586.4501923657757
 21
372.4733298396386
 31
0.0
  0
LINE
  5
FDC
330
1F
100
AcDbEntity
  8
0
  6
Continuous
 62
     7
100
AcDbLine
 10
587.4501923657756
 20
372.4733298396436
 30
0.0
 11
587.4501923657756
 21
372.4733298396436
 31
0.0
  0
LINE
  5
FDD
330
1F
100
AcDbEntity
  8
0
  6
Continuous
 62
     7
100
AcDbLine
 10
587.4501847363957
 20
378.4733298396444
 30
0.0
 11
588.9501847363957
 21
378.4733298396515
 31
0.0
  0
LINE
  5
FDE
330
1F
100
AcDbEntity
  8
0
  6
Continuous
 62
     7
100
AcDbLine
 10
588.9501847363898
 20
379.4733298396403
 30
0.0
 11
587.4501847363898
 21
379.4733298396316
 31
0.0
  0
LINE
  5
FE0
330
1F
100
AcDbEntity
  8
0
  6
Continuous
 62
     7
100
AcDbLine
 10
587.4501847363817
 20
380.9733298396436
 30
0.0
 11
586.4501847363817
 21
380.9733298396386
 31
0.0
  0
LINE
  5
FE1
330
1F
100
AcDbEntity
  8
0
  6
Continuous
 62
     7
100
AcDbLine
 10
587.4501847363817
 20
380.9733298396436
 30
0.0
 11
587.4501847363817
 21
380.9733298396436
 31
0.0
  0
LINE
  5
FE2
330
1F
100
AcDbEntity
  8
0
  6
Continuous
 62
     7
100
AcDbLine
 10
586.4501847363897
 20
379.4733298396386
 30
0.0
 11
584.9501847363898
 21
379.4733298396185
 31
0.0
  0
LINE
  5
FE3
330
1F
100
AcDbEntity
  8
0
  6
Continuous
 62
     7
100
AcDbLine
 10
584.9501847363898
 20
379.4733298396185
 30
0.0
 11
584.9501847363957
 21
378.4733298396297
 31
0.0
  0
LINE
  5
FE4
330
1F
100
AcDbEntity
  8
0
  6
Continuous
 62
     7
100
AcDbLine
 10
584.9501847363957
 20
378.4733298396297
 30
0.0
 11
586.4501847363957
 21
378.4733298396385
 31
0.0
  0
LINE
  5
FE5
330
1F
100
AcDbEntity
  8
0
  6
Continuous
 62
     7
100
AcDbLine
 10
586.4501847363817
 20
380.9733298396386
 30
0.0
 11
586.4501847363897
 21
379.4733298396386
 31
0.0
  0
LINE
  5
FE6
330
1F
100
AcDbEntity
  8
0
  6
Continuous
 62
     7
100
AcDbLine
 10
587.4501847363898
 20
379.4733298396316
 30
0.0
 11
587.4501847363817
 21
380.9733298396436
 31
0.0
  0
LINE
  5
FE8
330
1F
100
AcDbEntity
  8
0
  6
Continuous
 62
     7
100
AcDbLine
 10
588.9501847363957
 20
378.4733298396515
 30
0.0
 11
588.9501847363898
 21
379.4733298396403
 31
0.0
  0
LINE
  5
FEB
330
1F
100
AcDbEntity
  8
0
  6
Continuous
 62
     7
100
AcDbLine
 10
621.9501893377719
 20
383.9733290768176
 30
0.0
 11
621.9501893377719
 21
258.9733290768176
 31
0.0
  0
LINE
  5
FEC
330
1F
100
AcDbEntity
  8
0
  6
Continuous
 62
     7
100
AcDbLine
 10
621.9501893377719
 20
381.9733290768176
 30
0.0
 11
621.9501893377719
 21
260.9733290768176
 31
0.0
  0
LINE
  5
FED
330
1F
100
AcDbEntity
  8
0
  6
Continuous
 62
     7
100
AcDbLine
 10
611.9501893377718
 20
371.4733290768176
 30
0.0
 11
611.9501893377718
 21
271.4733290768176
 31
0.0
  0
ARC
  5
FEE
330
1F
100
AcDbEntity
  8
0
  6
Continuous
 62
     7
100
AcDbCircle
 10
605.9501893377707
 20
252.4733290768185
 30
0.0
 40
6.000000000000972
100
AcDbArc
 50
270.0000000000094
 51
359.9999999999906
  0
LINE
  5
FEF
330
1F
100
AcDbEntity
  8
0
  6
Continuous
 62
     7
100
AcDbLine
 10
611.9501893377718
 20
258.9733290768176
 30
0.0
 11
611.9501893377718
 21
252.4733290768175
 31
0.0
  0
ARC
  5
FF0
330
1F
100
AcDbEntity
  8
0
  6
Continuous
 62
     7
100
AcDbCircle
 10
609.9501893377712
 20
271.473329076818
 30
0.0
 40
2.000000000000323
100
AcDbArc
 50
270.0000000000094
 51
359.9999999999906
  0
ARC
  5
FF1
330
1F
100
AcDbEntity
  8
0
  6
Continuous
 62
     7
100
AcDbCircle
 10
619.9501893377712
 20
260.973329076818
 30
0.0
 40
2.000000000000323
100
AcDbArc
 50
270.0000000000094
 51
359.9999999999906
  0
LINE
  5
FF2
330
1F
100
AcDbEntity
  8
0
  6
Continuous
 62
     7
100
AcDbLine
 10
602.9001893377717
 20
286.9733290768176
 30
0.0
 11
602.9001893377717
 21
281.2733290768175
 31
0.0
  0
LINE
  5
FF3
330
1F
100
AcDbEntity
  8
0
  6
Continuous
 62
     7
100
AcDbLine
 10
603.7001893377719
 20
295.4733290768176
 30
0.0
 11
603.7001893377719
 21
280.4733290768173
 31
0.0
  0
LINE
  5
FF4
330
1F
100
AcDbEntity
  8
0
  6
Continuous
 62
     7
100
AcDbLine
 10
602.0001893377719
 20
293.7733290768176
 30
0.0
 11
602.0001893377719
 21
282.1733290768176
 31
0.0
  0
LINE
  5
FF5
330
1F
100
AcDbEntity
  8
0
  6
Continuous
 62
     7
100
AcDbLine
 10
603.2001893377719
 20
294.9733290768175
 30
0.0
 11
603.2001893377719
 21
280.9733290768176
 31
0.0
  0
LINE
  5
FF6
330
1F
100
AcDbEntity
  8
0
  6
Continuous
 62
     7
100
AcDbLine
 10
603.2001893377719
 20
280.9733290768176
 30
0.0
 11
603.7001893377719
 21
280.4733290768173
 31
0.0
  0
LINE
  5
FF7
330
1F
100
AcDbEntity
  8
0
  6
Continuous
 62
     7
100
AcDbLine
 10
602.9001893377717
 20
281.2733290768175
 30
0.0
 11
602.0001893377719
 21
282.1733290768176
 31
0.0
  0
LINE
  5
FF8
330
1F
100
AcDbEntity
  8
0
  6
Continuous
 62
     7
100
AcDbLine
 10
602.9001893377717
 20
294.6733290768176
 30
0.0
 11
602.9001893377717
 21
288.9733290768176
 31
0.0
  0
LINE
  5
FF9
330
1F
100
AcDbEntity
  8
0
  6
Continuous
 62
     7
100
AcDbLine
 10
602.7001893377716
 20
286.9733290768176
 30
0.0
 11
603.2001893377719
 21
286.9733290768176
 31
0.0
  0
LINE
  5
FFA
330
1F
100
AcDbEntity
  8
0
  6
Continuous
 62
     7
100
AcDbLine
 10
602.7001893377716
 20
288.9733290768176
 30
0.0
 11
602.7001893377716
 21
286.9733290768176
 31
0.0
  0
LINE
  5
FFB
330
1F
100
AcDbEntity
  8
0
  6
Continuous
 62
     7
100
AcDbLine
 10
602.7001893377716
 20
288.9733290768176
 30
0.0
 11
603.2001893377719
 21
288.9733290768176
 31
0.0
  0
LINE
  5
FFC
330
1F
100
AcDbEntity
  8
0
  6
Continuous
 62
     7
100
AcDbLine
 10
603.2001893377719
 20
294.9733290768175
 30
0.0
 11
603.7001893377719
 21
295.4733290768176
 31
0.0
  0
LINE
  5
FFD
330
1F
100
AcDbEntity
  8
0
  6
Continuous
 62
     7
100
AcDbLine
 10
602.9001893377717
 20
294.6733290768176
 30
0.0
 11
602.0001893377719
 21
293.7733290768176
 31
0.0
  0
LINE
  5
FFE
330
1F
100
AcDbEntity
  8
0
  6
Continuous
 62
     7
100
AcDbLine
 10
608.9501893377719
 20
363.4733290768175
 30
0.0
 11
608.9501893377719
 21
300.9733290768175
 31
0.0
  0
LINE
  5
FFF
330
1F
100
AcDbEntity
  8
0
  6
Continuous
 62
     7
100
AcDbLine
 10
608.9501893377719
 20
363.4733290768175
 30
0.0
 11
608.9501893377719
 21
300.9733290768175
 31
0.0
  0
ARC
  5
1000
330
1F
100
AcDbEntity
  8
0
  6
Continuous
 62
     7
100
AcDbCircle
 10
607.9501893377718
 20
300.9733290768178
 30
0.0
 40
1.00000000000016
100
AcDbArc
 50
270.0000000000094
 51
359.9999999999906
  0
ARC
  5
1001
330
1F
100
AcDbEntity
  8
0
  6
Continuous
 62
     7
100
AcDbCircle
 10
607.9501893377718
 20
300.9733290768178
 30
0.0
 40
1.00000000000016
100
AcDbArc
 50
270.0000000000094
 51
359.9999999999906
  0
LINE
  5
1003
330
1F
100
AcDbEntity
  8
0
  6
Continuous
 62
     7
 48
4.0
100
AcDbLine
 10
605.4501893377719
 20
311.4733290768175
 30
0.0
 11
605.4501893377719
 21
311.4733290768175
 31
0.0
  0
LINE
  5
1004
330
1F
100
AcDbEntity
  8
0
  6
Continuous
 62
     7
100
AcDbLine
 10
605.9501893377719
 20
312.9733290768176
 30
0.0
 11
605.9501893377719
 21
309.9733290768176
 31
0.0
  0
LINE
  5
1007
330
1F
100
AcDbEntity
  8
0
  6
Continuous
 62
     7
100
AcDbLine
 10
605.4501893377719
 20
321.4733290768176
 30
0.0
 11
605.4501893377719
 21
328.4733290768176
 31
0.0
  0
ARC
  5
1008
330
1F
100
AcDbEntity
  8
0
  6
Continuous
 62
     7
100
AcDbCircle
 10
604.4501893377717
 20
321.4733290768178
 30
0.0
 40
1.00000000000016
100
AcDbArc
 50
270.0000000000094
 51
359.9999999999906
  0
ARC
  5
100B
330
1F
100
AcDbEntity
  8
0
  6
Continuous
 62
     7
100
AcDbCircle
 10
604.4501893377717
 20
328.4733290768173
 30
0.0
 40
1.00000000000017
100
AcDbArc
 50
0.0000000000097707
 51
89.99999999999024
  0
LINE
  5
100C
330
1F
100
AcDbEntity
  8
0
  6
Continuous
 62
     7
100
AcDbLine
 10
601.4501893377719
 20
340.4733290768175
 30
0.0
 11
601.4501893377719
 21
332.4733290768175
 31
0.0
  0
LINE
  5
100E
330
1F
100
AcDbEntity
  8
0
  6
Continuous
 62
     7
100
AcDbLine
 10
601.4501893377719
 20
355.8733290768176
 30
0.0
 11
601.4501893377719
 21
347.8733290768176
 31
0.0
  0
ARC
  5
1010
330
1F
100
AcDbEntity
  8
0
  6
Continuous
 62
     7
100
AcDbCircle
 10
607.9501893377718
 20
363.4733290768173
 30
0.0
 40
1.00000000000017
100
AcDbArc
 50
0.0000000000097707
 51
89.99999999999024
  0
ARC
  5
1011
330
1F
100
AcDbEntity
  8
0
  6
Continuous
 62
     7
100
AcDbCircle
 10
607.9501893377718
 20
363.4733290768173
 30
0.0
 40
1.00000000000017
100
AcDbArc
 50
0.0000000000097707
 51
89.99999999999024
  0
ARC
  5
1015
330
1F
100
AcDbEntity
  8
0
  6
Continuous
 62
     7
100
AcDbCircle
 10
609.9501893377712
 20
371.4733290768171
 30
0.0
 40
2.000000000000341
100
AcDbArc
 50
0.0000000000093636
 51
89.99999999999024
  0
ARC
  5
101C
330
1F
100
AcDbEntity
  8
0
  6
Continuous
 62
     7
100
AcDbCircle
 10
619.9501893377712
 20
381.9733290768173
 30
0.0
 40
2.000000000000341
100
AcDbArc
 50
0.0000000000093636
 51
89.99999999999024
  0
LINE
  5
101D
330
1F
100
AcDbEntity
  8
0
  6
Continuous
 62
     7
100
AcDbLine
 10
592.4501893377716
 20
396.4733290768176
 30
0.0
 11
605.9501893377719
 21
396.4733290768176
 31
0.0
  0
ARC
  5
101E
330
1F
100
AcDbEntity
  8
0
  6
Continuous
 62
     7
100
AcDbCircle
 10
567.9501893377727
 20
390.4733290768166
 30
0.0
 40
6.000000000000964
100
AcDbArc
 50
90.00000000000978
 51
179.9999999999907
  0
LINE
  5
101F
330
1F
100
AcDbEntity
  8
0
  6
Continuous
 62
     7
100
AcDbLine
 10
567.9501893377719
 20
396.4733290768176
 30
0.0
 11
581.4501893377719
 21
396.4733290768176
 31
0.0
  0
LINE
  5
1020
330
1F
100
AcDbEntity
  8
0
  6
Continuous
 62
     7
100
AcDbLine
 10
583.4501893377717
 20
394.4733290768176
 30
0.0
 11
583.4501893377717
 21
390.4733290768175
 31
0.0
  0
ARC
  5
1021
330
1F
100
AcDbEntity
  8
0
  6
Continuous
 62
     7
100
AcDbCircle
 10
581.4501893377712
 20
394.4733290768173
 30
0.0
 40
2.000000000000311
100
AcDbArc
 50
0.0000000000097707
 51
89.99999999999024
  0
LINE
  5
1022
330
1F
100
AcDbEntity
  8
0
  6
Continuous
 62
     7
100
AcDbLine
 10
590.4501893377718
 20
394.4733290768176
 30
0.0
 11
590.4501893377718
 21
390.4733290768175
 31
0.0
  0
ARC
  5
1023
330
1F
100
AcDbEntity
  8
0
  6
Continuous
 62
     7
100
AcDbCircle
 10
592.4501893377716
 20
394.4733290768173
 30
0.0
 40
2.000000000000397
100
AcDbArc
 50
90.00000000000651
 51
179.9999999999886
  0
ARC
  5
1024
330
1F
100
AcDbEntity
  8
0
  6
Continuous
 62
     7
100
AcDbCircle
 10
605.9501893377707
 20
390.4733290768166
 30
0.0
 40
6.000000000000964
100
AcDbArc
 50
0.0000000000092618
 51
89.99999999999024
  0
LINE
  5
1025
330
1F
100
AcDbEntity
  8
0
  6
Continuous
 62
     7
100
AcDbLine
 10
509.9501893377718
 20
373.4733290768176
 30
0.0
 11
509.9501893377718
 21
269.4733290768176
 31
0.0
  0
LINE
  5
1026
330
1F
100
AcDbEntity
  8
0
  6
Continuous
 62
     7
100
AcDbLine
 10
509.9501893377718
 20
373.4733290768176
 30
0.0
 11
509.9501893377718
 21
269.4733290768176
 31
0.0
  0
LINE
  5
1027
330
1F
100
AcDbEntity
  8
0
  6
Continuous
 62
     7
100
AcDbLine
 10
513.4501893377719
 20
371.4733290768176
 30
0.0
 11
513.4501893377719
 21
271.4733290768176
 31
0.0
  0
LINE
  5
1028
330
1F
100
AcDbEntity
  8
0
  6
Continuous
 62
     7
100
AcDbLine
 10
508.9501893377718
 20
268.4733290768176
 30
0.0
 11
498.1501893377717
 21
268.4733290768176
 31
0.0
  0
LINE
  5
1029
330
1F
100
AcDbEntity
  8
0
  6
Continuous
 62
     7
100
AcDbLine
 10
508.7501893377718
 20
269.6733290768175
 30
0.0
 11
497.9501893377718
 21
269.6733290768175
 31
0.0
  0
LINE
  5
102A
330
1F
100
AcDbEntity
  8
0
  6
Continuous
 62
     7
100
AcDbLine
 10
508.7501893377718
 20
270.0733290768175
 30
0.0
 11
496.9501893377716
 21
270.0733290768175
 31
0.0
  0
LINE
  5
102B
330
1F
100
AcDbEntity
  8
0
  6
Continuous
 62
     7
100
AcDbLine
 10
511.4501893377719
 20
269.4733290768176
 30
0.0
 11
509.9501893377718
 21
269.4733290768176
 31
0.0
  0
ARC
  5
102C
330
1F
100
AcDbEntity
  8
0
  6
Continuous
 62
     7
100
AcDbCircle
 10
508.9501893377716
 20
269.4733290768178
 30
0.0
 40
1.00000000000017
100
AcDbArc
 50
270.0000000000094
 51
359.9999999999906
  0
LINE
  5
102D
330
1F
100
AcDbEntity
  8
0
  6
Continuous
 62
     7
100
AcDbLine
 10
508.7501893377718
 20
270.0733290768175
 30
0.0
 11
508.7501893377718
 21
269.6733290768175
 31
0.0
  0
ARC
  5
102E
330
1F
100
AcDbEntity
  8
0
  6
Continuous
 62
     7
100
AcDbCircle
 10
511.4501893377712
 20
271.473329076818
 30
0.0
 40
2.000000000000311
100
AcDbArc
 50
270.0000000000094
 51
359.9999999999906
  0
LINE
  5
102F
330
1F
100
AcDbEntity
  8
0
  6
Continuous
 62
     7
100
AcDbLine
 10
508.9501893377718
 20
374.4733290768176
 30
0.0
 11
498.1501893377717
 21
374.4733290768176
 31
0.0
  0
LINE
  5
1030
330
1F
100
AcDbEntity
  8
0
  6
Continuous
 62
     7
100
AcDbLine
 10
508.7501893377718
 20
373.2733290768176
 30
0.0
 11
497.9501893377718
 21
373.2733290768176
 31
0.0
  0
LINE
  5
1031
330
1F
100
AcDbEntity
  8
0
  6
Continuous
 62
     7
100
AcDbLine
 10
508.7501893377718
 20
372.8733290768176
 30
0.0
 11
496.9501893377716
 21
372.8733290768176
 31
0.0
  0
LINE
  5
1032
330
1F
100
AcDbEntity
  8
0
  6
Continuous
 62
     7
100
AcDbLine
 10
511.4501893377719
 20
373.4733290768176
 30
0.0
 11
509.9501893377718
 21
373.4733290768176
 31
0.0
  0
LINE
  5
1033
330
1F
100
AcDbEntity
  8
0
  6
Continuous
 62
     7
100
AcDbLine
 10
508.7501893377718
 20
373.2733290768176
 30
0.0
 11
508.7501893377718
 21
372.8733290768176
 31
0.0
  0
ARC
  5
1034
330
1F
100
AcDbEntity
  8
0
  6
Continuous
 62
     7
100
AcDbCircle
 10
508.9501893377716
 20
373.4733290768171
 30
0.0
 40
1.00000000000017
100
AcDbArc
 50
0.0000000000097707
 51
89.99999999999024
  0
ARC
  5
1035
330
1F
100
AcDbEntity
  8
0
  6
Continuous
 62
     7
100
AcDbCircle
 10
511.4501893377712
 20
371.4733290768171
 30
0.0
 40
2.000000000000323
100
AcDbArc
 50
0.0000000000093636
 51
89.99999999999024
  0
LINE
  5
1036
330
1F
100
AcDbEntity
  8
0
  6
Continuous
 62
     7
100
AcDbLine
 10
498.1501893377717
 20
383.9733290768176
 30
0.0
 11
498.1501893377717
 21
374.4733290768176
 31
0.0
  0
LINE
  5
1037
330
1F
100
AcDbEntity
  8
0
  6
Continuous
 62
     7
100
AcDbLine
 10
496.9501893377716
 20
383.9733290768176
 30
0.0
 11
496.9501893377716
 21
374.2733290768173
 31
0.0
  0
LINE
  5
1038
330
1F
100
AcDbEntity
  8
0
  6
Continuous
 62
     7
100
AcDbLine
 10
498.1501893377717
 20
383.9733290768176
 30
0.0
 11
496.9501893377716
 21
383.9733290768176
 31
0.0
  0
ARC
  5
1039
330
1F
100
AcDbEntity
  8
0
  6
Continuous
 62
     7
100
AcDbCircle
 10
497.9501893377718
 20
374.2733290768177
 30
0.0
 40
1.000000000000113
100
AcDbArc
 50
180.0000000000119
 51
269.9999999999934
  0
LINE
  5
103A
330
1F
100
AcDbEntity
  8
0
  6
Continuous
 62
     7
100
AcDbLine
 10
498.1501893377717
 20
268.4733290768176
 30
0.0
 11
498.1501893377717
 21
258.9733290768176
 31
0.0
  0
LINE
  5
103B
330
1F
100
AcDbEntity
  8
0
  6
Continuous
 62
     7
100
AcDbLine
 10
498.1501893377717
 20
258.9733290768176
 30
0.0
 11
496.9501893377716
 21
258.9733290768176
 31
0.0
  0
LINE
  5
103C
330
1F
100
AcDbEntity
  8
0
  6
Continuous
 62
     7
100
AcDbLine
 10
496.9501893377716
 20
268.6733290768176
 30
0.0
 11
496.9501893377716
 21
258.9733290768176
 31
0.0
  0
ARC
  5
103D
330
1F
100
AcDbEntity
  8
0
  6
Continuous
 62
     7
100
AcDbCircle
 10
497.9501893377718
 20
268.6733290768174
 30
0.0
 40
1.00000000000017
100
AcDbArc
 50
90.00000000000978
 51
179.9999999999904
  0
LINE
  5
103E
330
1F
100
AcDbEntity
  8
0
  6
Continuous
 62
     7
100
AcDbLine
 10
496.9501893377716
 20
382.9733290768176
 30
0.0
 11
496.9501893377716
 21
259.9733290768176
 31
0.0
  0
CIRCLE
  5
103F
330
1F
100
AcDbEntity
  8
0
100
AcDbCircle
 10
586.9501923657862
 20
272.4733298396162
 30
0.0
 40
2.750000000000454
  0
CIRCLE
  5
1040
330
1F
100
AcDbEntity
  8
0
100
AcDbCircle
 10
590.950184736392
 20
263.9733298396162
 30
0.0
 40
2.750000000000341
  0
CIRCLE
  5
1041
330
1F
100
AcDbEntity
  8
0
100
AcDbCircle
 10
571.9501893377712
 20
311.4733290768171
 30
0.0
 40
3.500000000000451
  0
CIRCLE
  5
1042
330
1F
100
AcDbEntity
  8
0
100
AcDbCircle
 10
581.9501893377712
 20
311.4733290768171
 30
0.0
 40
3.500000000000568
  0
CIRCLE
  5
1043
330
1F
100
AcDbEntity
  8
0
100
AcDbCircle
 10
591.9501893377712
 20
311.4733290768171
 30
0.0
 40
3.500000000000568
  0
CIRCLE
  5
1044
330
1F
100
AcDbEntity
  8
0
100
AcDbCircle
 10
601.9501893377712
 20
311.4733290768171
 30
0.0
 40
3.500000000000568
  0
CIRCLE
  5
1045
330
1F
100
AcDbEntity
  8
0
100
AcDbCircle
 10
571.9501893377715
 20
323.4733290768173
 30
0.0
 40
2.000000000000341
  0
CIRCLE
  5
1046
330
1F
100
AcDbEntity
  8
0
100
AcDbCircle
 10
579.4501893377712
 20
323.4733290768173
 30
0.0
 40
2.000000000000341
  0
CIRCLE
  5
1047
330
1F
100
AcDbEntity
  8
0
100
AcDbCircle
 10
586.9501893377712
 20
323.4733290768173
 30
0.0
 40
2.000000000000341
  0
CIRCLE
  5
1048
330
1F
100
AcDbEntity
  8
0
100
AcDbCircle
 10
594.4501893377712
 20
323.4733290768173
 30
0.0
 40
2.000000000000226
  0
CIRCLE
  5
1049
330
1F
100
AcDbEntity
  8
0
100
AcDbCircle
 10
601.9501893377714
 20
323.4733290768173
 30
0.0
 40
2.000000000000341
  0
CIRCLE
  5
104A
330
1F
100
AcDbEntity
  8
0
100
AcDbCircle
 10
597.3501893377715
 20
378.1733290768172
 30
0.0
 40
1.750000000000224
  0
CIRCLE
  5
104B
330
1F
100
AcDbEntity
  8
0
100
AcDbCircle
 10
602.4501893377712
 20
378.1733290768172
 30
0.0
 40
1.750000000000224
  0
CIRCLE
  5
104C
330
1F
100
AcDbEntity
  8
0
100
AcDbCircle
 10
607.5501893377714
 20
378.1733290768172
 30
0.0
 40
1.750000000000224
  0
CIRCLE
  5
104D
330
1F
100
AcDbEntity
  8
0
100
AcDbCircle
 10
612.6501893377713
 20
378.1733290768172
 30
0.0
 40
1.750000000000224
  0
CIRCLE
  5
104E
330
1F
100
AcDbEntity
  8
0
100
AcDbCircle
 10
586.9501847363919
 20
378.9733298396161
 30
0.0
 40
2.750000000000454
  0
CIRCLE
  5
104F
330
1F
100
AcDbEntity
  8
0
100
AcDbCircle
 10
586.9501923657862
 20
370.4733298396161
 30
0.0
 40
2.750000000000454
  0
CIRCLE
  5
1050
330
1F
100
AcDbEntity
  8
0
100
AcDbCircle
 10
578.4733174294943
 20
332.9296434933461
 30
0.0
 40
0.3856738697165838
  0
CIRCLE
  5
1051
330
1F
100
AcDbEntity
  8
0
100
AcDbCircle
 10
585.7733174294936
 20
332.9296434933456
 30
0.0
 40
0.3856738697170385
  0
CIRCLE
  5
1052
330
1F
100
AcDbEntity
  8
0
100
AcDbCircle
 10
593.0733174294942
 20
332.9296434933457
 30
0.0
 40
0.3856738697165838
  0
CIRCLE
  5
1053
330
1F
100
AcDbEntity
  8
0
100
AcDbCircle
 10
600.3733174294937
 20
332.9296434933457
 30
0.0
 40
0.3856738697166975
  0
CIRCLE
  5
1054
330
1F
100
AcDbEntity
  8
0
100
AcDbCircle
 10
600.3733174294937
 20
348.329643493346
 30
0.0
 40
0.3856738697166975
  0
CIRCLE
  5
1055
330
1F
100
AcDbEntity
  8
0
100
AcDbCircle
 10
593.0733174294942
 20
348.329643493346
 30
0.0
 40
0.3856738697165838
  0
CIRCLE
  5
1056
330
1F
100
AcDbEntity
  8
0
100
AcDbCircle
 10
585.7733174294936
 20
348.3296434933456
 30
0.0
 40
0.3856738697170385
  0
CIRCLE
  5
1057
330
1F
100
AcDbEntity
  8
0
100
AcDbCircle
 10
578.4733174294943
 20
348.329643493346
 30
0.0
 40
0.3856738697165838
  0
ENDSEC
  0
SECTION
  2
OBJECTS
  0
DICTIONARY
  5
C
330
0
100
AcDbDictionary
281
     1
  3
ACAD_GROUP
350
D
  3
ACAD_LAYOUT
350
1A
  3
ACAD_MLINESTYLE
350
17
  3
ACAD_PLOTSETTINGS
350
19
  3
ACAD_PLOTSTYLENAME
350
E
  0
DICTIONARY
  5
D
102
{ACAD_REACTORS
330
C
102
}
330
C
100
AcDbDictionary
281
     1
  0
DICTIONARY
  5
1A
102
{ACAD_REACTORS
330
C
102
}
330
C
100
AcDbDictionary
281
     1
  3
Model
350
22
  3
ﾚｲｱｳﾄ1
350
51
  0
DICTIONARY
  5
17
102
{ACAD_REACTORS
330
C
102
}
330
C
100
AcDbDictionary
281
     1
  3
Standard
350
18
  0
DICTIONARY
  5
19
102
{ACAD_REACTORS
330
C
102
}
330
C
100
AcDbDictionary
281
     1
  0
ACDBDICTIONARYWDFLT
  5
E
102
{ACAD_REACTORS
330
C
102
}
330
C
100
AcDbDictionary
281
     1
  3
Normal
350
F
100
AcDbDictionaryWithDefault
340
F
  0
LAYOUT
  5
22
102
{ACAD_REACTORS
330
1A
102
}
330
1A
100
AcDbPlotSettings
  1

  2
none_device
  4
ANSI_A_(8.50_x_11.00_Inches)
  6

 40
6.349999904632567
 41
19.04999923706053
 42
6.350006103515625
 43
19.04998779296875
 44
215.8999938964841
 45
279.3999938964843
 46
0.0
 47
0.0
 48
0.0
 49
0.0
140
0.0
141
0.0
142
1.0
143
78.436453180766
 70
 11952
 72
     0
 73
     1
 74
     0
  7

 75
     0
147
0.0127491741332998
148
0.0
149
0.0
100
AcDbLayout
  1
Model
 70
     1
 71
     0
 10
0.0
 20
0.0
 11
12.0
 21
9.0
 12
0.0
 22
0.0
 32
0.0
 14
0.0
 24
0.0
 34
0.0
 15
0.0
 25
0.0
 35
0.0
146
0.0
 13
0.0
 23
0.0
 33
0.0
 16
1.0
 26
0.0
 36
0.0
 17
0.0
 27
1.0
 37
0.0
 76
     0
330
1F
  0
LAYOUT
  5
51
102
{ACAD_REACTORS
330
1A
102
}
330
1A
100
AcDbPlotSettings
  1

  2
None
  4

  6

 40
0.0
 41
0.0
 42
0.0
 43
0.0
 44
0.0
 45
0.0
 46
0.0
 47
0.0
 48
0.0
 49
0.0
140
0.0
141
0.0
142
1.0
143
1.0
 70
   688
 72
     0
 73
     0
 74
     5
  7

 75
    16
147
1.0
148
0.0
149
0.0
100
AcDbLayout
  1
ﾚｲｱｳﾄ1
 70
     1
 71
     1
 10
0.0
 20
0.0
 11
12.0
 21
9.0
 12
0.0
 22
0.0
 32
0.0
 14
0.0
 24
0.0
 34
0.0
 15
0.0
 25
0.0
 35
0.0
146
0.0
 13
0.0
 23
0.0
 33
0.0
 16
1.0
 26
0.0
 36
0.0
 17
0.0
 27
1.0
 37
0.0
 76
     0
330
50
  0
MLINESTYLE
  5
18
102
{ACAD_REACTORS
330
17
102
}
330
17
100
AcDbMlineStyle
  2
STANDARD
 70
     0
  3

 62
   256
 51
90.0
 52
90.0
 71
     2
 49
0.5
 62
   256
  6
BYLAYER
 49
-0.5
 62
   256
  6
BYLAYER
  0
ACDBPLACEHOLDER
  5
F
102
{ACAD_REACTORS
330
E
102
}
330
E
  0
ENDSEC
  0
EOF
