  0
SECTION
  2
HEADER
  9
$ACADVER
  1
AC1015
  9
$ACADMAINTVER
 70
    10
  9
$DWGCODEPAGE
  3
ANSI_932
  9
$INSBASE
 10
0.0
 20
0.0
 30
0.0
  9
$EXTMIN
 10
282.0209851204634
 20
196.9326494368527
 30
0.0
  9
$EXTMAX
 10
666.0209851204633
 20
524.0037172487173
 30
0.0
  9
$LIMMIN
 10
0.0
 20
0.0
  9
$LIMMAX
 10
420.0
 20
297.0
  9
$ORTHOMODE
 70
     1
  9
$REGENMODE
 70
     1
  9
$FILLMODE
 70
     1
  9
$QTEXTMODE
 70
     0
  9
$MIRRTEXT
 70
     1
  9
$LTSCALE
 40
1.0
  9
$ATTMODE
 70
     1
  9
$TEXTSIZE
 40
2.5
  9
$TRACEWID
 40
1.0
  9
$TEXTSTYLE
  7
Standard
  9
$CLAYER
  8
0
  9
$CELTYPE
  6
ByLayer
  9
$CECOLOR
 62
   256
  9
$CELTSCALE
 40
1.0
  9
$DISPSILH
 70
     0
  9
$DIMSCALE
 40
1.0
  9
$DIMASZ
 40
2.5
  9
$DIMEXO
 40
0.625
  9
$DIMDLI
 40
3.75
  9
$DIMRND
 40
0.0
  9
$DIMDLE
 40
0.0
  9
$DIMEXE
 40
1.25
  9
$DIMTP
 40
0.0
  9
$DIMTM
 40
0.0
  9
$DIMTXT
 40
2.5
  9
$DIMCEN
 40
2.5
  9
$DIMTSZ
 40
0.0
  9
$DIMTOL
 70
     0
  9
$DIMLIM
 70
     0
  9
$DIMTIH
 70
     0
  9
$DIMTOH
 70
     0
  9
$DIMSE1
 70
     0
  9
$DIMSE2
 70
     0
  9
$DIMTAD
 70
     1
  9
$DIMZIN
 70
     8
  9
$DIMBLK
  1

  9
$DIMASO
 70
     1
  9
$DIMSHO
 70
     1
  9
$DIMPOST
  1

  9
$DIMAPOST
  1

  9
$DIMALT
 70
     0
  9
$DIMALTD
 70
     3
  9
$DIMALTF
 40
0.03937007874016
  9
$DIMLFAC
 40
1.0
  9
$DIMTOFL
 70
     1
  9
$DIMTVP
 40
0.0
  9
$DIMTIX
 70
     0
  9
$DIMSOXD
 70
     0
  9
$DIMSAH
 70
     0
  9
$DIMBLK1
  1

  9
$DIMBLK2
  1

  9
$DIMSTYLE
  2
ISO-25
  9
$DIMCLRD
 70
     0
  9
$DIMCLRE
 70
     0
  9
$DIMCLRT
 70
     0
  9
$DIMTFAC
 40
1.0
  9
$DIMGAP
 40
0.625
  9
$DIMJUST
 70
     0
  9
$DIMSD1
 70
     0
  9
$DIMSD2
 70
     0
  9
$DIMTOLJ
 70
     0
  9
$DIMTZIN
 70
     8
  9
$DIMALTZ
 70
     0
  9
$DIMALTTZ
 70
     0
  9
$DIMUPT
 70
     0
  9
$DIMDEC
 70
     2
  9
$DIMTDEC
 70
     2
  9
$DIMALTU
 70
     2
  9
$DIMALTTD
 70
     3
  9
$DIMTXSTY
  7
Standard
  9
$DIMAUNIT
 70
     0
  9
$DIMADEC
 70
     0
  9
$DIMALTRND
 40
0.0
  9
$DIMAZIN
 70
     0
  9
$DIMDSEP
 70
    44
  9
$DIMATFIT
 70
     3
  9
$DIMFRAC
 70
     0
  9
$DIMLDRBLK
  1

  9
$DIMLUNIT
 70
     2
  9
$DIMLWD
 70
    -2
  9
$DIMLWE
 70
    -2
  9
$DIMTMOVE
 70
     0
  9
$LUNITS
 70
     2
  9
$LUPREC
 70
     4
  9
$SKETCHINC
 40
1.0
  9
$FILLETRAD
 40
10.0
  9
$AUNITS
 70
     0
  9
$AUPREC
 70
     0
  9
$MENU
  1
.
  9
$ELEVATION
 40
0.0
  9
$PELEVATION
 40
0.0
  9
$THICKNESS
 40
0.0
  9
$LIMCHECK
 70
     0
  9
$CHAMFERA
 40
10.0
  9
$CHAMFERB
 40
10.0
  9
$CHAMFERC
 40
20.0
  9
$CHAMFERD
 40
0.0
  9
$SKPOLY
 70
     0
  9
$TDCREATE
 40
2456497.738230127
  9
$TDUCREATE
 40
2456497.363230127
  9
$TDUPDATE
 40
2456500.613197535
  9
$TDUUPDATE
 40
2456500.238197535
  9
$TDINDWG
 40
0.0179972454
  9
$TDUSRTIMER
 40
0.0179970602
  9
$USRTIMER
 70
     1
  9
$ANGBASE
 50
0.0
  9
$ANGDIR
 70
     0
  9
$PDMODE
 70
     0
  9
$PDSIZE
 40
0.0
  9
$PLINEWID
 40
0.0
  9
$SPLFRAME
 70
     0
  9
$SPLINETYPE
 70
     6
  9
$SPLINESEGS
 70
     8
  9
$HANDSEED
  5
F51
  9
$SURFTAB1
 70
     6
  9
$SURFTAB2
 70
     6
  9
$SURFTYPE
 70
     6
  9
$SURFU
 70
     6
  9
$SURFV
 70
     6
  9
$UCSBASE
  2

  9
$UCSNAME
  2

  9
$UCSORG
 10
0.0
 20
0.0
 30
0.0
  9
$UCSXDIR
 10
1.0
 20
0.0
 30
0.0
  9
$UCSYDIR
 10
0.0
 20
1.0
 30
0.0
  9
$UCSORTHOREF
  2

  9
$UCSORTHOVIEW
 70
     0
  9
$UCSORGTOP
 10
0.0
 20
0.0
 30
0.0
  9
$UCSORGBOTTOM
 10
0.0
 20
0.0
 30
0.0
  9
$UCSORGLEFT
 10
0.0
 20
0.0
 30
0.0
  9
$UCSORGRIGHT
 10
0.0
 20
0.0
 30
0.0
  9
$UCSORGFRONT
 10
0.0
 20
0.0
 30
0.0
  9
$UCSORGBACK
 10
0.0
 20
0.0
 30
0.0
  9
$PUCSBASE
  2

  9
$PUCSNAME
  2

  9
$PUCSORG
 10
0.0
 20
0.0
 30
0.0
  9
$PUCSXDIR
 10
1.0
 20
0.0
 30
0.0
  9
$PUCSYDIR
 10
0.0
 20
1.0
 30
0.0
  9
$PUCSORTHOREF
  2

  9
$PUCSORTHOVIEW
 70
     0
  9
$PUCSORGTOP
 10
0.0
 20
0.0
 30
0.0
  9
$PUCSORGBOTTOM
 10
0.0
 20
0.0
 30
0.0
  9
$PUCSORGLEFT
 10
0.0
 20
0.0
 30
0.0
  9
$PUCSORGRIGHT
 10
0.0
 20
0.0
 30
0.0
  9
$PUCSORGFRONT
 10
0.0
 20
0.0
 30
0.0
  9
$PUCSORGBACK
 10
0.0
 20
0.0
 30
0.0
  9
$USERI1
 70
     0
  9
$USERI2
 70
     0
  9
$USERI3
 70
     0
  9
$USERI4
 70
     0
  9
$USERI5
 70
     0
  9
$USERR1
 40
0.0
  9
$USERR2
 40
0.0
  9
$USERR3
 40
0.0
  9
$USERR4
 40
0.0
  9
$USERR5
 40
0.0
  9
$WORLDVIEW
 70
     1
  9
$SHADEDGE
 70
     3
  9
$SHADEDIF
 70
    70
  9
$TILEMODE
 70
     1
  9
$MAXACTVP
 70
    64
  9
$PINSBASE
 10
0.0
 20
0.0
 30
0.0
  9
$PLIMCHECK
 70
     0
  9
$PEXTMIN
 10
0.0
 20
0.0
 30
0.0
  9
$PEXTMAX
 10
0.0
 20
0.0
 30
0.0
  9
$PLIMMIN
 10
0.0
 20
0.0
  9
$PLIMMAX
 10
12.0
 20
9.0
  9
$UNITMODE
 70
     0
  9
$VISRETAIN
 70
     1
  9
$PLINEGEN
 70
     0
  9
$PSLTSCALE
 70
     1
  9
$TREEDEPTH
 70
  3020
  9
$CMLSTYLE
  2
Standard
  9
$CMLJUST
 70
     0
  9
$CMLSCALE
 40
20.0
  9
$PROXYGRAPHICS
 70
     1
  9
$MEASUREMENT
 70
     1
  9
$CELWEIGHT
370
    -1
  9
$ENDCAPS
280
     0
  9
$JOINSTYLE
280
     0
  9
$LWDISPLAY
290
     0
  9
$INSUNITS
 70
     4
  9
$HYPERLINKBASE
  1

  9
$STYLESHEET
  1

  9
$XEDIT
290
     1
  9
$CEPSNTYPE
380
     0
  9
$PSTYLEMODE
290
     1
  9
$FINGERPRINTGUID
  2
{FDEAD578-A652-11D2-9A35-0060089B3A3F}
  9
$VERSIONGUID
  2
{8C567ECB-86A1-4864-AB4E-634BF44338AC}
  9
$EXTNAMES
290
     1
  9
$PSVPSCALE
 40
0.0
  9
$OLESTARTUP
290
     0
  0
ENDSEC
  0
SECTION
  2
CLASSES
  0
CLASS
  1
ACDBDICTIONARYWDFLT
  2
AcDbDictionaryWithDefault
  3
AutoCAD 2000
 90
        0
280
     0
281
     0
  0
CLASS
  1
ACDBPLACEHOLDER
  2
AcDbPlaceHolder
  3
AutoCAD 2000
 90
        0
280
     0
281
     0
  0
CLASS
  1
LAYOUT
  2
AcDbLayout
  3
AutoCAD 2000
 90
        0
280
     0
281
     0
  0
ENDSEC
  0
SECTION
  2
TABLES
  0
TABLE
  2
VPORT
  5
8
330
0
100
AcDbSymbolTable
 70
     2
  0
VPORT
  5
F50
330
8
100
AcDbSymbolTableRecord
100
AcDbViewportTableRecord
  2
*Active
 70
     0
 10
0.0
 20
0.0
 11
1.0
 21
1.0
 12
489.9529298558706
 22
358.3583733337236
 13
0.0
 23
0.0
 14
10.0
 24
10.0
 15
10.0
 25
10.0
 16
0.0
 26
0.0
 36
1.0
 17
0.0
 27
0.0
 37
0.0
 40
372.3235285905764
 41
1.781954887218045
 42
50.0
 43
0.0
 44
0.0
 50
0.0
 51
0.0
 71
     0
 72
   100
 73
     1
 74
     3
 75
     0
 76
     0
 77
     0
 78
     0
281
     0
 65
     1
110
0.0
120
0.0
130
0.0
111
1.0
121
0.0
131
0.0
112
0.0
122
1.0
132
0.0
 79
     0
146
0.0
  0
ENDTAB
  0
TABLE
  2
LTYPE
  5
5
330
0
100
AcDbSymbolTable
 70
     2
  0
LTYPE
  5
14
330
5
100
AcDbSymbolTableRecord
100
AcDbLinetypeTableRecord
  2
ByBlock
 70
     0
  3

 72
    65
 73
     0
 40
0.0
  0
LTYPE
  5
15
330
5
100
AcDbSymbolTableRecord
100
AcDbLinetypeTableRecord
  2
ByLayer
 70
     0
  3

 72
    65
 73
     0
 40
0.0
  0
LTYPE
  5
16
330
5
100
AcDbSymbolTableRecord
100
AcDbLinetypeTableRecord
  2
Continuous
 70
     0
  3
Solid line
 72
    65
 73
     0
 40
0.0
  0
LTYPE
  5
67
330
5
100
AcDbSymbolTableRecord
100
AcDbLinetypeTableRecord
  2
DASHED
 70
     0
  3
DASHED
 72
    65
 73
     2
 40
0.75
 49
0.5
 74
     0
 49
-0.25
 74
     0
  0
ENDTAB
  0
TABLE
  2
LAYER
  5
2
330
0
100
AcDbSymbolTable
 70
     1
  0
LAYER
  5
10
330
2
100
AcDbSymbolTableRecord
100
AcDbLayerTableRecord
  2
0
 70
     0
 62
     7
  6
Continuous
370
    -3
390
F
  0
ENDTAB
  0
TABLE
  2
STYLE
  5
3
330
0
100
AcDbSymbolTable
 70
     2
  0
STYLE
  5
11
330
3
100
AcDbSymbolTableRecord
100
AcDbTextStyleTableRecord
  2
Standard
 70
     0
 40
0.0
 41
1.0
 50
0.0
 71
     0
 42
2.5
  3
txt
  4

  0
STYLE
  5
68
330
3
100
AcDbSymbolTableRecord
100
AcDbTextStyleTableRecord
  2
_TCW_TXTSTY_1
 70
     0
 40
0.0
 41
1.0
 50
0.0
 71
     0
 42
0.696969687939
  3
MS PGothic.ttf
  4

1001
ACAD
1000
ＭＳ Ｐゴシック
1071
    32802
  0
ENDTAB
  0
TABLE
  2
VIEW
  5
6
330
0
100
AcDbSymbolTable
 70
     0
  0
ENDTAB
  0
TABLE
  2
UCS
  5
7
330
0
100
AcDbSymbolTable
 70
     0
  0
ENDTAB
  0
TABLE
  2
APPID
  5
9
330
0
100
AcDbSymbolTable
 70
     2
  0
APPID
  5
12
330
9
100
AcDbSymbolTableRecord
100
AcDbRegAppTableRecord
  2
ACAD
 70
     0
  0
APPID
  5
6A
330
9
100
AcDbSymbolTableRecord
100
AcDbRegAppTableRecord
  2
TCAD
 70
     0
  0
ENDTAB
  0
TABLE
  2
DIMSTYLE
  5
A
330
0
100
AcDbSymbolTable
 70
     2
100
AcDbDimStyleTable
 71
     1
340
27
  0
DIMSTYLE
105
27
330
A
100
AcDbSymbolTableRecord
100
AcDbDimStyleTableRecord
  2
ISO-25
 70
     0
 41
2.5
 42
0.625
 43
3.75
 44
1.25
 73
     0
 74
     0
 77
     1
 78
     8
140
2.5
141
2.5
143
0.03937007874016
147
0.625
171
     3
172
     1
271
     2
272
     2
274
     3
278
    44
283
     0
284
     8
340
11
  0
DIMSTYLE
105
69
330
A
100
AcDbSymbolTableRecord
100
AcDbDimStyleTableRecord
  2
STANDARD
 70
     0
 41
3.0
 42
1.0
 43
4.0
 44
1.0
 45
0.1
 73
     0
 74
     0
 77
     1
 78
     8
140
2.439393939393998
143
0.5
144
2.0
147
0.5
148
0.01
176
     7
177
     7
178
     7
179
     2
271
     2
272
     8
274
     8
286
     8
340
68
341
61
342
61
  0
ENDTAB
  0
TABLE
  2
BLOCK_RECORD
  5
1
330
0
100
AcDbSymbolTable
 70
     1
  0
BLOCK_RECORD
  5
1F
330
1
100
AcDbSymbolTableRecord
100
AcDbBlockTableRecord
  2
*Model_Space
340
22
  0
BLOCK_RECORD
  5
50
330
1
100
AcDbSymbolTableRecord
100
AcDbBlockTableRecord
  2
*Paper_Space
340
51
  0
BLOCK_RECORD
  5
61
330
1
100
AcDbSymbolTableRecord
100
AcDbBlockTableRecord
  2
_OPEN
340
0
  0
ENDTAB
  0
ENDSEC
  0
SECTION
  2
BLOCKS
  0
BLOCK
  5
20
330
1F
100
AcDbEntity
  8
0
100
AcDbBlockBegin
  2
*Model_Space
 70
     0
 10
0.0
 20
0.0
 30
0.0
  3
*Model_Space
  1

  0
ENDBLK
  5
21
330
1F
100
AcDbEntity
  8
0
100
AcDbBlockEnd
  0
BLOCK
  5
52
330
50
100
AcDbEntity
 67
     1
  8
0
100
AcDbBlockBegin
  2
*Paper_Space
 70
     0
 10
0.0
 20
0.0
 30
0.0
  3
*Paper_Space
  1

  0
ENDBLK
  5
53
330
50
100
AcDbEntity
 67
     1
  8
0
100
AcDbBlockEnd
  0
BLOCK
  5
65
330
61
100
AcDbEntity
  8
0
100
AcDbBlockBegin
  2
_OPEN
 70
     0
 10
0.0
 20
0.0
 30
0.0
  3
_OPEN
  1

  0
LINE
  5
62
330
61
100
AcDbEntity
  8
0
  6
ByBlock
 62
     0
100
AcDbLine
 10
-1.0
 20
0.166667
 30
0.0
 11
0.0
 21
0.0
 31
0.0
  0
LINE
  5
63
330
61
100
AcDbEntity
  8
0
  6
ByBlock
 62
     0
100
AcDbLine
 10
0.0
 20
0.0
 30
0.0
 11
-1.0
 21
-0.166667
 31
0.0
  0
LINE
  5
64
330
61
100
AcDbEntity
  8
0
  6
ByBlock
 62
     0
100
AcDbLine
 10
0.0
 20
0.0
 30
0.0
 11
-1.0
 21
0.0
 31
0.0
  0
ENDBLK
  5
66
330
61
100
AcDbEntity
  8
0
100
AcDbBlockEnd
  0
ENDSEC
  0
SECTION
  2
ENTITIES
  0
CIRCLE
  5
3B5
330
1F
100
AcDbEntity
  8
0
  6
Continuous
 62
     7
100
AcDbCircle
 10
625.4609850967208
 20
468.7681833426442
 30
0.0
 40
2.750000000000454
  0
CIRCLE
  5
3B6
330
1F
100
AcDbEntity
  8
0
  6
Continuous
 62
     7
100
AcDbCircle
 10
634.4609850967414
 20
464.9581833426943
 30
0.0
 40
2.750000000000454
  0
CIRCLE
  5
3B7
330
1F
100
AcDbEntity
  8
0
  6
Continuous
 62
     7
100
AcDbCircle
 10
625.4609850967637
 20
461.1481833426442
 30
0.0
 40
2.750000000000454
  0
CIRCLE
  5
3B8
330
1F
100
AcDbEntity
  8
0
  6
Continuous
 62
     7
100
AcDbCircle
 10
634.4609850967827
 20
457.3381833427884
 30
0.0
 40
2.750000000000454
  0
CIRCLE
  5
3B9
330
1F
100
AcDbEntity
  8
0
  6
Continuous
 62
     7
100
AcDbCircle
 10
625.4609850968055
 20
453.5281833426441
 30
0.0
 40
2.750000000000454
  0
CIRCLE
  5
3BA
330
1F
100
AcDbEntity
  8
0
  6
Continuous
 62
     7
100
AcDbCircle
 10
634.4609850968255
 20
449.7181833427888
 30
0.0
 40
2.750000000000226
  0
CIRCLE
  5
3BB
330
1F
100
AcDbEntity
  8
0
  6
Continuous
 62
     7
100
AcDbCircle
 10
625.4609850968456
 20
445.9081833426889
 30
0.0
 40
2.750000000000454
  0
CIRCLE
  5
3BC
330
1F
100
AcDbEntity
  8
0
  6
Continuous
 62
     7
100
AcDbCircle
 10
634.4609850968669
 20
442.0981833427449
 30
0.0
 40
2.750000000000454
  0
CIRCLE
  5
3BD
330
1F
100
AcDbEntity
  8
0
  6
Continuous
 62
     7
100
AcDbCircle
 10
625.4609850968874
 20
438.2881833426446
 30
0.0
 40
2.750000000000454
  0
CIRCLE
  5
3BE
330
1F
100
AcDbEntity
  8
0
  6
Continuous
 62
     7
100
AcDbCircle
 10
634.4609850969094
 20
434.4781833426946
 30
0.0
 40
2.750000000000454
  0
CIRCLE
  5
3BF
330
1F
100
AcDbEntity
  8
0
  6
Continuous
 62
     7
100
AcDbCircle
 10
625.4609850969292
 20
430.6681833426889
 30
0.0
 40
2.750000000000454
  0
CIRCLE
  5
3C0
330
1F
100
AcDbEntity
  8
0
  6
Continuous
 62
     7
100
AcDbCircle
 10
634.4609850969511
 20
426.8581833427449
 30
0.0
 40
2.750000000000454
  0
CIRCLE
  5
3C1
330
1F
100
AcDbEntity
  8
0
  6
Continuous
 62
     7
100
AcDbCircle
 10
625.4609850969715
 20
423.0481833426447
 30
0.0
 40
2.750000000000454
  0
CIRCLE
  5
3C2
330
1F
100
AcDbEntity
  8
0
  6
Continuous
 62
     7
100
AcDbCircle
 10
634.4609850969934
 20
419.2381833426948
 30
0.0
 40
2.750000000000454
  0
CIRCLE
  5
3C3
330
1F
100
AcDbEntity
  8
0
  6
Continuous
 62
     7
100
AcDbCircle
 10
625.4609850970134
 20
415.4281833426889
 30
0.0
 40
2.750000000000454
  0
CIRCLE
  5
3C4
330
1F
100
AcDbEntity
  8
0
  6
Continuous
 62
     7
100
AcDbCircle
 10
634.4609850970331
 20
411.6181833427451
 30
0.0
 40
2.750000000000454
  0
CIRCLE
  5
3C5
330
1F
100
AcDbEntity
  8
0
  6
Continuous
 62
     7
100
AcDbCircle
 10
625.4609850970552
 20
407.8081833426451
 30
0.0
 40
2.750000000000454
  0
CIRCLE
  5
3C6
330
1F
100
AcDbEntity
  8
0
  6
Continuous
 62
     7
100
AcDbCircle
 10
634.4609850970753
 20
403.9981833426947
 30
0.0
 40
2.750000000000454
  0
CIRCLE
  5
3C7
330
1F
100
AcDbEntity
  8
0
  6
Continuous
 62
     7
100
AcDbCircle
 10
625.4609850970972
 20
400.1881833426448
 30
0.0
 40
2.750000000000454
  0
CIRCLE
  5
3C8
330
1F
100
AcDbEntity
  8
0
  6
Continuous
 62
     7
100
AcDbCircle
 10
634.4609850971173
 20
396.3781833427008
 30
0.0
 40
2.750000000000454
  0
CIRCLE
  5
3C9
330
1F
100
AcDbEntity
  8
0
  6
Continuous
 62
     7
100
AcDbCircle
 10
625.4609850971395
 20
392.5681833426006
 30
0.0
 40
2.750000000000454
  0
CIRCLE
  5
3CA
330
1F
100
AcDbEntity
  8
0
  6
Continuous
 62
     7
100
AcDbCircle
 10
634.4609850971595
 20
388.7581833426509
 30
0.0
 40
2.750000000000678
  0
CIRCLE
  5
3D1
330
1F
100
AcDbEntity
  8
0
  6
Continuous
 62
     7
100
AcDbCircle
 10
654.0209858937353
 20
234.9681795377548
 30
0.0
 40
3.300000000000408
  0
CIRCLE
  5
3D2
330
1F
100
AcDbEntity
  8
0
  6
Continuous
 62
     7
100
AcDbCircle
 10
640.0209899015533
 20
234.9681824014006
 30
0.0
 40
4.125000000000682
  0
CIRCLE
  5
3D3
330
1F
100
AcDbEntity
  8
0
  6
Continuous
 62
     7
100
AcDbCircle
 10
624.0209899015533
 20
234.9681824013987
 30
0.0
 40
4.125000000000682
  0
CIRCLE
  5
3D4
330
1F
100
AcDbEntity
  8
0
  6
Continuous
 62
     7
100
AcDbCircle
 10
634.9609851204633
 20
477.7681833427847
 30
0.0
 40
3.000000000000448
  0
CIRCLE
  5
3D5
330
1F
100
AcDbEntity
  8
0
  6
Continuous
 62
     7
100
AcDbCircle
 10
636.9209851204637
 20
484.168183342785
 30
0.0
 40
2.000000000000226
  0
CIRCLE
  5
3D6
330
1F
100
AcDbEntity
  8
0
  6
Continuous
 62
     7
100
AcDbCircle
 10
631.8409851204632
 20
484.168183342785
 30
0.0
 40
2.000000000000226
  0
CIRCLE
  5
3D7
330
1F
100
AcDbEntity
  8
0
  6
Continuous
 62
     7
100
AcDbCircle
 10
626.7609851204634
 20
484.168183342785
 30
0.0
 40
2.0
  0
CIRCLE
  5
3D8
330
1F
100
AcDbEntity
  8
0
  6
Continuous
 62
     7
100
AcDbCircle
 10
621.6809851204637
 20
484.168183342785
 30
0.0
 40
2.000000000000226
  0
LINE
  5
3D9
330
1F
100
AcDbEntity
  8
0
  6
Continuous
 62
     7
100
AcDbLine
 10
624.7709899015378
 20
237.9681824014415
 30
0.0
 11
624.7709899015378
 21
237.9681824014415
 31
0.0
  0
LINE
  5
3DA
330
1F
100
AcDbEntity
  8
0
  6
Continuous
 62
     7
100
AcDbLine
 10
624.7709899015498
 20
235.7181824014231
 30
0.0
 11
624.7709899015378
 21
237.9681824014415
 31
0.0
  0
LINE
  5
3DB
330
1F
100
AcDbEntity
  8
0
  6
Continuous
 62
     7
100
AcDbLine
 10
627.0209899015497
 20
235.718182401435
 30
0.0
 11
624.7709899015498
 21
235.7181824014231
 31
0.0
  0
LINE
  5
3DC
330
1F
100
AcDbEntity
  8
0
  6
Continuous
 62
     7
100
AcDbLine
 10
627.0209899015578
 20
234.218182401453
 30
0.0
 11
627.0209899015497
 21
235.718182401435
 31
0.0
  0
LINE
  5
3DD
330
1F
100
AcDbEntity
  8
0
  6
Continuous
 62
     7
100
AcDbLine
 10
624.7709899015574
 20
234.218182401441
 30
0.0
 11
627.0209899015578
 21
234.218182401453
 31
0.0
  0
LINE
  5
3DE
330
1F
100
AcDbEntity
  8
0
  6
Continuous
 62
     7
100
AcDbLine
 10
624.770989901572
 20
231.968182401441
 30
0.0
 11
624.7709899015574
 21
234.218182401441
 31
0.0
  0
LINE
  5
3DF
330
1F
100
AcDbEntity
  8
0
  6
Continuous
 62
     7
100
AcDbLine
 10
623.2709899015721
 20
231.9681824014149
 30
0.0
 11
624.770989901572
 21
231.968182401441
 31
0.0
  0
LINE
  5
3E0
330
1F
100
AcDbEntity
  8
0
  6
Continuous
 62
     7
100
AcDbLine
 10
623.270989901558
 20
234.2181824014331
 30
0.0
 11
623.2709899015721
 21
231.9681824014149
 31
0.0
  0
LINE
  5
3E1
330
1F
100
AcDbEntity
  8
0
  6
Continuous
 62
     7
100
AcDbLine
 10
621.0209899015572
 20
234.2181824014191
 30
0.0
 11
623.270989901558
 21
234.2181824014331
 31
0.0
  0
LINE
  5
3E2
330
1F
100
AcDbEntity
  8
0
  6
Continuous
 62
     7
100
AcDbLine
 10
621.0209899015495
 20
235.7181824014031
 30
0.0
 11
621.0209899015572
 21
234.2181824014191
 31
0.0
  0
LINE
  5
3E3
330
1F
100
AcDbEntity
  8
0
  6
Continuous
 62
     7
100
AcDbLine
 10
623.27098990155
 20
235.7181824014335
 30
0.0
 11
621.0209899015495
 21
235.7181824014031
 31
0.0
  0
LINE
  5
3E4
330
1F
100
AcDbEntity
  8
0
  6
Continuous
 62
     7
100
AcDbLine
 10
623.2709899015373
 20
237.9681824014335
 30
0.0
 11
623.27098990155
 21
235.7181824014335
 31
0.0
  0
LINE
  5
3E5
330
1F
100
AcDbEntity
  8
0
  6
Continuous
 62
     7
100
AcDbLine
 10
624.7709899015378
 20
237.9681824014415
 30
0.0
 11
623.2709899015373
 21
237.9681824014335
 31
0.0
  0
LINE
  5
3E7
330
1F
100
AcDbEntity
  8
0
  6
Continuous
 62
     7
100
AcDbLine
 10
640.770989901538
 20
237.9681824014431
 30
0.0
 11
640.770989901538
 21
237.9681824014431
 31
0.0
  0
LINE
  5
3E8
330
1F
100
AcDbEntity
  8
0
  6
Continuous
 62
     7
100
AcDbLine
 10
640.7709899015498
 20
235.718182401425
 30
0.0
 11
640.770989901538
 21
237.9681824014431
 31
0.0
  0
LINE
  5
3E9
330
1F
100
AcDbEntity
  8
0
  6
Continuous
 62
     7
100
AcDbLine
 10
643.0209899015498
 20
235.7181824014372
 30
0.0
 11
640.7709899015498
 21
235.718182401425
 31
0.0
  0
LINE
  5
3EA
330
1F
100
AcDbEntity
  8
0
  6
Continuous
 62
     7
100
AcDbLine
 10
643.0209899015578
 20
234.2181824014549
 30
0.0
 11
643.0209899015498
 21
235.7181824014372
 31
0.0
  0
LINE
  5
3EB
330
1F
100
AcDbEntity
  8
0
  6
Continuous
 62
     7
100
AcDbLine
 10
640.7709899015574
 20
234.218182401443
 30
0.0
 11
643.0209899015578
 21
234.2181824014549
 31
0.0
  0
LINE
  5
3EC
330
1F
100
AcDbEntity
  8
0
  6
Continuous
 62
     7
100
AcDbLine
 10
640.77098990157
 20
231.9681824014431
 30
0.0
 11
640.7709899015574
 21
234.218182401443
 31
0.0
  0
LINE
  5
3ED
330
1F
100
AcDbEntity
  8
0
  6
Continuous
 62
     7
100
AcDbLine
 10
639.27098990157
 20
231.968182401417
 30
0.0
 11
640.77098990157
 21
231.9681824014431
 31
0.0
  0
LINE
  5
3EE
330
1F
100
AcDbEntity
  8
0
  6
Continuous
 62
     7
100
AcDbLine
 10
639.270989901558
 20
234.2181824014355
 30
0.0
 11
639.27098990157
 21
231.968182401417
 31
0.0
  0
LINE
  5
3EF
330
1F
100
AcDbEntity
  8
0
  6
Continuous
 62
     7
100
AcDbLine
 10
637.0209899015572
 20
234.218182401421
 30
0.0
 11
639.270989901558
 21
234.2181824014355
 31
0.0
  0
LINE
  5
3F0
330
1F
100
AcDbEntity
  8
0
  6
Continuous
 62
     7
100
AcDbLine
 10
637.0209899015498
 20
235.7181824014031
 30
0.0
 11
637.0209899015572
 21
234.218182401421
 31
0.0
  0
LINE
  5
3F1
330
1F
100
AcDbEntity
  8
0
  6
Continuous
 62
     7
100
AcDbLine
 10
639.27098990155
 20
235.718182401435
 30
0.0
 11
637.0209899015498
 21
235.7181824014031
 31
0.0
  0
LINE
  5
3F2
330
1F
100
AcDbEntity
  8
0
  6
Continuous
 62
     7
100
AcDbLine
 10
639.2709899015375
 20
237.9681824014335
 30
0.0
 11
639.27098990155
 21
235.718182401435
 31
0.0
  0
LINE
  5
3F3
330
1F
100
AcDbEntity
  8
0
  6
Continuous
 62
     7
100
AcDbLine
 10
640.770989901538
 20
237.9681824014431
 30
0.0
 11
639.2709899015375
 21
237.9681824014335
 31
0.0
  0
LINE
  5
3F5
330
1F
100
AcDbEntity
  8
0
  6
Continuous
 62
     7
100
AcDbLine
 10
654.6209858937235
 20
237.3681795377871
 30
0.0
 11
654.6209858937235
 21
237.3681795377871
 31
0.0
  0
LINE
  5
3F6
330
1F
100
AcDbEntity
  8
0
  6
Continuous
 62
     7
100
AcDbLine
 10
654.6209858937337
 20
235.568179537773
 30
0.0
 11
654.6209858937235
 21
237.3681795377871
 31
0.0
  0
LINE
  5
3F7
330
1F
100
AcDbEntity
  8
0
  6
Continuous
 62
     7
100
AcDbLine
 10
656.4209858937337
 20
235.5681795377832
 30
0.0
 11
654.6209858937337
 21
235.568179537773
 31
0.0
  0
LINE
  5
3F8
330
1F
100
AcDbEntity
  8
0
  6
Continuous
 62
     7
100
AcDbLine
 10
656.4209858937397
 20
234.3681795377971
 30
0.0
 11
656.4209858937337
 21
235.5681795377832
 31
0.0
  0
LINE
  5
3F9
330
1F
100
AcDbEntity
  8
0
  6
Continuous
 62
     7
100
AcDbLine
 10
654.6209858937401
 20
234.3681795377889
 30
0.0
 11
656.4209858937397
 21
234.3681795377971
 31
0.0
  0
LINE
  5
3FA
330
1F
100
AcDbEntity
  8
0
  6
Continuous
 62
     7
100
AcDbLine
 10
654.6209858937499
 20
232.5681795377871
 30
0.0
 11
654.6209858937401
 21
234.3681795377889
 31
0.0
  0
LINE
  5
3FB
330
1F
100
AcDbEntity
  8
0
  6
Continuous
 62
     7
100
AcDbLine
 10
653.4209858937495
 20
232.5681795377669
 30
0.0
 11
654.6209858937499
 21
232.5681795377871
 31
0.0
  0
LINE
  5
3FC
330
1F
100
AcDbEntity
  8
0
  6
Continuous
 62
     7
100
AcDbLine
 10
653.42098589374
 20
234.3681795377813
 30
0.0
 11
653.4209858937495
 21
232.5681795377669
 31
0.0
  0
LINE
  5
3FD
330
1F
100
AcDbEntity
  8
0
  6
Continuous
 62
     7
100
AcDbLine
 10
651.6209858937401
 20
234.3681795377711
 30
0.0
 11
653.42098589374
 21
234.3681795377813
 31
0.0
  0
LINE
  5
3FE
330
1F
100
AcDbEntity
  8
0
  6
Continuous
 62
     7
100
AcDbLine
 10
651.620985893733
 20
235.5681795377571
 30
0.0
 11
651.6209858937401
 21
234.3681795377711
 31
0.0
  0
LINE
  5
3FF
330
1F
100
AcDbEntity
  8
0
  6
Continuous
 62
     7
100
AcDbLine
 10
653.4209858937336
 20
235.5681795377811
 30
0.0
 11
651.620985893733
 21
235.5681795377571
 31
0.0
  0
LINE
  5
400
330
1F
100
AcDbEntity
  8
0
  6
Continuous
 62
     7
100
AcDbLine
 10
653.4209858937238
 20
237.3681795377811
 30
0.0
 11
653.4209858937336
 21
235.5681795377811
 31
0.0
  0
LINE
  5
401
330
1F
100
AcDbEntity
  8
0
  6
Continuous
 62
     7
100
AcDbLine
 10
654.6209858937235
 20
237.3681795377871
 30
0.0
 11
653.4209858937238
 21
237.3681795377811
 31
0.0
  0
LINE
  5
42A
330
1F
100
AcDbEntity
  8
0
  6
Continuous
 62
     7
100
AcDbLine
 10
649.0209851205919
 20
230.968183342653
 30
0.0
 11
649.0209851205919
 21
240.9681833427851
 31
0.0
  0
LINE
  5
42B
330
1F
100
AcDbEntity
  8
0
  6
Continuous
 62
     7
100
AcDbLine
 10
649.0209851205919
 20
230.968183342653
 30
0.0
 11
651.0209851205916
 21
228.968183342653
 31
0.0
  0
LINE
  5
42C
330
1F
100
AcDbEntity
  8
0
  6
Continuous
 62
     7
100
AcDbLine
 10
656.0209851204636
 20
228.968183342653
 30
0.0
 11
651.0209851205916
 21
228.968183342653
 31
0.0
  0
LINE
  5
42D
330
1F
100
AcDbEntity
  8
0
  6
Continuous
 62
     7
100
AcDbLine
 10
633.020985120473
 20
229.968183342787
 30
0.0
 11
633.020985120473
 21
240.9681833427851
 31
0.0
  0
LINE
  5
42E
330
1F
100
AcDbEntity
  8
0
  6
Continuous
 62
     7
100
AcDbLine
 10
633.020985120473
 20
229.968183342787
 30
0.0
 11
635.0209851204738
 21
227.968183342787
 31
0.0
  0
LINE
  5
42F
330
1F
100
AcDbEntity
  8
0
  6
Continuous
 62
     7
100
AcDbLine
 10
645.0209851204736
 20
227.968183342787
 30
0.0
 11
635.0209851204738
 21
227.968183342787
 31
0.0
  0
LINE
  5
430
330
1F
100
AcDbEntity
  8
0
  6
Continuous
 62
     7
100
AcDbLine
 10
647.0209851204733
 20
240.9681833427851
 30
0.0
 11
647.0209851204733
 21
229.968183342787
 31
0.0
  0
LINE
  5
431
330
1F
100
AcDbEntity
  8
0
  6
Continuous
 62
     7
100
AcDbLine
 10
647.0209851204733
 20
229.968183342787
 30
0.0
 11
645.0209851204736
 21
227.968183342787
 31
0.0
  0
LINE
  5
432
330
1F
100
AcDbEntity
  8
0
  6
Continuous
 62
     7
100
AcDbLine
 10
617.020985120463
 20
229.9681833427851
 30
0.0
 11
617.020985120463
 21
240.9681833427851
 31
0.0
  0
LINE
  5
433
330
1F
100
AcDbEntity
  8
0
  6
Continuous
 62
     7
100
AcDbLine
 10
629.0209851204638
 20
227.9681833427851
 30
0.0
 11
619.020985120463
 21
227.9681833427851
 31
0.0
  0
LINE
  5
434
330
1F
100
AcDbEntity
  8
0
  6
Continuous
 62
     7
100
AcDbLine
 10
619.020985120463
 20
227.9681833427851
 30
0.0
 11
617.020985120463
 21
229.9681833427851
 31
0.0
  0
LINE
  5
435
330
1F
100
AcDbEntity
  8
0
  6
Continuous
 62
     7
100
AcDbLine
 10
631.0209851204636
 20
240.9681833427851
 30
0.0
 11
631.0209851204636
 21
229.9681833427851
 31
0.0
  0
LINE
  5
436
330
1F
100
AcDbEntity
  8
0
  6
Continuous
 62
     7
100
AcDbLine
 10
631.0209851204636
 20
229.9681833427851
 30
0.0
 11
629.0209851204638
 21
227.9681833427851
 31
0.0
  0
LINE
  5
44A
330
1F
100
AcDbEntity
  8
0
  6
Continuous
 62
     7
100
AcDbLine
 10
635.3609875428674
 20
479.3681839530476
 30
0.0
 11
635.3609875428674
 21
479.3681839530476
 31
0.0
  0
LINE
  5
44B
330
1F
100
AcDbEntity
  8
0
  6
Continuous
 62
     7
100
AcDbLine
 10
635.3609875428738
 20
478.1681839530371
 30
0.0
 11
635.3609875428674
 21
479.3681839530476
 31
0.0
  0
LINE
  5
44C
330
1F
100
AcDbEntity
  8
0
  6
Continuous
 62
     7
100
AcDbLine
 10
636.5609875428734
 20
478.1681839530433
 30
0.0
 11
635.3609875428738
 21
478.1681839530371
 31
0.0
  0
LINE
  5
44D
330
1F
100
AcDbEntity
  8
0
  6
Continuous
 62
     7
100
AcDbLine
 10
636.5609875428772
 20
477.3681839530532
 30
0.0
 11
636.5609875428734
 21
478.1681839530433
 31
0.0
  0
LINE
  5
44E
330
1F
100
AcDbEntity
  8
0
  6
Continuous
 62
     7
100
AcDbLine
 10
635.3609875428775
 20
477.368183953047
 30
0.0
 11
636.5609875428772
 21
477.3681839530532
 31
0.0
  0
LINE
  5
44F
330
1F
100
AcDbEntity
  8
0
  6
Continuous
 62
     7
100
AcDbLine
 10
635.360987542885
 20
476.1681839530471
 30
0.0
 11
635.3609875428775
 21
477.368183953047
 31
0.0
  0
LINE
  5
450
330
1F
100
AcDbEntity
  8
0
  6
Continuous
 62
     7
100
AcDbLine
 10
634.5609875428858
 20
476.1681839530331
 30
0.0
 11
635.360987542885
 21
476.1681839530471
 31
0.0
  0
LINE
  5
451
330
1F
100
AcDbEntity
  8
0
  6
Continuous
 62
     7
100
AcDbLine
 10
634.560987542878
 20
477.3681839530431
 30
0.0
 11
634.5609875428858
 21
476.1681839530331
 31
0.0
  0
LINE
  5
452
330
1F
100
AcDbEntity
  8
0
  6
Continuous
 62
     7
100
AcDbLine
 10
633.3609875428773
 20
477.3681839530352
 30
0.0
 11
634.560987542878
 21
477.3681839530431
 31
0.0
  0
LINE
  5
453
330
1F
100
AcDbEntity
  8
0
  6
Continuous
 62
     7
100
AcDbLine
 10
633.3609875428739
 20
478.168183953027
 30
0.0
 11
633.3609875428773
 21
477.3681839530352
 31
0.0
  0
LINE
  5
454
330
1F
100
AcDbEntity
  8
0
  6
Continuous
 62
     7
100
AcDbLine
 10
634.560987542873
 20
478.1681839530433
 30
0.0
 11
633.3609875428739
 21
478.168183953027
 31
0.0
  0
LINE
  5
455
330
1F
100
AcDbEntity
  8
0
  6
Continuous
 62
     7
100
AcDbLine
 10
634.560987542868
 20
479.3681839530432
 30
0.0
 11
634.560987542873
 21
478.1681839530433
 31
0.0
  0
LINE
  5
456
330
1F
100
AcDbEntity
  8
0
  6
Continuous
 62
     7
100
AcDbLine
 10
635.3609875428674
 20
479.3681839530476
 30
0.0
 11
634.560987542868
 21
479.3681839530432
 31
0.0
  0
LINE
  5
457
330
1F
100
AcDbEntity
  8
0
  6
Continuous
 62
     7
100
AcDbLine
 10
636.9132867938434
 20
470.4722033669249
 30
0.0
 11
636.9132867938279
 21
473.2381833426712
 31
0.0
  0
LINE
  5
458
330
1F
100
AcDbEntity
  8
0
  6
Continuous
 62
     7
100
AcDbLine
 10
630.7520972516439
 20
470.4722033668911
 30
0.0
 11
636.9132867938434
 21
470.4722033668371
 31
0.0
  0
LINE
  5
459
330
1F
100
AcDbEntity
  8
0
  6
Continuous
 62
     7
100
AcDbLine
 10
630.7520972516272
 20
473.2381833426376
 30
0.0
 11
630.7520972516439
 21
470.4722033668911
 31
0.0
  0
LINE
  5
45A
330
1F
100
AcDbEntity
  8
0
  6
Continuous
 62
     7
100
AcDbLine
 10
638.1409850967171
 20
469.4281833428029
 30
0.0
 11
629.4609850967177
 21
469.4281833427426
 31
0.0
  0
LINE
  5
45B
330
1F
100
AcDbEntity
  8
0
  6
Continuous
 62
     7
100
AcDbLine
 10
638.140985096698
 20
473.2381833428028
 30
0.0
 11
638.1409850967171
 21
469.4281833428029
 31
0.0
  0
LINE
  5
45C
330
1F
100
AcDbEntity
  8
0
  6
Continuous
 62
     7
100
AcDbLine
 10
629.460985096725
 20
468.1081833427172
 30
0.0
 11
639.4609850966218
 21
468.1081833428151
 31
0.0
  0
LINE
  5
45D
330
1F
100
AcDbEntity
  8
0
  6
Continuous
 62
     7
100
AcDbLine
 10
639.4609850971818
 20
461.8081833428111
 30
0.0
 11
629.4609850967599
 21
461.8081833427428
 31
0.0
  0
LINE
  5
45E
330
1F
100
AcDbEntity
  8
0
  6
Continuous
 62
     7
100
AcDbLine
 10
629.460985096766
 20
460.4881833427431
 30
0.0
 11
639.4609850971818
 21
460.4881833428112
 31
0.0
  0
LINE
  5
45F
330
1F
100
AcDbEntity
  8
0
  6
Continuous
 62
     7
100
AcDbLine
 10
639.4609850971818
 20
454.1881833427735
 30
0.0
 11
629.460985096801
 21
454.1881833427171
 31
0.0
  0
LINE
  5
460
330
1F
100
AcDbEntity
  8
0
  6
Continuous
 62
     7
100
AcDbLine
 10
629.4609850968078
 20
452.8681833427172
 30
0.0
 11
639.4609850966218
 21
452.8681833428151
 31
0.0
  0
LINE
  5
461
330
1F
100
AcDbEntity
  8
0
  6
Continuous
 62
     7
100
AcDbLine
 10
639.4609850966218
 20
446.568183342815
 30
0.0
 11
629.460985096844
 21
446.5681833427171
 31
0.0
  0
LINE
  5
462
330
1F
100
AcDbEntity
  8
0
  6
Continuous
 62
     7
100
AcDbLine
 10
629.4609850968501
 20
445.2481833427173
 30
0.0
 11
639.4609850966218
 21
445.2481833428151
 31
0.0
  0
LINE
  5
463
330
1F
100
AcDbEntity
  8
0
  6
Continuous
 62
     7
100
AcDbLine
 10
639.4609850971818
 20
438.9481833428114
 30
0.0
 11
629.4609850968855
 21
438.9481833427435
 31
0.0
  0
LINE
  5
464
330
1F
100
AcDbEntity
  8
0
  6
Continuous
 62
     7
100
AcDbLine
 10
629.4609850968917
 20
437.6281833427173
 30
0.0
 11
639.4609850966218
 21
437.6281833427732
 31
0.0
  0
LINE
  5
465
330
1F
100
AcDbEntity
  8
0
  6
Continuous
 62
     7
100
AcDbLine
 10
639.4609850966218
 20
431.3281833427735
 30
0.0
 11
629.4609850969258
 21
431.3281833427173
 31
0.0
  0
LINE
  5
466
330
1F
100
AcDbEntity
  8
0
  6
Continuous
 62
     7
100
AcDbLine
 10
629.4609850969338
 20
430.0081833427175
 30
0.0
 11
639.4609850966218
 21
430.0081833427732
 31
0.0
  0
LINE
  5
467
330
1F
100
AcDbEntity
  8
0
  6
Continuous
 62
     7
100
AcDbLine
 10
639.4609850966218
 20
423.7081833427692
 30
0.0
 11
629.4609850969679
 21
423.7081833427431
 31
0.0
  0
LINE
  5
468
330
1F
100
AcDbEntity
  8
0
  6
Continuous
 62
     7
100
AcDbLine
 10
629.4609850969758
 20
422.3881833427173
 30
0.0
 11
639.4609850966218
 21
422.3881833427732
 31
0.0
  0
LINE
  5
469
330
1F
100
AcDbEntity
  8
0
  6
Continuous
 62
     7
100
AcDbLine
 10
629.4609850970092
 20
416.0881833427173
 30
0.0
 11
639.4609850966218
 21
416.0881833427731
 31
0.0
  0
LINE
  5
46A
330
1F
100
AcDbEntity
  8
0
  6
Continuous
 62
     7
100
AcDbLine
 10
629.4609850970179
 20
414.7681833427433
 30
0.0
 11
639.4609850971818
 21
414.7681833428112
 31
0.0
  0
LINE
  5
46B
330
1F
100
AcDbEntity
  8
0
  6
Continuous
 62
     7
100
AcDbLine
 10
629.460985097052
 20
408.4681833427431
 30
0.0
 11
639.4609850966218
 21
408.4681833427691
 31
0.0
  0
LINE
  5
46C
330
1F
100
AcDbEntity
  8
0
  6
Continuous
 62
     7
100
AcDbLine
 10
629.46098509706
 20
407.1481833427532
 30
0.0
 11
639.4609850966218
 21
407.1481833427673
 31
0.0
  0
LINE
  5
46D
330
1F
100
AcDbEntity
  8
0
  6
Continuous
 62
     7
100
AcDbLine
 10
629.4609850970941
 20
400.8481833427433
 30
0.0
 11
639.4609850966218
 21
400.8481833428113
 31
0.0
  0
LINE
  5
46E
330
1F
100
AcDbEntity
  8
0
  6
Continuous
 62
     7
100
AcDbLine
 10
629.4609850971015
 20
399.5281833427433
 30
0.0
 11
639.4609850971818
 21
399.5281833428112
 31
0.0
  0
LINE
  5
46F
330
1F
100
AcDbEntity
  8
0
  6
Continuous
 62
     7
100
AcDbLine
 10
629.4609850971348
 20
393.2281833427433
 30
0.0
 11
639.4609850966218
 21
393.2281833427691
 31
0.0
  0
LINE
  5
470
330
1F
100
AcDbEntity
  8
0
  6
Continuous
 62
     7
100
AcDbLine
 10
629.4609850971417
 20
391.9081833427433
 30
0.0
 11
639.4609850971818
 21
391.9081833427691
 31
0.0
  0
LINE
  5
471
330
1F
100
AcDbEntity
  8
0
  6
Continuous
 62
     7
100
AcDbLine
 10
628.4740923996277
 20
386.9999788611652
 30
0.0
 11
628.4740923996398
 21
384.948183342683
 31
0.0
  0
LINE
  5
472
330
1F
100
AcDbEntity
  8
0
  6
Continuous
 62
     7
100
AcDbLine
 10
621.4577353199334
 20
386.9999788611276
 30
0.0
 11
628.4740923996277
 21
386.9999788612031
 31
0.0
  0
LINE
  5
473
330
1F
100
AcDbEntity
  8
0
  6
Continuous
 62
     7
100
AcDbLine
 10
621.4577353199452
 20
384.9481833426455
 30
0.0
 11
621.4577353199334
 21
386.9999788611276
 31
0.0
  0
LINE
  5
474
330
1F
100
AcDbEntity
  8
0
  6
Continuous
 62
     7
100
AcDbLine
 10
620.4609850971636
 20
388.0981833426432
 30
0.0
 11
629.4609850971636
 21
388.0981833427051
 31
0.0
  0
LINE
  5
475
330
1F
100
AcDbEntity
  8
0
  6
Continuous
 62
     7
100
AcDbLine
 10
629.4609850971555
 20
389.4181833427051
 30
0.0
 11
620.4609850971555
 21
389.4181833426431
 31
0.0
  0
LINE
  5
476
330
1F
100
AcDbEntity
  8
0
  6
Continuous
 62
     7
100
AcDbLine
 10
620.4609850971219
 20
395.7181833426174
 30
0.0
 11
629.4609850971219
 21
395.7181833426671
 31
0.0
  0
LINE
  5
477
330
1F
100
AcDbEntity
  8
0
  6
Continuous
 62
     7
100
AcDbLine
 10
629.4609850971141
 20
397.0381833427051
 30
0.0
 11
620.4609850971141
 21
397.0381833426431
 31
0.0
  0
LINE
  5
478
330
1F
100
AcDbEntity
  8
0
  6
Continuous
 62
     7
100
AcDbLine
 10
620.4609850970792
 20
403.3381833426171
 30
0.0
 11
629.4609850970791
 21
403.3381833426672
 31
0.0
  0
LINE
  5
479
330
1F
100
AcDbEntity
  8
0
  6
Continuous
 62
     7
100
AcDbLine
 10
629.4609850970739
 20
404.6581833427051
 30
0.0
 11
620.4609850970739
 21
404.6581833426431
 31
0.0
  0
LINE
  5
47A
330
1F
100
AcDbEntity
  8
0
  6
Continuous
 62
     7
100
AcDbLine
 10
620.4609850970379
 20
410.9581833426172
 30
0.0
 11
629.4609850970377
 21
410.9581833426672
 31
0.0
  0
LINE
  5
47B
330
1F
100
AcDbEntity
  8
0
  6
Continuous
 62
     7
100
AcDbLine
 10
629.4609850970317
 20
412.2781833427051
 30
0.0
 11
620.4609850970317
 21
412.278183342643
 31
0.0
  0
LINE
  5
47C
330
1F
100
AcDbEntity
  8
0
  6
Continuous
 62
     7
100
AcDbLine
 10
620.4609850969956
 20
418.5781833426433
 30
0.0
 11
629.4609850969956
 21
418.5781833427053
 31
0.0
  0
LINE
  5
47D
330
1F
100
AcDbEntity
  8
0
  6
Continuous
 62
     7
100
AcDbLine
 10
629.4609850969897
 20
419.8981833426671
 30
0.0
 11
620.460985096989
 21
419.8981833426171
 31
0.0
  0
LINE
  5
47E
330
1F
100
AcDbEntity
  8
0
  6
Continuous
 62
     7
100
AcDbLine
 10
620.4609850969557
 20
426.1981833426172
 30
0.0
 11
629.4609850969557
 21
426.1981833426672
 31
0.0
  0
LINE
  5
47F
330
1F
100
AcDbEntity
  8
0
  6
Continuous
 62
     7
100
AcDbLine
 10
629.4609850969481
 20
427.5181833427051
 30
0.0
 11
620.4609850969476
 21
427.5181833426171
 31
0.0
  0
LINE
  5
480
330
1F
100
AcDbEntity
  8
0
  6
Continuous
 62
     7
100
AcDbLine
 10
620.460985096914
 20
433.8181833426431
 30
0.0
 11
629.4609850969139
 21
433.8181833427051
 31
0.0
  0
LINE
  5
481
330
1F
100
AcDbEntity
  8
0
  6
Continuous
 62
     7
100
AcDbLine
 10
629.460985096906
 20
435.1381833426671
 30
0.0
 11
620.460985096906
 21
435.1381833426432
 31
0.0
  0
LINE
  5
482
330
1F
100
AcDbEntity
  8
0
  6
Continuous
 62
     7
100
AcDbLine
 10
620.4609850968721
 20
441.4381833426431
 30
0.0
 11
629.4609850968721
 21
441.4381833427051
 31
0.0
  0
LINE
  5
483
330
1F
100
AcDbEntity
  8
0
  6
Continuous
 62
     7
100
AcDbLine
 10
629.4609850968631
 20
442.7581833426671
 30
0.0
 11
620.4609850968632
 21
442.758183342617
 31
0.0
  0
LINE
  5
484
330
1F
100
AcDbEntity
  8
0
  6
Continuous
 62
     7
100
AcDbLine
 10
620.4609850968299
 20
449.0581833426431
 30
0.0
 11
629.4609850968296
 21
449.0581833426672
 31
0.0
  0
LINE
  5
485
330
1F
100
AcDbEntity
  8
0
  6
Continuous
 62
     7
100
AcDbLine
 10
629.4609850968218
 20
450.3781833427051
 30
0.0
 11
621.0467715344496
 21
450.378183342655
 31
0.0
  0
LINE
  5
486
330
1F
100
AcDbEntity
  8
0
  6
Continuous
 62
     7
100
AcDbLine
 10
620.4609850967877
 20
456.6781833426191
 30
0.0
 11
629.4609850967876
 21
456.6781833426667
 31
0.0
  0
LINE
  5
487
330
1F
100
AcDbEntity
  8
0
  6
Continuous
 62
     7
100
AcDbLine
 10
629.4609850967794
 20
457.9981833426671
 30
0.0
 11
620.4609850967792
 21
457.9981833426431
 31
0.0
  0
LINE
  5
488
330
1F
100
AcDbEntity
  8
0
  6
Continuous
 62
     7
100
AcDbLine
 10
620.4609850967459
 20
464.2981833426191
 30
0.0
 11
629.4609850967455
 21
464.2981833426673
 31
0.0
  0
LINE
  5
489
330
1F
100
AcDbEntity
  8
0
  6
Continuous
 62
     7
100
AcDbLine
 10
629.460985096738
 20
465.6181833427051
 30
0.0
 11
620.4609850967378
 21
465.6181833426431
 31
0.0
  0
LINE
  5
48A
330
1F
100
AcDbEntity
  8
0
  6
Continuous
 62
     7
100
AcDbLine
 10
620.4609850967041
 20
471.9181833426191
 30
0.0
 11
629.4609850967041
 21
471.9181833426673
 31
0.0
  0
LINE
  5
48B
330
1F
100
AcDbEntity
  8
0
  6
Continuous
 62
     7
100
AcDbLine
 10
639.4609850971818
 20
473.2381833426432
 30
0.0
 11
639.4609850971818
 21
384.9481833428315
 31
0.0
  0
LINE
  5
48C
330
1F
100
AcDbEntity
  8
0
  6
Continuous
 62
     7
100
AcDbLine
 10
620.4609850966977
 20
473.2381833426432
 30
0.0
 11
639.4609850971818
 21
473.2381833426432
 31
0.0
  0
LINE
  5
48D
330
1F
100
AcDbEntity
  8
0
  6
Continuous
 62
     7
100
AcDbLine
 10
620.4609850966977
 20
384.9481833428315
 30
0.0
 11
620.4609850966977
 21
473.2381833426432
 31
0.0
  0
LINE
  5
48E
330
1F
100
AcDbEntity
  8
0
  6
Continuous
 62
     7
100
AcDbLine
 10
639.4609850971818
 20
384.9481833428315
 30
0.0
 11
620.4609850966977
 21
384.9481833428315
 31
0.0
  0
LINE
  5
48F
330
1F
100
AcDbEntity
  8
0
  6
Continuous
 62
     7
100
AcDbLine
 10
634.96098509715
 20
390.7581833426792
 30
0.0
 11
634.96098509715
 21
390.7581833426792
 31
0.0
  0
LINE
  5
490
330
1F
100
AcDbEntity
  8
0
  6
Continuous
 62
     7
100
AcDbLine
 10
634.9609850971575
 20
389.2581833426674
 30
0.0
 11
634.96098509715
 21
390.7581833426792
 31
0.0
  0
LINE
  5
491
330
1F
100
AcDbEntity
  8
0
  6
Continuous
 62
     7
100
AcDbLine
 10
636.4609850971572
 20
389.2581833426751
 30
0.0
 11
634.9609850971575
 21
389.2581833426674
 31
0.0
  0
LINE
  5
492
330
1F
100
AcDbEntity
  8
0
  6
Continuous
 62
     7
100
AcDbLine
 10
636.460985097162
 20
388.2581833426875
 30
0.0
 11
636.4609850971572
 21
389.2581833426751
 31
0.0
  0
LINE
  5
493
330
1F
100
AcDbEntity
  8
0
  6
Continuous
 62
     7
100
AcDbLine
 10
634.9609850971617
 20
388.2581833426792
 30
0.0
 11
636.460985097162
 21
388.2581833426875
 31
0.0
  0
LINE
  5
494
330
1F
100
AcDbEntity
  8
0
  6
Continuous
 62
     7
100
AcDbLine
 10
634.960985097172
 20
386.7581833426792
 30
0.0
 11
634.9609850971617
 21
388.2581833426792
 31
0.0
  0
LINE
  5
495
330
1F
100
AcDbEntity
  8
0
  6
Continuous
 62
     7
100
AcDbLine
 10
633.960985097172
 20
386.7581833426611
 30
0.0
 11
634.960985097172
 21
386.7581833426792
 31
0.0
  0
LINE
  5
496
330
1F
100
AcDbEntity
  8
0
  6
Continuous
 62
     7
100
AcDbLine
 10
633.9609850971616
 20
388.2581833426733
 30
0.0
 11
633.960985097172
 21
386.7581833426611
 31
0.0
  0
LINE
  5
497
330
1F
100
AcDbEntity
  8
0
  6
Continuous
 62
     7
100
AcDbLine
 10
632.4609850971617
 20
388.2581833426651
 30
0.0
 11
633.9609850971616
 21
388.2581833426733
 31
0.0
  0
LINE
  5
498
330
1F
100
AcDbEntity
  8
0
  6
Continuous
 62
     7
100
AcDbLine
 10
632.460985097158
 20
389.2581833426532
 30
0.0
 11
632.4609850971617
 21
388.2581833426651
 31
0.0
  0
LINE
  5
499
330
1F
100
AcDbEntity
  8
0
  6
Continuous
 62
     7
100
AcDbLine
 10
633.9609850971569
 20
389.2581833426733
 30
0.0
 11
632.460985097158
 21
389.2581833426532
 31
0.0
  0
LINE
  5
49A
330
1F
100
AcDbEntity
  8
0
  6
Continuous
 62
     7
100
AcDbLine
 10
633.9609850971498
 20
390.758183342673
 30
0.0
 11
633.9609850971569
 21
389.2581833426733
 31
0.0
  0
LINE
  5
49B
330
1F
100
AcDbEntity
  8
0
  6
Continuous
 62
     7
100
AcDbLine
 10
634.96098509715
 20
390.7581833426792
 30
0.0
 11
633.9609850971498
 21
390.758183342673
 31
0.0
  0
LINE
  5
49C
330
1F
100
AcDbEntity
  8
0
  6
Continuous
 62
     7
100
AcDbLine
 10
637.2109850971598
 20
388.7581833426511
 30
0.0
 11
637.2109850971598
 21
388.7581833426511
 31
0.0
  0
LINE
  5
49D
330
1F
100
AcDbEntity
  8
0
  6
Continuous
 62
     7
100
AcDbLine
 10
625.9609850971274
 20
394.5681833426295
 30
0.0
 11
625.9609850971274
 21
394.5681833426295
 31
0.0
  0
LINE
  5
49E
330
1F
100
AcDbEntity
  8
0
  6
Continuous
 62
     7
100
AcDbLine
 10
625.960985097135
 20
393.0681833426173
 30
0.0
 11
625.9609850971274
 21
394.5681833426295
 31
0.0
  0
LINE
  5
49F
330
1F
100
AcDbEntity
  8
0
  6
Continuous
 62
     7
100
AcDbLine
 10
627.460985097135
 20
393.068183342625
 30
0.0
 11
625.960985097135
 21
393.0681833426173
 31
0.0
  0
LINE
  5
4A0
330
1F
100
AcDbEntity
  8
0
  6
Continuous
 62
     7
100
AcDbLine
 10
627.4609850971416
 20
392.0681833426371
 30
0.0
 11
627.460985097135
 21
393.068183342625
 31
0.0
  0
LINE
  5
4A1
330
1F
100
AcDbEntity
  8
0
  6
Continuous
 62
     7
100
AcDbLine
 10
625.9609850971417
 20
392.068183342629
 30
0.0
 11
627.4609850971416
 21
392.0681833426371
 31
0.0
  0
LINE
  5
4A2
330
1F
100
AcDbEntity
  8
0
  6
Continuous
 62
     7
100
AcDbLine
 10
625.96098509715
 20
390.5681833426296
 30
0.0
 11
625.9609850971417
 21
392.068183342629
 31
0.0
  0
LINE
  5
4A3
330
1F
100
AcDbEntity
  8
0
  6
Continuous
 62
     7
100
AcDbLine
 10
624.9609850971495
 20
390.5681833426114
 30
0.0
 11
625.96098509715
 21
390.5681833426296
 31
0.0
  0
LINE
  5
4A4
330
1F
100
AcDbEntity
  8
0
  6
Continuous
 62
     7
100
AcDbLine
 10
624.9609850971417
 20
392.0681833426232
 30
0.0
 11
624.9609850971495
 21
390.5681833426114
 31
0.0
  0
LINE
  5
4A5
330
1F
100
AcDbEntity
  8
0
  6
Continuous
 62
     7
100
AcDbLine
 10
623.460985097142
 20
392.0681833426155
 30
0.0
 11
624.9609850971417
 21
392.0681833426232
 31
0.0
  0
LINE
  5
4A6
330
1F
100
AcDbEntity
  8
0
  6
Continuous
 62
     7
100
AcDbLine
 10
623.4609850971353
 20
393.0681833426032
 30
0.0
 11
623.460985097142
 21
392.0681833426155
 31
0.0
  0
LINE
  5
4A7
330
1F
100
AcDbEntity
  8
0
  6
Continuous
 62
     7
100
AcDbLine
 10
624.9609850971348
 20
393.0681833426232
 30
0.0
 11
623.4609850971353
 21
393.0681833426032
 31
0.0
  0
LINE
  5
4A8
330
1F
100
AcDbEntity
  8
0
  6
Continuous
 62
     7
100
AcDbLine
 10
624.960985097127
 20
394.5681833426232
 30
0.0
 11
624.9609850971348
 21
393.0681833426232
 31
0.0
  0
LINE
  5
4A9
330
1F
100
AcDbEntity
  8
0
  6
Continuous
 62
     7
100
AcDbLine
 10
625.9609850971274
 20
394.5681833426295
 30
0.0
 11
624.960985097127
 21
394.5681833426232
 31
0.0
  0
LINE
  5
4AA
330
1F
100
AcDbEntity
  8
0
  6
Continuous
 62
     7
100
AcDbLine
 10
628.21098509714
 20
392.5681833426013
 30
0.0
 11
628.21098509714
 21
392.5681833426013
 31
0.0
  0
LINE
  5
4AB
330
1F
100
AcDbEntity
  8
0
  6
Continuous
 62
     7
100
AcDbLine
 10
634.9609850971074
 20
398.3781833427293
 30
0.0
 11
634.9609850971074
 21
398.3781833427293
 31
0.0
  0
LINE
  5
4AC
330
1F
100
AcDbEntity
  8
0
  6
Continuous
 62
     7
100
AcDbLine
 10
634.9609850971161
 20
396.8781833427172
 30
0.0
 11
634.9609850971074
 21
398.3781833427293
 31
0.0
  0
LINE
  5
4AD
330
1F
100
AcDbEntity
  8
0
  6
Continuous
 62
     7
100
AcDbLine
 10
636.4609850971159
 20
396.8781833427251
 30
0.0
 11
634.9609850971161
 21
396.8781833427172
 31
0.0
  0
LINE
  5
4AE
330
1F
100
AcDbEntity
  8
0
  6
Continuous
 62
     7
100
AcDbLine
 10
636.4609850971219
 20
395.8781833427369
 30
0.0
 11
636.4609850971159
 21
396.8781833427251
 31
0.0
  0
LINE
  5
4AF
330
1F
100
AcDbEntity
  8
0
  6
Continuous
 62
     7
100
AcDbLine
 10
634.9609850971217
 20
395.8781833427291
 30
0.0
 11
636.4609850971219
 21
395.8781833427369
 31
0.0
  0
LINE
  5
4B0
330
1F
100
AcDbEntity
  8
0
  6
Continuous
 62
     7
100
AcDbLine
 10
634.9609850971298
 20
394.3781833427293
 30
0.0
 11
634.9609850971217
 21
395.8781833427291
 31
0.0
  0
LINE
  5
4B1
330
1F
100
AcDbEntity
  8
0
  6
Continuous
 62
     7
100
AcDbLine
 10
633.9609850971299
 20
394.3781833427113
 30
0.0
 11
634.9609850971298
 21
394.3781833427293
 31
0.0
  0
LINE
  5
4B2
330
1F
100
AcDbEntity
  8
0
  6
Continuous
 62
     7
100
AcDbLine
 10
633.9609850971217
 20
395.8781833427231
 30
0.0
 11
633.9609850971299
 21
394.3781833427113
 31
0.0
  0
LINE
  5
4B3
330
1F
100
AcDbEntity
  8
0
  6
Continuous
 62
     7
100
AcDbLine
 10
632.4609850971214
 20
395.8781833427153
 30
0.0
 11
633.9609850971217
 21
395.8781833427231
 31
0.0
  0
LINE
  5
4B4
330
1F
100
AcDbEntity
  8
0
  6
Continuous
 62
     7
100
AcDbLine
 10
632.4609850971161
 20
396.8781833427031
 30
0.0
 11
632.4609850971214
 21
395.8781833427153
 31
0.0
  0
LINE
  5
4B5
330
1F
100
AcDbEntity
  8
0
  6
Continuous
 62
     7
100
AcDbLine
 10
633.9609850971161
 20
396.8781833427231
 30
0.0
 11
632.4609850971161
 21
396.8781833427031
 31
0.0
  0
LINE
  5
4B6
330
1F
100
AcDbEntity
  8
0
  6
Continuous
 62
     7
100
AcDbLine
 10
633.9609850971076
 20
398.3781833427231
 30
0.0
 11
633.9609850971161
 21
396.8781833427231
 31
0.0
  0
LINE
  5
4B7
330
1F
100
AcDbEntity
  8
0
  6
Continuous
 62
     7
100
AcDbLine
 10
634.9609850971074
 20
398.3781833427293
 30
0.0
 11
633.9609850971076
 21
398.3781833427231
 31
0.0
  0
LINE
  5
4B8
330
1F
100
AcDbEntity
  8
0
  6
Continuous
 62
     7
100
AcDbLine
 10
637.2109850971177
 20
396.3781833427011
 30
0.0
 11
637.2109850971177
 21
396.3781833427011
 31
0.0
  0
LINE
  5
4B9
330
1F
100
AcDbEntity
  8
0
  6
Continuous
 62
     7
100
AcDbLine
 10
625.9609850970856
 20
402.188183342673
 30
0.0
 11
625.9609850970856
 21
402.188183342673
 31
0.0
  0
LINE
  5
4BA
330
1F
100
AcDbEntity
  8
0
  6
Continuous
 62
     7
100
AcDbLine
 10
625.9609850970941
 20
400.6881833426612
 30
0.0
 11
625.9609850970856
 21
402.188183342673
 31
0.0
  0
LINE
  5
4BB
330
1F
100
AcDbEntity
  8
0
  6
Continuous
 62
     7
100
AcDbLine
 10
627.4609850970939
 20
400.6881833426692
 30
0.0
 11
625.9609850970941
 21
400.6881833426612
 31
0.0
  0
LINE
  5
4BC
330
1F
100
AcDbEntity
  8
0
  6
Continuous
 62
     7
100
AcDbLine
 10
627.4609850971
 20
399.6881833426812
 30
0.0
 11
627.4609850970939
 21
400.6881833426692
 31
0.0
  0
LINE
  5
4BD
330
1F
100
AcDbEntity
  8
0
  6
Continuous
 62
     7
100
AcDbLine
 10
625.9609850970998
 20
399.6881833426733
 30
0.0
 11
627.4609850971
 21
399.6881833426812
 31
0.0
  0
LINE
  5
4BE
330
1F
100
AcDbEntity
  8
0
  6
Continuous
 62
     7
100
AcDbLine
 10
625.9609850971076
 20
398.188183342673
 30
0.0
 11
625.9609850970998
 21
399.6881833426733
 31
0.0
  0
LINE
  5
4BF
330
1F
100
AcDbEntity
  8
0
  6
Continuous
 62
     7
100
AcDbLine
 10
624.9609850971078
 20
398.188183342655
 30
0.0
 11
625.9609850971076
 21
398.188183342673
 31
0.0
  0
LINE
  5
4C0
330
1F
100
AcDbEntity
  8
0
  6
Continuous
 62
     7
100
AcDbLine
 10
624.9609850970998
 20
399.6881833426671
 30
0.0
 11
624.9609850971078
 21
398.188183342655
 31
0.0
  0
LINE
  5
4C1
330
1F
100
AcDbEntity
  8
0
  6
Continuous
 62
     7
100
AcDbLine
 10
623.4609850970992
 20
399.6881833426592
 30
0.0
 11
624.9609850970998
 21
399.6881833426671
 31
0.0
  0
LINE
  5
4C2
330
1F
100
AcDbEntity
  8
0
  6
Continuous
 62
     7
100
AcDbLine
 10
623.4609850970939
 20
400.6881833426471
 30
0.0
 11
623.4609850970992
 21
399.6881833426592
 31
0.0
  0
LINE
  5
4C3
330
1F
100
AcDbEntity
  8
0
  6
Continuous
 62
     7
100
AcDbLine
 10
624.9609850970941
 20
400.6881833426671
 30
0.0
 11
623.4609850970939
 21
400.6881833426471
 31
0.0
  0
LINE
  5
4C4
330
1F
100
AcDbEntity
  8
0
  6
Continuous
 62
     7
100
AcDbLine
 10
624.9609850970856
 20
402.1881833426672
 30
0.0
 11
624.9609850970941
 21
400.6881833426671
 31
0.0
  0
LINE
  5
4C5
330
1F
100
AcDbEntity
  8
0
  6
Continuous
 62
     7
100
AcDbLine
 10
625.9609850970856
 20
402.188183342673
 30
0.0
 11
624.9609850970856
 21
402.1881833426672
 31
0.0
  0
LINE
  5
4C6
330
1F
100
AcDbEntity
  8
0
  6
Continuous
 62
     7
100
AcDbLine
 10
628.2109850970972
 20
400.1881833426453
 30
0.0
 11
628.2109850970972
 21
400.1881833426453
 31
0.0
  0
LINE
  5
4C7
330
1F
100
AcDbEntity
  8
0
  6
Continuous
 62
     7
100
AcDbLine
 10
634.9609850970648
 20
405.9981833427212
 30
0.0
 11
634.9609850970648
 21
405.9981833427212
 31
0.0
  0
LINE
  5
4C8
330
1F
100
AcDbEntity
  8
0
  6
Continuous
 62
     7
100
AcDbLine
 10
634.9609850970741
 20
404.4981833427112
 30
0.0
 11
634.9609850970648
 21
405.9981833427212
 31
0.0
  0
LINE
  5
4C9
330
1F
100
AcDbEntity
  8
0
  6
Continuous
 62
     7
100
AcDbLine
 10
636.4609850970739
 20
404.4981833427191
 30
0.0
 11
634.9609850970741
 21
404.4981833427112
 31
0.0
  0
LINE
  5
4CA
330
1F
100
AcDbEntity
  8
0
  6
Continuous
 62
     7
100
AcDbLine
 10
636.4609850970797
 20
403.4981833427312
 30
0.0
 11
636.4609850970739
 21
404.4981833427191
 31
0.0
  0
LINE
  5
4CB
330
1F
100
AcDbEntity
  8
0
  6
Continuous
 62
     7
100
AcDbLine
 10
634.9609850970795
 20
403.4981833427231
 30
0.0
 11
636.4609850970797
 21
403.4981833427312
 31
0.0
  0
LINE
  5
4CC
330
1F
100
AcDbEntity
  8
0
  6
Continuous
 62
     7
100
AcDbLine
 10
634.960985097087
 20
401.9981833427212
 30
0.0
 11
634.9609850970795
 21
403.4981833427231
 31
0.0
  0
LINE
  5
4CD
330
1F
100
AcDbEntity
  8
0
  6
Continuous
 62
     7
100
AcDbLine
 10
633.960985097087
 20
401.9981833427055
 30
0.0
 11
634.960985097087
 21
401.9981833427212
 31
0.0
  0
LINE
  5
4CE
330
1F
100
AcDbEntity
  8
0
  6
Continuous
 62
     7
100
AcDbLine
 10
633.960985097079
 20
403.4981833427171
 30
0.0
 11
633.960985097087
 21
401.9981833427055
 31
0.0
  0
LINE
  5
4CF
330
1F
100
AcDbEntity
  8
0
  6
Continuous
 62
     7
100
AcDbLine
 10
632.46098509708
 20
403.4981833427093
 30
0.0
 11
633.960985097079
 21
403.4981833427171
 31
0.0
  0
LINE
  5
4D0
330
1F
100
AcDbEntity
  8
0
  6
Continuous
 62
     7
100
AcDbLine
 10
632.4609850970739
 20
404.4981833426972
 30
0.0
 11
632.46098509708
 21
403.4981833427093
 31
0.0
  0
LINE
  5
4D1
330
1F
100
AcDbEntity
  8
0
  6
Continuous
 62
     7
100
AcDbLine
 10
633.9609850970739
 20
404.4981833427171
 30
0.0
 11
632.4609850970739
 21
404.4981833426972
 31
0.0
  0
LINE
  5
4D2
330
1F
100
AcDbEntity
  8
0
  6
Continuous
 62
     7
100
AcDbLine
 10
633.9609850970648
 20
405.9981833427173
 30
0.0
 11
633.9609850970739
 21
404.4981833427171
 31
0.0
  0
LINE
  5
4D3
330
1F
100
AcDbEntity
  8
0
  6
Continuous
 62
     7
100
AcDbLine
 10
634.9609850970648
 20
405.9981833427212
 30
0.0
 11
633.9609850970648
 21
405.9981833427173
 31
0.0
  0
LINE
  5
4D4
330
1F
100
AcDbEntity
  8
0
  6
Continuous
 62
     7
100
AcDbLine
 10
637.2109850970761
 20
403.9981833426951
 30
0.0
 11
637.2109850970761
 21
403.9981833426951
 31
0.0
  0
LINE
  5
4D5
330
1F
100
AcDbEntity
  8
0
  6
Continuous
 62
     7
100
AcDbLine
 10
625.960985097044
 20
409.8081833426731
 30
0.0
 11
625.960985097044
 21
409.8081833426731
 31
0.0
  0
LINE
  5
4D6
330
1F
100
AcDbEntity
  8
0
  6
Continuous
 62
     7
100
AcDbLine
 10
625.9609850970536
 20
408.3081833426613
 30
0.0
 11
625.960985097044
 21
409.8081833426731
 31
0.0
  0
LINE
  5
4D7
330
1F
100
AcDbEntity
  8
0
  6
Continuous
 62
     7
100
AcDbLine
 10
627.4609850970541
 20
408.3081833426693
 30
0.0
 11
625.9609850970536
 21
408.3081833426613
 31
0.0
  0
LINE
  5
4D8
330
1F
100
AcDbEntity
  8
0
  6
Continuous
 62
     7
100
AcDbLine
 10
627.4609850970581
 20
407.3081833426813
 30
0.0
 11
627.4609850970541
 21
408.3081833426693
 31
0.0
  0
LINE
  5
4D9
330
1F
100
AcDbEntity
  8
0
  6
Continuous
 62
     7
100
AcDbLine
 10
625.9609850970581
 20
407.3081833426733
 30
0.0
 11
627.4609850970581
 21
407.3081833426813
 31
0.0
  0
LINE
  5
4DA
330
1F
100
AcDbEntity
  8
0
  6
Continuous
 62
     7
100
AcDbLine
 10
625.9609850970648
 20
405.808183342673
 30
0.0
 11
625.9609850970581
 21
407.3081833426733
 31
0.0
  0
LINE
  5
4DB
330
1F
100
AcDbEntity
  8
0
  6
Continuous
 62
     7
100
AcDbLine
 10
624.9609850970649
 20
405.808183342655
 30
0.0
 11
625.9609850970648
 21
405.808183342673
 31
0.0
  0
LINE
  5
4DC
330
1F
100
AcDbEntity
  8
0
  6
Continuous
 62
     7
100
AcDbLine
 10
624.9609850970581
 20
407.308183342667
 30
0.0
 11
624.9609850970649
 21
405.808183342655
 31
0.0
  0
LINE
  5
4DD
330
1F
100
AcDbEntity
  8
0
  6
Continuous
 62
     7
100
AcDbLine
 10
623.4609850970581
 20
407.3081833426595
 30
0.0
 11
624.9609850970581
 21
407.308183342667
 31
0.0
  0
LINE
  5
4DE
330
1F
100
AcDbEntity
  8
0
  6
Continuous
 62
     7
100
AcDbLine
 10
623.4609850970531
 20
408.3081833426471
 30
0.0
 11
623.4609850970581
 21
407.3081833426595
 31
0.0
  0
LINE
  5
4DF
330
1F
100
AcDbEntity
  8
0
  6
Continuous
 62
     7
100
AcDbLine
 10
624.9609850970536
 20
408.3081833426671
 30
0.0
 11
623.4609850970531
 21
408.3081833426471
 31
0.0
  0
LINE
  5
4E0
330
1F
100
AcDbEntity
  8
0
  6
Continuous
 62
     7
100
AcDbLine
 10
624.960985097044
 20
409.8081833426672
 30
0.0
 11
624.9609850970536
 21
408.3081833426671
 31
0.0
  0
LINE
  5
4E1
330
1F
100
AcDbEntity
  8
0
  6
Continuous
 62
     7
100
AcDbLine
 10
625.960985097044
 20
409.8081833426731
 30
0.0
 11
624.960985097044
 21
409.8081833426672
 31
0.0
  0
LINE
  5
4E2
330
1F
100
AcDbEntity
  8
0
  6
Continuous
 62
     7
100
AcDbLine
 10
628.2109850970559
 20
407.8081833426451
 30
0.0
 11
628.2109850970559
 21
407.8081833426451
 31
0.0
  0
LINE
  5
4E3
330
1F
100
AcDbEntity
  8
0
  6
Continuous
 62
     7
100
AcDbLine
 10
634.960985097024
 20
413.6181833427715
 30
0.0
 11
634.960985097024
 21
413.6181833427715
 31
0.0
  0
LINE
  5
4E4
330
1F
100
AcDbEntity
  8
0
  6
Continuous
 62
     7
100
AcDbLine
 10
634.9609850970312
 20
412.1181833427615
 30
0.0
 11
634.960985097024
 21
413.6181833427715
 31
0.0
  0
LINE
  5
4E5
330
1F
100
AcDbEntity
  8
0
  6
Continuous
 62
     7
100
AcDbLine
 10
636.4609850970317
 20
412.1181833427691
 30
0.0
 11
634.9609850970312
 21
412.1181833427615
 31
0.0
  0
LINE
  5
4E6
330
1F
100
AcDbEntity
  8
0
  6
Continuous
 62
     7
100
AcDbLine
 10
636.4609850970379
 20
411.1181833427813
 30
0.0
 11
636.4609850970317
 21
412.1181833427691
 31
0.0
  0
LINE
  5
4E7
330
1F
100
AcDbEntity
  8
0
  6
Continuous
 62
     7
100
AcDbLine
 10
634.9609850970376
 20
411.1181833427731
 30
0.0
 11
636.4609850970379
 21
411.1181833427813
 31
0.0
  0
LINE
  5
4E8
330
1F
100
AcDbEntity
  8
0
  6
Continuous
 62
     7
100
AcDbLine
 10
634.9609850970456
 20
409.6181833427713
 30
0.0
 11
634.9609850970376
 21
411.1181833427731
 31
0.0
  0
LINE
  5
4E9
330
1F
100
AcDbEntity
  8
0
  6
Continuous
 62
     7
100
AcDbLine
 10
633.9609850970456
 20
409.6181833427551
 30
0.0
 11
634.9609850970456
 21
409.6181833427713
 31
0.0
  0
LINE
  5
4EA
330
1F
100
AcDbEntity
  8
0
  6
Continuous
 62
     7
100
AcDbLine
 10
633.9609850970377
 20
411.1181833427673
 30
0.0
 11
633.9609850970456
 21
409.6181833427551
 31
0.0
  0
LINE
  5
4EB
330
1F
100
AcDbEntity
  8
0
  6
Continuous
 62
     7
100
AcDbLine
 10
632.4609850970379
 20
411.1181833427596
 30
0.0
 11
633.9609850970377
 21
411.1181833427673
 31
0.0
  0
LINE
  5
4EC
330
1F
100
AcDbEntity
  8
0
  6
Continuous
 62
     7
100
AcDbLine
 10
632.4609850970317
 20
412.1181833427473
 30
0.0
 11
632.4609850970379
 21
411.1181833427596
 31
0.0
  0
LINE
  5
4ED
330
1F
100
AcDbEntity
  8
0
  6
Continuous
 62
     7
100
AcDbLine
 10
633.9609850970317
 20
412.118183342767
 30
0.0
 11
632.4609850970317
 21
412.1181833427473
 31
0.0
  0
LINE
  5
4EE
330
1F
100
AcDbEntity
  8
0
  6
Continuous
 62
     7
100
AcDbLine
 10
633.9609850970234
 20
413.6181833427671
 30
0.0
 11
633.9609850970317
 21
412.118183342767
 31
0.0
  0
LINE
  5
4EF
330
1F
100
AcDbEntity
  8
0
  6
Continuous
 62
     7
100
AcDbLine
 10
634.960985097024
 20
413.6181833427715
 30
0.0
 11
633.9609850970234
 21
413.6181833427671
 31
0.0
  0
LINE
  5
4F0
330
1F
100
AcDbEntity
  8
0
  6
Continuous
 62
     7
100
AcDbLine
 10
637.2109850970338
 20
411.6181833427451
 30
0.0
 11
637.2109850970338
 21
411.6181833427451
 31
0.0
  0
LINE
  5
4F1
330
1F
100
AcDbEntity
  8
0
  6
Continuous
 62
     7
100
AcDbLine
 10
625.9609850970011
 20
417.4281833427174
 30
0.0
 11
625.9609850970011
 21
417.4281833427174
 31
0.0
  0
LINE
  5
4F2
330
1F
100
AcDbEntity
  8
0
  6
Continuous
 62
     7
100
AcDbLine
 10
625.960985097012
 20
415.9281833427051
 30
0.0
 11
625.9609850970011
 21
417.4281833427174
 31
0.0
  0
LINE
  5
4F3
330
1F
100
AcDbEntity
  8
0
  6
Continuous
 62
     7
100
AcDbLine
 10
627.4609850970112
 20
415.9281833427131
 30
0.0
 11
625.960985097012
 21
415.9281833427051
 31
0.0
  0
LINE
  5
4F4
330
1F
100
AcDbEntity
  8
0
  6
Continuous
 62
     7
100
AcDbLine
 10
627.4609850970157
 20
414.9281833427252
 30
0.0
 11
627.4609850970112
 21
415.9281833427131
 31
0.0
  0
LINE
  5
4F5
330
1F
100
AcDbEntity
  8
0
  6
Continuous
 62
     7
100
AcDbLine
 10
625.9609850970156
 20
414.9281833427173
 30
0.0
 11
627.4609850970157
 21
414.9281833427252
 31
0.0
  0
LINE
  5
4F6
330
1F
100
AcDbEntity
  8
0
  6
Continuous
 62
     7
100
AcDbLine
 10
625.9609850970234
 20
413.4281833427174
 30
0.0
 11
625.9609850970156
 21
414.9281833427173
 31
0.0
  0
LINE
  5
4F7
330
1F
100
AcDbEntity
  8
0
  6
Continuous
 62
     7
100
AcDbLine
 10
624.960985097024
 20
413.4281833426991
 30
0.0
 11
625.9609850970234
 21
413.4281833427174
 31
0.0
  0
LINE
  5
4F8
330
1F
100
AcDbEntity
  8
0
  6
Continuous
 62
     7
100
AcDbLine
 10
624.9609850970156
 20
414.9281833427111
 30
0.0
 11
624.960985097024
 21
413.4281833426991
 31
0.0
  0
LINE
  5
4F9
330
1F
100
AcDbEntity
  8
0
  6
Continuous
 62
     7
100
AcDbLine
 10
623.4609850970156
 20
414.928183342703
 30
0.0
 11
624.9609850970156
 21
414.9281833427111
 31
0.0
  0
LINE
  5
4FA
330
1F
100
AcDbEntity
  8
0
  6
Continuous
 62
     7
100
AcDbLine
 10
623.4609850970119
 20
415.9281833426911
 30
0.0
 11
623.4609850970156
 21
414.928183342703
 31
0.0
  0
LINE
  5
4FB
330
1F
100
AcDbEntity
  8
0
  6
Continuous
 62
     7
100
AcDbLine
 10
624.9609850970118
 20
415.9281833427111
 30
0.0
 11
623.4609850970119
 21
415.9281833426911
 31
0.0
  0
LINE
  5
4FC
330
1F
100
AcDbEntity
  8
0
  6
Continuous
 62
     7
100
AcDbLine
 10
624.9609850970013
 20
417.4281833427111
 30
0.0
 11
624.9609850970118
 21
415.9281833427111
 31
0.0
  0
LINE
  5
4FD
330
1F
100
AcDbEntity
  8
0
  6
Continuous
 62
     7
100
AcDbLine
 10
625.9609850970011
 20
417.4281833427174
 30
0.0
 11
624.9609850970013
 21
417.4281833427111
 31
0.0
  0
LINE
  5
4FE
330
1F
100
AcDbEntity
  8
0
  6
Continuous
 62
     7
100
AcDbLine
 10
628.2109850970138
 20
415.4281833426892
 30
0.0
 11
628.2109850970138
 21
415.4281833426892
 31
0.0
  0
LINE
  5
4FF
330
1F
100
AcDbEntity
  8
0
  6
Continuous
 62
     7
100
AcDbLine
 10
634.960985096982
 20
421.2381833427212
 30
0.0
 11
634.960985096982
 21
421.2381833427212
 31
0.0
  0
LINE
  5
500
330
1F
100
AcDbEntity
  8
0
  6
Continuous
 62
     7
100
AcDbLine
 10
634.9609850969899
 20
419.738183342711
 30
0.0
 11
634.960985096982
 21
421.2381833427212
 31
0.0
  0
LINE
  5
501
330
1F
100
AcDbEntity
  8
0
  6
Continuous
 62
     7
100
AcDbLine
 10
636.460985096989
 20
419.7381833427191
 30
0.0
 11
634.9609850969899
 21
419.738183342711
 31
0.0
  0
LINE
  5
502
330
1F
100
AcDbEntity
  8
0
  6
Continuous
 62
     7
100
AcDbLine
 10
636.4609850969956
 20
418.7381833427312
 30
0.0
 11
636.460985096989
 21
419.7381833427191
 31
0.0
  0
LINE
  5
503
330
1F
100
AcDbEntity
  8
0
  6
Continuous
 62
     7
100
AcDbLine
 10
634.9609850969957
 20
418.7381833427231
 30
0.0
 11
636.4609850969956
 21
418.7381833427312
 31
0.0
  0
LINE
  5
504
330
1F
100
AcDbEntity
  8
0
  6
Continuous
 62
     7
100
AcDbLine
 10
634.960985097004
 20
417.2381833427212
 30
0.0
 11
634.9609850969957
 21
418.7381833427231
 31
0.0
  0
LINE
  5
505
330
1F
100
AcDbEntity
  8
0
  6
Continuous
 62
     7
100
AcDbLine
 10
633.960985097004
 20
417.2381833427055
 30
0.0
 11
634.960985097004
 21
417.2381833427212
 31
0.0
  0
LINE
  5
506
330
1F
100
AcDbEntity
  8
0
  6
Continuous
 62
     7
100
AcDbLine
 10
633.9609850969956
 20
418.7381833427174
 30
0.0
 11
633.960985097004
 21
417.2381833427055
 31
0.0
  0
LINE
  5
507
330
1F
100
AcDbEntity
  8
0
  6
Continuous
 62
     7
100
AcDbLine
 10
632.4609850969957
 20
418.7381833427093
 30
0.0
 11
633.9609850969956
 21
418.7381833427174
 31
0.0
  0
LINE
  5
508
330
1F
100
AcDbEntity
  8
0
  6
Continuous
 62
     7
100
AcDbLine
 10
632.4609850969896
 20
419.7381833426971
 30
0.0
 11
632.4609850969957
 21
418.7381833427093
 31
0.0
  0
LINE
  5
509
330
1F
100
AcDbEntity
  8
0
  6
Continuous
 62
     7
100
AcDbLine
 10
633.9609850969897
 20
419.7381833427172
 30
0.0
 11
632.4609850969896
 21
419.7381833426971
 31
0.0
  0
LINE
  5
50A
330
1F
100
AcDbEntity
  8
0
  6
Continuous
 62
     7
100
AcDbLine
 10
633.960985096982
 20
421.2381833427174
 30
0.0
 11
633.9609850969897
 21
419.7381833427172
 31
0.0
  0
LINE
  5
50B
330
1F
100
AcDbEntity
  8
0
  6
Continuous
 62
     7
100
AcDbLine
 10
634.960985096982
 20
421.2381833427212
 30
0.0
 11
633.960985096982
 21
421.2381833427174
 31
0.0
  0
LINE
  5
50C
330
1F
100
AcDbEntity
  8
0
  6
Continuous
 62
     7
100
AcDbLine
 10
637.2109850969937
 20
419.2381833426951
 30
0.0
 11
637.2109850969937
 21
419.2381833426951
 31
0.0
  0
LINE
  5
50D
330
1F
100
AcDbEntity
  8
0
  6
Continuous
 62
     7
100
AcDbLine
 10
625.9609850969614
 20
425.0481833426731
 30
0.0
 11
625.9609850969614
 21
425.0481833426731
 31
0.0
  0
LINE
  5
50E
330
1F
100
AcDbEntity
  8
0
  6
Continuous
 62
     7
100
AcDbLine
 10
625.9609850969695
 20
423.5481833426613
 30
0.0
 11
625.9609850969614
 21
425.0481833426731
 31
0.0
  0
LINE
  5
50F
330
1F
100
AcDbEntity
  8
0
  6
Continuous
 62
     7
100
AcDbLine
 10
627.4609850969699
 20
423.5481833426693
 30
0.0
 11
625.9609850969695
 21
423.5481833426613
 31
0.0
  0
LINE
  5
510
330
1F
100
AcDbEntity
  8
0
  6
Continuous
 62
     7
100
AcDbLine
 10
627.460985096976
 20
422.5481833426813
 30
0.0
 11
627.4609850969699
 21
423.5481833426693
 31
0.0
  0
LINE
  5
511
330
1F
100
AcDbEntity
  8
0
  6
Continuous
 62
     7
100
AcDbLine
 10
625.9609850969756
 20
422.5481833426735
 30
0.0
 11
627.460985096976
 21
422.5481833426813
 31
0.0
  0
LINE
  5
512
330
1F
100
AcDbEntity
  8
0
  6
Continuous
 62
     7
100
AcDbLine
 10
625.960985096984
 20
421.0481833426731
 30
0.0
 11
625.9609850969756
 21
422.5481833426735
 31
0.0
  0
LINE
  5
513
330
1F
100
AcDbEntity
  8
0
  6
Continuous
 62
     7
100
AcDbLine
 10
624.9609850969839
 20
421.048183342655
 30
0.0
 11
625.960985096984
 21
421.0481833426731
 31
0.0
  0
LINE
  5
514
330
1F
100
AcDbEntity
  8
0
  6
Continuous
 62
     7
100
AcDbLine
 10
624.9609850969758
 20
422.5481833426674
 30
0.0
 11
624.9609850969839
 21
421.048183342655
 31
0.0
  0
LINE
  5
515
330
1F
100
AcDbEntity
  8
0
  6
Continuous
 62
     7
100
AcDbLine
 10
623.4609850969754
 20
422.5481833426595
 30
0.0
 11
624.9609850969758
 21
422.5481833426674
 31
0.0
  0
LINE
  5
516
330
1F
100
AcDbEntity
  8
0
  6
Continuous
 62
     7
100
AcDbLine
 10
623.460985096969
 20
423.5481833426471
 30
0.0
 11
623.4609850969754
 21
422.5481833426595
 31
0.0
  0
LINE
  5
517
330
1F
100
AcDbEntity
  8
0
  6
Continuous
 62
     7
100
AcDbLine
 10
624.9609850969696
 20
423.5481833426671
 30
0.0
 11
623.460985096969
 21
423.5481833426471
 31
0.0
  0
LINE
  5
518
330
1F
100
AcDbEntity
  8
0
  6
Continuous
 62
     7
100
AcDbLine
 10
624.9609850969618
 20
425.0481833426672
 30
0.0
 11
624.9609850969696
 21
423.5481833426671
 31
0.0
  0
LINE
  5
519
330
1F
100
AcDbEntity
  8
0
  6
Continuous
 62
     7
100
AcDbLine
 10
625.9609850969614
 20
425.0481833426731
 30
0.0
 11
624.9609850969618
 21
425.0481833426672
 31
0.0
  0
LINE
  5
51A
330
1F
100
AcDbEntity
  8
0
  6
Continuous
 62
     7
100
AcDbLine
 10
628.2109850969718
 20
423.048183342645
 30
0.0
 11
628.2109850969718
 21
423.048183342645
 31
0.0
  0
LINE
  5
51B
330
1F
100
AcDbEntity
  8
0
  6
Continuous
 62
     7
100
AcDbLine
 10
634.9609850969398
 20
428.8581833427713
 30
0.0
 11
634.9609850969398
 21
428.8581833427713
 31
0.0
  0
LINE
  5
51C
330
1F
100
AcDbEntity
  8
0
  6
Continuous
 62
     7
100
AcDbLine
 10
634.9609850969479
 20
427.3581833427611
 30
0.0
 11
634.9609850969398
 21
428.8581833427713
 31
0.0
  0
LINE
  5
51D
330
1F
100
AcDbEntity
  8
0
  6
Continuous
 62
     7
100
AcDbLine
 10
636.4609850969476
 20
427.3581833427691
 30
0.0
 11
634.9609850969479
 21
427.3581833427611
 31
0.0
  0
LINE
  5
51E
330
1F
100
AcDbEntity
  8
0
  6
Continuous
 62
     7
100
AcDbLine
 10
636.4609850969539
 20
426.3581833427812
 30
0.0
 11
636.4609850969476
 21
427.3581833427691
 31
0.0
  0
LINE
  5
51F
330
1F
100
AcDbEntity
  8
0
  6
Continuous
 62
     7
100
AcDbLine
 10
634.9609850969537
 20
426.3581833427731
 30
0.0
 11
636.4609850969539
 21
426.3581833427812
 31
0.0
  0
LINE
  5
520
330
1F
100
AcDbEntity
  8
0
  6
Continuous
 62
     7
100
AcDbLine
 10
634.9609850969612
 20
424.8581833427713
 30
0.0
 11
634.9609850969537
 21
426.3581833427731
 31
0.0
  0
LINE
  5
521
330
1F
100
AcDbEntity
  8
0
  6
Continuous
 62
     7
100
AcDbLine
 10
633.9609850969615
 20
424.8581833427555
 30
0.0
 11
634.9609850969612
 21
424.8581833427713
 31
0.0
  0
LINE
  5
522
330
1F
100
AcDbEntity
  8
0
  6
Continuous
 62
     7
100
AcDbLine
 10
633.9609850969537
 20
426.3581833427673
 30
0.0
 11
633.9609850969615
 21
424.8581833427555
 31
0.0
  0
LINE
  5
523
330
1F
100
AcDbEntity
  8
0
  6
Continuous
 62
     7
100
AcDbLine
 10
632.4609850969538
 20
426.3581833427596
 30
0.0
 11
633.9609850969537
 21
426.3581833427673
 31
0.0
  0
LINE
  5
524
330
1F
100
AcDbEntity
  8
0
  6
Continuous
 62
     7
100
AcDbLine
 10
632.4609850969481
 20
427.3581833427473
 30
0.0
 11
632.4609850969538
 21
426.3581833427596
 31
0.0
  0
LINE
  5
525
330
1F
100
AcDbEntity
  8
0
  6
Continuous
 62
     7
100
AcDbLine
 10
633.960985096948
 20
427.358183342767
 30
0.0
 11
632.4609850969481
 21
427.3581833427473
 31
0.0
  0
LINE
  5
526
330
1F
100
AcDbEntity
  8
0
  6
Continuous
 62
     7
100
AcDbLine
 10
633.9609850969398
 20
428.8581833427671
 30
0.0
 11
633.960985096948
 21
427.358183342767
 31
0.0
  0
LINE
  5
527
330
1F
100
AcDbEntity
  8
0
  6
Continuous
 62
     7
100
AcDbLine
 10
634.9609850969398
 20
428.8581833427713
 30
0.0
 11
633.9609850969398
 21
428.8581833427671
 31
0.0
  0
LINE
  5
528
330
1F
100
AcDbEntity
  8
0
  6
Continuous
 62
     7
100
AcDbLine
 10
637.2109850969509
 20
426.8581833427451
 30
0.0
 11
637.2109850969509
 21
426.8581833427451
 31
0.0
  0
LINE
  5
529
330
1F
100
AcDbEntity
  8
0
  6
Continuous
 62
     7
100
AcDbLine
 10
625.9609850969199
 20
432.6681833427175
 30
0.0
 11
625.9609850969199
 21
432.6681833427175
 31
0.0
  0
LINE
  5
52A
330
1F
100
AcDbEntity
  8
0
  6
Continuous
 62
     7
100
AcDbLine
 10
625.9609850969281
 20
431.1681833427055
 30
0.0
 11
625.9609850969199
 21
432.6681833427175
 31
0.0
  0
LINE
  5
52B
330
1F
100
AcDbEntity
  8
0
  6
Continuous
 62
     7
100
AcDbLine
 10
627.4609850969279
 20
431.1681833427131
 30
0.0
 11
625.9609850969281
 21
431.1681833427055
 31
0.0
  0
LINE
  5
52C
330
1F
100
AcDbEntity
  8
0
  6
Continuous
 62
     7
100
AcDbLine
 10
627.4609850969332
 20
430.1681833427255
 30
0.0
 11
627.4609850969279
 21
431.1681833427131
 31
0.0
  0
LINE
  5
52D
330
1F
100
AcDbEntity
  8
0
  6
Continuous
 62
     7
100
AcDbLine
 10
625.960985096934
 20
430.1681833427173
 30
0.0
 11
627.4609850969332
 21
430.1681833427255
 31
0.0
  0
LINE
  5
52E
330
1F
100
AcDbEntity
  8
0
  6
Continuous
 62
     7
100
AcDbLine
 10
625.9609850969415
 20
428.6681833427175
 30
0.0
 11
625.960985096934
 21
430.1681833427173
 31
0.0
  0
LINE
  5
52F
330
1F
100
AcDbEntity
  8
0
  6
Continuous
 62
     7
100
AcDbLine
 10
624.960985096941
 20
428.6681833426992
 30
0.0
 11
625.9609850969415
 21
428.6681833427175
 31
0.0
  0
LINE
  5
530
330
1F
100
AcDbEntity
  8
0
  6
Continuous
 62
     7
100
AcDbLine
 10
624.9609850969335
 20
430.1681833427111
 30
0.0
 11
624.960985096941
 21
428.6681833426992
 31
0.0
  0
LINE
  5
531
330
1F
100
AcDbEntity
  8
0
  6
Continuous
 62
     7
100
AcDbLine
 10
623.460985096934
 20
430.1681833427034
 30
0.0
 11
624.9609850969335
 21
430.1681833427111
 31
0.0
  0
LINE
  5
532
330
1F
100
AcDbEntity
  8
0
  6
Continuous
 62
     7
100
AcDbLine
 10
623.4609850969276
 20
431.1681833426911
 30
0.0
 11
623.460985096934
 21
430.1681833427034
 31
0.0
  0
LINE
  5
533
330
1F
100
AcDbEntity
  8
0
  6
Continuous
 62
     7
100
AcDbLine
 10
624.9609850969281
 20
431.1681833427111
 30
0.0
 11
623.4609850969276
 21
431.1681833426911
 31
0.0
  0
LINE
  5
534
330
1F
100
AcDbEntity
  8
0
  6
Continuous
 62
     7
100
AcDbLine
 10
624.9609850969199
 20
432.6681833427114
 30
0.0
 11
624.9609850969281
 21
431.1681833427111
 31
0.0
  0
LINE
  5
535
330
1F
100
AcDbEntity
  8
0
  6
Continuous
 62
     7
100
AcDbLine
 10
625.9609850969199
 20
432.6681833427175
 30
0.0
 11
624.9609850969199
 21
432.6681833427114
 31
0.0
  0
LINE
  5
536
330
1F
100
AcDbEntity
  8
0
  6
Continuous
 62
     7
100
AcDbLine
 10
628.2109850969301
 20
430.6681833426893
 30
0.0
 11
628.2109850969301
 21
430.6681833426893
 31
0.0
  0
LINE
  5
537
330
1F
100
AcDbEntity
  8
0
  6
Continuous
 62
     7
100
AcDbLine
 10
634.9609850968977
 20
436.4781833427212
 30
0.0
 11
634.9609850968977
 21
436.4781833427212
 31
0.0
  0
LINE
  5
538
330
1F
100
AcDbEntity
  8
0
  6
Continuous
 62
     7
100
AcDbLine
 10
634.960985096906
 20
434.978183342711
 30
0.0
 11
634.9609850968977
 21
436.4781833427212
 31
0.0
  0
LINE
  5
539
330
1F
100
AcDbEntity
  8
0
  6
Continuous
 62
     7
100
AcDbLine
 10
636.460985096906
 20
434.9781833427191
 30
0.0
 11
634.960985096906
 21
434.978183342711
 31
0.0
  0
LINE
  5
53A
330
1F
100
AcDbEntity
  8
0
  6
Continuous
 62
     7
100
AcDbLine
 10
636.460985096911
 20
433.9781833427311
 30
0.0
 11
636.460985096906
 21
434.9781833427191
 31
0.0
  0
LINE
  5
53B
330
1F
100
AcDbEntity
  8
0
  6
Continuous
 62
     7
100
AcDbLine
 10
634.9609850969118
 20
433.9781833427231
 30
0.0
 11
636.460985096911
 21
433.9781833427311
 31
0.0
  0
LINE
  5
53C
330
1F
100
AcDbEntity
  8
0
  6
Continuous
 62
     7
100
AcDbLine
 10
634.9609850969199
 20
432.4781833427212
 30
0.0
 11
634.9609850969118
 21
433.9781833427231
 31
0.0
  0
LINE
  5
53D
330
1F
100
AcDbEntity
  8
0
  6
Continuous
 62
     7
100
AcDbLine
 10
633.9609850969199
 20
432.4781833427056
 30
0.0
 11
634.9609850969199
 21
432.4781833427212
 31
0.0
  0
LINE
  5
53E
330
1F
100
AcDbEntity
  8
0
  6
Continuous
 62
     7
100
AcDbLine
 10
633.9609850969115
 20
433.9781833427174
 30
0.0
 11
633.9609850969199
 21
432.4781833427056
 31
0.0
  0
LINE
  5
53F
330
1F
100
AcDbEntity
  8
0
  6
Continuous
 62
     7
100
AcDbLine
 10
632.4609850969117
 20
433.9781833427093
 30
0.0
 11
633.9609850969115
 21
433.9781833427174
 31
0.0
  0
LINE
  5
540
330
1F
100
AcDbEntity
  8
0
  6
Continuous
 62
     7
100
AcDbLine
 10
632.4609850969055
 20
434.9781833426971
 30
0.0
 11
632.4609850969117
 21
433.9781833427093
 31
0.0
  0
LINE
  5
541
330
1F
100
AcDbEntity
  8
0
  6
Continuous
 62
     7
100
AcDbLine
 10
633.960985096906
 20
434.9781833427172
 30
0.0
 11
632.4609850969055
 21
434.9781833426971
 31
0.0
  0
LINE
  5
542
330
1F
100
AcDbEntity
  8
0
  6
Continuous
 62
     7
100
AcDbLine
 10
633.9609850968977
 20
436.4781833427175
 30
0.0
 11
633.960985096906
 21
434.9781833427172
 31
0.0
  0
LINE
  5
543
330
1F
100
AcDbEntity
  8
0
  6
Continuous
 62
     7
100
AcDbLine
 10
634.9609850968977
 20
436.4781833427212
 30
0.0
 11
633.9609850968977
 21
436.4781833427175
 31
0.0
  0
LINE
  5
544
330
1F
100
AcDbEntity
  8
0
  6
Continuous
 62
     7
100
AcDbLine
 10
637.2109850969096
 20
434.4781833426951
 30
0.0
 11
637.2109850969096
 21
434.4781833426951
 31
0.0
  0
LINE
  5
545
330
1F
100
AcDbEntity
  8
0
  6
Continuous
 62
     7
100
AcDbLine
 10
625.9609850968776
 20
440.2881833426731
 30
0.0
 11
625.9609850968776
 21
440.2881833426731
 31
0.0
  0
LINE
  5
546
330
1F
100
AcDbEntity
  8
0
  6
Continuous
 62
     7
100
AcDbLine
 10
625.960985096886
 20
438.7881833426613
 30
0.0
 11
625.9609850968776
 21
440.2881833426731
 31
0.0
  0
LINE
  5
547
330
1F
100
AcDbEntity
  8
0
  6
Continuous
 62
     7
100
AcDbLine
 10
627.460985096886
 20
438.7881833426692
 30
0.0
 11
625.960985096886
 21
438.7881833426613
 31
0.0
  0
LINE
  5
548
330
1F
100
AcDbEntity
  8
0
  6
Continuous
 62
     7
100
AcDbLine
 10
627.4609850968913
 20
437.7881833426811
 30
0.0
 11
627.460985096886
 21
438.7881833426692
 31
0.0
  0
LINE
  5
549
330
1F
100
AcDbEntity
  8
0
  6
Continuous
 62
     7
100
AcDbLine
 10
625.9609850968915
 20
437.7881833426731
 30
0.0
 11
627.4609850968913
 21
437.7881833426811
 31
0.0
  0
LINE
  5
54A
330
1F
100
AcDbEntity
  8
0
  6
Continuous
 62
     7
100
AcDbLine
 10
625.9609850968996
 20
436.2881833426731
 30
0.0
 11
625.9609850968915
 21
437.7881833426731
 31
0.0
  0
LINE
  5
54B
330
1F
100
AcDbEntity
  8
0
  6
Continuous
 62
     7
100
AcDbLine
 10
624.9609850968997
 20
436.288183342655
 30
0.0
 11
625.9609850968996
 21
436.2881833426731
 31
0.0
  0
LINE
  5
54C
330
1F
100
AcDbEntity
  8
0
  6
Continuous
 62
     7
100
AcDbLine
 10
624.9609850968917
 20
437.7881833426676
 30
0.0
 11
624.9609850968997
 21
436.288183342655
 31
0.0
  0
LINE
  5
54D
330
1F
100
AcDbEntity
  8
0
  6
Continuous
 62
     7
100
AcDbLine
 10
623.4609850968912
 20
437.7881833426592
 30
0.0
 11
624.9609850968917
 21
437.7881833426676
 31
0.0
  0
LINE
  5
54E
330
1F
100
AcDbEntity
  8
0
  6
Continuous
 62
     7
100
AcDbLine
 10
623.460985096886
 20
438.7881833426474
 30
0.0
 11
623.4609850968912
 21
437.7881833426592
 31
0.0
  0
LINE
  5
54F
330
1F
100
AcDbEntity
  8
0
  6
Continuous
 62
     7
100
AcDbLine
 10
624.9609850968858
 20
438.7881833426671
 30
0.0
 11
623.460985096886
 21
438.7881833426474
 31
0.0
  0
LINE
  5
550
330
1F
100
AcDbEntity
  8
0
  6
Continuous
 62
     7
100
AcDbLine
 10
624.9609850968774
 20
440.2881833426671
 30
0.0
 11
624.9609850968858
 21
438.7881833426671
 31
0.0
  0
LINE
  5
551
330
1F
100
AcDbEntity
  8
0
  6
Continuous
 62
     7
100
AcDbLine
 10
625.9609850968776
 20
440.2881833426731
 30
0.0
 11
624.9609850968774
 21
440.2881833426671
 31
0.0
  0
LINE
  5
552
330
1F
100
AcDbEntity
  8
0
  6
Continuous
 62
     7
100
AcDbLine
 10
628.2109850968879
 20
438.288183342645
 30
0.0
 11
628.2109850968879
 21
438.288183342645
 31
0.0
  0
LINE
  5
553
330
1F
100
AcDbEntity
  8
0
  6
Continuous
 62
     7
100
AcDbLine
 10
634.960985096856
 20
444.0981833427712
 30
0.0
 11
634.960985096856
 21
444.0981833427712
 31
0.0
  0
LINE
  5
554
330
1F
100
AcDbEntity
  8
0
  6
Continuous
 62
     7
100
AcDbLine
 10
634.960985096866
 20
442.5981833427611
 30
0.0
 11
634.960985096856
 21
444.0981833427712
 31
0.0
  0
LINE
  5
555
330
1F
100
AcDbEntity
  8
0
  6
Continuous
 62
     7
100
AcDbLine
 10
636.4609850968657
 20
442.5981833427695
 30
0.0
 11
634.960985096866
 21
442.5981833427611
 31
0.0
  0
LINE
  5
556
330
1F
100
AcDbEntity
  8
0
  6
Continuous
 62
     7
100
AcDbLine
 10
636.4609850968697
 20
441.5981833427813
 30
0.0
 11
636.4609850968657
 21
442.5981833427695
 31
0.0
  0
LINE
  5
557
330
1F
100
AcDbEntity
  8
0
  6
Continuous
 62
     7
100
AcDbLine
 10
634.9609850968696
 20
441.5981833427731
 30
0.0
 11
636.4609850968697
 21
441.5981833427813
 31
0.0
  0
LINE
  5
558
330
1F
100
AcDbEntity
  8
0
  6
Continuous
 62
     7
100
AcDbLine
 10
634.9609850968776
 20
440.0981833427713
 30
0.0
 11
634.9609850968696
 21
441.5981833427731
 31
0.0
  0
LINE
  5
559
330
1F
100
AcDbEntity
  8
0
  6
Continuous
 62
     7
100
AcDbLine
 10
633.9609850968776
 20
440.0981833427551
 30
0.0
 11
634.9609850968776
 21
440.0981833427713
 31
0.0
  0
LINE
  5
55A
330
1F
100
AcDbEntity
  8
0
  6
Continuous
 62
     7
100
AcDbLine
 10
633.9609850968696
 20
441.5981833427673
 30
0.0
 11
633.9609850968776
 21
440.0981833427551
 31
0.0
  0
LINE
  5
55B
330
1F
100
AcDbEntity
  8
0
  6
Continuous
 62
     7
100
AcDbLine
 10
632.4609850968697
 20
441.5981833427593
 30
0.0
 11
633.9609850968696
 21
441.5981833427673
 31
0.0
  0
LINE
  5
55C
330
1F
100
AcDbEntity
  8
0
  6
Continuous
 62
     7
100
AcDbLine
 10
632.4609850968657
 20
442.5981833427471
 30
0.0
 11
632.4609850968697
 21
441.5981833427593
 31
0.0
  0
LINE
  5
55D
330
1F
100
AcDbEntity
  8
0
  6
Continuous
 62
     7
100
AcDbLine
 10
633.960985096866
 20
442.5981833427674
 30
0.0
 11
632.4609850968657
 21
442.5981833427471
 31
0.0
  0
LINE
  5
55E
330
1F
100
AcDbEntity
  8
0
  6
Continuous
 62
     7
100
AcDbLine
 10
633.9609850968559
 20
444.0981833427671
 30
0.0
 11
633.960985096866
 21
442.5981833427674
 31
0.0
  0
LINE
  5
55F
330
1F
100
AcDbEntity
  8
0
  6
Continuous
 62
     7
100
AcDbLine
 10
634.960985096856
 20
444.0981833427712
 30
0.0
 11
633.9609850968559
 21
444.0981833427671
 31
0.0
  0
LINE
  5
560
330
1F
100
AcDbEntity
  8
0
  6
Continuous
 62
     7
100
AcDbLine
 10
637.2109850968679
 20
442.0981833427453
 30
0.0
 11
637.2109850968679
 21
442.0981833427453
 31
0.0
  0
LINE
  5
561
330
1F
100
AcDbEntity
  8
0
  6
Continuous
 62
     7
100
AcDbLine
 10
625.9609850968359
 20
447.9081833427171
 30
0.0
 11
625.9609850968359
 21
447.9081833427171
 31
0.0
  0
LINE
  5
562
330
1F
100
AcDbEntity
  8
0
  6
Continuous
 62
     7
100
AcDbLine
 10
625.9609850968438
 20
446.4081833427055
 30
0.0
 11
625.9609850968359
 21
447.9081833427171
 31
0.0
  0
LINE
  5
563
330
1F
100
AcDbEntity
  8
0
  6
Continuous
 62
     7
100
AcDbLine
 10
627.4609850968435
 20
446.4081833427131
 30
0.0
 11
625.9609850968438
 21
446.4081833427055
 31
0.0
  0
LINE
  5
564
330
1F
100
AcDbEntity
  8
0
  6
Continuous
 62
     7
100
AcDbLine
 10
627.4609850968499
 20
445.4081833427255
 30
0.0
 11
627.4609850968435
 21
446.4081833427131
 31
0.0
  0
LINE
  5
565
330
1F
100
AcDbEntity
  8
0
  6
Continuous
 62
     7
100
AcDbLine
 10
625.9609850968501
 20
445.4081833427172
 30
0.0
 11
627.4609850968499
 21
445.4081833427255
 31
0.0
  0
LINE
  5
566
330
1F
100
AcDbEntity
  8
0
  6
Continuous
 62
     7
100
AcDbLine
 10
625.9609850968579
 20
443.9081833427171
 30
0.0
 11
625.9609850968501
 21
445.4081833427172
 31
0.0
  0
LINE
  5
567
330
1F
100
AcDbEntity
  8
0
  6
Continuous
 62
     7
100
AcDbLine
 10
624.9609850968579
 20
443.9081833426993
 30
0.0
 11
625.9609850968579
 21
443.9081833427171
 31
0.0
  0
LINE
  5
568
330
1F
100
AcDbEntity
  8
0
  6
Continuous
 62
     7
100
AcDbLine
 10
624.9609850968501
 20
445.4081833427111
 30
0.0
 11
624.9609850968579
 21
443.9081833426993
 31
0.0
  0
LINE
  5
569
330
1F
100
AcDbEntity
  8
0
  6
Continuous
 62
     7
100
AcDbLine
 10
623.4609850968499
 20
445.4081833427034
 30
0.0
 11
624.9609850968501
 21
445.4081833427111
 31
0.0
  0
LINE
  5
56A
330
1F
100
AcDbEntity
  8
0
  6
Continuous
 62
     7
100
AcDbLine
 10
623.4609850968438
 20
446.4081833426911
 30
0.0
 11
623.4609850968499
 21
445.4081833427034
 31
0.0
  0
LINE
  5
56B
330
1F
100
AcDbEntity
  8
0
  6
Continuous
 62
     7
100
AcDbLine
 10
624.9609850968441
 20
446.408183342711
 30
0.0
 11
623.4609850968438
 21
446.4081833426911
 31
0.0
  0
LINE
  5
56C
330
1F
100
AcDbEntity
  8
0
  6
Continuous
 62
     7
100
AcDbLine
 10
624.960985096836
 20
447.9081833427114
 30
0.0
 11
624.9609850968441
 21
446.408183342711
 31
0.0
  0
LINE
  5
56D
330
1F
100
AcDbEntity
  8
0
  6
Continuous
 62
     7
100
AcDbLine
 10
625.9609850968359
 20
447.9081833427171
 30
0.0
 11
624.960985096836
 21
447.9081833427114
 31
0.0
  0
LINE
  5
56E
330
1F
100
AcDbEntity
  8
0
  6
Continuous
 62
     7
100
AcDbLine
 10
628.2109850968457
 20
445.9081833426893
 30
0.0
 11
628.2109850968457
 21
445.9081833426893
 31
0.0
  0
LINE
  5
56F
330
1F
100
AcDbEntity
  8
0
  6
Continuous
 62
     7
100
AcDbLine
 10
634.9609850968151
 20
451.7181833428152
 30
0.0
 11
634.9609850968151
 21
451.7181833428152
 31
0.0
  0
LINE
  5
570
330
1F
100
AcDbEntity
  8
0
  6
Continuous
 62
     7
100
AcDbLine
 10
634.9609850968229
 20
450.2181833428035
 30
0.0
 11
634.9609850968151
 21
451.7181833428152
 31
0.0
  0
LINE
  5
571
330
1F
100
AcDbEntity
  8
0
  6
Continuous
 62
     7
100
AcDbLine
 10
636.4609850968238
 20
450.2181833428132
 30
0.0
 11
634.9609850968229
 21
450.2181833428035
 31
0.0
  0
LINE
  5
572
330
1F
100
AcDbEntity
  8
0
  6
Continuous
 62
     7
100
AcDbLine
 10
636.460985096828
 20
449.2181833428234
 30
0.0
 11
636.4609850968238
 21
450.2181833428132
 31
0.0
  0
LINE
  5
573
330
1F
100
AcDbEntity
  8
0
  6
Continuous
 62
     7
100
AcDbLine
 10
634.9609850968278
 20
449.2181833428171
 30
0.0
 11
636.460985096828
 21
449.2181833428234
 31
0.0
  0
LINE
  5
574
330
1F
100
AcDbEntity
  8
0
  6
Continuous
 62
     7
100
AcDbLine
 10
634.9609850968358
 20
447.7181833428152
 30
0.0
 11
634.9609850968278
 21
449.2181833428171
 31
0.0
  0
LINE
  5
575
330
1F
100
AcDbEntity
  8
0
  6
Continuous
 62
     7
100
AcDbLine
 10
633.960985096836
 20
447.7181833427993
 30
0.0
 11
634.9609850968358
 21
447.7181833428152
 31
0.0
  0
LINE
  5
576
330
1F
100
AcDbEntity
  8
0
  6
Continuous
 62
     7
100
AcDbLine
 10
633.960985096828
 20
449.2181833428111
 30
0.0
 11
633.960985096836
 21
447.7181833427993
 31
0.0
  0
LINE
  5
577
330
1F
100
AcDbEntity
  8
0
  6
Continuous
 62
     7
100
AcDbLine
 10
632.4609850968278
 20
449.2181833428013
 30
0.0
 11
633.960985096828
 21
449.2181833428111
 31
0.0
  0
LINE
  5
578
330
1F
100
AcDbEntity
  8
0
  6
Continuous
 62
     7
100
AcDbLine
 10
632.4609850968229
 20
450.2181833427912
 30
0.0
 11
632.4609850968278
 21
449.2181833428013
 31
0.0
  0
LINE
  5
579
330
1F
100
AcDbEntity
  8
0
  6
Continuous
 62
     7
100
AcDbLine
 10
633.9609850968233
 20
450.2181833428111
 30
0.0
 11
632.4609850968229
 21
450.2181833427912
 31
0.0
  0
LINE
  5
57A
330
1F
100
AcDbEntity
  8
0
  6
Continuous
 62
     7
100
AcDbLine
 10
633.9609850968153
 20
451.7181833428111
 30
0.0
 11
633.9609850968233
 21
450.2181833428111
 31
0.0
  0
LINE
  5
57B
330
1F
100
AcDbEntity
  8
0
  6
Continuous
 62
     7
100
AcDbLine
 10
634.9609850968151
 20
451.7181833428152
 30
0.0
 11
633.9609850968153
 21
451.7181833428111
 31
0.0
  0
LINE
  5
57C
330
1F
100
AcDbEntity
  8
0
  6
Continuous
 62
     7
100
AcDbLine
 10
637.2109850968257
 20
449.7181833427891
 30
0.0
 11
637.2109850968257
 21
449.7181833427891
 31
0.0
  0
LINE
  5
57D
330
1F
100
AcDbEntity
  8
0
  6
Continuous
 62
     7
100
AcDbLine
 10
625.9609850967939
 20
455.5281833426731
 30
0.0
 11
625.9609850967939
 21
455.5281833426731
 31
0.0
  0
LINE
  5
57E
330
1F
100
AcDbEntity
  8
0
  6
Continuous
 62
     7
100
AcDbLine
 10
625.960985096801
 20
454.0281833426613
 30
0.0
 11
625.9609850967939
 21
455.5281833426731
 31
0.0
  0
LINE
  5
57F
330
1F
100
AcDbEntity
  8
0
  6
Continuous
 62
     7
100
AcDbLine
 10
627.4609850968015
 20
454.0281833426692
 30
0.0
 11
625.960985096801
 21
454.0281833426613
 31
0.0
  0
LINE
  5
580
330
1F
100
AcDbEntity
  8
0
  6
Continuous
 62
     7
100
AcDbLine
 10
627.4609850968078
 20
453.0281833426811
 30
0.0
 11
627.4609850968015
 21
454.0281833426692
 31
0.0
  0
LINE
  5
581
330
1F
100
AcDbEntity
  8
0
  6
Continuous
 62
     7
100
AcDbLine
 10
625.9609850968074
 20
453.0281833426728
 30
0.0
 11
627.4609850968078
 21
453.0281833426811
 31
0.0
  0
LINE
  5
582
330
1F
100
AcDbEntity
  8
0
  6
Continuous
 62
     7
100
AcDbLine
 10
625.9609850968153
 20
451.5281833426731
 30
0.0
 11
625.9609850968074
 21
453.0281833426728
 31
0.0
  0
LINE
  5
583
330
1F
100
AcDbEntity
  8
0
  6
Continuous
 62
     7
100
AcDbLine
 10
624.9609850968157
 20
451.528183342655
 30
0.0
 11
625.9609850968153
 21
451.5281833426731
 31
0.0
  0
LINE
  5
584
330
1F
100
AcDbEntity
  8
0
  6
Continuous
 62
     7
100
AcDbLine
 10
624.9609850968077
 20
453.0281833426676
 30
0.0
 11
624.9609850968157
 21
451.528183342655
 31
0.0
  0
LINE
  5
585
330
1F
100
AcDbEntity
  8
0
  6
Continuous
 62
     7
100
AcDbLine
 10
623.4609850968078
 20
453.0281833426593
 30
0.0
 11
624.9609850968077
 21
453.0281833426676
 31
0.0
  0
LINE
  5
586
330
1F
100
AcDbEntity
  8
0
  6
Continuous
 62
     7
100
AcDbLine
 10
623.4609850968008
 20
454.0281833426474
 30
0.0
 11
623.4609850968078
 21
453.0281833426593
 31
0.0
  0
LINE
  5
587
330
1F
100
AcDbEntity
  8
0
  6
Continuous
 62
     7
100
AcDbLine
 10
624.9609850968012
 20
454.0281833426671
 30
0.0
 11
623.4609850968008
 21
454.0281833426474
 31
0.0
  0
LINE
  5
588
330
1F
100
AcDbEntity
  8
0
  6
Continuous
 62
     7
100
AcDbLine
 10
624.9609850967939
 20
455.5281833426671
 30
0.0
 11
624.9609850968012
 21
454.0281833426671
 31
0.0
  0
LINE
  5
589
330
1F
100
AcDbEntity
  8
0
  6
Continuous
 62
     7
100
AcDbLine
 10
625.9609850967939
 20
455.5281833426731
 30
0.0
 11
624.9609850967939
 21
455.5281833426671
 31
0.0
  0
LINE
  5
58A
330
1F
100
AcDbEntity
  8
0
  6
Continuous
 62
     7
100
AcDbLine
 10
628.2109850968055
 20
453.528183342645
 30
0.0
 11
628.2109850968055
 21
453.528183342645
 31
0.0
  0
LINE
  5
58B
330
1F
100
AcDbEntity
  8
0
  6
Continuous
 62
     7
100
AcDbLine
 10
634.9609850967738
 20
459.3381833428152
 30
0.0
 11
634.9609850967738
 21
459.3381833428152
 31
0.0
  0
LINE
  5
58C
330
1F
100
AcDbEntity
  8
0
  6
Continuous
 62
     7
100
AcDbLine
 10
634.9609850967822
 20
457.8381833428031
 30
0.0
 11
634.9609850967738
 21
459.3381833428152
 31
0.0
  0
LINE
  5
58D
330
1F
100
AcDbEntity
  8
0
  6
Continuous
 62
     7
100
AcDbLine
 10
636.4609850967821
 20
457.8381833428124
 30
0.0
 11
634.9609850967822
 21
457.8381833428031
 31
0.0
  0
LINE
  5
58E
330
1F
100
AcDbEntity
  8
0
  6
Continuous
 62
     7
100
AcDbLine
 10
636.4609850967855
 20
456.8381833428231
 30
0.0
 11
636.4609850967821
 21
457.8381833428124
 31
0.0
  0
LINE
  5
58F
330
1F
100
AcDbEntity
  8
0
  6
Continuous
 62
     7
100
AcDbLine
 10
634.9609850967855
 20
456.8381833428171
 30
0.0
 11
636.4609850967855
 21
456.8381833428231
 31
0.0
  0
LINE
  5
590
330
1F
100
AcDbEntity
  8
0
  6
Continuous
 62
     7
100
AcDbLine
 10
634.960985096796
 20
455.3381833428152
 30
0.0
 11
634.9609850967855
 21
456.8381833428171
 31
0.0
  0
LINE
  5
591
330
1F
100
AcDbEntity
  8
0
  6
Continuous
 62
     7
100
AcDbLine
 10
633.960985096796
 20
455.3381833427993
 30
0.0
 11
634.960985096796
 21
455.3381833428152
 31
0.0
  0
LINE
  5
592
330
1F
100
AcDbEntity
  8
0
  6
Continuous
 62
     7
100
AcDbLine
 10
633.9609850967852
 20
456.8381833428111
 30
0.0
 11
633.960985096796
 21
455.3381833427993
 31
0.0
  0
LINE
  5
593
330
1F
100
AcDbEntity
  8
0
  6
Continuous
 62
     7
100
AcDbLine
 10
632.460985096786
 20
456.8381833428031
 30
0.0
 11
633.9609850967852
 21
456.8381833428111
 31
0.0
  0
LINE
  5
594
330
1F
100
AcDbEntity
  8
0
  6
Continuous
 62
     7
100
AcDbLine
 10
632.4609850967821
 20
457.8381833427912
 30
0.0
 11
632.460985096786
 21
456.8381833428031
 31
0.0
  0
LINE
  5
595
330
1F
100
AcDbEntity
  8
0
  6
Continuous
 62
     7
100
AcDbLine
 10
633.9609850967825
 20
457.8381833428111
 30
0.0
 11
632.4609850967821
 21
457.8381833427912
 31
0.0
  0
LINE
  5
596
330
1F
100
AcDbEntity
  8
0
  6
Continuous
 62
     7
100
AcDbLine
 10
633.9609850967733
 20
459.3381833428111
 30
0.0
 11
633.9609850967825
 21
457.8381833428111
 31
0.0
  0
LINE
  5
597
330
1F
100
AcDbEntity
  8
0
  6
Continuous
 62
     7
100
AcDbLine
 10
634.9609850967738
 20
459.3381833428152
 30
0.0
 11
633.9609850967733
 21
459.3381833428111
 31
0.0
  0
LINE
  5
598
330
1F
100
AcDbEntity
  8
0
  6
Continuous
 62
     7
100
AcDbLine
 10
637.2109850967837
 20
457.3381833427891
 30
0.0
 11
637.2109850967837
 21
457.3381833427891
 31
0.0
  0
LINE
  5
599
330
1F
100
AcDbEntity
  8
0
  6
Continuous
 62
     7
100
AcDbLine
 10
625.9609850967516
 20
463.1481833426729
 30
0.0
 11
625.9609850967516
 21
463.1481833426729
 31
0.0
  0
LINE
  5
59A
330
1F
100
AcDbEntity
  8
0
  6
Continuous
 62
     7
100
AcDbLine
 10
625.9609850967599
 20
461.6481833426613
 30
0.0
 11
625.9609850967516
 21
463.1481833426729
 31
0.0
  0
LINE
  5
59B
330
1F
100
AcDbEntity
  8
0
  6
Continuous
 62
     7
100
AcDbLine
 10
627.4609850967599
 20
461.6481833426692
 30
0.0
 11
625.9609850967599
 21
461.6481833426613
 31
0.0
  0
LINE
  5
59C
330
1F
100
AcDbEntity
  8
0
  6
Continuous
 62
     7
100
AcDbLine
 10
627.460985096765
 20
460.6481833426811
 30
0.0
 11
627.4609850967599
 21
461.6481833426692
 31
0.0
  0
LINE
  5
59D
330
1F
100
AcDbEntity
  8
0
  6
Continuous
 62
     7
100
AcDbLine
 10
625.960985096766
 20
460.6481833426729
 30
0.0
 11
627.460985096765
 21
460.6481833426811
 31
0.0
  0
LINE
  5
59E
330
1F
100
AcDbEntity
  8
0
  6
Continuous
 62
     7
100
AcDbLine
 10
625.9609850967733
 20
459.1481833426729
 30
0.0
 11
625.960985096766
 21
460.6481833426729
 31
0.0
  0
LINE
  5
59F
330
1F
100
AcDbEntity
  8
0
  6
Continuous
 62
     7
100
AcDbLine
 10
624.960985096773
 20
459.148183342655
 30
0.0
 11
625.9609850967733
 21
459.1481833426729
 31
0.0
  0
LINE
  5
5A0
330
1F
100
AcDbEntity
  8
0
  6
Continuous
 62
     7
100
AcDbLine
 10
624.9609850967658
 20
460.6481833426671
 30
0.0
 11
624.960985096773
 21
459.148183342655
 31
0.0
  0
LINE
  5
5A1
330
1F
100
AcDbEntity
  8
0
  6
Continuous
 62
     7
100
AcDbLine
 10
623.4609850967658
 20
460.6481833426592
 30
0.0
 11
624.9609850967658
 21
460.6481833426671
 31
0.0
  0
LINE
  5
5A2
330
1F
100
AcDbEntity
  8
0
  6
Continuous
 62
     7
100
AcDbLine
 10
623.4609850967601
 20
461.6481833426474
 30
0.0
 11
623.4609850967658
 21
460.6481833426592
 31
0.0
  0
LINE
  5
5A3
330
1F
100
AcDbEntity
  8
0
  6
Continuous
 62
     7
100
AcDbLine
 10
624.9609850967599
 20
461.6481833426671
 30
0.0
 11
623.4609850967601
 21
461.6481833426474
 31
0.0
  0
LINE
  5
5A4
330
1F
100
AcDbEntity
  8
0
  6
Continuous
 62
     7
100
AcDbLine
 10
624.9609850967519
 20
463.1481833426671
 30
0.0
 11
624.9609850967599
 21
461.6481833426671
 31
0.0
  0
LINE
  5
5A5
330
1F
100
AcDbEntity
  8
0
  6
Continuous
 62
     7
100
AcDbLine
 10
625.9609850967516
 20
463.1481833426729
 30
0.0
 11
624.9609850967519
 21
463.1481833426671
 31
0.0
  0
LINE
  5
5A6
330
1F
100
AcDbEntity
  8
0
  6
Continuous
 62
     7
100
AcDbLine
 10
628.2109850967636
 20
461.148183342645
 30
0.0
 11
628.2109850967636
 21
461.148183342645
 31
0.0
  0
LINE
  5
5A7
330
1F
100
AcDbEntity
  8
0
  6
Continuous
 62
     7
100
AcDbLine
 10
634.9609850967316
 20
466.9581833427211
 30
0.0
 11
634.9609850967316
 21
466.9581833427211
 31
0.0
  0
LINE
  5
5A8
330
1F
100
AcDbEntity
  8
0
  6
Continuous
 62
     7
100
AcDbLine
 10
634.96098509674
 20
465.458183342711
 30
0.0
 11
634.9609850967316
 21
466.9581833427211
 31
0.0
  0
LINE
  5
5A9
330
1F
100
AcDbEntity
  8
0
  6
Continuous
 62
     7
100
AcDbLine
 10
636.46098509674
 20
465.4581833427191
 30
0.0
 11
634.96098509674
 21
465.458183342711
 31
0.0
  0
LINE
  5
5AA
330
1F
100
AcDbEntity
  8
0
  6
Continuous
 62
     7
100
AcDbLine
 10
636.4609850967459
 20
464.4581833427309
 30
0.0
 11
636.46098509674
 21
465.4581833427191
 31
0.0
  0
LINE
  5
5AB
330
1F
100
AcDbEntity
  8
0
  6
Continuous
 62
     7
100
AcDbLine
 10
634.9609850967453
 20
464.4581833427233
 30
0.0
 11
636.4609850967459
 21
464.4581833427309
 31
0.0
  0
LINE
  5
5AC
330
1F
100
AcDbEntity
  8
0
  6
Continuous
 62
     7
100
AcDbLine
 10
634.9609850967532
 20
462.9581833427211
 30
0.0
 11
634.9609850967453
 21
464.4581833427233
 31
0.0
  0
LINE
  5
5AD
330
1F
100
AcDbEntity
  8
0
  6
Continuous
 62
     7
100
AcDbLine
 10
633.9609850967534
 20
462.9581833427051
 30
0.0
 11
634.9609850967532
 21
462.9581833427211
 31
0.0
  0
LINE
  5
5AE
330
1F
100
AcDbEntity
  8
0
  6
Continuous
 62
     7
100
AcDbLine
 10
633.9609850967454
 20
464.4581833427172
 30
0.0
 11
633.9609850967534
 21
462.9581833427051
 31
0.0
  0
LINE
  5
5AF
330
1F
100
AcDbEntity
  8
0
  6
Continuous
 62
     7
100
AcDbLine
 10
632.460985096745
 20
464.4581833427091
 30
0.0
 11
633.9609850967454
 21
464.4581833427172
 31
0.0
  0
LINE
  5
5B0
330
1F
100
AcDbEntity
  8
0
  6
Continuous
 62
     7
100
AcDbLine
 10
632.46098509674
 20
465.4581833426972
 30
0.0
 11
632.460985096745
 21
464.4581833427091
 31
0.0
  0
LINE
  5
5B1
330
1F
100
AcDbEntity
  8
0
  6
Continuous
 62
     7
100
AcDbLine
 10
633.96098509674
 20
465.4581833427175
 30
0.0
 11
632.46098509674
 21
465.4581833426972
 31
0.0
  0
LINE
  5
5B2
330
1F
100
AcDbEntity
  8
0
  6
Continuous
 62
     7
100
AcDbLine
 10
633.9609850967316
 20
466.9581833427172
 30
0.0
 11
633.96098509674
 21
465.4581833427175
 31
0.0
  0
LINE
  5
5B3
330
1F
100
AcDbEntity
  8
0
  6
Continuous
 62
     7
100
AcDbLine
 10
634.9609850967316
 20
466.9581833427211
 30
0.0
 11
633.9609850967316
 21
466.9581833427172
 31
0.0
  0
LINE
  5
5B4
330
1F
100
AcDbEntity
  8
0
  6
Continuous
 62
     7
100
AcDbLine
 10
637.210985096742
 20
464.9581833426951
 30
0.0
 11
637.210985096742
 21
464.9581833426951
 31
0.0
  0
LINE
  5
5B5
330
1F
100
AcDbEntity
  8
0
  6
Continuous
 62
     7
100
AcDbLine
 10
629.4609850967041
 20
471.9181833427053
 30
0.0
 11
620.4609850967041
 21
471.9181833426431
 31
0.0
  0
LINE
  5
5B6
330
1F
100
AcDbEntity
  8
0
  6
Continuous
 62
     7
100
AcDbLine
 10
625.9609850967096
 20
470.7681833426729
 30
0.0
 11
625.9609850967096
 21
470.7681833426729
 31
0.0
  0
LINE
  5
5B7
330
1F
100
AcDbEntity
  8
0
  6
Continuous
 62
     7
100
AcDbLine
 10
625.9609850967177
 20
469.2681833426611
 30
0.0
 11
625.9609850967096
 21
470.7681833426729
 31
0.0
  0
LINE
  5
5B8
330
1F
100
AcDbEntity
  8
0
  6
Continuous
 62
     7
100
AcDbLine
 10
627.4609850967172
 20
469.2681833426692
 30
0.0
 11
625.9609850967177
 21
469.2681833426611
 31
0.0
  0
LINE
  5
5B9
330
1F
100
AcDbEntity
  8
0
  6
Continuous
 62
     7
100
AcDbLine
 10
627.4609850967241
 20
468.2681833426811
 30
0.0
 11
627.4609850967172
 21
469.2681833426692
 31
0.0
  0
LINE
  5
5BA
330
1F
100
AcDbEntity
  8
0
  6
Continuous
 62
     7
100
AcDbLine
 10
625.9609850967241
 20
468.2681833426729
 30
0.0
 11
627.4609850967241
 21
468.2681833426811
 31
0.0
  0
LINE
  5
5BB
330
1F
100
AcDbEntity
  8
0
  6
Continuous
 62
     7
100
AcDbLine
 10
625.9609850967316
 20
466.7681833426732
 30
0.0
 11
625.9609850967241
 21
468.2681833426729
 31
0.0
  0
LINE
  5
5BC
330
1F
100
AcDbEntity
  8
0
  6
Continuous
 62
     7
100
AcDbLine
 10
624.9609850967316
 20
466.768183342655
 30
0.0
 11
625.9609850967316
 21
466.7681833426732
 31
0.0
  0
LINE
  5
5BD
330
1F
100
AcDbEntity
  8
0
  6
Continuous
 62
     7
100
AcDbLine
 10
624.9609850967241
 20
468.2681833426671
 30
0.0
 11
624.9609850967316
 21
466.768183342655
 31
0.0
  0
LINE
  5
5BE
330
1F
100
AcDbEntity
  8
0
  6
Continuous
 62
     7
100
AcDbLine
 10
623.4609850967241
 20
468.2681833426591
 30
0.0
 11
624.9609850967241
 21
468.2681833426671
 31
0.0
  0
LINE
  5
5BF
330
1F
100
AcDbEntity
  8
0
  6
Continuous
 62
     7
100
AcDbLine
 10
623.4609850967177
 20
469.2681833426473
 30
0.0
 11
623.4609850967241
 21
468.2681833426591
 31
0.0
  0
LINE
  5
5C0
330
1F
100
AcDbEntity
  8
0
  6
Continuous
 62
     7
100
AcDbLine
 10
624.9609850967175
 20
469.2681833426673
 30
0.0
 11
623.4609850967177
 21
469.2681833426473
 31
0.0
  0
LINE
  5
5C1
330
1F
100
AcDbEntity
  8
0
  6
Continuous
 62
     7
100
AcDbLine
 10
624.9609850967096
 20
470.7681833426671
 30
0.0
 11
624.9609850967175
 21
469.2681833426673
 31
0.0
  0
LINE
  5
5C2
330
1F
100
AcDbEntity
  8
0
  6
Continuous
 62
     7
100
AcDbLine
 10
625.9609850967096
 20
470.7681833426729
 30
0.0
 11
624.9609850967096
 21
470.7681833426671
 31
0.0
  0
LINE
  5
5C3
330
1F
100
AcDbEntity
  8
0
  6
Continuous
 62
     7
100
AcDbLine
 10
628.2109850967221
 20
468.768183342645
 30
0.0
 11
628.2109850967221
 21
468.768183342645
 31
0.0
  0
LINE
  5
5C4
330
1F
100
AcDbEntity
  8
0
  6
Continuous
 62
     7
100
AcDbLine
 10
629.4609850971816
 20
384.9481833426892
 30
0.0
 11
629.4609850966978
 21
473.2381833427053
 31
0.0
  0
LINE
  5
5C5
330
1F
100
AcDbEntity
  8
0
  6
Continuous
 62
     7
100
AcDbLine
 10
639.4609850966958
 20
384.9481833425953
 30
0.0
 11
639.4609850966958
 21
473.2381833428091
 31
0.0
  0
LINE
  5
5C6
330
1F
100
AcDbEntity
  8
0
  6
Continuous
 62
     7
100
AcDbLine
 10
620.4609850971816
 20
384.9481833425953
 30
0.0
 11
639.4609850966958
 21
384.9481833425953
 31
0.0
  0
LINE
  5
5C7
330
1F
100
AcDbEntity
  8
0
  6
Continuous
 62
     7
100
AcDbLine
 10
620.4609850971816
 20
473.2381833428091
 30
0.0
 11
620.4609850971816
 21
384.9481833425953
 31
0.0
  0
LINE
  5
5C8
330
1F
100
AcDbEntity
  8
0
  6
Continuous
 62
     7
100
AcDbLine
 10
639.4609850966958
 20
473.2381833428091
 30
0.0
 11
620.4609850971816
 21
473.2381833428091
 31
0.0
  0
LINE
  5
5C9
330
1F
100
AcDbEntity
  8
0
  6
Continuous
 62
     7
100
AcDbLine
 10
635.3609875428674
 20
381.668183953047
 30
0.0
 11
634.560987542868
 21
381.6681839530433
 31
0.0
  0
LINE
  5
5CA
330
1F
100
AcDbEntity
  8
0
  6
Continuous
 62
     7
100
AcDbLine
 10
634.560987542868
 20
381.6681839530433
 30
0.0
 11
634.560987542873
 21
380.4681839530433
 31
0.0
  0
LINE
  5
5CB
330
1F
100
AcDbEntity
  8
0
  6
Continuous
 62
     7
100
AcDbLine
 10
634.560987542873
 20
380.4681839530433
 30
0.0
 11
633.3609875428739
 21
380.4681839530271
 31
0.0
  0
LINE
  5
5CC
330
1F
100
AcDbEntity
  8
0
  6
Continuous
 62
     7
100
AcDbLine
 10
633.3609875428739
 20
380.4681839530271
 30
0.0
 11
633.3609875428773
 21
379.668183953035
 31
0.0
  0
LINE
  5
5CD
330
1F
100
AcDbEntity
  8
0
  6
Continuous
 62
     7
100
AcDbLine
 10
633.3609875428773
 20
379.668183953035
 30
0.0
 11
634.560987542878
 21
379.6681839530433
 31
0.0
  0
LINE
  5
5CE
330
1F
100
AcDbEntity
  8
0
  6
Continuous
 62
     7
100
AcDbLine
 10
634.560987542878
 20
379.6681839530433
 30
0.0
 11
634.5609875428858
 21
378.4681839530331
 31
0.0
  0
LINE
  5
5CF
330
1F
100
AcDbEntity
  8
0
  6
Continuous
 62
     7
100
AcDbLine
 10
634.5609875428858
 20
378.4681839530331
 30
0.0
 11
635.360987542885
 21
378.4681839530473
 31
0.0
  0
LINE
  5
5D0
330
1F
100
AcDbEntity
  8
0
  6
Continuous
 62
     7
100
AcDbLine
 10
635.360987542885
 20
378.4681839530473
 30
0.0
 11
635.3609875428775
 21
379.6681839530471
 31
0.0
  0
LINE
  5
5D1
330
1F
100
AcDbEntity
  8
0
  6
Continuous
 62
     7
100
AcDbLine
 10
635.3609875428775
 20
379.6681839530471
 30
0.0
 11
636.5609875428772
 21
379.6681839530531
 31
0.0
  0
LINE
  5
5D2
330
1F
100
AcDbEntity
  8
0
  6
Continuous
 62
     7
100
AcDbLine
 10
636.5609875428772
 20
379.6681839530531
 30
0.0
 11
636.5609875428734
 21
380.4681839530433
 31
0.0
  0
LINE
  5
5D3
330
1F
100
AcDbEntity
  8
0
  6
Continuous
 62
     7
100
AcDbLine
 10
636.5609875428734
 20
380.4681839530433
 30
0.0
 11
635.3609875428738
 21
380.4681839530371
 31
0.0
  0
LINE
  5
5D4
330
1F
100
AcDbEntity
  8
0
  6
Continuous
 62
     7
100
AcDbLine
 10
635.3609875428738
 20
380.4681839530371
 30
0.0
 11
635.3609875428674
 21
381.668183953047
 31
0.0
  0
LINE
  5
5D5
330
1F
100
AcDbEntity
  8
0
  6
Continuous
 62
     7
100
AcDbLine
 10
635.3609875428674
 20
381.668183953047
 30
0.0
 11
635.3609875428674
 21
381.668183953047
 31
0.0
  0
LINE
  5
5D6
330
1F
100
AcDbEntity
  8
0
  6
Continuous
 62
     7
100
AcDbLine
 10
635.3609875428674
 20
374.0681839530473
 30
0.0
 11
634.560987542868
 21
374.0681839530432
 31
0.0
  0
LINE
  5
5D7
330
1F
100
AcDbEntity
  8
0
  6
Continuous
 62
     7
100
AcDbLine
 10
634.560987542868
 20
374.0681839530432
 30
0.0
 11
634.560987542873
 21
372.8681839530433
 31
0.0
  0
LINE
  5
5D8
330
1F
100
AcDbEntity
  8
0
  6
Continuous
 62
     7
100
AcDbLine
 10
634.560987542873
 20
372.8681839530433
 30
0.0
 11
633.3609875428739
 21
372.8681839530271
 31
0.0
  0
LINE
  5
5D9
330
1F
100
AcDbEntity
  8
0
  6
Continuous
 62
     7
100
AcDbLine
 10
633.3609875428739
 20
372.8681839530271
 30
0.0
 11
633.3609875428773
 21
372.0681839530351
 31
0.0
  0
LINE
  5
5DA
330
1F
100
AcDbEntity
  8
0
  6
Continuous
 62
     7
100
AcDbLine
 10
633.3609875428773
 20
372.0681839530351
 30
0.0
 11
634.560987542878
 21
372.0681839530432
 31
0.0
  0
LINE
  5
5DB
330
1F
100
AcDbEntity
  8
0
  6
Continuous
 62
     7
100
AcDbLine
 10
634.560987542878
 20
372.0681839530432
 30
0.0
 11
634.5609875428858
 21
370.8681839530332
 31
0.0
  0
LINE
  5
5DC
330
1F
100
AcDbEntity
  8
0
  6
Continuous
 62
     7
100
AcDbLine
 10
634.5609875428858
 20
370.8681839530332
 30
0.0
 11
635.360987542885
 21
370.8681839530474
 31
0.0
  0
LINE
  5
5DD
330
1F
100
AcDbEntity
  8
0
  6
Continuous
 62
     7
100
AcDbLine
 10
635.360987542885
 20
370.8681839530474
 30
0.0
 11
635.3609875428775
 21
372.0681839530473
 31
0.0
  0
LINE
  5
5DE
330
1F
100
AcDbEntity
  8
0
  6
Continuous
 62
     7
100
AcDbLine
 10
635.3609875428775
 20
372.0681839530473
 30
0.0
 11
636.5609875428772
 21
372.0681839530532
 31
0.0
  0
LINE
  5
5DF
330
1F
100
AcDbEntity
  8
0
  6
Continuous
 62
     7
100
AcDbLine
 10
636.5609875428772
 20
372.0681839530532
 30
0.0
 11
636.5609875428734
 21
372.8681839530433
 31
0.0
  0
LINE
  5
5E0
330
1F
100
AcDbEntity
  8
0
  6
Continuous
 62
     7
100
AcDbLine
 10
636.5609875428734
 20
372.8681839530433
 30
0.0
 11
635.3609875428738
 21
372.8681839530373
 31
0.0
  0
LINE
  5
5E1
330
1F
100
AcDbEntity
  8
0
  6
Continuous
 62
     7
100
AcDbLine
 10
635.3609875428738
 20
372.8681839530373
 30
0.0
 11
635.3609875428674
 21
374.0681839530473
 31
0.0
  0
LINE
  5
5E2
330
1F
100
AcDbEntity
  8
0
  6
Continuous
 62
     7
100
AcDbLine
 10
635.3609875428674
 20
374.0681839530473
 30
0.0
 11
635.3609875428674
 21
374.0681839530473
 31
0.0
  0
LINE
  5
5E3
330
1F
100
AcDbEntity
  8
0
  6
Continuous
 62
     7
 48
5.0
100
AcDbLine
 10
607.220985120464
 20
384.2681833427851
 30
0.0
 11
607.220985120464
 21
385.2681833427851
 31
0.0
  0
LINE
  5
5E4
330
1F
100
AcDbEntity
  8
0
  6
Continuous
 62
     7
 48
5.0
100
AcDbLine
 10
607.220985120464
 20
472.2681833427851
 30
0.0
 11
607.220985120464
 21
473.2681833427855
 31
0.0
  0
LINE
  5
5E5
330
1F
100
AcDbEntity
  8
0
  6
Continuous
 62
     7
100
AcDbLine
 10
658.0209851204632
 20
222.9681833427851
 30
0.0
 11
666.0209851204633
 21
222.9681833427851
 31
0.0
  0
ARC
  5
5E6
330
1F
100
AcDbEntity
  8
0
  6
Continuous
 62
     7
100
AcDbCircle
 10
658.0209851204632
 20
224.9681833427851
 30
0.0
 40
2.0
100
AcDbArc
 50
180.0000000000062
 51
269.9999999999934
  0
LINE
  5
5E9
330
1F
100
AcDbEntity
  8
0
  6
Continuous
 62
     7
100
AcDbLine
 10
640.5209851204634
 20
510.9681833427853
 30
0.0
 11
640.5209851204634
 21
509.7624119768453
 31
0.0
  0
LINE
  5
5EA
330
1F
100
AcDbEntity
  8
0
  6
Continuous
 62
     7
100
AcDbLine
 10
631.520985120463
 20
510.9681833427853
 30
0.0
 11
631.520985120463
 21
509.7624119768453
 31
0.0
  0
ARC
  5
5EB
330
1F
100
AcDbEntity
  8
0
  6
Continuous
 62
     7
100
AcDbCircle
 10
636.020985120463
 20
501.9681833427848
 30
0.0
 40
9.000000000000245
100
AcDbArc
 50
119.9999999999997
 51
60.00000000000028
  0
ARC
  5
5EC
330
1F
100
AcDbEntity
  8
0
  6
Continuous
 62
     7
100
AcDbCircle
 10
636.020985120463
 20
510.9681833427853
 30
0.0
 40
4.5
100
AcDbArc
 50
0.0
 51
180.0
  0
LINE
  5
5ED
330
1F
100
AcDbEntity
  8
0
  6
Continuous
 62
     7
100
AcDbLine
 10
606.0209851204636
 20
222.9681833427851
 30
0.0
 11
606.0209851204636
 21
492.968183342785
 31
0.0
  0
LINE
  5
5EE
330
1F
100
AcDbEntity
  8
0
  6
Continuous
 62
     7
100
AcDbLine
 10
661.020985120463
 20
517.9681833427849
 30
0.0
 11
661.020985120463
 21
202.9681833427851
 31
0.0
  0
LINE
  5
5EF
330
1F
100
AcDbEntity
  8
0
  6
Continuous
 62
     7
100
AcDbLine
 10
611.020985120463
 20
492.968183342785
 30
0.0
 11
611.020985120463
 21
517.9681833427849
 31
0.0
  0
LINE
  5
5F0
330
1F
100
AcDbEntity
  8
0
  6
Continuous
 62
     7
100
AcDbLine
 10
606.0209851204636
 20
492.968183342785
 30
0.0
 11
666.0209851204633
 21
492.968183342785
 31
0.0
  0
ARC
  5
5F1
330
1F
100
AcDbEntity
  8
0
  6
Continuous
 62
     7
100
AcDbCircle
 10
609.020985120463
 20
224.9681833427856
 30
0.0
 40
2.00000000000032
100
AcDbArc
 50
270.0000000000065
 51
359.9999999999901
  0
LINE
  5
5F2
330
1F
100
AcDbEntity
  8
0
  6
Continuous
 62
     7
100
AcDbLine
 10
611.020985120463
 20
224.9681833427851
 30
0.0
 11
611.020985120463
 21
240.9681833427851
 31
0.0
  0
LINE
  5
5F3
330
1F
100
AcDbEntity
  8
0
  6
Continuous
 62
     7
100
AcDbLine
 10
606.0209851204636
 20
222.9681833427851
 30
0.0
 11
609.020985120463
 21
222.9681833427851
 31
0.0
  0
LINE
  5
5F4
330
1F
100
AcDbEntity
  8
0
  6
Continuous
 62
     7
100
AcDbLine
 10
616.0209851204633
 20
522.9681833427853
 30
0.0
 11
656.0209851204636
 21
522.9681833427853
 31
0.0
  0
ARC
  5
5F5
330
1F
100
AcDbEntity
  8
0
  6
Continuous
 62
     7
100
AcDbCircle
 10
616.0209851204642
 20
202.9681833427861
 30
0.0
 40
5.000000000000908
100
AcDbArc
 50
180.0000000000081
 51
269.9999999999902
  0
LINE
  5
5F6
330
1F
100
AcDbEntity
  8
0
  6
Continuous
 62
     7
100
AcDbLine
 10
611.020985120463
 20
202.9681833427851
 30
0.0
 11
611.020985120463
 21
224.9681833427851
 31
0.0
  0
ARC
  5
5F7
330
1F
100
AcDbEntity
  8
0
  6
Continuous
 62
     7
100
AcDbCircle
 10
616.0209851204642
 20
517.968183342784
 30
0.0
 40
5.000000000000846
100
AcDbArc
 50
90.00000000000978
 51
179.9999999999899
  0
ARC
  5
5F8
330
1F
100
AcDbEntity
  8
0
  6
Continuous
 62
     7
100
AcDbCircle
 10
656.020985120462
 20
517.968183342784
 30
0.0
 40
5.000000000000908
100
AcDbArc
 50
0.0000000000081422
 51
89.99999999998697
  0
ARC
  5
5F9
330
1F
100
AcDbEntity
  8
0
  6
Continuous
 62
     7
100
AcDbCircle
 10
656.020985120462
 20
202.9681833427861
 30
0.0
 40
5.000000000000696
100
AcDbArc
 50
270.000000000013
 51
359.9999999999918
  0
ARC
  5
5FA
330
1F
100
AcDbEntity
  8
0
  6
Continuous
 62
     7
100
AcDbCircle
 10
636.020985120463
 20
210.9681833427851
 30
0.0
 40
4.5
100
AcDbArc
 50
0.0
 51
180.0
  0
ARC
  5
5FB
330
1F
100
AcDbEntity
  8
0
  6
Continuous
 62
     7
100
AcDbCircle
 10
642.5209851204638
 20
199.9681833427857
 30
0.0
 40
2.000000000000226
100
AcDbArc
 50
180.000000000013
 51
270.0
  0
LINE
  5
5FC
330
1F
100
AcDbEntity
  8
0
  6
Continuous
 62
     7
100
AcDbLine
 10
640.5209851204634
 20
210.9681833427851
 30
0.0
 11
640.5209851204634
 21
199.9681833427851
 31
0.0
  0
ARC
  5
5FD
330
1F
100
AcDbEntity
  8
0
  6
Continuous
 62
     7
100
AcDbCircle
 10
629.520985120463
 20
199.9681833427857
 30
0.0
 40
2.00000000000032
100
AcDbArc
 50
270.0000000000065
 51
359.9999999999901
  0
LINE
  5
5FE
330
1F
100
AcDbEntity
  8
0
  6
Continuous
 62
     7
100
AcDbLine
 10
631.520985120463
 20
210.9681833427851
 30
0.0
 11
631.520985120463
 21
199.9681833427851
 31
0.0
  0
LINE
  5
5FF
330
1F
100
AcDbEntity
  8
0
  6
Continuous
 62
     7
100
AcDbLine
 10
616.0209851204633
 20
197.9681833427851
 30
0.0
 11
629.520985120463
 21
197.9681833427851
 31
0.0
  0
LINE
  5
600
330
1F
100
AcDbEntity
  8
0
  6
Continuous
 62
     7
100
AcDbLine
 10
642.5209851204638
 20
197.9681833427851
 30
0.0
 11
656.0209851204636
 21
197.9681833427851
 31
0.0
  0
LINE
  5
603
330
1F
100
AcDbEntity
  8
0
  6
Continuous
 62
     7
100
AcDbLine
 10
656.0209851204636
 20
240.9681833427851
 30
0.0
 11
611.020985120463
 21
240.9681833427851
 31
0.0
  0
LINE
  5
604
330
1F
100
AcDbEntity
  8
0
  6
Continuous
 62
     7
100
AcDbLine
 10
606.0209851204636
 20
472.2681833427851
 30
0.0
 11
619.020985120463
 21
472.2681833427851
 31
0.0
  0
LINE
  5
605
330
1F
100
AcDbEntity
  8
0
  6
Continuous
 62
     7
100
AcDbLine
 10
606.0209851204636
 20
385.2681833427851
 30
0.0
 11
619.020985120463
 21
385.2681833427851
 31
0.0
  0
LINE
  5
606
330
1F
100
AcDbEntity
  8
0
  6
Continuous
 62
     7
100
AcDbLine
 10
619.020985120463
 20
385.2681833427851
 30
0.0
 11
619.020985120463
 21
472.2681833427851
 31
0.0
  0
LINE
  5
607
330
1F
100
AcDbEntity
  8
0
  6
Continuous
 62
     7
100
AcDbLine
 10
606.0209851204636
 20
473.2681833427855
 30
0.0
 11
639.7609851204633
 21
473.2681833427855
 31
0.0
  0
LINE
  5
608
330
1F
100
AcDbEntity
  8
0
  6
Continuous
 62
     7
100
AcDbLine
 10
606.0209851204636
 20
384.2681833427851
 30
0.0
 11
639.7609851204633
 21
384.2681833427851
 31
0.0
  0
LINE
  5
609
330
1F
100
AcDbEntity
  8
0
  6
Continuous
 62
     7
100
AcDbLine
 10
637.9609851204637
 20
477.7681833427851
 30
0.0
 11
637.9609851204637
 21
477.7681833427851
 31
0.0
  0
ARC
  5
60A
330
1F
100
AcDbEntity
  8
0
  6
Continuous
 62
     7
100
AcDbCircle
 10
634.9609851204635
 20
380.0681833427853
 30
0.0
 40
3.0
100
AcDbArc
 50
0.0
 51
180.0
  0
ARC
  5
60B
330
1F
100
AcDbEntity
  8
0
  6
Continuous
 62
     7
100
AcDbCircle
 10
634.9609851204635
 20
372.4681833427853
 30
0.0
 40
3.0
100
AcDbArc
 50
180.0
 51
0.0
  0
LINE
  5
60C
330
1F
100
AcDbEntity
  8
0
  6
Continuous
 62
     7
100
AcDbLine
 10
631.9609851204635
 20
380.0681833427853
 30
0.0
 11
631.9609851204635
 21
372.4681833427853
 31
0.0
  0
LINE
  5
60D
330
1F
100
AcDbEntity
  8
0
  6
Continuous
 62
     7
100
AcDbLine
 10
637.9609851204637
 20
372.4681833427853
 30
0.0
 11
637.9609851204637
 21
380.0681833427853
 31
0.0
  0
LINE
  5
60E
330
1F
100
AcDbEntity
  8
0
  6
Continuous
 62
     7
100
AcDbLine
 10
639.7609851204633
 20
473.2681833427855
 30
0.0
 11
639.7609851204633
 21
384.2681833427851
 31
0.0
  0
ARC
  5
60F
330
1F
100
AcDbEntity
  8
0
  6
Continuous
 62
     7
100
AcDbCircle
 10
654.0209851204633
 20
234.9681833427859
 30
0.0
 40
4.499999999999856
100
AcDbArc
 50
296.3877999612476
 51
63.61220003875222
  0
LINE
  5
610
330
1F
100
AcDbEntity
  8
0
  6
Continuous
 62
     7
100
AcDbLine
 10
656.0209851204636
 20
240.9681833427851
 30
0.0
 11
656.0209851204636
 21
238.999312216935
 31
0.0
  0
LINE
  5
611
330
1F
100
AcDbEntity
  8
0
  6
Continuous
 62
     7
100
AcDbLine
 10
656.0209851204636
 20
230.9370544686375
 30
0.0
 11
656.0209851204636
 21
224.9681833427851
 31
0.0
  0
LINE
  5
612
330
1F
100
AcDbEntity
  8
0
  6
Continuous
 62
     7
100
AcDbLine
 10
666.0209851204633
 20
492.968183342785
 30
0.0
 11
666.0209851204633
 21
222.9681833427851
 31
0.0
  0
LINE
  5
613
330
1F
100
AcDbEntity
  8
0
  6
DASHED
 62
     4
 48
4.0
100
AcDbLine
 10
442.0209851204699
 20
239.957782006651
 30
0.0
 11
442.6779296429378
 21
239.957782006655
 31
0.0
  0
LINE
  5
614
330
1F
100
AcDbEntity
  8
0
  6
DASHED
 62
     4
 48
4.0
100
AcDbLine
 10
445.9779296429378
 20
236.552182006621
 30
0.0
 11
445.9779296429378
 21
233.384182006621
 31
0.0
  0
LINE
  5
615
330
1F
100
AcDbEntity
  8
0
  6
DASHED
 62
     4
 48
4.0
100
AcDbLine
 10
442.6779296429378
 20
238.9281820066211
 30
0.0
 11
443.9979296429378
 21
238.9281820066211
 31
0.0
  0
LINE
  5
616
330
1F
100
AcDbEntity
  8
0
  6
DASHED
 62
     4
 48
4.0
100
AcDbLine
 10
442.6779296429378
 20
231.008182006621
 30
0.0
 11
443.9979296429378
 21
231.008182006621
 31
0.0
  0
LINE
  5
617
330
1F
100
AcDbEntity
  8
0
  6
DASHED
 62
     4
 48
4.0
100
AcDbLine
 10
442.6779296429378
 20
239.957782006655
 30
0.0
 11
442.6779296429378
 21
229.9785820066969
 31
0.0
  0
LINE
  5
618
330
1F
100
AcDbEntity
  8
0
  6
DASHED
 62
     4
 48
4.0
100
AcDbLine
 10
459.8209851203892
 20
238.7481821023471
 30
0.0
 11
460.3186703646835
 21
238.7481821023509
 31
0.0
  0
LINE
  5
619
330
1F
100
AcDbEntity
  8
0
  6
DASHED
 62
     4
 48
4.0
100
AcDbLine
 10
462.8186703646838
 20
236.1681821023251
 30
0.0
 11
462.8186703646838
 21
233.7681821023255
 31
0.0
  0
LINE
  5
61A
330
1F
100
AcDbEntity
  8
0
  6
DASHED
 62
     4
 48
4.0
100
AcDbLine
 10
460.3186703646835
 20
237.9681821023253
 30
0.0
 11
461.3186703646833
 21
237.9681821023253
 31
0.0
  0
LINE
  5
61B
330
1F
100
AcDbEntity
  8
0
  6
DASHED
 62
     4
 48
4.0
100
AcDbLine
 10
460.3186703646835
 20
231.9681821023255
 30
0.0
 11
461.3186703646833
 21
231.9681821023255
 31
0.0
  0
LINE
  5
61C
330
1F
100
AcDbEntity
  8
0
  6
DASHED
 62
     4
 48
4.0
100
AcDbLine
 10
460.3186703646835
 20
238.7481821023509
 30
0.0
 11
460.3186703646835
 21
231.1881821023809
 31
0.0
  0
LINE
  5
61D
330
1F
100
AcDbEntity
  8
0
  6
DASHED
 62
     4
 48
4.0
100
AcDbLine
 10
439.02098512047
 20
227.9681833427895
 30
0.0
 11
439.02098512047
 21
254.0463307023849
 31
0.0
  0
LINE
  5
61E
330
1F
100
AcDbEntity
  8
0
  6
DASHED
 62
     4
 48
4.0
100
AcDbLine
 10
442.0209851204699
 20
227.9681833427895
 30
0.0
 11
439.02098512047
 21
227.9681833427895
 31
0.0
  0
LINE
  5
61F
330
1F
100
AcDbEntity
  8
0
  6
DASHED
 62
     4
 48
4.0
100
AcDbLine
 10
442.0209851204699
 20
252.8828200100211
 30
0.0
 11
442.0209851204699
 21
227.9681833427895
 31
0.0
  0
LINE
  5
620
330
1F
100
AcDbEntity
  8
0
  6
DASHED
 62
     4
 48
4.0
100
AcDbLine
 10
458.2209850966576
 20
228.9681833426569
 30
0.0
 11
458.2209850966576
 21
240.9681833426851
 31
0.0
  0
LINE
  5
621
330
1F
100
AcDbEntity
  8
0
  6
DASHED
 62
     4
 48
4.0
100
AcDbLine
 10
459.8209851203892
 20
228.9681833426569
 30
0.0
 11
458.2209850966576
 21
228.9681833426569
 31
0.0
  0
LINE
  5
622
330
1F
100
AcDbEntity
  8
0
  6
DASHED
 62
     4
 48
4.0
100
AcDbLine
 10
459.8209851203892
 20
240.9681833426851
 30
0.0
 11
459.8209851203892
 21
228.9681833426569
 31
0.0
  0
LINE
  5
623
330
1F
100
AcDbEntity
  8
0
  6
DASHED
 62
     4
 48
4.0
100
AcDbLine
 10
458.2209850966576
 20
240.9681833426851
 30
0.0
 11
459.8209851203892
 21
240.9681833426851
 31
0.0
  0
LINE
  5
624
330
1F
100
AcDbEntity
  8
0
  6
Continuous
 62
     7
100
AcDbLine
 10
464.0209851204637
 20
385.6081833427452
 30
0.0
 11
470.0209851204637
 21
385.6081833427611
 31
0.0
  0
LINE
  5
625
330
1F
100
AcDbEntity
  8
0
  6
Continuous
 62
     7
100
AcDbLine
 10
464.0209851204637
 20
389.4181833427011
 30
0.0
 11
456.0209851204636
 21
389.4181833426472
 31
0.0
  0
LINE
  5
626
330
1F
100
AcDbEntity
  8
0
  6
Continuous
 62
     7
100
AcDbLine
 10
464.0209851204637
 20
384.2881833427453
 30
0.0
 11
470.0209851204637
 21
384.2881833427611
 31
0.0
  0
LINE
  5
627
330
1F
100
AcDbEntity
  8
0
  6
Continuous
 62
     7
100
AcDbLine
 10
456.0209851204636
 20
395.7181833426232
 30
0.0
 11
464.0209851204637
 21
395.7181833426671
 31
0.0
  0
LINE
  5
628
330
1F
100
AcDbEntity
  8
0
  6
Continuous
 62
     7
100
AcDbLine
 10
457.0209851204634
 20
395.718183342627
 30
0.0
 11
457.0209851204634
 21
389.4181833426531
 31
0.0
  0
LINE
  5
629
330
1F
100
AcDbEntity
  8
0
  6
Continuous
 62
     7
100
AcDbLine
 10
457.0209851204634
 20
390.0681833426073
 30
0.0
 11
458.0209851204634
 21
390.0681833426073
 31
0.0
  0
LINE
  5
62A
330
1F
100
AcDbEntity
  8
0
  6
Continuous
 62
     7
100
AcDbLine
 10
457.0209851204634
 20
395.0681833426071
 30
0.0
 11
458.0209851204634
 21
395.0681833426071
 31
0.0
  0
LINE
  5
62B
330
1F
100
AcDbEntity
  8
0
  6
Continuous
 62
     7
100
AcDbLine
 10
459.5209851204637
 20
393.5681833426073
 30
0.0
 11
459.5209851204637
 21
391.5681833426073
 31
0.0
  0
ARC
  5
62C
330
1F
100
AcDbEntity
  8
0
  6
Continuous
 62
     7
100
AcDbCircle
 10
458.0209851204632
 20
391.5681833426075
 30
0.0
 40
1.50000000000034
100
AcDbArc
 50
270.0000000000094
 51
359.9999999999868
  0
ARC
  5
62D
330
1F
100
AcDbEntity
  8
0
  6
Continuous
 62
     7
100
AcDbCircle
 10
458.0209851204632
 20
393.5681833426066
 30
0.0
 40
1.500000000000454
100
AcDbArc
 50
0.0000000000130276
 51
89.99999999999024
  0
LINE
  5
62E
330
1F
100
AcDbEntity
  8
0
  6
Continuous
 62
     7
100
AcDbLine
 10
465.0209851204635
 20
391.9081833427256
 30
0.0
 11
465.0209851204635
 21
385.6081833427511
 31
0.0
  0
LINE
  5
62F
330
1F
100
AcDbEntity
  8
0
  6
Continuous
 62
     7
100
AcDbLine
 10
465.0209851204635
 20
386.2581833427051
 30
0.0
 11
466.0209851204634
 21
386.2581833427051
 31
0.0
  0
LINE
  5
630
330
1F
100
AcDbEntity
  8
0
  6
Continuous
 62
     7
100
AcDbLine
 10
465.0209851204635
 20
391.2581833427056
 30
0.0
 11
466.0209851204634
 21
391.2581833427056
 31
0.0
  0
LINE
  5
631
330
1F
100
AcDbEntity
  8
0
  6
Continuous
 62
     7
100
AcDbLine
 10
467.5209851204638
 20
389.7581833427051
 30
0.0
 11
467.5209851204638
 21
387.7581833427056
 31
0.0
  0
ARC
  5
632
330
1F
100
AcDbEntity
  8
0
  6
Continuous
 62
     7
100
AcDbCircle
 10
466.0209851204633
 20
387.7581833427056
 30
0.0
 40
1.50000000000034
100
AcDbArc
 50
270.0000000000094
 51
359.9999999999868
  0
ARC
  5
633
330
1F
100
AcDbEntity
  8
0
  6
Continuous
 62
     7
100
AcDbCircle
 10
466.0209851204633
 20
389.7581833427051
 30
0.0
 40
1.500000000000454
100
AcDbArc
 50
0.0000000000130276
 51
89.99999999999024
  0
LINE
  5
634
330
1F
100
AcDbEntity
  8
0
  6
Continuous
 62
     7
100
AcDbLine
 10
470.8209851204637
 20
473.2681833427855
 30
0.0
 11
470.8209851204637
 21
384.2681833427851
 31
0.0
  0
LINE
  5
635
330
1F
100
AcDbEntity
  8
0
  6
Continuous
 62
     7
100
AcDbLine
 10
449.8209851204639
 20
385.2681833427851
 30
0.0
 11
449.8209851204639
 21
384.2681833427851
 31
0.0
  0
LINE
  5
636
330
1F
100
AcDbEntity
  8
0
  6
Continuous
 62
     7
100
AcDbLine
 10
449.8209851204639
 20
473.2681833427855
 30
0.0
 11
449.8209851204639
 21
472.2681833427851
 31
0.0
  0
LINE
  5
637
330
1F
100
AcDbEntity
  8
0
  6
Continuous
 62
     7
100
AcDbLine
 10
449.8209851204639
 20
473.2681833427855
 30
0.0
 11
472.0209851204637
 21
473.2681833427855
 31
0.0
  0
LINE
  5
638
330
1F
100
AcDbEntity
  8
0
  6
Continuous
 62
     7
100
AcDbLine
 10
449.8209851204639
 20
384.2681833427851
 30
0.0
 11
472.0209851204637
 21
384.2681833427851
 31
0.0
  0
LINE
  5
639
330
1F
100
AcDbEntity
  8
0
  6
Continuous
 62
     7
 48
5.0
100
AcDbLine
 10
451.0209851204637
 20
385.2681833427851
 30
0.0
 11
451.0209851204637
 21
472.2681833427851
 31
0.0
  0
LINE
  5
63A
330
1F
100
AcDbEntity
  8
0
  6
Continuous
 62
     7
100
AcDbLine
 10
451.0209851204637
 20
472.2681833427851
 30
0.0
 11
449.8209851204639
 21
472.2681833427851
 31
0.0
  0
LINE
  5
63B
330
1F
100
AcDbEntity
  8
0
  6
Continuous
 62
     7
100
AcDbLine
 10
451.0209851204637
 20
385.2681833427851
 30
0.0
 11
449.8209851204639
 21
385.2681833427851
 31
0.0
  0
LINE
  5
63C
330
1F
100
AcDbEntity
  8
0
  6
Continuous
 62
     7
100
AcDbLine
 10
457.0209851204634
 20
471.9181833426231
 30
0.0
 11
457.0209851204634
 21
465.6181833426493
 31
0.0
  0
LINE
  5
63D
330
1F
100
AcDbEntity
  8
0
  6
Continuous
 62
     7
100
AcDbLine
 10
457.0209851204634
 20
466.268183342601
 30
0.0
 11
458.0209851204634
 21
466.268183342601
 31
0.0
  0
LINE
  5
63E
330
1F
100
AcDbEntity
  8
0
  6
Continuous
 62
     7
100
AcDbLine
 10
457.0209851204634
 20
471.2681833426009
 30
0.0
 11
458.0209851204634
 21
471.2681833426009
 31
0.0
  0
LINE
  5
63F
330
1F
100
AcDbEntity
  8
0
  6
Continuous
 62
     7
100
AcDbLine
 10
459.5209851204637
 20
469.7681833426011
 30
0.0
 11
459.5209851204637
 21
467.7681833426011
 31
0.0
  0
ARC
  5
640
330
1F
100
AcDbEntity
  8
0
  6
Continuous
 62
     7
100
AcDbCircle
 10
458.0209851204632
 20
467.7681833426011
 30
0.0
 40
1.500000000000426
100
AcDbArc
 50
270.0000000000094
 51
359.9999999999901
  0
ARC
  5
641
330
1F
100
AcDbEntity
  8
0
  6
Continuous
 62
     7
100
AcDbCircle
 10
458.0209851204632
 20
469.7681833426011
 30
0.0
 40
1.500000000000454
100
AcDbArc
 50
0.000000000014656
 51
89.99999999999024
  0
LINE
  5
642
330
1F
100
AcDbEntity
  8
0
  6
Continuous
 62
     7
100
AcDbLine
 10
465.0209851204635
 20
468.1081833427215
 30
0.0
 11
465.0209851204635
 21
461.8081833427473
 31
0.0
  0
LINE
  5
643
330
1F
100
AcDbEntity
  8
0
  6
Continuous
 62
     7
100
AcDbLine
 10
465.0209851204635
 20
462.4581833427011
 30
0.0
 11
466.0209851204634
 21
462.4581833427011
 31
0.0
  0
LINE
  5
644
330
1F
100
AcDbEntity
  8
0
  6
Continuous
 62
     7
100
AcDbLine
 10
465.0209851204635
 20
467.458183342701
 30
0.0
 11
466.0209851204634
 21
467.458183342701
 31
0.0
  0
LINE
  5
645
330
1F
100
AcDbEntity
  8
0
  6
Continuous
 62
     7
100
AcDbLine
 10
467.5209851204638
 20
465.9581833427012
 30
0.0
 11
467.5209851204638
 21
463.958183342701
 31
0.0
  0
ARC
  5
646
330
1F
100
AcDbEntity
  8
0
  6
Continuous
 62
     7
100
AcDbCircle
 10
466.0209851204633
 20
463.958183342701
 30
0.0
 40
1.500000000000369
100
AcDbArc
 50
270.0000000000094
 51
359.9999999999852
  0
ARC
  5
647
330
1F
100
AcDbEntity
  8
0
  6
Continuous
 62
     7
100
AcDbCircle
 10
466.0209851204633
 20
465.9581833427006
 30
0.0
 40
1.500000000000454
100
AcDbArc
 50
0.000000000014656
 51
89.99999999999024
  0
LINE
  5
648
330
1F
100
AcDbEntity
  8
0
  6
Continuous
 62
     7
100
AcDbLine
 10
457.0209851204634
 20
464.2981833426231
 30
0.0
 11
457.0209851204634
 21
457.9981833426488
 31
0.0
  0
LINE
  5
649
330
1F
100
AcDbEntity
  8
0
  6
Continuous
 62
     7
100
AcDbLine
 10
457.0209851204634
 20
458.6481833426031
 30
0.0
 11
458.0209851204634
 21
458.6481833426031
 31
0.0
  0
LINE
  5
64A
330
1F
100
AcDbEntity
  8
0
  6
Continuous
 62
     7
100
AcDbLine
 10
457.0209851204634
 20
463.6481833426024
 30
0.0
 11
458.0209851204634
 21
463.6481833426024
 31
0.0
  0
LINE
  5
64B
330
1F
100
AcDbEntity
  8
0
  6
Continuous
 62
     7
100
AcDbLine
 10
459.5209851204637
 20
462.1481833426031
 30
0.0
 11
459.5209851204637
 21
460.1481833426031
 31
0.0
  0
ARC
  5
64C
330
1F
100
AcDbEntity
  8
0
  6
Continuous
 62
     7
100
AcDbCircle
 10
458.0209851204632
 20
460.1481833426031
 30
0.0
 40
1.500000000000369
100
AcDbArc
 50
270.0000000000094
 51
359.9999999999852
  0
ARC
  5
64D
330
1F
100
AcDbEntity
  8
0
  6
Continuous
 62
     7
100
AcDbCircle
 10
458.0209851204632
 20
462.1481833426026
 30
0.0
 40
1.500000000000454
100
AcDbArc
 50
0.000000000014656
 51
89.99999999999024
  0
LINE
  5
64E
330
1F
100
AcDbEntity
  8
0
  6
Continuous
 62
     7
100
AcDbLine
 10
465.0209851204635
 20
460.4881833427291
 30
0.0
 11
465.0209851204635
 21
454.1881833427555
 31
0.0
  0
LINE
  5
64F
330
1F
100
AcDbEntity
  8
0
  6
Continuous
 62
     7
100
AcDbLine
 10
465.0209851204635
 20
454.8381833427092
 30
0.0
 11
466.0209851204634
 21
454.8381833427092
 31
0.0
  0
LINE
  5
650
330
1F
100
AcDbEntity
  8
0
  6
Continuous
 62
     7
100
AcDbLine
 10
465.0209851204635
 20
459.838183342709
 30
0.0
 11
466.0209851204634
 21
459.838183342709
 31
0.0
  0
LINE
  5
651
330
1F
100
AcDbEntity
  8
0
  6
Continuous
 62
     7
100
AcDbLine
 10
467.5209851204638
 20
458.3381833427095
 30
0.0
 11
467.5209851204638
 21
456.3381833427091
 31
0.0
  0
ARC
  5
652
330
1F
100
AcDbEntity
  8
0
  6
Continuous
 62
     7
100
AcDbCircle
 10
466.0209851204633
 20
456.3381833427091
 30
0.0
 40
1.500000000000369
100
AcDbArc
 50
270.0000000000094
 51
359.9999999999852
  0
ARC
  5
653
330
1F
100
AcDbEntity
  8
0
  6
Continuous
 62
     7
100
AcDbCircle
 10
466.0209851204633
 20
458.3381833427089
 30
0.0
 40
1.500000000000454
100
AcDbArc
 50
0.000000000014656
 51
89.99999999999024
  0
LINE
  5
654
330
1F
100
AcDbEntity
  8
0
  6
Continuous
 62
     7
100
AcDbLine
 10
457.0209851204634
 20
456.6781833426311
 30
0.0
 11
457.0209851204634
 21
450.3781833426571
 31
0.0
  0
LINE
  5
655
330
1F
100
AcDbEntity
  8
0
  6
Continuous
 62
     7
100
AcDbLine
 10
457.0209851204634
 20
451.0281833426112
 30
0.0
 11
458.0209851204634
 21
451.0281833426112
 31
0.0
  0
LINE
  5
656
330
1F
100
AcDbEntity
  8
0
  6
Continuous
 62
     7
100
AcDbLine
 10
457.0209851204634
 20
456.0281833426111
 30
0.0
 11
458.0209851204634
 21
456.0281833426111
 31
0.0
  0
LINE
  5
657
330
1F
100
AcDbEntity
  8
0
  6
Continuous
 62
     7
100
AcDbLine
 10
459.5209851204637
 20
454.5281833426111
 30
0.0
 11
459.5209851204637
 21
452.5281833426111
 31
0.0
  0
ARC
  5
658
330
1F
100
AcDbEntity
  8
0
  6
Continuous
 62
     7
100
AcDbCircle
 10
458.0209851204632
 20
452.5281833426114
 30
0.0
 40
1.500000000000254
100
AcDbArc
 50
270.0000000000094
 51
359.9999999999837
  0
ARC
  5
659
330
1F
100
AcDbEntity
  8
0
  6
Continuous
 62
     7
100
AcDbCircle
 10
458.0209851204632
 20
454.5281833426107
 30
0.0
 40
1.500000000000454
100
AcDbArc
 50
0.0000000000097707
 51
89.99999999999024
  0
LINE
  5
65A
330
1F
100
AcDbEntity
  8
0
  6
Continuous
 62
     7
100
AcDbLine
 10
465.0209851204635
 20
452.8681833426956
 30
0.0
 11
465.0209851204635
 21
446.5681833427211
 31
0.0
  0
LINE
  5
65B
330
1F
100
AcDbEntity
  8
0
  6
Continuous
 62
     7
100
AcDbLine
 10
465.0209851204635
 20
447.2181833426756
 30
0.0
 11
466.0209851204634
 21
447.2181833426756
 31
0.0
  0
LINE
  5
65C
330
1F
100
AcDbEntity
  8
0
  6
Continuous
 62
     7
100
AcDbLine
 10
465.0209851204635
 20
452.2181833426754
 30
0.0
 11
466.0209851204634
 21
452.2181833426754
 31
0.0
  0
LINE
  5
65D
330
1F
100
AcDbEntity
  8
0
  6
Continuous
 62
     7
100
AcDbLine
 10
467.5209851204638
 20
450.7181833426751
 30
0.0
 11
467.5209851204638
 21
448.7181833426756
 31
0.0
  0
ARC
  5
65E
330
1F
100
AcDbEntity
  8
0
  6
Continuous
 62
     7
100
AcDbCircle
 10
466.0209851204633
 20
448.7181833426756
 30
0.0
 40
1.500000000000369
100
AcDbArc
 50
270.0000000000094
 51
359.9999999999868
  0
ARC
  5
65F
330
1F
100
AcDbEntity
  8
0
  6
Continuous
 62
     7
100
AcDbCircle
 10
466.0209851204633
 20
450.718183342675
 30
0.0
 40
1.500000000000454
100
AcDbArc
 50
0.000000000014656
 51
89.99999999999024
  0
LINE
  5
660
330
1F
100
AcDbEntity
  8
0
  6
Continuous
 62
     7
100
AcDbLine
 10
457.0209851204634
 20
449.0581833425972
 30
0.0
 11
457.0209851204634
 21
442.7581833426232
 31
0.0
  0
LINE
  5
661
330
1F
100
AcDbEntity
  8
0
  6
Continuous
 62
     7
100
AcDbLine
 10
457.0209851204634
 20
443.4081833425775
 30
0.0
 11
458.0209851204634
 21
443.4081833425775
 31
0.0
  0
LINE
  5
662
330
1F
100
AcDbEntity
  8
0
  6
Continuous
 62
     7
100
AcDbLine
 10
457.0209851204634
 20
448.4081833425775
 30
0.0
 11
458.0209851204634
 21
448.4081833425775
 31
0.0
  0
LINE
  5
663
330
1F
100
AcDbEntity
  8
0
  6
Continuous
 62
     7
100
AcDbLine
 10
459.5209851204637
 20
446.9081833425772
 30
0.0
 11
459.5209851204637
 21
444.9081833425772
 31
0.0
  0
ARC
  5
664
330
1F
100
AcDbEntity
  8
0
  6
Continuous
 62
     7
100
AcDbCircle
 10
458.0209851204632
 20
444.9081833425776
 30
0.0
 40
1.50000000000034
100
AcDbArc
 50
270.0000000000094
 51
359.9999999999852
  0
ARC
  5
665
330
1F
100
AcDbEntity
  8
0
  6
Continuous
 62
     7
100
AcDbCircle
 10
458.0209851204632
 20
446.9081833425772
 30
0.0
 40
1.500000000000454
100
AcDbArc
 50
0.0000000000130276
 51
89.99999999999024
  0
LINE
  5
666
330
1F
100
AcDbEntity
  8
0
  6
Continuous
 62
     7
100
AcDbLine
 10
465.0209851204635
 20
445.2481833427212
 30
0.0
 11
465.0209851204635
 21
438.9481833427471
 31
0.0
  0
LINE
  5
667
330
1F
100
AcDbEntity
  8
0
  6
Continuous
 62
     7
100
AcDbLine
 10
465.0209851204635
 20
439.5981833427013
 30
0.0
 11
466.0209851204634
 21
439.5981833427013
 31
0.0
  0
LINE
  5
668
330
1F
100
AcDbEntity
  8
0
  6
Continuous
 62
     7
100
AcDbLine
 10
465.0209851204635
 20
444.598183342701
 30
0.0
 11
466.0209851204634
 21
444.598183342701
 31
0.0
  0
LINE
  5
669
330
1F
100
AcDbEntity
  8
0
  6
Continuous
 62
     7
100
AcDbLine
 10
467.5209851204638
 20
443.0981833427011
 30
0.0
 11
467.5209851204638
 21
441.098183342701
 31
0.0
  0
ARC
  5
66A
330
1F
100
AcDbEntity
  8
0
  6
Continuous
 62
     7
100
AcDbCircle
 10
466.0209851204633
 20
441.0981833427014
 30
0.0
 40
1.50000000000034
100
AcDbArc
 50
270.0000000000094
 51
359.9999999999868
  0
ARC
  5
66B
330
1F
100
AcDbEntity
  8
0
  6
Continuous
 62
     7
100
AcDbCircle
 10
466.0209851204633
 20
443.0981833427006
 30
0.0
 40
1.500000000000454
100
AcDbArc
 50
0.0000000000130276
 51
89.99999999999024
  0
LINE
  5
66C
330
1F
100
AcDbEntity
  8
0
  6
Continuous
 62
     7
100
AcDbLine
 10
457.0209851204634
 20
441.4381833426232
 30
0.0
 11
457.0209851204634
 21
435.1381833426491
 31
0.0
  0
LINE
  5
66D
330
1F
100
AcDbEntity
  8
0
  6
Continuous
 62
     7
100
AcDbLine
 10
457.0209851204634
 20
435.7881833426035
 30
0.0
 11
458.0209851204634
 21
435.7881833426035
 31
0.0
  0
LINE
  5
66E
330
1F
100
AcDbEntity
  8
0
  6
Continuous
 62
     7
100
AcDbLine
 10
457.0209851204634
 20
440.7881833426032
 30
0.0
 11
458.0209851204634
 21
440.7881833426032
 31
0.0
  0
LINE
  5
66F
330
1F
100
AcDbEntity
  8
0
  6
Continuous
 62
     7
100
AcDbLine
 10
459.5209851204637
 20
439.2881833426033
 30
0.0
 11
459.5209851204637
 21
437.2881833426033
 31
0.0
  0
ARC
  5
670
330
1F
100
AcDbEntity
  8
0
  6
Continuous
 62
     7
100
AcDbCircle
 10
458.0209851204632
 20
437.2881833426036
 30
0.0
 40
1.50000000000034
100
AcDbArc
 50
270.0000000000094
 51
359.9999999999868
  0
ARC
  5
671
330
1F
100
AcDbEntity
  8
0
  6
Continuous
 62
     7
100
AcDbCircle
 10
458.0209851204632
 20
439.2881833426031
 30
0.0
 40
1.500000000000454
100
AcDbArc
 50
0.0000000000130276
 51
89.99999999999024
  0
LINE
  5
672
330
1F
100
AcDbEntity
  8
0
  6
Continuous
 62
     7
100
AcDbLine
 10
465.0209851204635
 20
437.6281833426956
 30
0.0
 11
465.0209851204635
 21
431.3281833427211
 31
0.0
  0
LINE
  5
673
330
1F
100
AcDbEntity
  8
0
  6
Continuous
 62
     7
100
AcDbLine
 10
465.0209851204635
 20
431.9781833426733
 30
0.0
 11
466.0209851204634
 21
431.9781833426733
 31
0.0
  0
LINE
  5
674
330
1F
100
AcDbEntity
  8
0
  6
Continuous
 62
     7
100
AcDbLine
 10
465.0209851204635
 20
436.9781833426733
 30
0.0
 11
466.0209851204634
 21
436.9781833426733
 31
0.0
  0
LINE
  5
675
330
1F
100
AcDbEntity
  8
0
  6
Continuous
 62
     7
100
AcDbLine
 10
467.5209851204638
 20
435.4781833426733
 30
0.0
 11
467.5209851204638
 21
433.4781833426733
 31
0.0
  0
ARC
  5
676
330
1F
100
AcDbEntity
  8
0
  6
Continuous
 62
     7
100
AcDbCircle
 10
466.0209851204633
 20
433.4781833426736
 30
0.0
 40
1.500000000000369
100
AcDbArc
 50
270.0000000000094
 51
359.9999999999852
  0
ARC
  5
677
330
1F
100
AcDbEntity
  8
0
  6
Continuous
 62
     7
100
AcDbCircle
 10
466.0209851204633
 20
435.4781833426726
 30
0.0
 40
1.500000000000454
100
AcDbArc
 50
0.000000000014656
 51
89.99999999999024
  0
LINE
  5
678
330
1F
100
AcDbEntity
  8
0
  6
Continuous
 62
     7
100
AcDbLine
 10
457.0209851204634
 20
433.8181833425972
 30
0.0
 11
457.0209851204634
 21
427.5181833426235
 31
0.0
  0
LINE
  5
679
330
1F
100
AcDbEntity
  8
0
  6
Continuous
 62
     7
100
AcDbLine
 10
457.0209851204634
 20
428.1681833425775
 30
0.0
 11
458.0209851204634
 21
428.1681833425775
 31
0.0
  0
LINE
  5
67A
330
1F
100
AcDbEntity
  8
0
  6
Continuous
 62
     7
100
AcDbLine
 10
457.0209851204634
 20
433.1681833425769
 30
0.0
 11
458.0209851204634
 21
433.1681833425769
 31
0.0
  0
LINE
  5
67B
330
1F
100
AcDbEntity
  8
0
  6
Continuous
 62
     7
100
AcDbLine
 10
459.5209851204637
 20
431.6681833425772
 30
0.0
 11
459.5209851204637
 21
429.6681833425772
 31
0.0
  0
ARC
  5
67C
330
1F
100
AcDbEntity
  8
0
  6
Continuous
 62
     7
100
AcDbCircle
 10
458.0209851204632
 20
429.6681833425775
 30
0.0
 40
1.50000000000034
100
AcDbArc
 50
270.0000000000094
 51
359.9999999999852
  0
ARC
  5
67D
330
1F
100
AcDbEntity
  8
0
  6
Continuous
 62
     7
100
AcDbCircle
 10
458.0209851204632
 20
431.6681833425771
 30
0.0
 40
1.500000000000454
100
AcDbArc
 50
0.0000000000130276
 51
89.99999999999024
  0
LINE
  5
67E
330
1F
100
AcDbEntity
  8
0
  6
Continuous
 62
     7
100
AcDbLine
 10
465.0209851204635
 20
430.0081833426951
 30
0.0
 11
465.0209851204635
 21
423.7081833427211
 31
0.0
  0
LINE
  5
67F
330
1F
100
AcDbEntity
  8
0
  6
Continuous
 62
     7
100
AcDbLine
 10
465.0209851204635
 20
424.3581833426754
 30
0.0
 11
466.0209851204634
 21
424.3581833426754
 31
0.0
  0
LINE
  5
680
330
1F
100
AcDbEntity
  8
0
  6
Continuous
 62
     7
100
AcDbLine
 10
465.0209851204635
 20
429.3581833426754
 30
0.0
 11
466.0209851204634
 21
429.3581833426754
 31
0.0
  0
LINE
  5
681
330
1F
100
AcDbEntity
  8
0
  6
Continuous
 62
     7
100
AcDbLine
 10
467.5209851204638
 20
427.858183342675
 30
0.0
 11
467.5209851204638
 21
425.8581833426751
 31
0.0
  0
ARC
  5
682
330
1F
100
AcDbEntity
  8
0
  6
Continuous
 62
     7
100
AcDbCircle
 10
466.0209851204633
 20
425.8581833426756
 30
0.0
 40
1.50000000000034
100
AcDbArc
 50
270.0000000000094
 51
359.9999999999852
  0
ARC
  5
683
330
1F
100
AcDbEntity
  8
0
  6
Continuous
 62
     7
100
AcDbCircle
 10
466.0209851204633
 20
427.858183342675
 30
0.0
 40
1.500000000000454
100
AcDbArc
 50
0.000000000014656
 51
89.99999999999024
  0
LINE
  5
684
330
1F
100
AcDbEntity
  8
0
  6
Continuous
 62
     7
100
AcDbLine
 10
457.0209851204634
 20
426.1981833425972
 30
0.0
 11
457.0209851204634
 21
419.8981833426231
 31
0.0
  0
LINE
  5
685
330
1F
100
AcDbEntity
  8
0
  6
Continuous
 62
     7
100
AcDbLine
 10
457.0209851204634
 20
420.5481833425772
 30
0.0
 11
458.0209851204634
 21
420.5481833425772
 31
0.0
  0
LINE
  5
686
330
1F
100
AcDbEntity
  8
0
  6
Continuous
 62
     7
100
AcDbLine
 10
457.0209851204634
 20
425.5481833425772
 30
0.0
 11
458.0209851204634
 21
425.5481833425772
 31
0.0
  0
LINE
  5
687
330
1F
100
AcDbEntity
  8
0
  6
Continuous
 62
     7
100
AcDbLine
 10
459.5209851204637
 20
424.0481833425772
 30
0.0
 11
459.5209851204637
 21
422.0481833425772
 31
0.0
  0
ARC
  5
688
330
1F
100
AcDbEntity
  8
0
  6
Continuous
 62
     7
100
AcDbCircle
 10
458.0209851204632
 20
422.0481833425774
 30
0.0
 40
1.50000000000034
100
AcDbArc
 50
270.0000000000094
 51
359.9999999999852
  0
ARC
  5
689
330
1F
100
AcDbEntity
  8
0
  6
Continuous
 62
     7
100
AcDbCircle
 10
458.0209851204632
 20
424.0481833425771
 30
0.0
 40
1.500000000000454
100
AcDbArc
 50
0.0000000000130276
 51
89.99999999999024
  0
LINE
  5
68A
330
1F
100
AcDbEntity
  8
0
  6
Continuous
 62
     7
100
AcDbLine
 10
465.0209851204635
 20
422.3881833427212
 30
0.0
 11
465.0209851204635
 21
416.0881833427471
 31
0.0
  0
LINE
  5
68B
330
1F
100
AcDbEntity
  8
0
  6
Continuous
 62
     7
100
AcDbLine
 10
465.0209851204635
 20
416.7381833426991
 30
0.0
 11
466.0209851204634
 21
416.7381833426991
 31
0.0
  0
LINE
  5
68C
330
1F
100
AcDbEntity
  8
0
  6
Continuous
 62
     7
100
AcDbLine
 10
465.0209851204635
 20
421.7381833426991
 30
0.0
 11
466.0209851204634
 21
421.7381833426991
 31
0.0
  0
LINE
  5
68D
330
1F
100
AcDbEntity
  8
0
  6
Continuous
 62
     7
100
AcDbLine
 10
467.5209851204638
 20
420.2381833426991
 30
0.0
 11
467.5209851204638
 21
418.2381833426991
 31
0.0
  0
ARC
  5
68E
330
1F
100
AcDbEntity
  8
0
  6
Continuous
 62
     7
100
AcDbCircle
 10
466.0209851204633
 20
418.2381833426996
 30
0.0
 40
1.500000000000369
100
AcDbArc
 50
270.0000000000094
 51
359.9999999999868
  0
ARC
  5
68F
330
1F
100
AcDbEntity
  8
0
  6
Continuous
 62
     7
100
AcDbCircle
 10
466.0209851204633
 20
420.2381833426988
 30
0.0
 40
1.500000000000454
100
AcDbArc
 50
0.000000000014656
 51
89.99999999999024
  0
LINE
  5
690
330
1F
100
AcDbEntity
  8
0
  6
Continuous
 62
     7
100
AcDbLine
 10
457.0209851204634
 20
418.5781833426232
 30
0.0
 11
457.0209851204634
 21
412.2781833426491
 31
0.0
  0
LINE
  5
691
330
1F
100
AcDbEntity
  8
0
  6
Continuous
 62
     7
100
AcDbLine
 10
457.0209851204634
 20
412.928183342601
 30
0.0
 11
458.0209851204634
 21
412.928183342601
 31
0.0
  0
LINE
  5
692
330
1F
100
AcDbEntity
  8
0
  6
Continuous
 62
     7
100
AcDbLine
 10
457.0209851204634
 20
417.9281833426013
 30
0.0
 11
458.0209851204634
 21
417.9281833426013
 31
0.0
  0
LINE
  5
693
330
1F
100
AcDbEntity
  8
0
  6
Continuous
 62
     7
100
AcDbLine
 10
459.5209851204637
 20
416.428183342601
 30
0.0
 11
459.5209851204637
 21
414.4281833426012
 31
0.0
  0
ARC
  5
694
330
1F
100
AcDbEntity
  8
0
  6
Continuous
 62
     7
100
AcDbCircle
 10
458.0209851204632
 20
414.4281833426014
 30
0.0
 40
1.50000000000034
100
AcDbArc
 50
270.0000000000094
 51
359.9999999999852
  0
ARC
  5
695
330
1F
100
AcDbEntity
  8
0
  6
Continuous
 62
     7
100
AcDbCircle
 10
458.0209851204632
 20
416.428183342601
 30
0.0
 40
1.500000000000454
100
AcDbArc
 50
0.0000000000130276
 51
89.99999999999024
  0
LINE
  5
696
330
1F
100
AcDbEntity
  8
0
  6
Continuous
 62
     7
100
AcDbLine
 10
465.0209851204635
 20
414.7681833427212
 30
0.0
 11
465.0209851204635
 21
408.4681833427471
 31
0.0
  0
LINE
  5
697
330
1F
100
AcDbEntity
  8
0
  6
Continuous
 62
     7
100
AcDbLine
 10
465.0209851204635
 20
409.1181833426993
 30
0.0
 11
466.0209851204634
 21
409.1181833426993
 31
0.0
  0
LINE
  5
698
330
1F
100
AcDbEntity
  8
0
  6
Continuous
 62
     7
100
AcDbLine
 10
465.0209851204635
 20
414.1181833426989
 30
0.0
 11
466.0209851204634
 21
414.1181833426989
 31
0.0
  0
LINE
  5
699
330
1F
100
AcDbEntity
  8
0
  6
Continuous
 62
     7
100
AcDbLine
 10
467.5209851204638
 20
412.6181833426991
 30
0.0
 11
467.5209851204638
 21
410.6181833426991
 31
0.0
  0
ARC
  5
69A
330
1F
100
AcDbEntity
  8
0
  6
Continuous
 62
     7
100
AcDbCircle
 10
466.0209851204633
 20
410.6181833426996
 30
0.0
 40
1.500000000000369
100
AcDbArc
 50
270.0000000000094
 51
359.9999999999852
  0
ARC
  5
69B
330
1F
100
AcDbEntity
  8
0
  6
Continuous
 62
     7
100
AcDbCircle
 10
466.0209851204633
 20
412.6181833426988
 30
0.0
 40
1.500000000000454
100
AcDbArc
 50
0.000000000014656
 51
89.99999999999024
  0
LINE
  5
69C
330
1F
100
AcDbEntity
  8
0
  6
Continuous
 62
     7
100
AcDbLine
 10
457.0209851204634
 20
410.9581833426232
 30
0.0
 11
457.0209851204634
 21
404.6581833426492
 31
0.0
  0
LINE
  5
69D
330
1F
100
AcDbEntity
  8
0
  6
Continuous
 62
     7
100
AcDbLine
 10
457.0209851204634
 20
405.3081833426015
 30
0.0
 11
458.0209851204634
 21
405.3081833426015
 31
0.0
  0
LINE
  5
69E
330
1F
100
AcDbEntity
  8
0
  6
Continuous
 62
     7
100
AcDbLine
 10
457.0209851204634
 20
410.3081833426014
 30
0.0
 11
458.0209851204634
 21
410.3081833426014
 31
0.0
  0
LINE
  5
69F
330
1F
100
AcDbEntity
  8
0
  6
Continuous
 62
     7
100
AcDbLine
 10
459.5209851204637
 20
408.8081833426015
 30
0.0
 11
459.5209851204637
 21
406.8081833426014
 31
0.0
  0
ARC
  5
6A0
330
1F
100
AcDbEntity
  8
0
  6
Continuous
 62
     7
100
AcDbCircle
 10
458.0209851204632
 20
406.8081833426014
 30
0.0
 40
1.500000000000369
100
AcDbArc
 50
270.0000000000094
 51
359.9999999999852
  0
ARC
  5
6A1
330
1F
100
AcDbEntity
  8
0
  6
Continuous
 62
     7
100
AcDbCircle
 10
458.0209851204632
 20
408.808183342601
 30
0.0
 40
1.500000000000454
100
AcDbArc
 50
0.000000000014656
 51
89.99999999999024
  0
LINE
  5
6A2
330
1F
100
AcDbEntity
  8
0
  6
Continuous
 62
     7
100
AcDbLine
 10
465.0209851204635
 20
407.1481833427213
 30
0.0
 11
465.0209851204635
 21
400.8481833427471
 31
0.0
  0
LINE
  5
6A3
330
1F
100
AcDbEntity
  8
0
  6
Continuous
 62
     7
100
AcDbLine
 10
465.0209851204635
 20
401.4981833426995
 30
0.0
 11
466.0209851204634
 21
401.4981833426995
 31
0.0
  0
LINE
  5
6A4
330
1F
100
AcDbEntity
  8
0
  6
Continuous
 62
     7
100
AcDbLine
 10
465.0209851204635
 20
406.4981833426992
 30
0.0
 11
466.0209851204634
 21
406.4981833426992
 31
0.0
  0
LINE
  5
6A5
330
1F
100
AcDbEntity
  8
0
  6
Continuous
 62
     7
100
AcDbLine
 10
467.5209851204638
 20
404.9981833426993
 30
0.0
 11
467.5209851204638
 21
402.9981833426992
 31
0.0
  0
ARC
  5
6A6
330
1F
100
AcDbEntity
  8
0
  6
Continuous
 62
     7
100
AcDbCircle
 10
466.0209851204633
 20
402.9981833426996
 30
0.0
 40
1.500000000000369
100
AcDbArc
 50
270.0000000000094
 51
359.9999999999852
  0
ARC
  5
6A7
330
1F
100
AcDbEntity
  8
0
  6
Continuous
 62
     7
100
AcDbCircle
 10
466.0209851204633
 20
404.9981833426991
 30
0.0
 40
1.500000000000454
100
AcDbArc
 50
0.000000000014656
 51
89.99999999999024
  0
LINE
  5
6A8
330
1F
100
AcDbEntity
  8
0
  6
Continuous
 62
     7
100
AcDbLine
 10
457.0209851204634
 20
403.3381833426232
 30
0.0
 11
457.0209851204634
 21
397.0381833426491
 31
0.0
  0
LINE
  5
6A9
330
1F
100
AcDbEntity
  8
0
  6
Continuous
 62
     7
100
AcDbLine
 10
457.0209851204634
 20
397.688183342601
 30
0.0
 11
458.0209851204634
 21
397.688183342601
 31
0.0
  0
LINE
  5
6AA
330
1F
100
AcDbEntity
  8
0
  6
Continuous
 62
     7
100
AcDbLine
 10
457.0209851204634
 20
402.6881833426013
 30
0.0
 11
458.0209851204634
 21
402.6881833426013
 31
0.0
  0
LINE
  5
6AB
330
1F
100
AcDbEntity
  8
0
  6
Continuous
 62
     7
100
AcDbLine
 10
459.5209851204637
 20
401.188183342601
 30
0.0
 11
459.5209851204637
 21
399.1881833426011
 31
0.0
  0
ARC
  5
6AC
330
1F
100
AcDbEntity
  8
0
  6
Continuous
 62
     7
100
AcDbCircle
 10
458.0209851204632
 20
399.1881833426014
 30
0.0
 40
1.500000000000369
100
AcDbArc
 50
270.0000000000094
 51
359.9999999999852
  0
ARC
  5
6AD
330
1F
100
AcDbEntity
  8
0
  6
Continuous
 62
     7
100
AcDbCircle
 10
458.0209851204632
 20
401.188183342601
 30
0.0
 40
1.500000000000454
100
AcDbArc
 50
0.000000000014656
 51
89.99999999999024
  0
LINE
  5
6AE
330
1F
100
AcDbEntity
  8
0
  6
Continuous
 62
     7
100
AcDbLine
 10
465.0209851204635
 20
399.5281833427211
 30
0.0
 11
465.0209851204635
 21
393.2281833427471
 31
0.0
  0
LINE
  5
6AF
330
1F
100
AcDbEntity
  8
0
  6
Continuous
 62
     7
100
AcDbLine
 10
465.0209851204635
 20
393.8781833426995
 30
0.0
 11
466.0209851204634
 21
393.8781833426995
 31
0.0
  0
LINE
  5
6B0
330
1F
100
AcDbEntity
  8
0
  6
Continuous
 62
     7
100
AcDbLine
 10
465.0209851204635
 20
398.8781833426993
 30
0.0
 11
466.0209851204634
 21
398.8781833426993
 31
0.0
  0
LINE
  5
6B1
330
1F
100
AcDbEntity
  8
0
  6
Continuous
 62
     7
100
AcDbLine
 10
467.5209851204638
 20
397.3781833426992
 30
0.0
 11
467.5209851204638
 21
395.3781833426992
 31
0.0
  0
ARC
  5
6B2
330
1F
100
AcDbEntity
  8
0
  6
Continuous
 62
     7
100
AcDbCircle
 10
466.0209851204633
 20
395.3781833426996
 30
0.0
 40
1.500000000000369
100
AcDbArc
 50
270.0000000000094
 51
359.9999999999852
  0
ARC
  5
6B3
330
1F
100
AcDbEntity
  8
0
  6
Continuous
 62
     7
100
AcDbCircle
 10
466.0209851204633
 20
397.3781833426986
 30
0.0
 40
1.500000000000454
100
AcDbArc
 50
0.000000000014656
 51
89.99999999999024
  0
LINE
  5
6B4
330
1F
100
AcDbEntity
  8
0
  6
Continuous
 62
     7
100
AcDbLine
 10
470.0209851204637
 20
473.2781833427213
 30
0.0
 11
470.0209851204637
 21
384.4681833427851
 31
0.0
  0
LINE
  5
6B5
330
1F
100
AcDbEntity
  8
0
  6
Continuous
 62
     7
100
AcDbLine
 10
464.0209851204637
 20
473.2781833427773
 30
0.0
 11
464.0209851204637
 21
384.4681833427851
 31
0.0
  0
LINE
  5
6B6
330
1F
100
AcDbEntity
  8
0
  6
Continuous
 62
     7
100
AcDbLine
 10
456.0209851204636
 20
473.2781833427213
 30
0.0
 11
456.0209851204636
 21
384.4681833427851
 31
0.0
  0
LINE
  5
6B7
330
1F
100
AcDbEntity
  8
0
  6
Continuous
 62
     7
100
AcDbLine
 10
470.0209851204637
 20
473.2781833427213
 30
0.0
 11
451.0209851204637
 21
473.2781833427213
 31
0.0
  0
LINE
  5
6B8
330
1F
100
AcDbEntity
  8
0
  6
Continuous
 62
     7
100
AcDbLine
 10
464.0209851204637
 20
391.9081833427391
 30
0.0
 11
470.0209851204637
 21
391.9081833427553
 31
0.0
  0
LINE
  5
6B9
330
1F
100
AcDbEntity
  8
0
  6
Continuous
 62
     7
100
AcDbLine
 10
464.0209851204637
 20
393.2281833427391
 30
0.0
 11
470.0209851204637
 21
393.2281833427552
 31
0.0
  0
LINE
  5
6BA
330
1F
100
AcDbEntity
  8
0
  6
Continuous
 62
     7
100
AcDbLine
 10
464.0209851204637
 20
399.5281833427353
 30
0.0
 11
470.0209851204637
 21
399.5281833427755
 31
0.0
  0
LINE
  5
6BB
330
1F
100
AcDbEntity
  8
0
  6
Continuous
 62
     7
100
AcDbLine
 10
464.0209851204637
 20
400.8481833427352
 30
0.0
 11
470.0209851204637
 21
400.8481833427754
 31
0.0
  0
LINE
  5
6BC
330
1F
100
AcDbEntity
  8
0
  6
Continuous
 62
     7
100
AcDbLine
 10
464.0209851204637
 20
407.1481833427532
 30
0.0
 11
470.0209851204637
 21
407.1481833427611
 31
0.0
  0
LINE
  5
6BD
330
1F
100
AcDbEntity
  8
0
  6
Continuous
 62
     7
100
AcDbLine
 10
464.0209851204637
 20
408.4681833427391
 30
0.0
 11
470.0209851204637
 21
408.4681833427551
 31
0.0
  0
LINE
  5
6BE
330
1F
100
AcDbEntity
  8
0
  6
Continuous
 62
     7
100
AcDbLine
 10
464.0209851204637
 20
414.7681833427351
 30
0.0
 11
470.0209851204637
 21
414.7681833427752
 31
0.0
  0
LINE
  5
6BF
330
1F
100
AcDbEntity
  8
0
  6
Continuous
 62
     7
100
AcDbLine
 10
464.0209851204637
 20
416.0881833427114
 30
0.0
 11
470.0209851204637
 21
416.0881833427431
 31
0.0
  0
LINE
  5
6C0
330
1F
100
AcDbEntity
  8
0
  6
Continuous
 62
     7
100
AcDbLine
 10
464.0209851204637
 20
422.3881833427111
 30
0.0
 11
470.0209851204637
 21
422.3881833427432
 31
0.0
  0
LINE
  5
6C1
330
1F
100
AcDbEntity
  8
0
  6
Continuous
 62
     7
100
AcDbLine
 10
470.0209851204637
 20
423.7081833427552
 30
0.0
 11
464.0209851204637
 21
423.7081833427391
 31
0.0
  0
LINE
  5
6C2
330
1F
100
AcDbEntity
  8
0
  6
Continuous
 62
     7
100
AcDbLine
 10
470.0209851204637
 20
431.3281833427431
 30
0.0
 11
464.0209851204637
 21
431.3281833427113
 31
0.0
  0
LINE
  5
6C3
330
1F
100
AcDbEntity
  8
0
  6
Continuous
 62
     7
100
AcDbLine
 10
464.0209851204637
 20
430.0081833427111
 30
0.0
 11
470.0209851204637
 21
430.0081833427433
 31
0.0
  0
LINE
  5
6C4
330
1F
100
AcDbEntity
  8
0
  6
Continuous
 62
     7
100
AcDbLine
 10
464.0209851204637
 20
437.6281833427111
 30
0.0
 11
470.0209851204637
 21
437.6281833427433
 31
0.0
  0
LINE
  5
6C5
330
1F
100
AcDbEntity
  8
0
  6
Continuous
 62
     7
100
AcDbLine
 10
470.0209851204637
 20
438.9481833427753
 30
0.0
 11
464.0209851204637
 21
438.9481833427351
 31
0.0
  0
LINE
  5
6C6
330
1F
100
AcDbEntity
  8
0
  6
Continuous
 62
     7
100
AcDbLine
 10
464.0209851204637
 20
445.2481833427051
 30
0.0
 11
470.0209851204637
 21
445.2481833427655
 31
0.0
  0
LINE
  5
6C7
330
1F
100
AcDbEntity
  8
0
  6
Continuous
 62
     7
100
AcDbLine
 10
470.0209851204637
 20
446.5681833427653
 30
0.0
 11
464.0209851204637
 21
446.5681833427051
 31
0.0
  0
LINE
  5
6C8
330
1F
100
AcDbEntity
  8
0
  6
Continuous
 62
     7
100
AcDbLine
 10
464.0209851204637
 20
452.8681833427051
 30
0.0
 11
470.0209851204637
 21
452.8681833427651
 31
0.0
  0
LINE
  5
6C9
330
1F
100
AcDbEntity
  8
0
  6
Continuous
 62
     7
100
AcDbLine
 10
470.0209851204637
 20
454.1881833427428
 30
0.0
 11
464.0209851204637
 21
454.1881833427111
 31
0.0
  0
LINE
  5
6CA
330
1F
100
AcDbEntity
  8
0
  6
Continuous
 62
     7
100
AcDbLine
 10
464.0209851204637
 20
460.4881833427352
 30
0.0
 11
470.0209851204637
 21
460.4881833427752
 31
0.0
  0
LINE
  5
6CB
330
1F
100
AcDbEntity
  8
0
  6
Continuous
 62
     7
100
AcDbLine
 10
470.0209851204637
 20
461.808183342775
 30
0.0
 11
464.0209851204637
 21
461.8081833427353
 31
0.0
  0
LINE
  5
6CC
330
1F
100
AcDbEntity
  8
0
  6
Continuous
 62
     7
100
AcDbLine
 10
464.0209851204637
 20
468.1081833427051
 30
0.0
 11
470.0209851204637
 21
468.1081833427652
 31
0.0
  0
LINE
  5
6CD
330
1F
100
AcDbEntity
  8
0
  6
Continuous
 62
     7
100
AcDbLine
 10
464.0209851204637
 20
469.4681833427848
 30
0.0
 11
470.0209851204637
 21
469.4681833427848
 31
0.0
  0
LINE
  5
6CE
330
1F
100
AcDbEntity
  8
0
  6
Continuous
 62
     7
100
AcDbLine
 10
456.0209851204636
 20
388.0981833426411
 30
0.0
 11
464.0209851204637
 21
388.0981833426972
 31
0.0
  0
LINE
  5
6CF
330
1F
100
AcDbEntity
  8
0
  6
Continuous
 62
     7
100
AcDbLine
 10
464.0209851204637
 20
397.0381833426971
 30
0.0
 11
456.0209851204636
 21
397.0381833426412
 31
0.0
  0
LINE
  5
6D0
330
1F
100
AcDbEntity
  8
0
  6
Continuous
 62
     7
100
AcDbLine
 10
456.0209851204636
 20
403.3381833426171
 30
0.0
 11
464.0209851204637
 21
403.3381833426615
 31
0.0
  0
LINE
  5
6D1
330
1F
100
AcDbEntity
  8
0
  6
Continuous
 62
     7
100
AcDbLine
 10
464.0209851204637
 20
404.6581833426971
 30
0.0
 11
456.0209851204636
 21
404.6581833426412
 31
0.0
  0
LINE
  5
6D2
330
1F
100
AcDbEntity
  8
0
  6
Continuous
 62
     7
100
AcDbLine
 10
456.0209851204636
 20
410.9581833426172
 30
0.0
 11
464.0209851204637
 21
410.9581833426611
 31
0.0
  0
LINE
  5
6D3
330
1F
100
AcDbEntity
  8
0
  6
Continuous
 62
     7
100
AcDbLine
 10
464.0209851204637
 20
412.2781833426971
 30
0.0
 11
456.0209851204636
 21
412.2781833426413
 31
0.0
  0
LINE
  5
6D4
330
1F
100
AcDbEntity
  8
0
  6
Continuous
 62
     7
100
AcDbLine
 10
456.0209851204636
 20
418.5781833426412
 30
0.0
 11
464.0209851204637
 21
418.5781833426973
 31
0.0
  0
LINE
  5
6D5
330
1F
100
AcDbEntity
  8
0
  6
Continuous
 62
     7
100
AcDbLine
 10
464.0209851204637
 20
419.8981833426615
 30
0.0
 11
456.0209851204636
 21
419.8981833426171
 31
0.0
  0
LINE
  5
6D6
330
1F
100
AcDbEntity
  8
0
  6
Continuous
 62
     7
100
AcDbLine
 10
456.0209851204636
 20
426.1981833426172
 30
0.0
 11
464.0209851204637
 21
426.1981833426613
 31
0.0
  0
LINE
  5
6D7
330
1F
100
AcDbEntity
  8
0
  6
Continuous
 62
     7
100
AcDbLine
 10
464.0209851204637
 20
427.5181833426933
 30
0.0
 11
456.0209851204636
 21
427.5181833426171
 31
0.0
  0
LINE
  5
6D8
330
1F
100
AcDbEntity
  8
0
  6
Continuous
 62
     7
100
AcDbLine
 10
456.0209851204636
 20
433.8181833426412
 30
0.0
 11
464.0209851204637
 21
433.8181833426973
 31
0.0
  0
LINE
  5
6D9
330
1F
100
AcDbEntity
  8
0
  6
Continuous
 62
     7
100
AcDbLine
 10
464.0209851204637
 20
435.1381833426652
 30
0.0
 11
456.0209851204636
 21
435.1381833426432
 31
0.0
  0
LINE
  5
6DA
330
1F
100
AcDbEntity
  8
0
  6
Continuous
 62
     7
100
AcDbLine
 10
456.0209851204636
 20
441.4381833426411
 30
0.0
 11
464.0209851204637
 21
441.4381833426973
 31
0.0
  0
LINE
  5
6DB
330
1F
100
AcDbEntity
  8
0
  6
Continuous
 62
     7
100
AcDbLine
 10
464.0209851204637
 20
442.7581833426613
 30
0.0
 11
456.0209851204636
 21
442.758183342617
 31
0.0
  0
LINE
  5
6DC
330
1F
100
AcDbEntity
  8
0
  6
Continuous
 62
     7
100
AcDbLine
 10
456.0209851204636
 20
449.0581833426431
 30
0.0
 11
464.0209851204637
 21
449.0581833426651
 31
0.0
  0
LINE
  5
6DD
330
1F
100
AcDbEntity
  8
0
  6
Continuous
 62
     7
100
AcDbLine
 10
464.0209851204637
 20
450.3781833426972
 30
0.0
 11
456.0209851204636
 21
450.3781833426511
 31
0.0
  0
LINE
  5
6DE
330
1F
100
AcDbEntity
  8
0
  6
Continuous
 62
     7
100
AcDbLine
 10
456.0209851204636
 20
456.6781833426168
 30
0.0
 11
464.0209851204637
 21
456.6781833426612
 31
0.0
  0
LINE
  5
6DF
330
1F
100
AcDbEntity
  8
0
  6
Continuous
 62
     7
100
AcDbLine
 10
464.0209851204637
 20
457.9981833426652
 30
0.0
 11
456.0209851204636
 21
457.9981833426431
 31
0.0
  0
LINE
  5
6E0
330
1F
100
AcDbEntity
  8
0
  6
Continuous
 62
     7
100
AcDbLine
 10
456.0209851204636
 20
464.2981833426168
 30
0.0
 11
464.0209851204637
 21
464.2981833426611
 31
0.0
  0
LINE
  5
6E1
330
1F
100
AcDbEntity
  8
0
  6
Continuous
 62
     7
100
AcDbLine
 10
464.0209851204637
 20
465.6181833426971
 30
0.0
 11
456.0209851204636
 21
465.6181833426408
 31
0.0
  0
LINE
  5
6E2
330
1F
100
AcDbEntity
  8
0
  6
Continuous
 62
     7
100
AcDbLine
 10
464.0209851204637
 20
471.9181833426971
 30
0.0
 11
456.0209851204636
 21
471.9181833426408
 31
0.0
  0
LINE
  5
6E3
330
1F
100
AcDbEntity
  8
0
  6
Continuous
 62
     7
100
AcDbLine
 10
283.2209851204638
 20
197.9681833427851
 30
0.0
 11
282.0209851204634
 21
197.9681833427851
 31
0.0
  0
LINE
  5
6E4
330
1F
100
AcDbEntity
  8
0
  6
Continuous
 62
     7
100
AcDbLine
 10
283.2209851204638
 20
222.9681833427851
 30
0.0
 11
283.2209851204638
 21
197.9681833427851
 31
0.0
  0
LINE
  5
6E5
330
1F
100
AcDbEntity
  8
0
  6
Continuous
 62
     7
100
AcDbLine
 10
283.2209851204638
 20
492.968183342785
 30
0.0
 11
283.2209851204638
 21
522.9681833427853
 31
0.0
  0
LINE
  5
6E6
330
1F
100
AcDbEntity
  8
0
  6
Continuous
 62
     7
100
AcDbLine
 10
282.0209851204634
 20
197.9681833427851
 30
0.0
 11
282.0209851204634
 21
522.9681833427853
 31
0.0
  0
LINE
  5
6E7
330
1F
100
AcDbEntity
  8
0
  6
Continuous
 62
     7
100
AcDbLine
 10
282.0209851204634
 20
522.9681833427853
 30
0.0
 11
283.2209851204638
 21
522.9681833427853
 31
0.0
  0
LINE
  5
6E8
330
1F
100
AcDbEntity
  8
0
  6
Continuous
 62
     7
100
AcDbLine
 10
472.0209851204637
 20
222.9681833427851
 30
0.0
 11
282.0209851204634
 21
222.9681833427851
 31
0.0
  0
LINE
  5
6E9
330
1F
100
AcDbEntity
  8
0
  6
Continuous
 62
     7
100
AcDbLine
 10
472.0209851204637
 20
492.968183342785
 30
0.0
 11
472.0209851204637
 21
222.9681833427851
 31
0.0
  0
LINE
  5
6EA
330
1F
100
AcDbEntity
  8
0
  6
Continuous
 62
     7
100
AcDbLine
 10
282.0209851204634
 20
492.968183342785
 30
0.0
 11
472.0209851204637
 21
492.968183342785
 31
0.0
  0
LINE
  5
6EB
330
1F
100
AcDbEntity
  8
0
  6
DASHED
 62
     4
 48
4.0
100
AcDbLine
 10
384.0209851204637
 20
239.957782006651
 30
0.0
 11
384.6779296429318
 21
239.957782006655
 31
0.0
  0
LINE
  5
6EC
330
1F
100
AcDbEntity
  8
0
  6
DASHED
 62
     4
 48
4.0
100
AcDbLine
 10
387.9779296429319
 20
236.552182006621
 30
0.0
 11
387.9779296429319
 21
233.384182006623
 31
0.0
  0
LINE
  5
6ED
330
1F
100
AcDbEntity
  8
0
  6
DASHED
 62
     4
 48
4.0
100
AcDbLine
 10
384.6779296429318
 20
238.9281820066211
 30
0.0
 11
385.9979296429315
 21
238.9281820066211
 31
0.0
  0
LINE
  5
6EE
330
1F
100
AcDbEntity
  8
0
  6
DASHED
 62
     4
 48
4.0
100
AcDbLine
 10
384.6779296429318
 20
231.008182006621
 30
0.0
 11
385.9979296429315
 21
231.008182006621
 31
0.0
  0
LINE
  5
6EF
330
1F
100
AcDbEntity
  8
0
  6
DASHED
 62
     4
 48
4.0
100
AcDbLine
 10
384.6779296429318
 20
239.957782006655
 30
0.0
 11
384.6779296429318
 21
229.9785820066969
 31
0.0
  0
LINE
  5
6F0
330
1F
100
AcDbEntity
  8
0
  6
DASHED
 62
     4
 48
4.0
100
AcDbLine
 10
381.0209851204636
 20
227.9681833427895
 30
0.0
 11
381.0209851204636
 21
252.5919423369309
 31
0.0
  0
LINE
  5
6F1
330
1F
100
AcDbEntity
  8
0
  6
DASHED
 62
     4
 48
4.0
100
AcDbLine
 10
384.0209851204637
 20
227.9681833427895
 30
0.0
 11
381.0209851204636
 21
227.9681833427895
 31
0.0
  0
LINE
  5
6F2
330
1F
100
AcDbEntity
  8
0
  6
DASHED
 62
     4
 48
4.0
100
AcDbLine
 10
384.0209851204637
 20
252.301064663841
 30
0.0
 11
384.0209851204637
 21
227.9681833427895
 31
0.0
  0
ELLIPSE
  5
6F3
330
1F
100
AcDbEntity
  8
0
  6
DASHED
 62
     4
 48
4.0
100
AcDbEllipse
 10
385.9979296429315
 20
233.384182006623
 30
0.0
 11
0.0000000000000002
 21
-2.375999999999998
 31
0.0
210
0.0
220
0.0
230
1.0
 40
0.8333333333329997
 41
0.0
 42
1.570796326794896
  0
ELLIPSE
  5
6F4
330
1F
100
AcDbEntity
  8
0
  6
DASHED
 62
     4
 48
4.0
100
AcDbEllipse
 10
385.9979296429315
 20
236.552182006621
 30
0.0
 11
0.0000000000000002
 21
-2.375999999999996
 31
0.0
210
0.0
220
0.0
230
1.0
 40
0.8333333333329997
 41
1.570796326794896
 42
3.141592653589792
  0
POINT
  5
6F5
330
1F
100
AcDbEntity
  8
0
  6
Continuous
 62
     7
100
AcDbPoint
 10
621.5573572863437
 20
422.8449684502475
 30
0.0
1001
TCAD
1000
TC25ExternalObject
1002
{
1000
TCW30POINT
1000

1070
     0
1071
        0
1040
1.0
1040
0.0
1000
Continuous
1000
0
1071
        1
1071
      242
1010
621.6360776136419
1020
85.383553747216
1030
0.0
1070
     3
1071
-2147483645
1070
     0
1000
$POINTSIZE
1070
     5
1040
0.5
1000
$POINTTYPE
1070
    18
1070
     4
1000
ExplodeScale
1070
     5
1040
1.0
1002
}
  0
ELLIPSE
  5
6F6
330
1F
100
AcDbEntity
  8
0
  6
DASHED
 62
     4
 48
4.0
100
AcDbEllipse
 10
461.3186703646833
 20
233.7681821023255
 30
0.0
 11
0.0000000000000002
 21
-1.8
 31
0.0
210
0.0
220
0.0
230
1.0
 40
0.8333333333329996
 41
0.0
 42
1.570796326794896
  0
ELLIPSE
  5
6F7
330
1F
100
AcDbEntity
  8
0
  6
DASHED
 62
     4
 48
4.0
100
AcDbEllipse
 10
461.3186703646833
 20
236.1681821023251
 30
0.0
 11
0.0000000000000002
 21
-1.799999999999997
 31
0.0
210
0.0
220
0.0
230
1.0
 40
0.8333333333329997
 41
1.570796326794896
 42
3.141592653589792
  0
ELLIPSE
  5
6F8
330
1F
100
AcDbEntity
  8
0
  6
DASHED
 62
     4
 48
4.0
100
AcDbEllipse
 10
443.9979296429378
 20
233.384182006621
 30
0.0
 11
0.0000000000000002
 21
-2.375999999999998
 31
0.0
210
0.0
220
0.0
230
1.0
 40
0.8333333333329997
 41
0.0
 42
1.570796326794896
  0
ELLIPSE
  5
6F9
330
1F
100
AcDbEntity
  8
0
  6
DASHED
 62
     4
 48
4.0
100
AcDbEllipse
 10
443.9979296429378
 20
236.552182006621
 30
0.0
 11
0.0000000000000002
 21
-2.375999999999996
 31
0.0
210
0.0
220
0.0
230
1.0
 40
0.8333333333329997
 41
1.570796326794896
 42
3.141592653589792
  0
LINE
  5
B0B
330
1F
100
AcDbEntity
  8
0
  6
Continuous
 62
     7
100
AcDbLine
 10
649.4709851204638
 20
266.968183342783
 30
0.0
 11
649.4709851204638
 21
261.2681833427831
 31
0.0
  0
LINE
  5
B0C
330
1F
100
AcDbEntity
  8
0
  6
Continuous
 62
     7
100
AcDbLine
 10
617.5709851204636
 20
266.968183342783
 30
0.0
 11
617.5709851204636
 21
261.2681833427831
 31
0.0
  0
LINE
  5
B0D
330
1F
100
AcDbEntity
  8
0
  6
Continuous
 62
     7
100
AcDbLine
 10
649.7709851204635
 20
274.968183342783
 30
0.0
 11
649.7709851204635
 21
260.9681833427832
 31
0.0
  0
LINE
  5
B0E
330
1F
100
AcDbEntity
  8
0
  6
Continuous
 62
     7
100
AcDbLine
 10
617.2709851204635
 20
274.968183342783
 30
0.0
 11
617.2709851204635
 21
260.9681833427832
 31
0.0
  0
LINE
  5
B0F
330
1F
100
AcDbEntity
  8
0
  6
Continuous
 62
     7
100
AcDbLine
 10
648.5709851204636
 20
273.7681833427831
 30
0.0
 11
648.5709851204636
 21
262.168183342783
 31
0.0
  0
LINE
  5
B10
330
1F
100
AcDbEntity
  8
0
  6
Continuous
 62
     7
100
AcDbLine
 10
618.4709851204639
 20
273.7681833427831
 30
0.0
 11
618.4709851204639
 21
262.168183342783
 31
0.0
  0
LINE
  5
B11
330
1F
100
AcDbEntity
  8
0
  6
Continuous
 62
     7
100
AcDbLine
 10
650.2709851204635
 20
275.468183342783
 30
0.0
 11
650.2709851204635
 21
260.4681833427832
 31
0.0
  0
LINE
  5
B12
330
1F
100
AcDbEntity
  8
0
  6
Continuous
 62
     7
100
AcDbLine
 10
616.7709851204635
 20
275.468183342783
 30
0.0
 11
616.7709851204635
 21
260.4681833427832
 31
0.0
  0
LINE
  5
B13
330
1F
100
AcDbEntity
  8
0
  6
Continuous
 62
     7
100
AcDbLine
 10
658.5209851204633
 20
351.4681833427835
 30
0.0
 11
658.5209851204633
 21
251.468183342783
 31
0.0
  0
LINE
  5
B14
330
1F
100
AcDbEntity
  8
0
  6
Continuous
 62
     7
100
AcDbLine
 10
608.5209851204637
 20
351.4681833427835
 30
0.0
 11
608.5209851204637
 21
251.468183342783
 31
0.0
  0
LINE
  5
B18
330
1F
100
AcDbEntity
  8
0
  6
Continuous
 62
     7
100
AcDbLine
 10
622.5209851204636
 20
261.4681833427829
 30
0.0
 11
624.5209851204633
 21
261.4681833427829
 31
0.0
  0
LINE
  5
B19
330
1F
100
AcDbEntity
  8
0
  6
Continuous
 62
     7
100
AcDbLine
 10
617.2709851204635
 20
260.9681833427832
 30
0.0
 11
649.7709851204635
 21
260.9681833427832
 31
0.0
  0
LINE
  5
B1A
330
1F
100
AcDbEntity
  8
0
  6
Continuous
 62
     7
100
AcDbLine
 10
618.4709851204639
 20
262.168183342783
 30
0.0
 11
648.5709851204636
 21
262.168183342783
 31
0.0
  0
LINE
  5
B1B
330
1F
100
AcDbEntity
  8
0
  6
Continuous
 62
     7
100
AcDbLine
 10
616.7709851204635
 20
260.4681833427832
 30
0.0
 11
650.2709851204635
 21
260.4681833427832
 31
0.0
  0
LINE
  5
B1C
330
1F
100
AcDbEntity
  8
0
  6
Continuous
 62
     7
100
AcDbLine
 10
610.5209851204635
 20
249.468183342783
 30
0.0
 11
656.5209851204635
 21
249.468183342783
 31
0.0
  0
LINE
  5
B25
330
1F
100
AcDbEntity
  8
0
  6
Continuous
 62
     7
100
AcDbLine
 10
617.5709851204636
 20
261.2681833427831
 30
0.0
 11
622.5209851204636
 21
261.2681833427831
 31
0.0
  0
LINE
  5
B26
330
1F
100
AcDbEntity
  8
0
  6
Continuous
 62
     7
100
AcDbLine
 10
622.5209851204636
 20
261.4681833427829
 30
0.0
 11
622.5209851204636
 21
260.9681833427832
 31
0.0
  0
LINE
  5
B27
330
1F
100
AcDbEntity
  8
0
  6
Continuous
 62
     7
100
AcDbLine
 10
617.2709851204635
 20
260.9681833427832
 30
0.0
 11
616.7709851204635
 21
260.4681833427832
 31
0.0
  0
LINE
  5
B28
330
1F
100
AcDbEntity
  8
0
  6
Continuous
 62
     7
100
AcDbLine
 10
618.4709851204639
 20
262.168183342783
 30
0.0
 11
617.5709851204636
 21
261.2681833427831
 31
0.0
  0
ARC
  5
B29
330
1F
100
AcDbEntity
  8
0
  6
Continuous
 62
     7
100
AcDbCircle
 10
610.5209851204635
 20
251.4681833427836
 30
0.0
 40
2.000000000000226
100
AcDbArc
 50
180.0000000000081
 51
269.9999999999934
  0
LINE
  5
B3B
330
1F
100
AcDbEntity
  8
0
  6
Continuous
 62
     7
100
AcDbLine
 10
634.5209851204635
 20
261.2681833427831
 30
0.0
 11
642.5209851204633
 21
261.2681833427831
 31
0.0
  0
LINE
  5
B3C
330
1F
100
AcDbEntity
  8
0
  6
Continuous
 62
     7
100
AcDbLine
 10
624.5209851204633
 20
261.2681833427831
 30
0.0
 11
632.5209851204633
 21
261.2681833427831
 31
0.0
  0
LINE
  5
B3D
330
1F
100
AcDbEntity
  8
0
  6
Continuous
 62
     7
100
AcDbLine
 10
644.5209851204634
 20
261.2681833427831
 30
0.0
 11
649.4709851204638
 21
261.2681833427831
 31
0.0
  0
LINE
  5
B3E
330
1F
100
AcDbEntity
  8
0
  6
Continuous
 62
     7
100
AcDbLine
 10
642.5209851204633
 20
261.4681833427829
 30
0.0
 11
644.5209851204634
 21
261.4681833427829
 31
0.0
  0
LINE
  5
B3F
330
1F
100
AcDbEntity
  8
0
  6
Continuous
 62
     7
100
AcDbLine
 10
632.5209851204633
 20
261.4681833427829
 30
0.0
 11
634.5209851204635
 21
261.4681833427829
 31
0.0
  0
LINE
  5
B40
330
1F
100
AcDbEntity
  8
0
  6
Continuous
 62
     7
100
AcDbLine
 10
624.5209851204633
 20
261.4681833427829
 30
0.0
 11
624.5209851204633
 21
260.9681833427832
 31
0.0
  0
LINE
  5
B41
330
1F
100
AcDbEntity
  8
0
  6
Continuous
 62
     7
100
AcDbLine
 10
634.5209851204635
 20
261.4681833427829
 30
0.0
 11
634.5209851204635
 21
260.9681833427832
 31
0.0
  0
LINE
  5
B42
330
1F
100
AcDbEntity
  8
0
  6
Continuous
 62
     7
100
AcDbLine
 10
632.5209851204633
 20
261.4681833427829
 30
0.0
 11
632.5209851204633
 21
260.9681833427832
 31
0.0
  0
LINE
  5
B43
330
1F
100
AcDbEntity
  8
0
  6
Continuous
 62
     7
100
AcDbLine
 10
644.5209851204634
 20
261.4681833427829
 30
0.0
 11
644.5209851204634
 21
260.9681833427832
 31
0.0
  0
LINE
  5
B44
330
1F
100
AcDbEntity
  8
0
  6
Continuous
 62
     7
100
AcDbLine
 10
642.5209851204633
 20
261.4681833427829
 30
0.0
 11
642.5209851204633
 21
260.9681833427832
 31
0.0
  0
LINE
  5
B45
330
1F
100
AcDbEntity
  8
0
  6
Continuous
 62
     7
100
AcDbLine
 10
649.4709851204638
 20
261.2681833427831
 30
0.0
 11
648.5709851204636
 21
262.168183342783
 31
0.0
  0
LINE
  5
B46
330
1F
100
AcDbEntity
  8
0
  6
Continuous
 62
     7
100
AcDbLine
 10
649.7709851204635
 20
260.9681833427832
 30
0.0
 11
650.2709851204635
 21
260.4681833427832
 31
0.0
  0
LINE
  5
B47
330
1F
100
AcDbEntity
  8
0
  6
Continuous
 62
     7
100
AcDbLine
 10
629.5209851204638
 20
252.4681833427831
 30
0.0
 11
629.5209851204638
 21
249.468183342783
 31
0.0
  0
LINE
  5
B48
330
1F
100
AcDbEntity
  8
0
  6
Continuous
 62
     7
100
AcDbLine
 10
637.5209851204638
 20
252.4681833427831
 30
0.0
 11
637.5209851204638
 21
249.468183342783
 31
0.0
  0
ARC
  5
B49
330
1F
100
AcDbEntity
  8
0
  6
Continuous
 62
     7
100
AcDbCircle
 10
633.5209851204633
 20
252.4681833427831
 30
0.0
 40
4.0
100
AcDbArc
 50
0.0
 51
180.0
  0
ARC
  5
B4A
330
1F
100
AcDbEntity
  8
0
  6
Continuous
 62
     7
100
AcDbCircle
 10
656.520985120463
 20
251.4681833427836
 30
0.0
 40
2.00000000000032
100
AcDbArc
 50
270.0000000000065
 51
359.9999999999901
  0
LINE
  5
B7F
330
1F
100
AcDbEntity
  8
0
  6
Continuous
 62
     7
100
AcDbLine
 10
634.0209851204519
 20
254.4681833428112
 30
0.0
 11
634.0209851204519
 21
254.4681833428112
 31
0.0
  0
LINE
  5
B80
330
1F
100
AcDbEntity
  8
0
  6
Continuous
 62
     7
100
AcDbLine
 10
634.0209851204597
 20
252.9681833427989
 30
0.0
 11
634.0209851204519
 21
254.4681833428112
 31
0.0
  0
LINE
  5
B81
330
1F
100
AcDbEntity
  8
0
  6
Continuous
 62
     7
100
AcDbLine
 10
635.5209851204599
 20
252.968183342807
 30
0.0
 11
634.0209851204597
 21
252.9681833427989
 31
0.0
  0
LINE
  5
B82
330
1F
100
AcDbEntity
  8
0
  6
Continuous
 62
     7
100
AcDbLine
 10
635.5209851204657
 20
251.9681833428189
 30
0.0
 11
635.5209851204599
 21
252.968183342807
 31
0.0
  0
LINE
  5
B83
330
1F
100
AcDbEntity
  8
0
  6
Continuous
 62
     7
100
AcDbLine
 10
634.0209851204654
 20
251.9681833428112
 30
0.0
 11
635.5209851204657
 21
251.9681833428189
 31
0.0
  0
LINE
  5
B84
330
1F
100
AcDbEntity
  8
0
  6
Continuous
 62
     7
100
AcDbLine
 10
634.0209851204734
 20
250.4681833428112
 30
0.0
 11
634.0209851204654
 21
251.9681833428112
 31
0.0
  0
LINE
  5
B85
330
1F
100
AcDbEntity
  8
0
  6
Continuous
 62
     7
100
AcDbLine
 10
633.0209851204736
 20
250.4681833427932
 30
0.0
 11
634.0209851204734
 21
250.4681833428112
 31
0.0
  0
LINE
  5
B86
330
1F
100
AcDbEntity
  8
0
  6
Continuous
 62
     7
100
AcDbLine
 10
633.0209851204657
 20
251.9681833428072
 30
0.0
 11
633.0209851204736
 21
250.4681833427932
 31
0.0
  0
LINE
  5
B87
330
1F
100
AcDbEntity
  8
0
  6
Continuous
 62
     7
100
AcDbLine
 10
631.5209851204655
 20
251.968183342797
 30
0.0
 11
633.0209851204657
 21
251.9681833428072
 31
0.0
  0
LINE
  5
B88
330
1F
100
AcDbEntity
  8
0
  6
Continuous
 62
     7
100
AcDbLine
 10
631.5209851204595
 20
252.9681833427851
 30
0.0
 11
631.5209851204655
 21
251.968183342797
 31
0.0
  0
LINE
  5
B89
330
1F
100
AcDbEntity
  8
0
  6
Continuous
 62
     7
100
AcDbLine
 10
633.0209851204601
 20
252.968183342807
 30
0.0
 11
631.5209851204595
 21
252.9681833427851
 31
0.0
  0
LINE
  5
B8A
330
1F
100
AcDbEntity
  8
0
  6
Continuous
 62
     7
100
AcDbLine
 10
633.0209851204519
 20
254.4681833428049
 30
0.0
 11
633.0209851204601
 21
252.968183342807
 31
0.0
  0
LINE
  5
B8B
330
1F
100
AcDbEntity
  8
0
  6
Continuous
 62
     7
100
AcDbLine
 10
634.0209851204519
 20
254.4681833428112
 30
0.0
 11
633.0209851204519
 21
254.4681833428049
 31
0.0
  0
LINE
  5
B9D
330
1F
100
AcDbEntity
  8
0
  6
Continuous
 62
     7
100
AcDbLine
 10
621.3506640260195
 20
316.8698333859491
 30
0.0
 11
623.9200931784741
 21
316.8698333859491
 31
0.0
  0
LINE
  5
B9E
330
1F
100
AcDbEntity
  8
0
  6
Continuous
 62
     7
100
AcDbLine
 10
621.2232047239432
 20
316.0665353329091
 30
0.0
 11
623.7926338763977
 21
316.0665353329091
 31
0.0
  0
LINE
  5
B9F
330
1F
100
AcDbEntity
  8
0
  6
Continuous
 62
     7
100
AcDbLine
 10
621.7968077316977
 20
319.6813765715893
 30
0.0
 11
624.3663091809761
 21
319.6813765715893
 31
0.0
  0
LINE
  5
BA0
330
1F
100
AcDbEntity
  8
0
  6
Continuous
 62
     7
100
AcDbLine
 10
623.3464178738938
 20
313.255072477075
 30
0.0
 11
620.7769887214396
 21
313.255072477075
 31
0.0
  0
LINE
  5
BA1
330
1F
100
AcDbEntity
  8
0
  6
Continuous
 62
     7
100
AcDbLine
 10
621.7685396732096
 20
320.4846746246289
 30
0.0
 11
624.5385925144114
 21
320.4846746246289
 31
0.0
  0
LINE
  5
BA2
330
1F
100
AcDbEntity
  8
0
  6
Continuous
 62
     7
100
AcDbLine
 10
620.4938020588017
 20
312.4516940942293
 30
0.0
 11
623.4678042426899
 21
312.4516940942293
 31
0.0
  0
LINE
  5
BA3
330
1F
100
AcDbEntity
  8
0
  6
Continuous
 62
     7
100
AcDbLine
 10
621.3506640260195
 20
332.2698333859491
 30
0.0
 11
623.9200931784741
 21
332.2698333859491
 31
0.0
  0
LINE
  5
BA4
330
1F
100
AcDbEntity
  8
0
  6
Continuous
 62
     7
100
AcDbLine
 10
621.2232047239432
 20
331.4665353329093
 30
0.0
 11
623.7926338763977
 21
331.4665353329093
 31
0.0
  0
LINE
  5
BA5
330
1F
100
AcDbEntity
  8
0
  6
Continuous
 62
     7
100
AcDbLine
 10
621.7968077316977
 20
335.0813765715893
 30
0.0
 11
624.3663091809761
 21
335.0813765715893
 31
0.0
  0
LINE
  5
BA6
330
1F
100
AcDbEntity
  8
0
  6
Continuous
 62
     7
100
AcDbLine
 10
623.3464178738938
 20
328.6550724770754
 30
0.0
 11
620.7769887214396
 21
328.6550724770754
 31
0.0
  0
LINE
  5
BA7
330
1F
100
AcDbEntity
  8
0
  6
Continuous
 62
     7
100
AcDbLine
 10
621.7685396732096
 20
335.8846746246295
 30
0.0
 11
624.5385925144114
 21
335.8846746246295
 31
0.0
  0
LINE
  5
BA8
330
1F
100
AcDbEntity
  8
0
  6
Continuous
 62
     7
100
AcDbLine
 10
620.4938020588039
 20
327.8516940942291
 30
0.0
 11
623.4678042426899
 21
327.8516940942291
 31
0.0
  0
LINE
  5
BA9
330
1F
100
AcDbEntity
  8
0
  6
Continuous
 62
     7
100
AcDbLine
 10
620.0209851204637
 20
311.4681833427829
 30
0.0
 11
647.0209851204635
 21
311.4681833427829
 31
0.0
  0
LINE
  5
BAA
330
1F
100
AcDbEntity
  8
0
  6
Continuous
 62
     7
100
AcDbLine
 10
620.0209851204637
 20
321.4681833427829
 30
0.0
 11
647.0209851204635
 21
321.4681833427829
 31
0.0
  0
LINE
  5
BAB
330
1F
100
AcDbEntity
  8
0
  6
Continuous
 62
     7
100
AcDbLine
 10
620.0209851204637
 20
326.868183342783
 30
0.0
 11
647.0209851204635
 21
326.868183342783
 31
0.0
  0
LINE
  5
BAC
330
1F
100
AcDbEntity
  8
0
  6
Continuous
 62
     7
100
AcDbLine
 10
620.0209851204637
 20
336.868183342783
 30
0.0
 11
647.0209851204635
 21
336.868183342783
 31
0.0
  0
LINE
  5
BAD
330
1F
100
AcDbEntity
  8
0
  6
Continuous
 62
     7
100
AcDbLine
 10
612.5209851204638
 20
344.4681833427831
 30
0.0
 11
654.5209851204633
 21
344.4681833427831
 31
0.0
  0
LINE
  5
BAE
330
1F
100
AcDbEntity
  8
0
  6
Continuous
 62
     7
100
AcDbLine
 10
612.5209851204638
 20
279.9681833427829
 30
0.0
 11
654.5209851204633
 21
279.9681833427829
 31
0.0
  0
ARC
  5
BAF
330
1F
100
AcDbEntity
  8
0
  6
Continuous
 62
     7
100
AcDbCircle
 10
623.5209851204635
 20
308.4681833427828
 30
0.0
 40
1.000000000000148
100
AcDbArc
 50
90.00000000001303
 51
179.9999999999899
  0
ARC
  5
BB0
330
1F
100
AcDbEntity
  8
0
  6
Continuous
 62
     7
100
AcDbCircle
 10
623.5209851204635
 20
301.4681833427835
 30
0.0
 40
1.000000000000227
100
AcDbArc
 50
180.0000000000094
 51
269.999999999987
  0
LINE
  5
BB1
330
1F
100
AcDbEntity
  8
0
  6
Continuous
 62
     7
100
AcDbLine
 10
622.5209851204636
 20
274.4681833427829
 30
0.0
 11
624.5209851204633
 21
274.4681833427829
 31
0.0
  0
LINE
  5
BB2
330
1F
100
AcDbEntity
  8
0
  6
Continuous
 62
     7
100
AcDbLine
 10
617.2709851204635
 20
274.968183342783
 30
0.0
 11
649.7709851204635
 21
274.968183342783
 31
0.0
  0
LINE
  5
BB3
330
1F
100
AcDbEntity
  8
0
  6
Continuous
 62
     7
100
AcDbLine
 10
618.4709851204639
 20
273.7681833427831
 30
0.0
 11
648.5709851204636
 21
273.7681833427831
 31
0.0
  0
LINE
  5
BB4
330
1F
100
AcDbEntity
  8
0
  6
Continuous
 62
     7
100
AcDbLine
 10
616.7709851204635
 20
275.468183342783
 30
0.0
 11
650.2709851204635
 21
275.468183342783
 31
0.0
  0
LINE
  5
BB5
330
1F
100
AcDbEntity
  8
0
  6
Continuous
 62
     7
100
AcDbLine
 10
612.5209851204638
 20
279.9681833427829
 30
0.0
 11
654.5209851204633
 21
279.9681833427829
 31
0.0
  0
LINE
  5
BB6
330
1F
100
AcDbEntity
  8
0
  6
Continuous
 62
     7
100
AcDbLine
 10
612.5209851204638
 20
344.4681833427831
 30
0.0
 11
654.5209851204633
 21
344.4681833427831
 31
0.0
  0
LINE
  5
BB7
330
1F
100
AcDbEntity
  8
0
  6
Continuous
 62
     7
100
AcDbLine
 10
610.5209851204635
 20
353.4681833427831
 30
0.0
 11
656.5209851204635
 21
353.4681833427831
 31
0.0
  0
LINE
  5
BD3
330
1F
100
AcDbEntity
  8
0
  6
Continuous
 62
     7
100
AcDbLine
 10
611.5209851204632
 20
343.4681833427832
 30
0.0
 11
611.5209851204632
 21
280.9681833427832
 31
0.0
  0
LINE
  5
BD4
330
1F
100
AcDbEntity
  8
0
  6
Continuous
 62
     7
100
AcDbLine
 10
611.5209851204632
 20
343.4681833427832
 30
0.0
 11
611.5209851204632
 21
280.9681833427832
 31
0.0
  0
ARC
  5
BD5
330
1F
100
AcDbEntity
  8
0
  6
Continuous
 62
     7
100
AcDbCircle
 10
612.5209851204638
 20
280.9681833427836
 30
0.0
 40
1.000000000000227
100
AcDbArc
 50
180.0000000000159
 51
270.0
  0
LINE
  5
BD9
330
1F
100
AcDbEntity
  8
0
  6
Continuous
 62
     7
 48
4.0
100
AcDbLine
 10
622.0209851204637
 20
291.468183342783
 30
0.0
 11
622.0209851204637
 21
291.468183342783
 31
0.0
  0
ARC
  5
BDC
330
1F
100
AcDbEntity
  8
0
  6
Continuous
 62
     7
100
AcDbCircle
 10
618.5209851204636
 20
292.9681833427835
 30
0.0
 40
4.0
100
AcDbArc
 50
0.0
 51
180.0
  0
ARC
  5
BDD
330
1F
100
AcDbEntity
  8
0
  6
Continuous
 62
     7
100
AcDbCircle
 10
618.5209851204636
 20
289.9681833427832
 30
0.0
 40
4.0
100
AcDbArc
 50
180.0
 51
0.0
  0
LINE
  5
BDE
330
1F
100
AcDbEntity
  8
0
  6
Continuous
 62
     7
100
AcDbLine
 10
622.5209851204636
 20
292.9681833427835
 30
0.0
 11
622.5209851204636
 21
289.9681833427832
 31
0.0
  0
LINE
  5
BDF
330
1F
100
AcDbEntity
  8
0
  6
Continuous
 62
     7
100
AcDbLine
 10
614.5209851204636
 20
292.9681833427835
 30
0.0
 11
614.5209851204636
 21
289.9681833427832
 31
0.0
  0
LINE
  5
BE0
330
1F
100
AcDbEntity
  8
0
  6
Continuous
 62
     7
100
AcDbLine
 10
622.5209851204636
 20
301.4681833427835
 30
0.0
 11
622.5209851204636
 21
308.468183342783
 31
0.0
  0
LINE
  5
BE1
330
1F
100
AcDbEntity
  8
0
  6
Continuous
 62
     7
100
AcDbLine
 10
617.7709851204632
 20
268.9681833427832
 30
0.0
 11
617.7709851204632
 21
266.968183342783
 31
0.0
  0
LINE
  5
BE2
330
1F
100
AcDbEntity
  8
0
  6
Continuous
 62
     7
100
AcDbLine
 10
617.5709851204636
 20
274.668183342783
 30
0.0
 11
617.5709851204636
 21
268.9681833427832
 31
0.0
  0
LINE
  5
BE3
330
1F
100
AcDbEntity
  8
0
  6
Continuous
 62
     7
100
AcDbLine
 10
617.5709851204636
 20
274.668183342783
 30
0.0
 11
622.5209851204636
 21
274.668183342783
 31
0.0
  0
LINE
  5
BE4
330
1F
100
AcDbEntity
  8
0
  6
Continuous
 62
     7
100
AcDbLine
 10
622.5209851204636
 20
274.968183342783
 30
0.0
 11
622.5209851204636
 21
274.4681833427829
 31
0.0
  0
LINE
  5
BE5
330
1F
100
AcDbEntity
  8
0
  6
Continuous
 62
     7
100
AcDbLine
 10
617.2709851204635
 20
266.968183342783
 30
0.0
 11
617.7709851204632
 21
266.968183342783
 31
0.0
  0
LINE
  5
BE6
330
1F
100
AcDbEntity
  8
0
  6
Continuous
 62
     7
100
AcDbLine
 10
617.2709851204635
 20
268.9681833427832
 30
0.0
 11
617.7709851204632
 21
268.9681833427832
 31
0.0
  0
LINE
  5
BE7
330
1F
100
AcDbEntity
  8
0
  6
Continuous
 62
     7
100
AcDbLine
 10
617.2709851204635
 20
274.968183342783
 30
0.0
 11
616.7709851204635
 21
275.468183342783
 31
0.0
  0
LINE
  5
BE8
330
1F
100
AcDbEntity
  8
0
  6
Continuous
 62
     7
100
AcDbLine
 10
618.4709851204639
 20
273.7681833427831
 30
0.0
 11
617.5709851204636
 21
274.668183342783
 31
0.0
  0
ARC
  5
BEC
330
1F
100
AcDbEntity
  8
0
  6
Continuous
 62
     7
100
AcDbCircle
 10
612.5209851204638
 20
280.9681833427836
 30
0.0
 40
1.000000000000227
100
AcDbArc
 50
180.0000000000159
 51
270.0
  0
LINE
  5
BED
330
1F
100
AcDbEntity
  8
0
  6
Continuous
 62
     7
100
AcDbLine
 10
620.9198472471936
 20
316.4681843594292
 30
0.0
 11
621.2232047239432
 21
316.0665353329091
 31
0.0
  0
LINE
  5
BEE
330
1F
100
AcDbEntity
  8
0
  6
Continuous
 62
     7
100
AcDbLine
 10
621.3506640260195
 20
316.8698333859491
 30
0.0
 11
620.9198472471936
 21
316.4681843594292
 31
0.0
  0
LINE
  5
BEF
330
1F
100
AcDbEntity
  8
0
  6
Continuous
 62
     7
100
AcDbLine
 10
620.9198472471936
 20
316.4681843594292
 30
0.0
 11
620.4891027651918
 21
316.0665353329091
 31
0.0
  0
LINE
  5
BF0
330
1F
100
AcDbEntity
  8
0
  6
Continuous
 62
     7
100
AcDbLine
 10
620.6165620672678
 20
316.8698333859491
 30
0.0
 11
620.9198472471936
 21
316.4681843594292
 31
0.0
  0
LINE
  5
BF1
330
1F
100
AcDbEntity
  8
0
  6
Continuous
 62
     7
100
AcDbLine
 10
620.7769887214396
 20
313.255072477075
 30
0.0
 11
621.2232047239432
 21
316.0665353329091
 31
0.0
  0
LINE
  5
BF2
330
1F
100
AcDbEntity
  8
0
  6
Continuous
 62
     7
100
AcDbLine
 10
621.3506640260195
 20
316.8698333859491
 30
0.0
 11
621.7968077316977
 21
319.6813765715893
 31
0.0
  0
LINE
  5
BF3
330
1F
100
AcDbEntity
  8
0
  6
Continuous
 62
     7
100
AcDbLine
 10
620.6165620672678
 20
316.8698333859491
 30
0.0
 11
621.0897447854114
 21
319.851756088639
 31
0.0
  0
LINE
  5
BF4
330
1F
100
AcDbEntity
  8
0
  6
Continuous
 62
     7
100
AcDbLine
 10
621.0897447854114
 20
319.851756088639
 30
0.0
 11
621.7685396732096
 21
320.4846746246289
 31
0.0
  0
LINE
  5
BF5
330
1F
100
AcDbEntity
  8
0
  6
Continuous
 62
     7
100
AcDbLine
 10
620.4891027651918
 20
316.0665353329091
 30
0.0
 11
620.0158477502237
 21
313.0845323004133
 31
0.0
  0
LINE
  5
BF6
330
1F
100
AcDbEntity
  8
0
  6
Continuous
 62
     7
100
AcDbLine
 10
620.0158477502237
 20
313.0845323004133
 30
0.0
 11
620.4938020588017
 21
312.4516940942293
 31
0.0
  0
LINE
  5
BF7
330
1F
100
AcDbEntity
  8
0
  6
Continuous
 62
     7
100
AcDbLine
 10
621.4291783777238
 20
320.168255521537
 30
0.0
 11
621.7968077316977
 21
319.6813765715893
 31
0.0
  0
LINE
  5
BF8
330
1F
100
AcDbEntity
  8
0
  6
Continuous
 62
     7
100
AcDbLine
 10
620.2547887561013
 20
312.768113197321
 30
0.0
 11
620.7769887214396
 21
313.255072477075
 31
0.0
  0
LINE
  5
BF9
330
1F
100
AcDbEntity
  8
0
  6
Continuous
 62
     7
100
AcDbLine
 10
620.9198472471936
 20
331.8681843594296
 30
0.0
 11
621.2232047239432
 21
331.4665353329093
 31
0.0
  0
LINE
  5
BFA
330
1F
100
AcDbEntity
  8
0
  6
Continuous
 62
     7
100
AcDbLine
 10
621.3506640260195
 20
332.2698333859491
 30
0.0
 11
620.9198472471936
 21
331.8681843594296
 31
0.0
  0
LINE
  5
BFB
330
1F
100
AcDbEntity
  8
0
  6
Continuous
 62
     7
100
AcDbLine
 10
620.9198472471936
 20
331.8681843594296
 30
0.0
 11
620.4891027651918
 21
331.4665353329093
 31
0.0
  0
LINE
  5
BFC
330
1F
100
AcDbEntity
  8
0
  6
Continuous
 62
     7
100
AcDbLine
 10
620.6165620672678
 20
332.2698333859491
 30
0.0
 11
620.9198472471936
 21
331.8681843594296
 31
0.0
  0
LINE
  5
BFD
330
1F
100
AcDbEntity
  8
0
  6
Continuous
 62
     7
100
AcDbLine
 10
620.7769887214396
 20
328.6550724770754
 30
0.0
 11
621.2232047239432
 21
331.4665353329093
 31
0.0
  0
LINE
  5
BFE
330
1F
100
AcDbEntity
  8
0
  6
Continuous
 62
     7
100
AcDbLine
 10
621.3506640260195
 20
332.2698333859491
 30
0.0
 11
621.7968077316977
 21
335.0813765715893
 31
0.0
  0
LINE
  5
BFF
330
1F
100
AcDbEntity
  8
0
  6
Continuous
 62
     7
100
AcDbLine
 10
620.6165620672678
 20
332.2698333859491
 30
0.0
 11
621.0897447854114
 21
335.2517560886393
 31
0.0
  0
LINE
  5
C00
330
1F
100
AcDbEntity
  8
0
  6
Continuous
 62
     7
100
AcDbLine
 10
621.0897447854114
 20
335.2517560886393
 30
0.0
 11
621.7685396732096
 21
335.8846746246295
 31
0.0
  0
LINE
  5
C01
330
1F
100
AcDbEntity
  8
0
  6
Continuous
 62
     7
100
AcDbLine
 10
620.4891027651918
 20
331.4665353329093
 30
0.0
 11
620.0158477502237
 21
328.484532300413
 31
0.0
  0
LINE
  5
C02
330
1F
100
AcDbEntity
  8
0
  6
Continuous
 62
     7
100
AcDbLine
 10
620.0158477502237
 20
328.484532300413
 30
0.0
 11
620.4938020588039
 21
327.8516940942291
 31
0.0
  0
LINE
  5
C03
330
1F
100
AcDbEntity
  8
0
  6
Continuous
 62
     7
100
AcDbLine
 10
621.4291783777238
 20
335.5682555215371
 30
0.0
 11
621.7968077316977
 21
335.0813765715893
 31
0.0
  0
LINE
  5
C04
330
1F
100
AcDbEntity
  8
0
  6
Continuous
 62
     7
100
AcDbLine
 10
620.2547887561013
 20
328.1681131973213
 30
0.0
 11
620.7769887214396
 21
328.6550724770754
 31
0.0
  0
LINE
  5
C05
330
1F
100
AcDbEntity
  8
0
  6
Continuous
 62
     7
100
AcDbLine
 10
619.0209851204635
 20
320.468183342783
 30
0.0
 11
619.0209851204635
 21
312.468183342783
 31
0.0
  0
ARC
  5
C06
330
1F
100
AcDbEntity
  8
0
  6
Continuous
 62
     7
100
AcDbCircle
 10
620.0209851204637
 20
312.4681833427835
 30
0.0
 40
1.000000000000227
100
AcDbArc
 50
180.0000000000081
 51
269.999999999987
  0
ARC
  5
C07
330
1F
100
AcDbEntity
  8
0
  6
Continuous
 62
     7
100
AcDbCircle
 10
620.0209851204637
 20
320.4681833427828
 30
0.0
 40
1.000000000000155
100
AcDbArc
 50
90.00000000001303
 51
179.9999999999899
  0
LINE
  5
C08
330
1F
100
AcDbEntity
  8
0
  6
Continuous
 62
     7
100
AcDbLine
 10
619.0209851204635
 20
335.868183342783
 30
0.0
 11
619.0209851204635
 21
327.868183342783
 31
0.0
  0
ARC
  5
C09
330
1F
100
AcDbEntity
  8
0
  6
Continuous
 62
     7
100
AcDbCircle
 10
620.0209851204637
 20
327.8681833427832
 30
0.0
 40
1.000000000000227
100
AcDbArc
 50
180.0000000000094
 51
269.999999999987
  0
ARC
  5
C0A
330
1F
100
AcDbEntity
  8
0
  6
Continuous
 62
     7
100
AcDbCircle
 10
620.0209851204637
 20
335.8681833427828
 30
0.0
 40
1.00000000000017
100
AcDbArc
 50
90.00000000001303
 51
179.9999999999899
  0
ARC
  5
C0B
330
1F
100
AcDbEntity
  8
0
  6
Continuous
 62
     7
100
AcDbCircle
 10
612.5209851204638
 20
343.4681833427831
 30
0.0
 40
1.00000000000027
100
AcDbArc
 50
90.0
 51
179.9999999999834
  0
ARC
  5
C0C
330
1F
100
AcDbEntity
  8
0
  6
Continuous
 62
     7
100
AcDbCircle
 10
612.5209851204638
 20
343.4681833427831
 30
0.0
 40
1.00000000000027
100
AcDbArc
 50
90.0
 51
179.9999999999834
  0
ARC
  5
C0D
330
1F
100
AcDbEntity
  8
0
  6
Continuous
 62
     7
100
AcDbCircle
 10
610.5209851204635
 20
351.4681833427828
 30
0.0
 40
2.00000000000032
100
AcDbArc
 50
90.00000000000651
 51
179.9999999999899
  0
LINE
  5
C12
330
1F
100
AcDbEntity
  8
0
  6
Continuous
 62
     7
100
AcDbLine
 10
655.5209851204629
 20
343.4681833427832
 30
0.0
 11
655.5209851204629
 21
280.9681833427832
 31
0.0
  0
LINE
  5
C13
330
1F
100
AcDbEntity
  8
0
  6
Continuous
 62
     7
100
AcDbLine
 10
655.5209851204629
 20
343.4681833427832
 30
0.0
 11
655.5209851204629
 21
280.9681833427832
 31
0.0
  0
LINE
  5
C20
330
1F
100
AcDbEntity
  8
0
  6
Continuous
 62
     7
 48
4.0
100
AcDbLine
 10
632.0209851204634
 20
291.468183342783
 30
0.0
 11
632.0209851204634
 21
291.468183342783
 31
0.0
  0
LINE
  5
C23
330
1F
100
AcDbEntity
  8
0
  6
Continuous
 62
     7
 48
4.0
100
AcDbLine
 10
642.0209851204638
 20
291.468183342783
 30
0.0
 11
642.0209851204638
 21
291.468183342783
 31
0.0
  0
LINE
  5
C26
330
1F
100
AcDbEntity
  8
0
  6
Continuous
 62
     7
 48
4.0
100
AcDbLine
 10
652.0209851204636
 20
291.468183342783
 30
0.0
 11
652.0209851204636
 21
291.468183342783
 31
0.0
  0
ARC
  5
C29
330
1F
100
AcDbEntity
  8
0
  6
Continuous
 62
     7
100
AcDbCircle
 10
654.520985120463
 20
280.9681833427832
 30
0.0
 40
1.000000000000049
100
AcDbArc
 50
270.000000000026
 51
359.9999999999967
  0
ARC
  5
C2A
330
1F
100
AcDbEntity
  8
0
  6
Continuous
 62
     7
100
AcDbCircle
 10
628.5209851204633
 20
292.9681833427835
 30
0.0
 40
4.0
100
AcDbArc
 50
0.0
 51
180.0
  0
ARC
  5
C2B
330
1F
100
AcDbEntity
  8
0
  6
Continuous
 62
     7
100
AcDbCircle
 10
638.520985120463
 20
292.9681833427835
 30
0.0
 40
4.0
100
AcDbArc
 50
0.0
 51
180.0
  0
ARC
  5
C2C
330
1F
100
AcDbEntity
  8
0
  6
Continuous
 62
     7
100
AcDbCircle
 10
648.520985120463
 20
292.9681833427835
 30
0.0
 40
4.0
100
AcDbArc
 50
0.0
 51
180.0
  0
ARC
  5
C2D
330
1F
100
AcDbEntity
  8
0
  6
Continuous
 62
     7
100
AcDbCircle
 10
628.5209851204633
 20
289.9681833427832
 30
0.0
 40
4.0
100
AcDbArc
 50
180.0
 51
0.0
  0
ARC
  5
C2E
330
1F
100
AcDbEntity
  8
0
  6
Continuous
 62
     7
100
AcDbCircle
 10
638.520985120463
 20
289.9681833427832
 30
0.0
 40
4.0
100
AcDbArc
 50
180.0
 51
0.0
  0
ARC
  5
C2F
330
1F
100
AcDbEntity
  8
0
  6
Continuous
 62
     7
100
AcDbCircle
 10
648.520985120463
 20
289.9681833427832
 30
0.0
 40
4.0
100
AcDbArc
 50
180.0
 51
0.0
  0
LINE
  5
C30
330
1F
100
AcDbEntity
  8
0
  6
Continuous
 62
     7
100
AcDbLine
 10
652.5209851204635
 20
292.9681833427835
 30
0.0
 11
652.5209851204635
 21
289.9681833427832
 31
0.0
  0
LINE
  5
C31
330
1F
100
AcDbEntity
  8
0
  6
Continuous
 62
     7
100
AcDbLine
 10
644.5209851204634
 20
292.9681833427835
 30
0.0
 11
644.5209851204634
 21
289.9681833427832
 31
0.0
  0
LINE
  5
C32
330
1F
100
AcDbEntity
  8
0
  6
Continuous
 62
     7
100
AcDbLine
 10
642.5209851204633
 20
292.9681833427835
 30
0.0
 11
642.5209851204633
 21
289.9681833427832
 31
0.0
  0
LINE
  5
C33
330
1F
100
AcDbEntity
  8
0
  6
Continuous
 62
     7
100
AcDbLine
 10
634.5209851204635
 20
292.9681833427835
 30
0.0
 11
634.5209851204635
 21
289.9681833427832
 31
0.0
  0
LINE
  5
C34
330
1F
100
AcDbEntity
  8
0
  6
Continuous
 62
     7
100
AcDbLine
 10
632.5209851204633
 20
292.9681833427835
 30
0.0
 11
632.5209851204633
 21
289.9681833427832
 31
0.0
  0
LINE
  5
C35
330
1F
100
AcDbEntity
  8
0
  6
Continuous
 62
     7
100
AcDbLine
 10
624.5209851204633
 20
292.9681833427835
 30
0.0
 11
624.5209851204633
 21
289.9681833427832
 31
0.0
  0
LINE
  5
C36
330
1F
100
AcDbEntity
  8
0
  6
Continuous
 62
     7
100
AcDbLine
 10
623.5209851204635
 20
300.4681833427834
 30
0.0
 11
651.0209851204638
 21
300.4681833427834
 31
0.0
  0
ARC
  5
C37
330
1F
100
AcDbEntity
  8
0
  6
Continuous
 62
     7
100
AcDbCircle
 10
651.020985120463
 20
308.468183342783
 30
0.0
 40
1.000000000000227
100
AcDbArc
 50
0.0000000000032569
 51
89.99999999997395
  0
LINE
  5
C38
330
1F
100
AcDbEntity
  8
0
  6
Continuous
 62
     7
100
AcDbLine
 10
623.5209851204635
 20
309.4681833427829
 30
0.0
 11
651.0209851204638
 21
309.4681833427829
 31
0.0
  0
ARC
  5
C39
330
1F
100
AcDbEntity
  8
0
  6
Continuous
 62
     7
100
AcDbCircle
 10
651.020985120463
 20
301.4681833427835
 30
0.0
 40
1.000000000000049
100
AcDbArc
 50
270.000000000026
 51
359.9999999999967
  0
LINE
  5
C3A
330
1F
100
AcDbEntity
  8
0
  6
Continuous
 62
     7
100
AcDbLine
 10
652.0209851204636
 20
301.4681833427835
 30
0.0
 11
652.0209851204636
 21
308.468183342783
 31
0.0
  0
LINE
  5
C3B
330
1F
100
AcDbEntity
  8
0
  6
Continuous
 62
     7
100
AcDbLine
 10
649.4709851204638
 20
274.668183342783
 30
0.0
 11
649.4709851204638
 21
268.9681833427832
 31
0.0
  0
LINE
  5
C3C
330
1F
100
AcDbEntity
  8
0
  6
Continuous
 62
     7
100
AcDbLine
 10
649.2709851204629
 20
266.968183342783
 30
0.0
 11
649.7709851204635
 21
266.968183342783
 31
0.0
  0
LINE
  5
C3D
330
1F
100
AcDbEntity
  8
0
  6
Continuous
 62
     7
100
AcDbLine
 10
649.2709851204629
 20
268.9681833427832
 30
0.0
 11
649.7709851204635
 21
268.9681833427832
 31
0.0
  0
LINE
  5
C3E
330
1F
100
AcDbEntity
  8
0
  6
Continuous
 62
     7
100
AcDbLine
 10
649.2709851204629
 20
268.9681833427832
 30
0.0
 11
649.2709851204629
 21
266.968183342783
 31
0.0
  0
LINE
  5
C3F
330
1F
100
AcDbEntity
  8
0
  6
Continuous
 62
     7
100
AcDbLine
 10
634.5209851204635
 20
274.668183342783
 30
0.0
 11
642.5209851204633
 21
274.668183342783
 31
0.0
  0
LINE
  5
C40
330
1F
100
AcDbEntity
  8
0
  6
Continuous
 62
     7
100
AcDbLine
 10
624.5209851204633
 20
274.668183342783
 30
0.0
 11
632.5209851204633
 21
274.668183342783
 31
0.0
  0
LINE
  5
C41
330
1F
100
AcDbEntity
  8
0
  6
Continuous
 62
     7
100
AcDbLine
 10
644.5209851204634
 20
274.668183342783
 30
0.0
 11
649.4709851204638
 21
274.668183342783
 31
0.0
  0
LINE
  5
C42
330
1F
100
AcDbEntity
  8
0
  6
Continuous
 62
     7
100
AcDbLine
 10
632.5209851204633
 20
274.968183342783
 30
0.0
 11
632.5209851204633
 21
274.4681833427829
 31
0.0
  0
LINE
  5
C43
330
1F
100
AcDbEntity
  8
0
  6
Continuous
 62
     7
100
AcDbLine
 10
634.5209851204635
 20
274.968183342783
 30
0.0
 11
634.5209851204635
 21
274.4681833427829
 31
0.0
  0
LINE
  5
C44
330
1F
100
AcDbEntity
  8
0
  6
Continuous
 62
     7
100
AcDbLine
 10
644.5209851204634
 20
274.968183342783
 30
0.0
 11
644.5209851204634
 21
274.4681833427829
 31
0.0
  0
LINE
  5
C45
330
1F
100
AcDbEntity
  8
0
  6
Continuous
 62
     7
100
AcDbLine
 10
642.5209851204633
 20
274.968183342783
 30
0.0
 11
642.5209851204633
 21
274.4681833427829
 31
0.0
  0
LINE
  5
C46
330
1F
100
AcDbEntity
  8
0
  6
Continuous
 62
     7
100
AcDbLine
 10
624.5209851204633
 20
274.968183342783
 30
0.0
 11
624.5209851204633
 21
274.4681833427829
 31
0.0
  0
LINE
  5
C47
330
1F
100
AcDbEntity
  8
0
  6
Continuous
 62
     7
100
AcDbLine
 10
642.5209851204633
 20
274.4681833427829
 30
0.0
 11
644.5209851204634
 21
274.4681833427829
 31
0.0
  0
LINE
  5
C48
330
1F
100
AcDbEntity
  8
0
  6
Continuous
 62
     7
100
AcDbLine
 10
632.5209851204633
 20
274.4681833427829
 30
0.0
 11
634.5209851204635
 21
274.4681833427829
 31
0.0
  0
LINE
  5
C49
330
1F
100
AcDbEntity
  8
0
  6
Continuous
 62
     7
100
AcDbLine
 10
649.4709851204638
 20
274.668183342783
 30
0.0
 11
648.5709851204636
 21
273.7681833427831
 31
0.0
  0
LINE
  5
C4A
330
1F
100
AcDbEntity
  8
0
  6
Continuous
 62
     7
100
AcDbLine
 10
649.7709851204635
 20
274.968183342783
 30
0.0
 11
650.2709851204635
 21
275.468183342783
 31
0.0
  0
ARC
  5
C4B
330
1F
100
AcDbEntity
  8
0
  6
Continuous
 62
     7
100
AcDbCircle
 10
654.520985120463
 20
280.9681833427832
 30
0.0
 40
1.000000000000049
100
AcDbArc
 50
270.000000000026
 51
359.9999999999967
  0
LINE
  5
C5B
330
1F
100
AcDbEntity
  8
0
  6
Continuous
 62
     7
100
AcDbLine
 10
624.2234506552233
 20
316.4681843594292
 30
0.0
 11
623.7926338763977
 21
316.0665353329091
 31
0.0
  0
LINE
  5
C5C
330
1F
100
AcDbEntity
  8
0
  6
Continuous
 62
     7
100
AcDbLine
 10
623.9200931784741
 20
316.8698333859491
 30
0.0
 11
624.2234506552233
 21
316.4681843594292
 31
0.0
  0
LINE
  5
C5D
330
1F
100
AcDbEntity
  8
0
  6
Continuous
 62
     7
100
AcDbLine
 10
624.2234506552233
 20
316.4681843594292
 30
0.0
 11
624.5267358351477
 21
316.0665353329091
 31
0.0
  0
LINE
  5
C5E
330
1F
100
AcDbEntity
  8
0
  6
Continuous
 62
     7
100
AcDbLine
 10
624.6541951372241
 20
316.8698333859491
 30
0.0
 11
624.2234506552233
 21
316.4681843594292
 31
0.0
  0
LINE
  5
C5F
330
1F
100
AcDbEntity
  8
0
  6
Continuous
 62
     7
100
AcDbLine
 10
624.3663091809761
 20
319.6813765715893
 30
0.0
 11
623.9200931784741
 21
316.8698333859491
 31
0.0
  0
LINE
  5
C60
330
1F
100
AcDbEntity
  8
0
  6
Continuous
 62
     7
100
AcDbLine
 10
623.7926338763977
 20
316.0665353329091
 30
0.0
 11
623.3464178738938
 21
313.255072477075
 31
0.0
  0
LINE
  5
C61
330
1F
100
AcDbEntity
  8
0
  6
Continuous
 62
     7
100
AcDbLine
 10
624.5385925144114
 20
320.4846746246289
 30
0.0
 11
625.1082191968015
 21
319.7304580826293
 31
0.0
  0
LINE
  5
C62
330
1F
100
AcDbEntity
  8
0
  6
Continuous
 62
     7
100
AcDbLine
 10
625.1082191968015
 20
319.7304580826293
 30
0.0
 11
624.6541951372241
 21
316.8698333859491
 31
0.0
  0
LINE
  5
C63
330
1F
100
AcDbEntity
  8
0
  6
Continuous
 62
     7
100
AcDbLine
 10
623.4678042426899
 20
312.4516940942293
 30
0.0
 11
624.037358628255
 21
312.9826741072891
 31
0.0
  0
LINE
  5
C64
330
1F
100
AcDbEntity
  8
0
  6
Continuous
 62
     7
100
AcDbLine
 10
624.037358628255
 20
312.9826741072891
 30
0.0
 11
624.5267358351477
 21
316.0665353329091
 31
0.0
  0
LINE
  5
C65
330
1F
100
AcDbEntity
  8
0
  6
Continuous
 62
     7
100
AcDbLine
 10
624.8233697071936
 20
320.1076065185312
 30
0.0
 11
624.3663091809761
 21
319.6813765715893
 31
0.0
  0
LINE
  5
C66
330
1F
100
AcDbEntity
  8
0
  6
Continuous
 62
     7
100
AcDbLine
 10
623.752581435472
 20
312.7171841007593
 30
0.0
 11
623.3464178738938
 21
313.255072477075
 31
0.0
  0
LINE
  5
C6A
330
1F
100
AcDbEntity
  8
0
  6
Continuous
 62
     7
100
AcDbLine
 10
628.6506640260196
 20
316.8698333859491
 30
0.0
 11
631.2200931784738
 21
316.8698333859491
 31
0.0
  0
LINE
  5
C6B
330
1F
100
AcDbEntity
  8
0
  6
Continuous
 62
     7
100
AcDbLine
 10
628.5232047239436
 20
316.0665353329091
 30
0.0
 11
631.092633876398
 21
316.0665353329091
 31
0.0
  0
LINE
  5
C6C
330
1F
100
AcDbEntity
  8
0
  6
Continuous
 62
     7
100
AcDbLine
 10
629.0968077316976
 20
319.6813765715893
 30
0.0
 11
631.6663091809759
 21
319.6813765715893
 31
0.0
  0
LINE
  5
C6D
330
1F
100
AcDbEntity
  8
0
  6
Continuous
 62
     7
100
AcDbLine
 10
630.6464178738933
 20
313.255072477075
 30
0.0
 11
628.0769887214415
 21
313.255072477075
 31
0.0
  0
LINE
  5
C6E
330
1F
100
AcDbEntity
  8
0
  6
Continuous
 62
     7
100
AcDbLine
 10
628.2198472471939
 20
316.4681843594292
 30
0.0
 11
628.5232047239436
 21
316.0665353329091
 31
0.0
  0
LINE
  5
C6F
330
1F
100
AcDbEntity
  8
0
  6
Continuous
 62
     7
100
AcDbLine
 10
628.6506640260196
 20
316.8698333859491
 30
0.0
 11
628.2198472471939
 21
316.4681843594292
 31
0.0
  0
LINE
  5
C70
330
1F
100
AcDbEntity
  8
0
  6
Continuous
 62
     7
100
AcDbLine
 10
628.2198472471939
 20
316.4681843594292
 30
0.0
 11
627.7891027651921
 21
316.0665353329091
 31
0.0
  0
LINE
  5
C71
330
1F
100
AcDbEntity
  8
0
  6
Continuous
 62
     7
100
AcDbLine
 10
627.916562067268
 20
316.8698333859491
 30
0.0
 11
628.2198472471939
 21
316.4681843594292
 31
0.0
  0
LINE
  5
C72
330
1F
100
AcDbEntity
  8
0
  6
Continuous
 62
     7
100
AcDbLine
 10
631.5234506552237
 20
316.4681843594292
 30
0.0
 11
631.092633876398
 21
316.0665353329091
 31
0.0
  0
LINE
  5
C73
330
1F
100
AcDbEntity
  8
0
  6
Continuous
 62
     7
100
AcDbLine
 10
631.2200931784738
 20
316.8698333859491
 30
0.0
 11
631.5234506552237
 21
316.4681843594292
 31
0.0
  0
LINE
  5
C74
330
1F
100
AcDbEntity
  8
0
  6
Continuous
 62
     7
100
AcDbLine
 10
631.5234506552237
 20
316.4681843594292
 30
0.0
 11
631.8267358351477
 21
316.0665353329091
 31
0.0
  0
LINE
  5
C75
330
1F
100
AcDbEntity
  8
0
  6
Continuous
 62
     7
100
AcDbLine
 10
631.954195137224
 20
316.8698333859491
 30
0.0
 11
631.5234506552237
 21
316.4681843594292
 31
0.0
  0
LINE
  5
C76
330
1F
100
AcDbEntity
  8
0
  6
Continuous
 62
     7
100
AcDbLine
 10
631.6663091809759
 20
319.6813765715893
 30
0.0
 11
631.2200931784738
 21
316.8698333859491
 31
0.0
  0
LINE
  5
C77
330
1F
100
AcDbEntity
  8
0
  6
Continuous
 62
     7
100
AcDbLine
 10
631.092633876398
 20
316.0665353329091
 30
0.0
 11
630.6464178738933
 21
313.255072477075
 31
0.0
  0
LINE
  5
C78
330
1F
100
AcDbEntity
  8
0
  6
Continuous
 62
     7
100
AcDbLine
 10
628.0769887214415
 20
313.255072477075
 30
0.0
 11
628.5232047239436
 21
316.0665353329091
 31
0.0
  0
LINE
  5
C79
330
1F
100
AcDbEntity
  8
0
  6
Continuous
 62
     7
100
AcDbLine
 10
628.6506640260196
 20
316.8698333859491
 30
0.0
 11
629.0968077316976
 21
319.6813765715893
 31
0.0
  0
LINE
  5
C7A
330
1F
100
AcDbEntity
  8
0
  6
Continuous
 62
     7
100
AcDbLine
 10
627.916562067268
 20
316.8698333859491
 30
0.0
 11
628.3897447854116
 21
319.851756088639
 31
0.0
  0
LINE
  5
C7B
330
1F
100
AcDbEntity
  8
0
  6
Continuous
 62
     7
100
AcDbLine
 10
628.3897447854116
 20
319.851756088639
 30
0.0
 11
629.0685396732097
 21
320.4846746246289
 31
0.0
  0
LINE
  5
C7C
330
1F
100
AcDbEntity
  8
0
  6
Continuous
 62
     7
100
AcDbLine
 10
629.0685396732097
 20
320.4846746246289
 30
0.0
 11
631.8385925144115
 21
320.4846746246289
 31
0.0
  0
LINE
  5
C7D
330
1F
100
AcDbEntity
  8
0
  6
Continuous
 62
     7
100
AcDbLine
 10
631.8385925144115
 20
320.4846746246289
 30
0.0
 11
632.4082191968019
 21
319.7304580826293
 31
0.0
  0
LINE
  5
C7E
330
1F
100
AcDbEntity
  8
0
  6
Continuous
 62
     7
100
AcDbLine
 10
632.4082191968019
 20
319.7304580826293
 30
0.0
 11
631.954195137224
 21
316.8698333859491
 31
0.0
  0
LINE
  5
C7F
330
1F
100
AcDbEntity
  8
0
  6
Continuous
 62
     7
100
AcDbLine
 10
627.7891027651921
 20
316.0665353329091
 30
0.0
 11
627.3158477502238
 21
313.0845323004133
 31
0.0
  0
LINE
  5
C80
330
1F
100
AcDbEntity
  8
0
  6
Continuous
 62
     7
100
AcDbLine
 10
627.3158477502238
 20
313.0845323004133
 30
0.0
 11
627.7938020588017
 21
312.4516940942293
 31
0.0
  0
LINE
  5
C81
330
1F
100
AcDbEntity
  8
0
  6
Continuous
 62
     7
100
AcDbLine
 10
627.7938020588017
 20
312.4516940942293
 30
0.0
 11
630.7678042426895
 21
312.4516940942293
 31
0.0
  0
LINE
  5
C82
330
1F
100
AcDbEntity
  8
0
  6
Continuous
 62
     7
100
AcDbLine
 10
630.7678042426895
 20
312.4516940942293
 30
0.0
 11
631.3373586282559
 21
312.9826741072891
 31
0.0
  0
LINE
  5
C83
330
1F
100
AcDbEntity
  8
0
  6
Continuous
 62
     7
100
AcDbLine
 10
631.3373586282559
 20
312.9826741072891
 30
0.0
 11
631.8267358351477
 21
316.0665353329091
 31
0.0
  0
LINE
  5
C84
330
1F
100
AcDbEntity
  8
0
  6
Continuous
 62
     7
100
AcDbLine
 10
632.123369707194
 20
320.1076065185312
 30
0.0
 11
631.6663091809759
 21
319.6813765715893
 31
0.0
  0
LINE
  5
C85
330
1F
100
AcDbEntity
  8
0
  6
Continuous
 62
     7
100
AcDbLine
 10
628.7291783777234
 20
320.168255521537
 30
0.0
 11
629.0968077316976
 21
319.6813765715893
 31
0.0
  0
LINE
  5
C86
330
1F
100
AcDbEntity
  8
0
  6
Continuous
 62
     7
100
AcDbLine
 10
627.5547887561016
 20
312.768113197321
 30
0.0
 11
628.0769887214415
 21
313.255072477075
 31
0.0
  0
LINE
  5
C87
330
1F
100
AcDbEntity
  8
0
  6
Continuous
 62
     7
100
AcDbLine
 10
631.0525814354718
 20
312.7171841007593
 30
0.0
 11
630.6464178738933
 21
313.255072477075
 31
0.0
  0
LINE
  5
C8B
330
1F
100
AcDbEntity
  8
0
  6
Continuous
 62
     7
100
AcDbLine
 10
635.95066402602
 20
316.8698333859491
 30
0.0
 11
638.520093178474
 21
316.8698333859491
 31
0.0
  0
LINE
  5
C8C
330
1F
100
AcDbEntity
  8
0
  6
Continuous
 62
     7
100
AcDbLine
 10
635.823204723944
 20
316.0665353329091
 30
0.0
 11
638.3926338763977
 21
316.0665353329091
 31
0.0
  0
LINE
  5
C8D
330
1F
100
AcDbEntity
  8
0
  6
Continuous
 62
     7
100
AcDbLine
 10
636.3968077316977
 20
319.6813765715893
 30
0.0
 11
638.966309180976
 21
319.6813765715893
 31
0.0
  0
LINE
  5
C8E
330
1F
100
AcDbEntity
  8
0
  6
Continuous
 62
     7
100
AcDbLine
 10
637.9464178738929
 20
313.255072477075
 30
0.0
 11
635.3769887214399
 21
313.255072477075
 31
0.0
  0
LINE
  5
C8F
330
1F
100
AcDbEntity
  8
0
  6
Continuous
 62
     7
100
AcDbLine
 10
635.5198472471935
 20
316.4681843594292
 30
0.0
 11
635.823204723944
 21
316.0665353329091
 31
0.0
  0
LINE
  5
C90
330
1F
100
AcDbEntity
  8
0
  6
Continuous
 62
     7
100
AcDbLine
 10
635.95066402602
 20
316.8698333859491
 30
0.0
 11
635.5198472471935
 21
316.4681843594292
 31
0.0
  0
LINE
  5
C91
330
1F
100
AcDbEntity
  8
0
  6
Continuous
 62
     7
100
AcDbLine
 10
635.5198472471935
 20
316.4681843594292
 30
0.0
 11
635.0891027651917
 21
316.0665353329091
 31
0.0
  0
LINE
  5
C92
330
1F
100
AcDbEntity
  8
0
  6
Continuous
 62
     7
100
AcDbLine
 10
635.2165620672678
 20
316.8698333859491
 30
0.0
 11
635.5198472471935
 21
316.4681843594292
 31
0.0
  0
LINE
  5
C93
330
1F
100
AcDbEntity
  8
0
  6
Continuous
 62
     7
100
AcDbLine
 10
638.8234506552236
 20
316.4681843594292
 30
0.0
 11
638.3926338763977
 21
316.0665353329091
 31
0.0
  0
LINE
  5
C94
330
1F
100
AcDbEntity
  8
0
  6
Continuous
 62
     7
100
AcDbLine
 10
638.520093178474
 20
316.8698333859491
 30
0.0
 11
638.8234506552236
 21
316.4681843594292
 31
0.0
  0
LINE
  5
C95
330
1F
100
AcDbEntity
  8
0
  6
Continuous
 62
     7
100
AcDbLine
 10
638.8234506552236
 20
316.4681843594292
 30
0.0
 11
639.1267358351477
 21
316.0665353329091
 31
0.0
  0
LINE
  5
C96
330
1F
100
AcDbEntity
  8
0
  6
Continuous
 62
     7
100
AcDbLine
 10
639.254195137224
 20
316.8698333859491
 30
0.0
 11
638.8234506552236
 21
316.4681843594292
 31
0.0
  0
LINE
  5
C97
330
1F
100
AcDbEntity
  8
0
  6
Continuous
 62
     7
100
AcDbLine
 10
638.966309180976
 20
319.6813765715893
 30
0.0
 11
638.520093178474
 21
316.8698333859491
 31
0.0
  0
LINE
  5
C98
330
1F
100
AcDbEntity
  8
0
  6
Continuous
 62
     7
100
AcDbLine
 10
638.3926338763977
 20
316.0665353329091
 30
0.0
 11
637.9464178738929
 21
313.255072477075
 31
0.0
  0
LINE
  5
C99
330
1F
100
AcDbEntity
  8
0
  6
Continuous
 62
     7
100
AcDbLine
 10
635.3769887214399
 20
313.255072477075
 30
0.0
 11
635.823204723944
 21
316.0665353329091
 31
0.0
  0
LINE
  5
C9A
330
1F
100
AcDbEntity
  8
0
  6
Continuous
 62
     7
100
AcDbLine
 10
635.95066402602
 20
316.8698333859491
 30
0.0
 11
636.3968077316977
 21
319.6813765715893
 31
0.0
  0
LINE
  5
C9B
330
1F
100
AcDbEntity
  8
0
  6
Continuous
 62
     7
100
AcDbLine
 10
635.2165620672678
 20
316.8698333859491
 30
0.0
 11
635.689744785412
 21
319.851756088639
 31
0.0
  0
LINE
  5
C9C
330
1F
100
AcDbEntity
  8
0
  6
Continuous
 62
     7
100
AcDbLine
 10
635.689744785412
 20
319.851756088639
 30
0.0
 11
636.3685396732095
 21
320.4846746246289
 31
0.0
  0
LINE
  5
C9D
330
1F
100
AcDbEntity
  8
0
  6
Continuous
 62
     7
100
AcDbLine
 10
636.3685396732095
 20
320.4846746246289
 30
0.0
 11
639.1385925144118
 21
320.4846746246289
 31
0.0
  0
LINE
  5
C9E
330
1F
100
AcDbEntity
  8
0
  6
Continuous
 62
     7
100
AcDbLine
 10
639.1385925144118
 20
320.4846746246289
 30
0.0
 11
639.7082191968015
 21
319.7304580826293
 31
0.0
  0
LINE
  5
C9F
330
1F
100
AcDbEntity
  8
0
  6
Continuous
 62
     7
100
AcDbLine
 10
639.7082191968015
 20
319.7304580826293
 30
0.0
 11
639.254195137224
 21
316.8698333859491
 31
0.0
  0
LINE
  5
CA0
330
1F
100
AcDbEntity
  8
0
  6
Continuous
 62
     7
100
AcDbLine
 10
635.0891027651917
 20
316.0665353329091
 30
0.0
 11
634.6158477502235
 21
313.0845323004133
 31
0.0
  0
LINE
  5
CA1
330
1F
100
AcDbEntity
  8
0
  6
Continuous
 62
     7
100
AcDbLine
 10
634.6158477502235
 20
313.0845323004133
 30
0.0
 11
635.093802058802
 21
312.4516940942293
 31
0.0
  0
LINE
  5
CA2
330
1F
100
AcDbEntity
  8
0
  6
Continuous
 62
     7
100
AcDbLine
 10
635.093802058802
 20
312.4516940942293
 30
0.0
 11
638.0678042426899
 21
312.4516940942293
 31
0.0
  0
LINE
  5
CA3
330
1F
100
AcDbEntity
  8
0
  6
Continuous
 62
     7
100
AcDbLine
 10
638.0678042426899
 20
312.4516940942293
 30
0.0
 11
638.637358628256
 21
312.9826741072891
 31
0.0
  0
LINE
  5
CA4
330
1F
100
AcDbEntity
  8
0
  6
Continuous
 62
     7
100
AcDbLine
 10
638.637358628256
 20
312.9826741072891
 30
0.0
 11
639.1267358351477
 21
316.0665353329091
 31
0.0
  0
LINE
  5
CA5
330
1F
100
AcDbEntity
  8
0
  6
Continuous
 62
     7
100
AcDbLine
 10
639.4233697071935
 20
320.1076065185312
 30
0.0
 11
638.966309180976
 21
319.6813765715893
 31
0.0
  0
LINE
  5
CA6
330
1F
100
AcDbEntity
  8
0
  6
Continuous
 62
     7
100
AcDbLine
 10
636.0291783777237
 20
320.168255521537
 30
0.0
 11
636.3968077316977
 21
319.6813765715893
 31
0.0
  0
LINE
  5
CA7
330
1F
100
AcDbEntity
  8
0
  6
Continuous
 62
     7
100
AcDbLine
 10
634.854788756102
 20
312.768113197321
 30
0.0
 11
635.3769887214399
 21
313.255072477075
 31
0.0
  0
LINE
  5
CA8
330
1F
100
AcDbEntity
  8
0
  6
Continuous
 62
     7
100
AcDbLine
 10
638.3525814354718
 20
312.7171841007593
 30
0.0
 11
637.9464178738929
 21
313.255072477075
 31
0.0
  0
LINE
  5
CAC
330
1F
100
AcDbEntity
  8
0
  6
Continuous
 62
     7
100
AcDbLine
 10
643.2506640260195
 20
316.8698333859491
 30
0.0
 11
645.8200931784737
 21
316.8698333859491
 31
0.0
  0
LINE
  5
CAD
330
1F
100
AcDbEntity
  8
0
  6
Continuous
 62
     7
100
AcDbLine
 10
643.1232047239434
 20
316.0665353329091
 30
0.0
 11
645.6926338763975
 21
316.0665353329091
 31
0.0
  0
LINE
  5
CAE
330
1F
100
AcDbEntity
  8
0
  6
Continuous
 62
     7
100
AcDbLine
 10
643.6968077316975
 20
319.6813765715893
 30
0.0
 11
646.2663091809758
 21
319.6813765715893
 31
0.0
  0
LINE
  5
CAF
330
1F
100
AcDbEntity
  8
0
  6
Continuous
 62
     7
100
AcDbLine
 10
645.2464178738936
 20
313.255072477075
 30
0.0
 11
642.6769887214415
 21
313.255072477075
 31
0.0
  0
LINE
  5
CB0
330
1F
100
AcDbEntity
  8
0
  6
Continuous
 62
     7
100
AcDbLine
 10
642.8198472471939
 20
316.4681843594292
 30
0.0
 11
643.1232047239434
 21
316.0665353329091
 31
0.0
  0
LINE
  5
CB1
330
1F
100
AcDbEntity
  8
0
  6
Continuous
 62
     7
100
AcDbLine
 10
643.2506640260195
 20
316.8698333859491
 30
0.0
 11
642.8198472471939
 21
316.4681843594292
 31
0.0
  0
LINE
  5
CB2
330
1F
100
AcDbEntity
  8
0
  6
Continuous
 62
     7
100
AcDbLine
 10
642.8198472471939
 20
316.4681843594292
 30
0.0
 11
642.389102765192
 21
316.0665353329091
 31
0.0
  0
LINE
  5
CB3
330
1F
100
AcDbEntity
  8
0
  6
Continuous
 62
     7
100
AcDbLine
 10
642.5165620672678
 20
316.8698333859491
 30
0.0
 11
642.8198472471939
 21
316.4681843594292
 31
0.0
  0
LINE
  5
CB4
330
1F
100
AcDbEntity
  8
0
  6
Continuous
 62
     7
100
AcDbLine
 10
646.1234506552237
 20
316.4681843594292
 30
0.0
 11
645.6926338763975
 21
316.0665353329091
 31
0.0
  0
LINE
  5
CB5
330
1F
100
AcDbEntity
  8
0
  6
Continuous
 62
     7
100
AcDbLine
 10
645.8200931784737
 20
316.8698333859491
 30
0.0
 11
646.1234506552237
 21
316.4681843594292
 31
0.0
  0
LINE
  5
CB6
330
1F
100
AcDbEntity
  8
0
  6
Continuous
 62
     7
100
AcDbLine
 10
646.1234506552237
 20
316.4681843594292
 30
0.0
 11
646.4267358351475
 21
316.0665353329091
 31
0.0
  0
LINE
  5
CB7
330
1F
100
AcDbEntity
  8
0
  6
Continuous
 62
     7
100
AcDbLine
 10
646.5541951372236
 20
316.8698333859491
 30
0.0
 11
646.1234506552237
 21
316.4681843594292
 31
0.0
  0
LINE
  5
CB8
330
1F
100
AcDbEntity
  8
0
  6
Continuous
 62
     7
100
AcDbLine
 10
646.2663091809758
 20
319.6813765715893
 30
0.0
 11
645.8200931784737
 21
316.8698333859491
 31
0.0
  0
LINE
  5
CB9
330
1F
100
AcDbEntity
  8
0
  6
Continuous
 62
     7
100
AcDbLine
 10
645.6926338763975
 20
316.0665353329091
 30
0.0
 11
645.2464178738936
 21
313.255072477075
 31
0.0
  0
LINE
  5
CBA
330
1F
100
AcDbEntity
  8
0
  6
Continuous
 62
     7
100
AcDbLine
 10
642.6769887214415
 20
313.255072477075
 30
0.0
 11
643.1232047239434
 21
316.0665353329091
 31
0.0
  0
LINE
  5
CBB
330
1F
100
AcDbEntity
  8
0
  6
Continuous
 62
     7
100
AcDbLine
 10
643.2506640260195
 20
316.8698333859491
 30
0.0
 11
643.6968077316975
 21
319.6813765715893
 31
0.0
  0
LINE
  5
CBC
330
1F
100
AcDbEntity
  8
0
  6
Continuous
 62
     7
100
AcDbLine
 10
642.5165620672678
 20
316.8698333859491
 30
0.0
 11
642.9897447854117
 21
319.851756088639
 31
0.0
  0
LINE
  5
CBD
330
1F
100
AcDbEntity
  8
0
  6
Continuous
 62
     7
100
AcDbLine
 10
642.9897447854117
 20
319.851756088639
 30
0.0
 11
643.6685396732115
 21
320.4846746246289
 31
0.0
  0
LINE
  5
CBE
330
1F
100
AcDbEntity
  8
0
  6
Continuous
 62
     7
100
AcDbLine
 10
643.6685396732115
 20
320.4846746246289
 30
0.0
 11
646.4385925144116
 21
320.4846746246289
 31
0.0
  0
LINE
  5
CBF
330
1F
100
AcDbEntity
  8
0
  6
Continuous
 62
     7
100
AcDbLine
 10
646.4385925144116
 20
320.4846746246289
 30
0.0
 11
647.0082191968018
 21
319.7304580826293
 31
0.0
  0
LINE
  5
CC0
330
1F
100
AcDbEntity
  8
0
  6
Continuous
 62
     7
100
AcDbLine
 10
647.0082191968018
 20
319.7304580826293
 30
0.0
 11
646.5541951372236
 21
316.8698333859491
 31
0.0
  0
LINE
  5
CC1
330
1F
100
AcDbEntity
  8
0
  6
Continuous
 62
     7
100
AcDbLine
 10
642.389102765192
 20
316.0665353329091
 30
0.0
 11
641.9158477502239
 21
313.0845323004133
 31
0.0
  0
LINE
  5
CC2
330
1F
100
AcDbEntity
  8
0
  6
Continuous
 62
     7
100
AcDbLine
 10
641.9158477502239
 20
313.0845323004133
 30
0.0
 11
642.3938020588015
 21
312.4516940942293
 31
0.0
  0
LINE
  5
CC3
330
1F
100
AcDbEntity
  8
0
  6
Continuous
 62
     7
100
AcDbLine
 10
642.3938020588015
 20
312.4516940942293
 30
0.0
 11
645.3678042426895
 21
312.4516940942293
 31
0.0
  0
LINE
  5
CC4
330
1F
100
AcDbEntity
  8
0
  6
Continuous
 62
     7
100
AcDbLine
 10
645.3678042426895
 20
312.4516940942293
 30
0.0
 11
645.9373586282558
 21
312.9826741072891
 31
0.0
  0
LINE
  5
CC5
330
1F
100
AcDbEntity
  8
0
  6
Continuous
 62
     7
100
AcDbLine
 10
645.9373586282558
 20
312.9826741072891
 30
0.0
 11
646.4267358351475
 21
316.0665353329091
 31
0.0
  0
LINE
  5
CC6
330
1F
100
AcDbEntity
  8
0
  6
Continuous
 62
     7
100
AcDbLine
 10
646.7233697071938
 20
320.1076065185312
 30
0.0
 11
646.2663091809758
 21
319.6813765715893
 31
0.0
  0
LINE
  5
CC7
330
1F
100
AcDbEntity
  8
0
  6
Continuous
 62
     7
100
AcDbLine
 10
643.3291783777232
 20
320.168255521537
 30
0.0
 11
643.6968077316975
 21
319.6813765715893
 31
0.0
  0
LINE
  5
CC8
330
1F
100
AcDbEntity
  8
0
  6
Continuous
 62
     7
100
AcDbLine
 10
642.1547887561017
 20
312.768113197321
 30
0.0
 11
642.6769887214415
 21
313.255072477075
 31
0.0
  0
LINE
  5
CC9
330
1F
100
AcDbEntity
  8
0
  6
Continuous
 62
     7
100
AcDbLine
 10
645.6525814354721
 20
312.7171841007593
 30
0.0
 11
645.2464178738936
 21
313.255072477075
 31
0.0
  0
LINE
  5
CCD
330
1F
100
AcDbEntity
  8
0
  6
Continuous
 62
     7
100
AcDbLine
 10
624.2234506552233
 20
331.8681843594296
 30
0.0
 11
623.7926338763977
 21
331.4665353329093
 31
0.0
  0
LINE
  5
CCE
330
1F
100
AcDbEntity
  8
0
  6
Continuous
 62
     7
100
AcDbLine
 10
623.9200931784741
 20
332.2698333859491
 30
0.0
 11
624.2234506552233
 21
331.8681843594296
 31
0.0
  0
LINE
  5
CCF
330
1F
100
AcDbEntity
  8
0
  6
Continuous
 62
     7
100
AcDbLine
 10
624.2234506552233
 20
331.8681843594296
 30
0.0
 11
624.5267358351477
 21
331.4665353329093
 31
0.0
  0
LINE
  5
CD0
330
1F
100
AcDbEntity
  8
0
  6
Continuous
 62
     7
100
AcDbLine
 10
624.6541951372241
 20
332.2698333859491
 30
0.0
 11
624.2234506552233
 21
331.8681843594296
 31
0.0
  0
LINE
  5
CD1
330
1F
100
AcDbEntity
  8
0
  6
Continuous
 62
     7
100
AcDbLine
 10
624.3663091809761
 20
335.0813765715893
 30
0.0
 11
623.9200931784741
 21
332.2698333859491
 31
0.0
  0
LINE
  5
CD2
330
1F
100
AcDbEntity
  8
0
  6
Continuous
 62
     7
100
AcDbLine
 10
623.7926338763977
 20
331.4665353329093
 30
0.0
 11
623.3464178738938
 21
328.6550724770754
 31
0.0
  0
LINE
  5
CD3
330
1F
100
AcDbEntity
  8
0
  6
Continuous
 62
     7
100
AcDbLine
 10
624.5385925144114
 20
335.8846746246295
 30
0.0
 11
625.1082191968015
 21
335.1304580826292
 31
0.0
  0
LINE
  5
CD4
330
1F
100
AcDbEntity
  8
0
  6
Continuous
 62
     7
100
AcDbLine
 10
625.1082191968015
 20
335.1304580826292
 30
0.0
 11
624.6541951372241
 21
332.2698333859491
 31
0.0
  0
LINE
  5
CD5
330
1F
100
AcDbEntity
  8
0
  6
Continuous
 62
     7
100
AcDbLine
 10
623.4678042426899
 20
327.8516940942291
 30
0.0
 11
624.037358628255
 21
328.382674107289
 31
0.0
  0
LINE
  5
CD6
330
1F
100
AcDbEntity
  8
0
  6
Continuous
 62
     7
100
AcDbLine
 10
624.037358628255
 20
328.382674107289
 30
0.0
 11
624.5267358351477
 21
331.4665353329093
 31
0.0
  0
LINE
  5
CD7
330
1F
100
AcDbEntity
  8
0
  6
Continuous
 62
     7
100
AcDbLine
 10
624.8233697071936
 20
335.5076065185311
 30
0.0
 11
624.3663091809761
 21
335.0813765715893
 31
0.0
  0
LINE
  5
CD8
330
1F
100
AcDbEntity
  8
0
  6
Continuous
 62
     7
100
AcDbLine
 10
623.752581435472
 20
328.1171841007592
 30
0.0
 11
623.3464178738938
 21
328.6550724770754
 31
0.0
  0
LINE
  5
CDC
330
1F
100
AcDbEntity
  8
0
  6
Continuous
 62
     7
100
AcDbLine
 10
628.6506640260196
 20
332.2698333859491
 30
0.0
 11
631.2200931784738
 21
332.2698333859491
 31
0.0
  0
LINE
  5
CDD
330
1F
100
AcDbEntity
  8
0
  6
Continuous
 62
     7
100
AcDbLine
 10
628.5232047239436
 20
331.4665353329093
 30
0.0
 11
631.092633876398
 21
331.4665353329093
 31
0.0
  0
LINE
  5
CDE
330
1F
100
AcDbEntity
  8
0
  6
Continuous
 62
     7
100
AcDbLine
 10
629.0968077316976
 20
335.0813765715893
 30
0.0
 11
631.6663091809759
 21
335.0813765715893
 31
0.0
  0
LINE
  5
CDF
330
1F
100
AcDbEntity
  8
0
  6
Continuous
 62
     7
100
AcDbLine
 10
630.6464178738933
 20
328.6550724770754
 30
0.0
 11
628.0769887214415
 21
328.6550724770754
 31
0.0
  0
LINE
  5
CE0
330
1F
100
AcDbEntity
  8
0
  6
Continuous
 62
     7
100
AcDbLine
 10
628.2198472471939
 20
331.8681843594296
 30
0.0
 11
628.5232047239436
 21
331.4665353329093
 31
0.0
  0
LINE
  5
CE1
330
1F
100
AcDbEntity
  8
0
  6
Continuous
 62
     7
100
AcDbLine
 10
628.6506640260196
 20
332.2698333859491
 30
0.0
 11
628.2198472471939
 21
331.8681843594296
 31
0.0
  0
LINE
  5
CE2
330
1F
100
AcDbEntity
  8
0
  6
Continuous
 62
     7
100
AcDbLine
 10
628.2198472471939
 20
331.8681843594296
 30
0.0
 11
627.7891027651921
 21
331.4665353329093
 31
0.0
  0
LINE
  5
CE3
330
1F
100
AcDbEntity
  8
0
  6
Continuous
 62
     7
100
AcDbLine
 10
627.916562067268
 20
332.2698333859491
 30
0.0
 11
628.2198472471939
 21
331.8681843594296
 31
0.0
  0
LINE
  5
CE4
330
1F
100
AcDbEntity
  8
0
  6
Continuous
 62
     7
100
AcDbLine
 10
631.5234506552237
 20
331.8681843594296
 30
0.0
 11
631.092633876398
 21
331.4665353329093
 31
0.0
  0
LINE
  5
CE5
330
1F
100
AcDbEntity
  8
0
  6
Continuous
 62
     7
100
AcDbLine
 10
631.2200931784738
 20
332.2698333859491
 30
0.0
 11
631.5234506552237
 21
331.8681843594296
 31
0.0
  0
LINE
  5
CE6
330
1F
100
AcDbEntity
  8
0
  6
Continuous
 62
     7
100
AcDbLine
 10
631.5234506552237
 20
331.8681843594296
 30
0.0
 11
631.8267358351477
 21
331.4665353329093
 31
0.0
  0
LINE
  5
CE7
330
1F
100
AcDbEntity
  8
0
  6
Continuous
 62
     7
100
AcDbLine
 10
631.954195137224
 20
332.2698333859491
 30
0.0
 11
631.5234506552237
 21
331.8681843594296
 31
0.0
  0
LINE
  5
CE8
330
1F
100
AcDbEntity
  8
0
  6
Continuous
 62
     7
100
AcDbLine
 10
631.6663091809759
 20
335.0813765715893
 30
0.0
 11
631.2200931784738
 21
332.2698333859491
 31
0.0
  0
LINE
  5
CE9
330
1F
100
AcDbEntity
  8
0
  6
Continuous
 62
     7
100
AcDbLine
 10
631.092633876398
 20
331.4665353329093
 30
0.0
 11
630.6464178738933
 21
328.6550724770754
 31
0.0
  0
LINE
  5
CEA
330
1F
100
AcDbEntity
  8
0
  6
Continuous
 62
     7
100
AcDbLine
 10
628.0769887214415
 20
328.6550724770754
 30
0.0
 11
628.5232047239436
 21
331.4665353329093
 31
0.0
  0
LINE
  5
CEB
330
1F
100
AcDbEntity
  8
0
  6
Continuous
 62
     7
100
AcDbLine
 10
628.6506640260196
 20
332.2698333859491
 30
0.0
 11
629.0968077316976
 21
335.0813765715893
 31
0.0
  0
LINE
  5
CEC
330
1F
100
AcDbEntity
  8
0
  6
Continuous
 62
     7
100
AcDbLine
 10
627.916562067268
 20
332.2698333859491
 30
0.0
 11
628.3897447854116
 21
335.2517560886393
 31
0.0
  0
LINE
  5
CED
330
1F
100
AcDbEntity
  8
0
  6
Continuous
 62
     7
100
AcDbLine
 10
628.3897447854116
 20
335.2517560886393
 30
0.0
 11
629.0685396732097
 21
335.8846746246295
 31
0.0
  0
LINE
  5
CEE
330
1F
100
AcDbEntity
  8
0
  6
Continuous
 62
     7
100
AcDbLine
 10
629.0685396732097
 20
335.8846746246295
 30
0.0
 11
631.8385925144115
 21
335.8846746246295
 31
0.0
  0
LINE
  5
CEF
330
1F
100
AcDbEntity
  8
0
  6
Continuous
 62
     7
100
AcDbLine
 10
631.8385925144115
 20
335.8846746246295
 30
0.0
 11
632.4082191968019
 21
335.1304580826292
 31
0.0
  0
LINE
  5
CF0
330
1F
100
AcDbEntity
  8
0
  6
Continuous
 62
     7
100
AcDbLine
 10
632.4082191968019
 20
335.1304580826292
 30
0.0
 11
631.954195137224
 21
332.2698333859491
 31
0.0
  0
LINE
  5
CF1
330
1F
100
AcDbEntity
  8
0
  6
Continuous
 62
     7
100
AcDbLine
 10
627.7891027651921
 20
331.4665353329093
 30
0.0
 11
627.3158477502238
 21
328.484532300413
 31
0.0
  0
LINE
  5
CF2
330
1F
100
AcDbEntity
  8
0
  6
Continuous
 62
     7
100
AcDbLine
 10
627.3158477502238
 20
328.484532300413
 30
0.0
 11
627.7938020588017
 21
327.8516940942291
 31
0.0
  0
LINE
  5
CF3
330
1F
100
AcDbEntity
  8
0
  6
Continuous
 62
     7
100
AcDbLine
 10
627.7938020588017
 20
327.8516940942291
 30
0.0
 11
630.7678042426895
 21
327.8516940942291
 31
0.0
  0
LINE
  5
CF4
330
1F
100
AcDbEntity
  8
0
  6
Continuous
 62
     7
100
AcDbLine
 10
630.7678042426895
 20
327.8516940942291
 30
0.0
 11
631.3373586282559
 21
328.382674107289
 31
0.0
  0
LINE
  5
CF5
330
1F
100
AcDbEntity
  8
0
  6
Continuous
 62
     7
100
AcDbLine
 10
631.3373586282559
 20
328.382674107289
 30
0.0
 11
631.8267358351477
 21
331.4665353329093
 31
0.0
  0
LINE
  5
CF6
330
1F
100
AcDbEntity
  8
0
  6
Continuous
 62
     7
100
AcDbLine
 10
632.123369707194
 20
335.5076065185311
 30
0.0
 11
631.6663091809759
 21
335.0813765715893
 31
0.0
  0
LINE
  5
CF7
330
1F
100
AcDbEntity
  8
0
  6
Continuous
 62
     7
100
AcDbLine
 10
628.7291783777234
 20
335.5682555215371
 30
0.0
 11
629.0968077316976
 21
335.0813765715893
 31
0.0
  0
LINE
  5
CF8
330
1F
100
AcDbEntity
  8
0
  6
Continuous
 62
     7
100
AcDbLine
 10
627.5547887561016
 20
328.1681131973213
 30
0.0
 11
628.0769887214415
 21
328.6550724770754
 31
0.0
  0
LINE
  5
CF9
330
1F
100
AcDbEntity
  8
0
  6
Continuous
 62
     7
100
AcDbLine
 10
631.0525814354718
 20
328.1171841007592
 30
0.0
 11
630.6464178738933
 21
328.6550724770754
 31
0.0
  0
LINE
  5
CFD
330
1F
100
AcDbEntity
  8
0
  6
Continuous
 62
     7
100
AcDbLine
 10
635.95066402602
 20
332.2698333859491
 30
0.0
 11
638.520093178474
 21
332.2698333859491
 31
0.0
  0
LINE
  5
CFE
330
1F
100
AcDbEntity
  8
0
  6
Continuous
 62
     7
100
AcDbLine
 10
635.823204723944
 20
331.4665353329093
 30
0.0
 11
638.3926338763977
 21
331.4665353329093
 31
0.0
  0
LINE
  5
CFF
330
1F
100
AcDbEntity
  8
0
  6
Continuous
 62
     7
100
AcDbLine
 10
636.3968077316977
 20
335.0813765715893
 30
0.0
 11
638.966309180976
 21
335.0813765715893
 31
0.0
  0
LINE
  5
D00
330
1F
100
AcDbEntity
  8
0
  6
Continuous
 62
     7
100
AcDbLine
 10
637.9464178738929
 20
328.6550724770754
 30
0.0
 11
635.3769887214399
 21
328.6550724770754
 31
0.0
  0
LINE
  5
D01
330
1F
100
AcDbEntity
  8
0
  6
Continuous
 62
     7
100
AcDbLine
 10
635.5198472471935
 20
331.8681843594296
 30
0.0
 11
635.823204723944
 21
331.4665353329093
 31
0.0
  0
LINE
  5
D02
330
1F
100
AcDbEntity
  8
0
  6
Continuous
 62
     7
100
AcDbLine
 10
635.95066402602
 20
332.2698333859491
 30
0.0
 11
635.5198472471935
 21
331.8681843594296
 31
0.0
  0
LINE
  5
D03
330
1F
100
AcDbEntity
  8
0
  6
Continuous
 62
     7
100
AcDbLine
 10
635.5198472471935
 20
331.8681843594296
 30
0.0
 11
635.0891027651917
 21
331.4665353329093
 31
0.0
  0
LINE
  5
D04
330
1F
100
AcDbEntity
  8
0
  6
Continuous
 62
     7
100
AcDbLine
 10
635.2165620672678
 20
332.2698333859491
 30
0.0
 11
635.5198472471935
 21
331.8681843594296
 31
0.0
  0
LINE
  5
D05
330
1F
100
AcDbEntity
  8
0
  6
Continuous
 62
     7
100
AcDbLine
 10
638.8234506552236
 20
331.8681843594296
 30
0.0
 11
638.3926338763977
 21
331.4665353329093
 31
0.0
  0
LINE
  5
D06
330
1F
100
AcDbEntity
  8
0
  6
Continuous
 62
     7
100
AcDbLine
 10
638.520093178474
 20
332.2698333859491
 30
0.0
 11
638.8234506552236
 21
331.8681843594296
 31
0.0
  0
LINE
  5
D07
330
1F
100
AcDbEntity
  8
0
  6
Continuous
 62
     7
100
AcDbLine
 10
638.8234506552236
 20
331.8681843594296
 30
0.0
 11
639.1267358351477
 21
331.4665353329093
 31
0.0
  0
LINE
  5
D08
330
1F
100
AcDbEntity
  8
0
  6
Continuous
 62
     7
100
AcDbLine
 10
639.254195137224
 20
332.2698333859491
 30
0.0
 11
638.8234506552236
 21
331.8681843594296
 31
0.0
  0
LINE
  5
D09
330
1F
100
AcDbEntity
  8
0
  6
Continuous
 62
     7
100
AcDbLine
 10
638.966309180976
 20
335.0813765715893
 30
0.0
 11
638.520093178474
 21
332.2698333859491
 31
0.0
  0
LINE
  5
D0A
330
1F
100
AcDbEntity
  8
0
  6
Continuous
 62
     7
100
AcDbLine
 10
638.3926338763977
 20
331.4665353329093
 30
0.0
 11
637.9464178738929
 21
328.6550724770754
 31
0.0
  0
LINE
  5
D0B
330
1F
100
AcDbEntity
  8
0
  6
Continuous
 62
     7
100
AcDbLine
 10
635.3769887214399
 20
328.6550724770754
 30
0.0
 11
635.823204723944
 21
331.4665353329093
 31
0.0
  0
LINE
  5
D0C
330
1F
100
AcDbEntity
  8
0
  6
Continuous
 62
     7
100
AcDbLine
 10
635.95066402602
 20
332.2698333859491
 30
0.0
 11
636.3968077316977
 21
335.0813765715893
 31
0.0
  0
LINE
  5
D0D
330
1F
100
AcDbEntity
  8
0
  6
Continuous
 62
     7
100
AcDbLine
 10
635.2165620672678
 20
332.2698333859491
 30
0.0
 11
635.689744785412
 21
335.2517560886393
 31
0.0
  0
LINE
  5
D0E
330
1F
100
AcDbEntity
  8
0
  6
Continuous
 62
     7
100
AcDbLine
 10
635.689744785412
 20
335.2517560886393
 30
0.0
 11
636.3685396732095
 21
335.8846746246295
 31
0.0
  0
LINE
  5
D0F
330
1F
100
AcDbEntity
  8
0
  6
Continuous
 62
     7
100
AcDbLine
 10
636.3685396732095
 20
335.8846746246295
 30
0.0
 11
639.1385925144118
 21
335.8846746246295
 31
0.0
  0
LINE
  5
D10
330
1F
100
AcDbEntity
  8
0
  6
Continuous
 62
     7
100
AcDbLine
 10
639.1385925144118
 20
335.8846746246295
 30
0.0
 11
639.7082191968015
 21
335.1304580826292
 31
0.0
  0
LINE
  5
D11
330
1F
100
AcDbEntity
  8
0
  6
Continuous
 62
     7
100
AcDbLine
 10
639.7082191968015
 20
335.1304580826292
 30
0.0
 11
639.254195137224
 21
332.2698333859491
 31
0.0
  0
LINE
  5
D12
330
1F
100
AcDbEntity
  8
0
  6
Continuous
 62
     7
100
AcDbLine
 10
635.0891027651917
 20
331.4665353329093
 30
0.0
 11
634.6158477502235
 21
328.484532300413
 31
0.0
  0
LINE
  5
D13
330
1F
100
AcDbEntity
  8
0
  6
Continuous
 62
     7
100
AcDbLine
 10
634.6158477502235
 20
328.484532300413
 30
0.0
 11
635.093802058802
 21
327.8516940942291
 31
0.0
  0
LINE
  5
D14
330
1F
100
AcDbEntity
  8
0
  6
Continuous
 62
     7
100
AcDbLine
 10
635.093802058802
 20
327.8516940942291
 30
0.0
 11
638.0678042426899
 21
327.8516940942291
 31
0.0
  0
LINE
  5
D15
330
1F
100
AcDbEntity
  8
0
  6
Continuous
 62
     7
100
AcDbLine
 10
638.0678042426899
 20
327.8516940942291
 30
0.0
 11
638.637358628256
 21
328.382674107289
 31
0.0
  0
LINE
  5
D16
330
1F
100
AcDbEntity
  8
0
  6
Continuous
 62
     7
100
AcDbLine
 10
638.637358628256
 20
328.382674107289
 30
0.0
 11
639.1267358351477
 21
331.4665353329093
 31
0.0
  0
LINE
  5
D17
330
1F
100
AcDbEntity
  8
0
  6
Continuous
 62
     7
100
AcDbLine
 10
639.4233697071935
 20
335.5076065185311
 30
0.0
 11
638.966309180976
 21
335.0813765715893
 31
0.0
  0
LINE
  5
D18
330
1F
100
AcDbEntity
  8
0
  6
Continuous
 62
     7
100
AcDbLine
 10
636.0291783777237
 20
335.5682555215371
 30
0.0
 11
636.3968077316977
 21
335.0813765715893
 31
0.0
  0
LINE
  5
D19
330
1F
100
AcDbEntity
  8
0
  6
Continuous
 62
     7
100
AcDbLine
 10
634.854788756102
 20
328.1681131973213
 30
0.0
 11
635.3769887214399
 21
328.6550724770754
 31
0.0
  0
LINE
  5
D1A
330
1F
100
AcDbEntity
  8
0
  6
Continuous
 62
     7
100
AcDbLine
 10
638.3525814354718
 20
328.1171841007592
 30
0.0
 11
637.9464178738929
 21
328.6550724770754
 31
0.0
  0
LINE
  5
D1E
330
1F
100
AcDbEntity
  8
0
  6
Continuous
 62
     7
100
AcDbLine
 10
643.2506640260195
 20
332.2698333859491
 30
0.0
 11
645.8200931784737
 21
332.2698333859491
 31
0.0
  0
LINE
  5
D1F
330
1F
100
AcDbEntity
  8
0
  6
Continuous
 62
     7
100
AcDbLine
 10
643.1232047239434
 20
331.4665353329093
 30
0.0
 11
645.6926338763975
 21
331.4665353329093
 31
0.0
  0
LINE
  5
D20
330
1F
100
AcDbEntity
  8
0
  6
Continuous
 62
     7
100
AcDbLine
 10
643.6968077316975
 20
335.0813765715893
 30
0.0
 11
646.2663091809758
 21
335.0813765715893
 31
0.0
  0
LINE
  5
D21
330
1F
100
AcDbEntity
  8
0
  6
Continuous
 62
     7
100
AcDbLine
 10
645.2464178738936
 20
328.6550724770754
 30
0.0
 11
642.6769887214415
 21
328.6550724770754
 31
0.0
  0
LINE
  5
D22
330
1F
100
AcDbEntity
  8
0
  6
Continuous
 62
     7
100
AcDbLine
 10
642.8198472471939
 20
331.8681843594296
 30
0.0
 11
643.1232047239434
 21
331.4665353329093
 31
0.0
  0
LINE
  5
D23
330
1F
100
AcDbEntity
  8
0
  6
Continuous
 62
     7
100
AcDbLine
 10
643.2506640260195
 20
332.2698333859491
 30
0.0
 11
642.8198472471939
 21
331.8681843594296
 31
0.0
  0
LINE
  5
D24
330
1F
100
AcDbEntity
  8
0
  6
Continuous
 62
     7
100
AcDbLine
 10
642.8198472471939
 20
331.8681843594296
 30
0.0
 11
642.389102765192
 21
331.4665353329093
 31
0.0
  0
LINE
  5
D25
330
1F
100
AcDbEntity
  8
0
  6
Continuous
 62
     7
100
AcDbLine
 10
642.5165620672678
 20
332.2698333859491
 30
0.0
 11
642.8198472471939
 21
331.8681843594296
 31
0.0
  0
LINE
  5
D26
330
1F
100
AcDbEntity
  8
0
  6
Continuous
 62
     7
100
AcDbLine
 10
646.1234506552237
 20
331.8681843594296
 30
0.0
 11
645.6926338763975
 21
331.4665353329093
 31
0.0
  0
LINE
  5
D27
330
1F
100
AcDbEntity
  8
0
  6
Continuous
 62
     7
100
AcDbLine
 10
645.8200931784737
 20
332.2698333859491
 30
0.0
 11
646.1234506552237
 21
331.8681843594296
 31
0.0
  0
LINE
  5
D28
330
1F
100
AcDbEntity
  8
0
  6
Continuous
 62
     7
100
AcDbLine
 10
646.1234506552237
 20
331.8681843594296
 30
0.0
 11
646.4267358351475
 21
331.4665353329093
 31
0.0
  0
LINE
  5
D29
330
1F
100
AcDbEntity
  8
0
  6
Continuous
 62
     7
100
AcDbLine
 10
646.5541951372236
 20
332.2698333859491
 30
0.0
 11
646.1234506552237
 21
331.8681843594296
 31
0.0
  0
LINE
  5
D2A
330
1F
100
AcDbEntity
  8
0
  6
Continuous
 62
     7
100
AcDbLine
 10
646.2663091809758
 20
335.0813765715893
 30
0.0
 11
645.8200931784737
 21
332.2698333859491
 31
0.0
  0
LINE
  5
D2B
330
1F
100
AcDbEntity
  8
0
  6
Continuous
 62
     7
100
AcDbLine
 10
645.6926338763975
 20
331.4665353329093
 30
0.0
 11
645.2464178738936
 21
328.6550724770754
 31
0.0
  0
LINE
  5
D2C
330
1F
100
AcDbEntity
  8
0
  6
Continuous
 62
     7
100
AcDbLine
 10
642.6769887214415
 20
328.6550724770754
 30
0.0
 11
643.1232047239434
 21
331.4665353329093
 31
0.0
  0
LINE
  5
D2D
330
1F
100
AcDbEntity
  8
0
  6
Continuous
 62
     7
100
AcDbLine
 10
643.2506640260195
 20
332.2698333859491
 30
0.0
 11
643.6968077316975
 21
335.0813765715893
 31
0.0
  0
LINE
  5
D2E
330
1F
100
AcDbEntity
  8
0
  6
Continuous
 62
     7
100
AcDbLine
 10
642.5165620672678
 20
332.2698333859491
 30
0.0
 11
642.9897447854117
 21
335.2517560886393
 31
0.0
  0
LINE
  5
D2F
330
1F
100
AcDbEntity
  8
0
  6
Continuous
 62
     7
100
AcDbLine
 10
642.9897447854117
 20
335.2517560886393
 30
0.0
 11
643.6685396732115
 21
335.8846746246295
 31
0.0
  0
LINE
  5
D30
330
1F
100
AcDbEntity
  8
0
  6
Continuous
 62
     7
100
AcDbLine
 10
643.6685396732115
 20
335.8846746246295
 30
0.0
 11
646.4385925144116
 21
335.8846746246295
 31
0.0
  0
LINE
  5
D31
330
1F
100
AcDbEntity
  8
0
  6
Continuous
 62
     7
100
AcDbLine
 10
646.4385925144116
 20
335.8846746246295
 30
0.0
 11
647.0082191968018
 21
335.1304580826292
 31
0.0
  0
LINE
  5
D32
330
1F
100
AcDbEntity
  8
0
  6
Continuous
 62
     7
100
AcDbLine
 10
647.0082191968018
 20
335.1304580826292
 30
0.0
 11
646.5541951372236
 21
332.2698333859491
 31
0.0
  0
LINE
  5
D33
330
1F
100
AcDbEntity
  8
0
  6
Continuous
 62
     7
100
AcDbLine
 10
642.389102765192
 20
331.4665353329093
 30
0.0
 11
641.9158477502239
 21
328.484532300413
 31
0.0
  0
LINE
  5
D34
330
1F
100
AcDbEntity
  8
0
  6
Continuous
 62
     7
100
AcDbLine
 10
641.9158477502239
 20
328.484532300413
 30
0.0
 11
642.3938020588015
 21
327.8516940942291
 31
0.0
  0
LINE
  5
D35
330
1F
100
AcDbEntity
  8
0
  6
Continuous
 62
     7
100
AcDbLine
 10
642.3938020588015
 20
327.8516940942291
 30
0.0
 11
645.3678042426895
 21
327.8516940942291
 31
0.0
  0
LINE
  5
D36
330
1F
100
AcDbEntity
  8
0
  6
Continuous
 62
     7
100
AcDbLine
 10
645.3678042426895
 20
327.8516940942291
 30
0.0
 11
645.9373586282558
 21
328.382674107289
 31
0.0
  0
LINE
  5
D37
330
1F
100
AcDbEntity
  8
0
  6
Continuous
 62
     7
100
AcDbLine
 10
645.9373586282558
 20
328.382674107289
 30
0.0
 11
646.4267358351475
 21
331.4665353329093
 31
0.0
  0
LINE
  5
D38
330
1F
100
AcDbEntity
  8
0
  6
Continuous
 62
     7
100
AcDbLine
 10
646.7233697071938
 20
335.5076065185311
 30
0.0
 11
646.2663091809758
 21
335.0813765715893
 31
0.0
  0
LINE
  5
D39
330
1F
100
AcDbEntity
  8
0
  6
Continuous
 62
     7
100
AcDbLine
 10
643.3291783777232
 20
335.5682555215371
 30
0.0
 11
643.6968077316975
 21
335.0813765715893
 31
0.0
  0
LINE
  5
D3A
330
1F
100
AcDbEntity
  8
0
  6
Continuous
 62
     7
100
AcDbLine
 10
642.1547887561017
 20
328.1681131973213
 30
0.0
 11
642.6769887214415
 21
328.6550724770754
 31
0.0
  0
LINE
  5
D3B
330
1F
100
AcDbEntity
  8
0
  6
Continuous
 62
     7
100
AcDbLine
 10
645.6525814354721
 20
328.1171841007592
 30
0.0
 11
645.2464178738936
 21
328.6550724770754
 31
0.0
  0
ARC
  5
D3C
330
1F
100
AcDbEntity
  8
0
  6
Continuous
 62
     7
100
AcDbCircle
 10
647.0209851204635
 20
312.4681833427835
 30
0.0
 40
1.000000000000176
100
AcDbArc
 50
270.000000000013
 51
359.9999999999901
  0
ARC
  5
D3D
330
1F
100
AcDbEntity
  8
0
  6
Continuous
 62
     7
100
AcDbCircle
 10
647.0209851204635
 20
320.4681833427828
 30
0.0
 40
1.000000000000227
100
AcDbArc
 50
0.0000000000097707
 51
89.99999999998697
  0
LINE
  5
D3E
330
1F
100
AcDbEntity
  8
0
  6
Continuous
 62
     7
100
AcDbLine
 10
648.0209851204635
 20
320.468183342783
 30
0.0
 11
648.0209851204635
 21
312.468183342783
 31
0.0
  0
ARC
  5
D3F
330
1F
100
AcDbEntity
  8
0
  6
Continuous
 62
     7
100
AcDbCircle
 10
647.0209851204635
 20
327.8681833427832
 30
0.0
 40
1.00000000000017
100
AcDbArc
 50
270.000000000013
 51
359.9999999999901
  0
ARC
  5
D40
330
1F
100
AcDbEntity
  8
0
  6
Continuous
 62
     7
100
AcDbCircle
 10
647.0209851204635
 20
335.8681833427828
 30
0.0
 40
1.000000000000227
100
AcDbArc
 50
0.0000000000097707
 51
89.99999999998697
  0
LINE
  5
D41
330
1F
100
AcDbEntity
  8
0
  6
Continuous
 62
     7
100
AcDbLine
 10
648.0209851204635
 20
335.868183342783
 30
0.0
 11
648.0209851204635
 21
327.868183342783
 31
0.0
  0
ARC
  5
D42
330
1F
100
AcDbEntity
  8
0
  6
Continuous
 62
     7
100
AcDbCircle
 10
654.520985120463
 20
343.4681833427832
 30
0.0
 40
1.000000000000227
100
AcDbArc
 50
0.0000000000032569
 51
89.99999999997395
  0
LINE
  5
D43
330
1F
100
AcDbEntity
  8
0
  6
Continuous
 62
     7
100
AcDbLine
 10
629.5209851204638
 20
353.4681833427831
 30
0.0
 11
629.5209851204638
 21
350.4681833427833
 31
0.0
  0
LINE
  5
D44
330
1F
100
AcDbEntity
  8
0
  6
Continuous
 62
     7
100
AcDbLine
 10
637.5209851204638
 20
353.4681833427831
 30
0.0
 11
637.5209851204638
 21
350.4681833427833
 31
0.0
  0
ARC
  5
D45
330
1F
100
AcDbEntity
  8
0
  6
Continuous
 62
     7
100
AcDbCircle
 10
654.520985120463
 20
343.4681833427832
 30
0.0
 40
1.000000000000227
100
AcDbArc
 50
0.0000000000032569
 51
89.99999999997395
  0
ARC
  5
D46
330
1F
100
AcDbEntity
  8
0
  6
Continuous
 62
     7
100
AcDbCircle
 10
633.5209851204633
 20
350.4681833427833
 30
0.0
 40
4.0
100
AcDbArc
 50
180.0
 51
0.0
  0
ARC
  5
D47
330
1F
100
AcDbEntity
  8
0
  6
Continuous
 62
     7
100
AcDbCircle
 10
656.520985120463
 20
351.4681833427828
 30
0.0
 40
2.000000000000226
100
AcDbArc
 50
0.0000000000097707
 51
89.99999999999348
  0
LINE
  5
D48
330
1F
100
AcDbEntity
  8
0
  6
Continuous
 62
     7
100
AcDbLine
 10
634.0209851204519
 20
352.4681833428111
 30
0.0
 11
634.0209851204519
 21
352.4681833428111
 31
0.0
  0
LINE
  5
D49
330
1F
100
AcDbEntity
  8
0
  6
Continuous
 62
     7
100
AcDbLine
 10
634.0209851204597
 20
350.9681833427993
 30
0.0
 11
634.0209851204519
 21
352.4681833428111
 31
0.0
  0
LINE
  5
D4A
330
1F
100
AcDbEntity
  8
0
  6
Continuous
 62
     7
100
AcDbLine
 10
635.5209851204599
 20
350.9681833428071
 30
0.0
 11
634.0209851204597
 21
350.9681833427993
 31
0.0
  0
LINE
  5
D4B
330
1F
100
AcDbEntity
  8
0
  6
Continuous
 62
     7
100
AcDbLine
 10
635.5209851204657
 20
349.9681833428193
 30
0.0
 11
635.5209851204599
 21
350.9681833428071
 31
0.0
  0
LINE
  5
D4C
330
1F
100
AcDbEntity
  8
0
  6
Continuous
 62
     7
100
AcDbLine
 10
634.0209851204654
 20
349.9681833428113
 30
0.0
 11
635.5209851204657
 21
349.9681833428193
 31
0.0
  0
LINE
  5
D4D
330
1F
100
AcDbEntity
  8
0
  6
Continuous
 62
     7
100
AcDbLine
 10
634.0209851204734
 20
348.4681833428111
 30
0.0
 11
634.0209851204654
 21
349.9681833428113
 31
0.0
  0
LINE
  5
D4E
330
1F
100
AcDbEntity
  8
0
  6
Continuous
 62
     7
100
AcDbLine
 10
633.0209851204736
 20
348.4681833427935
 30
0.0
 11
634.0209851204734
 21
348.4681833428111
 31
0.0
  0
LINE
  5
D4F
330
1F
100
AcDbEntity
  8
0
  6
Continuous
 62
     7
100
AcDbLine
 10
633.0209851204657
 20
349.9681833428071
 30
0.0
 11
633.0209851204736
 21
348.4681833427935
 31
0.0
  0
LINE
  5
D50
330
1F
100
AcDbEntity
  8
0
  6
Continuous
 62
     7
100
AcDbLine
 10
631.5209851204655
 20
349.9681833427971
 30
0.0
 11
633.0209851204657
 21
349.9681833428071
 31
0.0
  0
LINE
  5
D51
330
1F
100
AcDbEntity
  8
0
  6
Continuous
 62
     7
100
AcDbLine
 10
631.5209851204595
 20
350.9681833427851
 30
0.0
 11
631.5209851204655
 21
349.9681833427971
 31
0.0
  0
LINE
  5
D52
330
1F
100
AcDbEntity
  8
0
  6
Continuous
 62
     7
100
AcDbLine
 10
633.0209851204601
 20
350.9681833428071
 30
0.0
 11
631.5209851204595
 21
350.9681833427851
 31
0.0
  0
LINE
  5
D53
330
1F
100
AcDbEntity
  8
0
  6
Continuous
 62
     7
100
AcDbLine
 10
633.0209851204519
 20
352.4681833428051
 30
0.0
 11
633.0209851204601
 21
350.9681833428071
 31
0.0
  0
LINE
  5
D54
330
1F
100
AcDbEntity
  8
0
  6
Continuous
 62
     7
100
AcDbLine
 10
634.0209851204519
 20
352.4681833428111
 30
0.0
 11
633.0209851204519
 21
352.4681833428051
 31
0.0
  0
CIRCLE
  5
F18
330
1F
100
AcDbEntity
  8
0
100
AcDbCircle
 10
633.520985120463
 20
350.4681833427828
 30
0.0
 40
2.750000000000454
  0
CIRCLE
  5
F19
330
1F
100
AcDbEntity
  8
0
100
AcDbCircle
 10
633.520985120463
 20
252.4681833427829
 30
0.0
 40
2.750000000000454
  0
CIRCLE
  5
F1A
330
1F
100
AcDbEntity
  8
0
100
AcDbCircle
 10
618.520985120463
 20
291.4681833427826
 30
0.0
 40
3.500000000000451
  0
CIRCLE
  5
F1B
330
1F
100
AcDbEntity
  8
0
100
AcDbCircle
 10
628.5209851204633
 20
291.4681833427828
 30
0.0
 40
3.500000000000222
  0
CIRCLE
  5
F1C
330
1F
100
AcDbEntity
  8
0
100
AcDbCircle
 10
638.520985120463
 20
291.4681833427826
 30
0.0
 40
3.500000000000451
  0
CIRCLE
  5
F1D
330
1F
100
AcDbEntity
  8
0
100
AcDbCircle
 10
648.520985120463
 20
291.4681833427826
 30
0.0
 40
3.500000000000451
  0
CIRCLE
  5
F1E
330
1F
100
AcDbEntity
  8
0
100
AcDbCircle
 10
618.520985120463
 20
303.4681833427828
 30
0.0
 40
2.000000000000454
  0
CIRCLE
  5
F1F
330
1F
100
AcDbEntity
  8
0
100
AcDbCircle
 10
626.020985120463
 20
303.4681833427828
 30
0.0
 40
2.000000000000226
  0
CIRCLE
  5
F20
330
1F
100
AcDbEntity
  8
0
100
AcDbCircle
 10
633.5209851204633
 20
303.4681833427828
 30
0.0
 40
2.000000000000226
  0
CIRCLE
  5
F21
330
1F
100
AcDbEntity
  8
0
100
AcDbCircle
 10
641.0209851204633
 20
303.4681833427828
 30
0.0
 40
2.000000000000226
  0
CIRCLE
  5
F22
330
1F
100
AcDbEntity
  8
0
100
AcDbCircle
 10
648.520985120463
 20
303.4681833427828
 30
0.0
 40
2.000000000000226
  0
CIRCLE
  5
F23
330
1F
100
AcDbEntity
  8
0
100
AcDbCircle
 10
625.0441132121847
 20
312.9244977593125
 30
0.0
 40
0.3856738697168112
  0
CIRCLE
  5
F24
330
1F
100
AcDbEntity
  8
0
100
AcDbCircle
 10
632.3441132121846
 20
312.9244977593125
 30
0.0
 40
0.3856738697170386
  0
CIRCLE
  5
F25
330
1F
100
AcDbEntity
  8
0
100
AcDbCircle
 10
639.6441132121846
 20
312.9244977593123
 30
0.0
 40
0.3856738697170386
  0
CIRCLE
  5
F26
330
1F
100
AcDbEntity
  8
0
100
AcDbCircle
 10
646.944113212185
 20
312.9244977593123
 30
0.0
 40
0.3856738697170386
  0
CIRCLE
  5
F28
330
1F
100
AcDbEntity
  8
0
100
AcDbCircle
 10
632.3441132121846
 20
328.3244977593123
 30
0.0
 40
0.3856738697170386
  0
CIRCLE
  5
F29
330
1F
100
AcDbEntity
  8
0
100
AcDbCircle
 10
625.0441132121847
 20
328.3244977593123
 30
0.0
 40
0.3856738697168112
  0
CIRCLE
  5
F2A
330
1F
100
AcDbEntity
  8
0
100
AcDbCircle
 10
639.6441132121846
 20
328.3244977593123
 30
0.0
 40
0.3856738697170386
  0
CIRCLE
  5
F2B
330
1F
100
AcDbEntity
  8
0
100
AcDbCircle
 10
646.944113212185
 20
328.3244977593123
 30
0.0
 40
0.3856738697170386
  0
LINE
  5
F44
330
1F
100
AcDbEntity
  8
0
  6
Continuous
 62
     7
100
AcDbLine
 10
475.5209851204718
 20
351.4681833427788
 30
0.0
 11
475.5209851204718
 21
251.5721833425668
 31
0.0
  0
ARC
  5
F45
330
1F
100
AcDbEntity
  8
0
  6
Continuous
 62
     7
100
AcDbCircle
 10
473.3318783475196
 20
251.6505129746466
 30
0.0
 40
2.190507702484953
100
AcDbArc
 50
274.9525157991612
 51
357.9507425060334
  0
LINE
  5
F46
330
1F
100
AcDbEntity
  8
0
  6
Continuous
 62
     7
100
AcDbLine
 10
473.5209851204668
 20
249.4681833425628
 30
0.0
 11
472.0209851204637
 21
249.4681833425628
 31
0.0
  0
ARC
  5
F47
330
1F
100
AcDbEntity
  8
0
  6
Continuous
 62
     7
100
AcDbCircle
 10
473.5209866146171
 20
351.4681848369284
 30
0.0
 40
1.99999850585461
100
AcDbArc
 50
359.9999571957112
 51
90.00004280428878
  0
LINE
  5
F48
330
1F
100
AcDbEntity
  8
0
  6
Continuous
 62
     7
100
AcDbLine
 10
472.0209851204637
 20
353.4681833427831
 30
0.0
 11
473.5209851204668
 21
353.4681833427831
 31
0.0
  0
ENDSEC
  0
SECTION
  2
OBJECTS
  0
DICTIONARY
  5
C
330
0
100
AcDbDictionary
281
     1
  3
ACAD_GROUP
350
D
  3
ACAD_LAYOUT
350
1A
  3
ACAD_MLINESTYLE
350
17
  3
ACAD_PLOTSETTINGS
350
19
  3
ACAD_PLOTSTYLENAME
350
E
  0
DICTIONARY
  5
D
102
{ACAD_REACTORS
330
C
102
}
330
C
100
AcDbDictionary
281
     1
  0
DICTIONARY
  5
1A
102
{ACAD_REACTORS
330
C
102
}
330
C
100
AcDbDictionary
281
     1
  3
Model
350
22
  3
ﾚｲｱｳﾄ1
350
51
  0
DICTIONARY
  5
17
102
{ACAD_REACTORS
330
C
102
}
330
C
100
AcDbDictionary
281
     1
  3
Standard
350
18
  0
DICTIONARY
  5
19
102
{ACAD_REACTORS
330
C
102
}
330
C
100
AcDbDictionary
281
     1
  0
ACDBDICTIONARYWDFLT
  5
E
102
{ACAD_REACTORS
330
C
102
}
330
C
100
AcDbDictionary
281
     1
  3
Normal
350
F
100
AcDbDictionaryWithDefault
340
F
  0
LAYOUT
  5
22
102
{ACAD_REACTORS
330
1A
102
}
330
1A
100
AcDbPlotSettings
  1

  2
none_device
  4
ANSI_A_(8.50_x_11.00_Inches)
  6

 40
6.349999904632567
 41
19.04999923706053
 42
6.350006103515625
 43
19.04998779296875
 44
215.8999938964841
 45
279.3999938964843
 46
0.0
 47
0.0
 48
0.0
 49
0.0
140
0.0
141
0.0
142
1.0
143
78.436453180766
 70
 11952
 72
     0
 73
     1
 74
     0
  7

 75
     0
147
0.0127491741332998
148
0.0
149
0.0
100
AcDbLayout
  1
Model
 70
     1
 71
     0
 10
0.0
 20
0.0
 11
12.0
 21
9.0
 12
0.0
 22
0.0
 32
0.0
 14
0.0
 24
0.0
 34
0.0
 15
0.0
 25
0.0
 35
0.0
146
0.0
 13
0.0
 23
0.0
 33
0.0
 16
1.0
 26
0.0
 36
0.0
 17
0.0
 27
1.0
 37
0.0
 76
     0
330
1F
  0
LAYOUT
  5
51
102
{ACAD_REACTORS
330
1A
102
}
330
1A
100
AcDbPlotSettings
  1

  2
None
  4

  6

 40
0.0
 41
0.0
 42
0.0
 43
0.0
 44
0.0
 45
0.0
 46
0.0
 47
0.0
 48
0.0
 49
0.0
140
0.0
141
0.0
142
1.0
143
1.0
 70
   688
 72
     0
 73
     0
 74
     5
  7

 75
    16
147
1.0
148
0.0
149
0.0
100
AcDbLayout
  1
ﾚｲｱｳﾄ1
 70
     1
 71
     1
 10
0.0
 20
0.0
 11
12.0
 21
9.0
 12
0.0
 22
0.0
 32
0.0
 14
0.0
 24
0.0
 34
0.0
 15
0.0
 25
0.0
 35
0.0
146
0.0
 13
0.0
 23
0.0
 33
0.0
 16
1.0
 26
0.0
 36
0.0
 17
0.0
 27
1.0
 37
0.0
 76
     0
330
50
  0
MLINESTYLE
  5
18
102
{ACAD_REACTORS
330
17
102
}
330
17
100
AcDbMlineStyle
  2
STANDARD
 70
     0
  3

 62
   256
 51
90.0
 52
90.0
 71
     2
 49
0.5
 62
   256
  6
BYLAYER
 49
-0.5
 62
   256
  6
BYLAYER
  0
ACDBPLACEHOLDER
  5
F
102
{ACAD_REACTORS
330
E
102
}
330
E
  0
ENDSEC
  0
EOF
