  0
SECTION
  2
HEADER
  9
$ACADVER
  1
AC1015
  9
$ACADMAINTVER
 70
    10
  9
$DWGCODEPAGE
  3
ANSI_932
  9
$INSBASE
 10
0.0
 20
0.0
 30
0.0
  9
$EXTMIN
 10
367.5688399522131
 20
250.813391911903
 30
-10.59933933933941
  9
$EXTMAX
 10
1230.697057892212
 20
579.1270703261171
 30
10.58873999999982
  9
$LIMMIN
 10
0.0
 20
0.0
  9
$LIMMAX
 10
420.0
 20
297.0
  9
$ORTHOMODE
 70
     0
  9
$REGENMODE
 70
     1
  9
$FILLMODE
 70
     1
  9
$QTEXTMODE
 70
     0
  9
$MIRRTEXT
 70
     1
  9
$LTSCALE
 40
1.0
  9
$ATTMODE
 70
     1
  9
$TEXTSIZE
 40
2.5
  9
$TRACEWID
 40
1.0
  9
$TEXTSTYLE
  7
Standard
  9
$CLAYER
  8
0
  9
$CELTYPE
  6
ByLayer
  9
$CECOLOR
 62
   256
  9
$CELTSCALE
 40
1.0
  9
$DISPSILH
 70
     0
  9
$DIMSCALE
 40
1.0
  9
$DIMASZ
 40
2.5
  9
$DIMEXO
 40
0.625
  9
$DIMDLI
 40
3.75
  9
$DIMRND
 40
0.0
  9
$DIMDLE
 40
0.0
  9
$DIMEXE
 40
1.25
  9
$DIMTP
 40
0.0
  9
$DIMTM
 40
0.0
  9
$DIMTXT
 40
2.5
  9
$DIMCEN
 40
2.5
  9
$DIMTSZ
 40
0.0
  9
$DIMTOL
 70
     0
  9
$DIMLIM
 70
     0
  9
$DIMTIH
 70
     0
  9
$DIMTOH
 70
     0
  9
$DIMSE1
 70
     0
  9
$DIMSE2
 70
     0
  9
$DIMTAD
 70
     1
  9
$DIMZIN
 70
     8
  9
$DIMBLK
  1

  9
$DIMASO
 70
     1
  9
$DIMSHO
 70
     1
  9
$DIMPOST
  1

  9
$DIMAPOST
  1

  9
$DIMALT
 70
     0
  9
$DIMALTD
 70
     3
  9
$DIMALTF
 40
0.03937007874016
  9
$DIMLFAC
 40
1.0
  9
$DIMTOFL
 70
     1
  9
$DIMTVP
 40
0.0
  9
$DIMTIX
 70
     0
  9
$DIMSOXD
 70
     0
  9
$DIMSAH
 70
     0
  9
$DIMBLK1
  1

  9
$DIMBLK2
  1

  9
$DIMSTYLE
  2
ISO-25
  9
$DIMCLRD
 70
     0
  9
$DIMCLRE
 70
     0
  9
$DIMCLRT
 70
     0
  9
$DIMTFAC
 40
1.0
  9
$DIMGAP
 40
0.625
  9
$DIMJUST
 70
     0
  9
$DIMSD1
 70
     0
  9
$DIMSD2
 70
     0
  9
$DIMTOLJ
 70
     0
  9
$DIMTZIN
 70
     8
  9
$DIMALTZ
 70
     0
  9
$DIMALTTZ
 70
     0
  9
$DIMUPT
 70
     0
  9
$DIMDEC
 70
     2
  9
$DIMTDEC
 70
     2
  9
$DIMALTU
 70
     2
  9
$DIMALTTD
 70
     3
  9
$DIMTXSTY
  7
Standard
  9
$DIMAUNIT
 70
     0
  9
$DIMADEC
 70
     0
  9
$DIMALTRND
 40
0.0
  9
$DIMAZIN
 70
     0
  9
$DIMDSEP
 70
    44
  9
$DIMATFIT
 70
     3
  9
$DIMFRAC
 70
     0
  9
$DIMLDRBLK
  1

  9
$DIMLUNIT
 70
     2
  9
$DIMLWD
 70
    -2
  9
$DIMLWE
 70
    -2
  9
$DIMTMOVE
 70
     0
  9
$LUNITS
 70
     2
  9
$LUPREC
 70
     4
  9
$SKETCHINC
 40
1.0
  9
$FILLETRAD
 40
10.0
  9
$AUNITS
 70
     0
  9
$AUPREC
 70
     0
  9
$MENU
  1
.
  9
$ELEVATION
 40
0.0
  9
$PELEVATION
 40
0.0
  9
$THICKNESS
 40
0.0
  9
$LIMCHECK
 70
     0
  9
$CHAMFERA
 40
10.0
  9
$CHAMFERB
 40
10.0
  9
$CHAMFERC
 40
20.0
  9
$CHAMFERD
 40
0.0
  9
$SKPOLY
 70
     0
  9
$TDCREATE
 40
2456499.801238773
  9
$TDUCREATE
 40
2456499.426238773
  9
$TDUPDATE
 40
2456500.626571365
  9
$TDUUPDATE
 40
2456500.251571366
  9
$TDINDWG
 40
0.1766756481
  9
$TDUSRTIMER
 40
0.1766751042
  9
$USRTIMER
 70
     1
  9
$ANGBASE
 50
0.0
  9
$ANGDIR
 70
     0
  9
$PDMODE
 70
     0
  9
$PDSIZE
 40
0.0
  9
$PLINEWID
 40
0.0
  9
$SPLFRAME
 70
     0
  9
$SPLINETYPE
 70
     6
  9
$SPLINESEGS
 70
     8
  9
$HANDSEED
  5
121A
  9
$SURFTAB1
 70
     6
  9
$SURFTAB2
 70
     6
  9
$SURFTYPE
 70
     6
  9
$SURFU
 70
     6
  9
$SURFV
 70
     6
  9
$UCSBASE
  2

  9
$UCSNAME
  2

  9
$UCSORG
 10
0.0
 20
0.0
 30
0.0
  9
$UCSXDIR
 10
1.0
 20
0.0
 30
0.0
  9
$UCSYDIR
 10
0.0
 20
1.0
 30
0.0
  9
$UCSORTHOREF
  2

  9
$UCSORTHOVIEW
 70
     0
  9
$UCSORGTOP
 10
0.0
 20
0.0
 30
0.0
  9
$UCSORGBOTTOM
 10
0.0
 20
0.0
 30
0.0
  9
$UCSORGLEFT
 10
0.0
 20
0.0
 30
0.0
  9
$UCSORGRIGHT
 10
0.0
 20
0.0
 30
0.0
  9
$UCSORGFRONT
 10
0.0
 20
0.0
 30
0.0
  9
$UCSORGBACK
 10
0.0
 20
0.0
 30
0.0
  9
$PUCSBASE
  2

  9
$PUCSNAME
  2

  9
$PUCSORG
 10
0.0
 20
0.0
 30
0.0
  9
$PUCSXDIR
 10
1.0
 20
0.0
 30
0.0
  9
$PUCSYDIR
 10
0.0
 20
1.0
 30
0.0
  9
$PUCSORTHOREF
  2

  9
$PUCSORTHOVIEW
 70
     0
  9
$PUCSORGTOP
 10
0.0
 20
0.0
 30
0.0
  9
$PUCSORGBOTTOM
 10
0.0
 20
0.0
 30
0.0
  9
$PUCSORGLEFT
 10
0.0
 20
0.0
 30
0.0
  9
$PUCSORGRIGHT
 10
0.0
 20
0.0
 30
0.0
  9
$PUCSORGFRONT
 10
0.0
 20
0.0
 30
0.0
  9
$PUCSORGBACK
 10
0.0
 20
0.0
 30
0.0
  9
$USERI1
 70
     0
  9
$USERI2
 70
     0
  9
$USERI3
 70
     0
  9
$USERI4
 70
     0
  9
$USERI5
 70
     0
  9
$USERR1
 40
0.0
  9
$USERR2
 40
0.0
  9
$USERR3
 40
0.0
  9
$USERR4
 40
0.0
  9
$USERR5
 40
0.0
  9
$WORLDVIEW
 70
     1
  9
$SHADEDGE
 70
     3
  9
$SHADEDIF
 70
    70
  9
$TILEMODE
 70
     1
  9
$MAXACTVP
 70
    64
  9
$PINSBASE
 10
0.0
 20
0.0
 30
0.0
  9
$PLIMCHECK
 70
     0
  9
$PEXTMIN
 10
0.0
 20
0.0
 30
0.0
  9
$PEXTMAX
 10
0.0
 20
0.0
 30
0.0
  9
$PLIMMIN
 10
0.0
 20
0.0
  9
$PLIMMAX
 10
12.0
 20
9.0
  9
$UNITMODE
 70
     0
  9
$VISRETAIN
 70
     1
  9
$PLINEGEN
 70
     0
  9
$PSLTSCALE
 70
     1
  9
$TREEDEPTH
 70
  3020
  9
$CMLSTYLE
  2
Standard
  9
$CMLJUST
 70
     0
  9
$CMLSCALE
 40
20.0
  9
$PROXYGRAPHICS
 70
     1
  9
$MEASUREMENT
 70
     1
  9
$CELWEIGHT
370
    -1
  9
$ENDCAPS
280
     0
  9
$JOINSTYLE
280
     0
  9
$LWDISPLAY
290
     0
  9
$INSUNITS
 70
     4
  9
$HYPERLINKBASE
  1

  9
$STYLESHEET
  1

  9
$XEDIT
290
     1
  9
$CEPSNTYPE
380
     0
  9
$PSTYLEMODE
290
     1
  9
$FINGERPRINTGUID
  2
{FDEAD578-A652-11D2-9A35-0060089B3A3F}
  9
$VERSIONGUID
  2
{2CF03187-8428-4EE6-A55D-9D85B16FB1E1}
  9
$EXTNAMES
290
     1
  9
$PSVPSCALE
 40
0.0
  9
$OLESTARTUP
290
     0
  0
ENDSEC
  0
SECTION
  2
CLASSES
  0
CLASS
  1
ACDBDICTIONARYWDFLT
  2
AcDbDictionaryWithDefault
  3
AutoCAD 2000
 90
        0
280
     0
281
     0
  0
CLASS
  1
ACDBPLACEHOLDER
  2
AcDbPlaceHolder
  3
AutoCAD 2000
 90
        0
280
     0
281
     0
  0
CLASS
  1
LAYOUT
  2
AcDbLayout
  3
AutoCAD 2000
 90
        0
280
     0
281
     0
  0
ENDSEC
  0
SECTION
  2
TABLES
  0
TABLE
  2
VPORT
  5
8
330
0
100
AcDbSymbolTable
 70
     2
  0
VPORT
  5
1219
330
8
100
AcDbSymbolTableRecord
100
AcDbViewportTableRecord
  2
*Active
 70
     0
 10
0.0
 20
0.0
 11
1.0
 21
1.0
 12
780.7537781137812
 22
405.7150081562722
 13
0.0
 23
0.0
 14
10.0
 24
10.0
 15
10.0
 25
10.0
 16
0.0
 26
0.0
 36
1.0
 17
0.0
 27
0.0
 37
0.0
 40
585.6627284785395
 41
1.781954887218045
 42
50.0
 43
0.0
 44
0.0
 50
0.0
 51
0.0
 71
     0
 72
   100
 73
     1
 74
     3
 75
     0
 76
     0
 77
     0
 78
     0
281
     0
 65
     1
110
0.0
120
0.0
130
0.0
111
1.0
121
0.0
131
0.0
112
0.0
122
1.0
132
0.0
 79
     0
146
0.0
  0
ENDTAB
  0
TABLE
  2
LTYPE
  5
5
330
0
100
AcDbSymbolTable
 70
     2
  0
LTYPE
  5
14
330
5
100
AcDbSymbolTableRecord
100
AcDbLinetypeTableRecord
  2
ByBlock
 70
     0
  3

 72
    65
 73
     0
 40
0.0
  0
LTYPE
  5
15
330
5
100
AcDbSymbolTableRecord
100
AcDbLinetypeTableRecord
  2
ByLayer
 70
     0
  3

 72
    65
 73
     0
 40
0.0
  0
LTYPE
  5
16
330
5
100
AcDbSymbolTableRecord
100
AcDbLinetypeTableRecord
  2
Continuous
 70
     0
  3
Solid line
 72
    65
 73
     0
 40
0.0
  0
LTYPE
  5
61
330
5
100
AcDbSymbolTableRecord
100
AcDbLinetypeTableRecord
  2
DASHED
 70
     0
  3
DASHED
 72
    65
 73
     2
 40
0.75
 49
0.5
 74
     0
 49
-0.25
 74
     0
  0
ENDTAB
  0
TABLE
  2
LAYER
  5
2
330
0
100
AcDbSymbolTable
 70
     1
  0
LAYER
  5
10
330
2
100
AcDbSymbolTableRecord
100
AcDbLayerTableRecord
  2
0
 70
     0
 62
     7
  6
Continuous
370
    -3
390
F
  0
ENDTAB
  0
TABLE
  2
STYLE
  5
3
330
0
100
AcDbSymbolTable
 70
     2
  0
STYLE
  5
11
330
3
100
AcDbSymbolTableRecord
100
AcDbTextStyleTableRecord
  2
Standard
 70
     0
 40
0.0
 41
1.0
 50
0.0
 71
     0
 42
2.5
  3
txt
  4

  0
STYLE
  5
B37
330
3
100
AcDbSymbolTableRecord
100
AcDbTextStyleTableRecord
  2
_TCW_TXTSTY_1
 70
     0
 40
0.0
 41
1.0
 50
0.0
 71
     0
 42
0.69697
  3
MS PGothic.ttf
  4

1001
ACAD
1000
ＭＳ Ｐゴシック
1071
    32802
  0
ENDTAB
  0
TABLE
  2
VIEW
  5
6
330
0
100
AcDbSymbolTable
 70
     0
  0
ENDTAB
  0
TABLE
  2
UCS
  5
7
330
0
100
AcDbSymbolTable
 70
     0
  0
ENDTAB
  0
TABLE
  2
APPID
  5
9
330
0
100
AcDbSymbolTable
 70
     2
  0
APPID
  5
12
330
9
100
AcDbSymbolTableRecord
100
AcDbRegAppTableRecord
  2
ACAD
 70
     0
  0
APPID
  5
B39
330
9
100
AcDbSymbolTableRecord
100
AcDbRegAppTableRecord
  2
TCAD
 70
     0
  0
ENDTAB
  0
TABLE
  2
DIMSTYLE
  5
A
330
0
100
AcDbSymbolTable
 70
     2
100
AcDbDimStyleTable
 71
     1
340
27
  0
DIMSTYLE
105
27
330
A
100
AcDbSymbolTableRecord
100
AcDbDimStyleTableRecord
  2
ISO-25
 70
     0
 41
2.5
 42
0.625
 43
3.75
 44
1.25
 73
     0
 74
     0
 77
     1
 78
     8
140
2.5
141
2.5
143
0.03937007874016
147
0.625
171
     3
172
     1
271
     2
272
     2
274
     3
278
    44
283
     0
284
     8
340
11
  0
DIMSTYLE
105
B38
330
A
100
AcDbSymbolTableRecord
100
AcDbDimStyleTableRecord
  2
STANDARD
 70
     0
  3
<>
  4
<>
 41
3.0
 42
0.5
 43
7.5
 44
1.0
 45
0.1
 73
     0
 74
     0
 77
     1
 78
     8
140
2.439394
143
0.333333
144
3.0
147
0.5
148
0.01
176
     7
177
     7
178
     7
179
     2
271
     2
272
     2
285
     8
286
     8
340
B37
341
B31
342
B31
  0
ENDTAB
  0
TABLE
  2
BLOCK_RECORD
  5
1
330
0
100
AcDbSymbolTable
 70
     1
  0
BLOCK_RECORD
  5
1F
330
1
100
AcDbSymbolTableRecord
100
AcDbBlockTableRecord
  2
*Model_Space
340
22
  0
BLOCK_RECORD
  5
50
330
1
100
AcDbSymbolTableRecord
100
AcDbBlockTableRecord
  2
*Paper_Space
340
51
  0
BLOCK_RECORD
  5
B31
330
1
100
AcDbSymbolTableRecord
100
AcDbBlockTableRecord
  2
_OPEN
340
0
  0
ENDTAB
  0
ENDSEC
  0
SECTION
  2
BLOCKS
  0
BLOCK
  5
20
330
1F
100
AcDbEntity
  8
0
100
AcDbBlockBegin
  2
*Model_Space
 70
     0
 10
0.0
 20
0.0
 30
0.0
  3
*Model_Space
  1

  0
ENDBLK
  5
21
330
1F
100
AcDbEntity
  8
0
100
AcDbBlockEnd
  0
BLOCK
  5
52
330
50
100
AcDbEntity
 67
     1
  8
0
100
AcDbBlockBegin
  2
*Paper_Space
 70
     0
 10
0.0
 20
0.0
 30
0.0
  3
*Paper_Space
  1

  0
ENDBLK
  5
53
330
50
100
AcDbEntity
 67
     1
  8
0
100
AcDbBlockEnd
  0
BLOCK
  5
B35
330
B31
100
AcDbEntity
  8
0
100
AcDbBlockBegin
  2
_OPEN
 70
     0
 10
0.0
 20
0.0
 30
0.0
  3
_OPEN
  1

  0
LINE
  5
B32
330
B31
100
AcDbEntity
  8
0
  6
ByBlock
 62
     0
100
AcDbLine
 10
-1.0
 20
0.166667
 30
0.0
 11
0.0
 21
0.0
 31
0.0
  0
LINE
  5
B33
330
B31
100
AcDbEntity
  8
0
  6
ByBlock
 62
     0
100
AcDbLine
 10
0.0
 20
0.0
 30
0.0
 11
-1.0
 21
-0.166667
 31
0.0
  0
LINE
  5
B34
330
B31
100
AcDbEntity
  8
0
  6
ByBlock
 62
     0
100
AcDbLine
 10
0.0
 20
0.0
 30
0.0
 11
-1.0
 21
0.0
 31
0.0
  0
ENDBLK
  5
B36
330
B31
100
AcDbEntity
  8
0
100
AcDbBlockEnd
  0
ENDSEC
  0
SECTION
  2
ENTITIES
  0
LINE
  5
5C2
330
1F
100
AcDbEntity
  8
0
  6
DASHED
 62
     4
 48
6.0
100
AcDbLine
 10
422.3864793922132
 20
285.4432156530616
 30
0.0
 11
422.3864793922132
 21
312.4702421190098
 31
0.0
  0
LINE
  5
5C3
330
1F
100
AcDbEntity
  8
0
  6
Continuous
 62
     7
100
AcDbLine
 10
461.8864833922136
 20
373.9302171190093
 30
0.0
 11
507.8864833922136
 21
373.9302171190093
 31
0.0
  0
ARC
  5
5C4
330
1F
100
AcDbEntity
  8
0
  6
Continuous
 62
     7
100
AcDbCircle
 10
498.3096128094699
 20
452.7865317214518
 30
0.0
 40
0.3856733855466736
100
AcDbArc
 50
359.9999571956721
 51
90.0000428042432
  0
ARC
  5
5C5
330
1F
100
AcDbEntity
  8
0
  6
Continuous
 62
     7
100
AcDbCircle
 10
498.3096124719073
 20
452.7865313838893
 30
0.0
 40
0.3856737231087371
100
AcDbArc
 50
89.99999265589995
 51
0.0000073440251319
  0
LINE
  5
5C6
330
1F
100
AcDbEntity
  8
0
  6
Continuous
 62
     7
100
AcDbLine
 10
498.6952861950162
 20
452.7865314333243
 30
0.0
 11
498.6952861950162
 21
452.7865314333243
 31
0.0
  0
ARC
  5
5C7
330
1F
100
AcDbEntity
  8
0
  6
Continuous
 62
     7
100
AcDbCircle
 10
498.3864841392884
 20
444.9302178660853
 30
0.0
 40
0.9999992529251803
100
AcDbArc
 50
359.9999571957209
 51
90.00004280429529
  0
ARC
  5
5C8
330
1F
100
AcDbEntity
  8
0
  6
Continuous
 62
     7
100
AcDbCircle
 10
498.3864841392884
 20
452.3302163719353
 30
0.0
 40
0.9999992529251803
100
AcDbArc
 50
269.9999571957046
 51
0.0000428042790381
  0
ARC
  5
5C9
330
1F
100
AcDbEntity
  8
0
  6
Continuous
 62
     7
100
AcDbCircle
 10
498.3864841392884
 20
460.3302178660852
 30
0.0
 40
0.9999992529252374
100
AcDbArc
 50
359.9999571957209
 51
90.00004280428877
  0
ARC
  5
5CA
330
1F
100
AcDbEntity
  8
0
  6
Continuous
 62
     7
100
AcDbCircle
 10
505.8864841392884
 20
467.9302178660853
 30
0.0
 40
0.9999992529251235
100
AcDbArc
 50
359.9999571957078
 51
90.00004280428877
  0
ARC
  5
5CB
330
1F
100
AcDbEntity
  8
0
  6
Continuous
 62
     7
100
AcDbCircle
 10
505.8864841392884
 20
467.9302178660853
 30
0.0
 40
0.9999992529251235
100
AcDbArc
 50
359.9999571957078
 51
90.00004280428877
  0
ARC
  5
5CC
330
1F
100
AcDbEntity
  8
0
  6
Continuous
 62
     7
100
AcDbCircle
 10
507.8864848863632
 20
475.9302186131605
 30
0.0
 40
1.99999850585036
100
AcDbArc
 50
359.9999571957078
 51
90.0000428042823
  0
ARC
  5
5CD
330
1F
100
AcDbEntity
  8
0
  6
Continuous
 62
     7
100
AcDbCircle
 10
484.8864854466698
 20
474.9302191734669
 30
0.0
 40
2.749997945543875
100
AcDbArc
 50
359.9999571957177
 51
90.00004280428877
  0
ARC
  5
5CE
330
1F
100
AcDbEntity
  8
0
  6
Continuous
 62
     7
100
AcDbCircle
 10
484.8864830397245
 20
474.9302167665209
 30
0.0
 40
2.750000352489218
100
AcDbArc
 50
89.99999265594556
 51
0.0000073440577008
  0
LINE
  5
5CF
330
1F
100
AcDbEntity
  8
0
  6
Continuous
 62
     7
100
AcDbLine
 10
487.6364833922136
 20
474.9302171190104
 30
0.0
 11
487.6364833922136
 21
474.9302171190104
 31
0.0
  0
ARC
  5
5D0
330
1F
100
AcDbEntity
  8
0
  6
Continuous
 62
     7
100
AcDbCircle
 10
483.7096128094698
 20
452.7865317214518
 30
0.0
 40
0.3856733855466736
100
AcDbArc
 50
359.9999571956721
 51
90.0000428042432
  0
ARC
  5
5D1
330
1F
100
AcDbEntity
  8
0
  6
Continuous
 62
     7
100
AcDbCircle
 10
483.7096124719074
 20
452.7865313838893
 30
0.0
 40
0.3856737231087371
100
AcDbArc
 50
89.99999265589995
 51
0.0000073440251319
  0
LINE
  5
5D2
330
1F
100
AcDbEntity
  8
0
  6
Continuous
 62
     7
100
AcDbLine
 10
484.0952861950158
 20
452.7865314333243
 30
0.0
 11
484.0952861950158
 21
452.7865314333243
 31
0.0
  0
ARC
  5
5D3
330
1F
100
AcDbEntity
  8
0
  6
Continuous
 62
     7
100
AcDbCircle
 10
491.0096128094692
 20
452.7865317214514
 30
0.0
 40
0.3856733855467875
100
AcDbArc
 50
359.9999571956884
 51
90.00004280424972
  0
ARC
  5
5D4
330
1F
100
AcDbEntity
  8
0
  6
Continuous
 62
     7
100
AcDbCircle
 10
491.0096124719071
 20
452.7865313838893
 30
0.0
 40
0.3856737231087371
100
AcDbArc
 50
89.99999265590647
 51
0.0000073440251319
  0
LINE
  5
5D5
330
1F
100
AcDbEntity
  8
0
  6
Continuous
 62
     7
100
AcDbLine
 10
491.3952861950161
 20
452.7865314333243
 30
0.0
 11
491.3952861950161
 21
452.7865314333243
 31
0.0
  0
ARC
  5
5D6
330
1F
100
AcDbEntity
  8
0
  6
Continuous
 62
     7
100
AcDbCircle
 10
484.8864833922132
 20
474.9302171190104
 30
0.0
 40
3.999999999999896
100
AcDbArc
 50
180.0
 51
0.0
  0
ARC
  5
5D7
330
1F
100
AcDbEntity
  8
0
  6
Continuous
 62
     7
100
AcDbCircle
 10
476.4096128094689
 20
452.7865317214514
 30
0.0
 40
0.3856733855467305
100
AcDbArc
 50
359.9999571956884
 51
90.00004280426272
  0
ARC
  5
5D8
330
1F
100
AcDbEntity
  8
0
  6
Continuous
 62
     7
100
AcDbCircle
 10
476.4096124719069
 20
452.7865313838893
 30
0.0
 40
0.3856737231087371
100
AcDbArc
 50
89.99999265591299
 51
0.0000073440251319
  0
LINE
  5
5D9
330
1F
100
AcDbEntity
  8
0
  6
Continuous
 62
     7
100
AcDbLine
 10
476.7952861950161
 20
452.7865314333243
 30
0.0
 11
476.7952861950161
 21
452.7865314333243
 31
0.0
  0
ARC
  5
5DA
330
1F
100
AcDbEntity
  8
0
  6
Continuous
 62
     7
100
AcDbCircle
 10
471.3864826451381
 20
444.9302178660853
 30
0.0
 40
0.9999992529250667
100
AcDbArc
 50
89.99995719571119
 51
180.0000428042823
  0
ARC
  5
5DB
330
1F
100
AcDbEntity
  8
0
  6
Continuous
 62
     7
100
AcDbCircle
 10
471.3864826451381
 20
452.3302163719346
 30
0.0
 40
0.9999992529250667
100
AcDbArc
 50
179.9999571957144
 51
270.0000428042887
  0
ARC
  5
5DC
330
1F
100
AcDbEntity
  8
0
  6
Continuous
 62
     7
100
AcDbCircle
 10
471.3864826451381
 20
460.3302178660852
 30
0.0
 40
0.9999992529250667
100
AcDbArc
 50
89.99995719571119
 51
180.0000428042888
  0
ARC
  5
5DD
330
1F
100
AcDbEntity
  8
0
  6
Continuous
 62
     7
100
AcDbCircle
 10
463.886482645138
 20
467.9302178660853
 30
0.0
 40
0.9999992529250667
100
AcDbArc
 50
89.99995719571119
 51
180.0000428042888
  0
ARC
  5
5DE
330
1F
100
AcDbEntity
  8
0
  6
Continuous
 62
     7
100
AcDbCircle
 10
463.886482645138
 20
467.9302178660853
 30
0.0
 40
0.9999992529250667
100
AcDbArc
 50
89.99995719571119
 51
180.0000428042888
  0
ARC
  5
5DF
330
1F
100
AcDbEntity
  8
0
  6
Continuous
 62
     7
100
AcDbCircle
 10
461.8864818980632
 20
475.9302186131605
 30
0.0
 40
1.99999850585036
100
AcDbArc
 50
89.99995719571769
 51
180.0000428042888
  0
LINE
  5
5E0
330
1F
100
AcDbEntity
  8
0
  6
Continuous
 62
     7
100
AcDbLine
 10
495.0623072160373
 20
444.1434103122031
 30
-10.59933933933941
 11
497.631808717539
 21
444.1434103122031
 31
-10.59933933933941
  0
LINE
  5
5E1
330
1F
100
AcDbEntity
  8
0
  6
Continuous
 62
     7
100
AcDbLine
 10
495.0340389477688
 20
444.9467076094999
 30
-10.59933933933941
 11
497.804090999821
 21
444.9467076094999
 31
-10.59933933933941
  0
LINE
  5
5E2
330
1F
100
AcDbEntity
  8
0
  6
Continuous
 62
     7
100
AcDbLine
 10
497.804090999821
 20
444.9467076094999
 30
-10.59933933933941
 11
498.3737186274487
 21
444.1924913932846
 31
-10.59933933933941
  0
LINE
  5
5E3
330
1F
100
AcDbEntity
  8
0
  6
Continuous
 62
     7
100
AcDbLine
 10
498.0888677765975
 20
444.5696385404313
 30
-10.59933933933941
 11
497.631808717539
 21
444.1434103122031
 31
-10.59933933933941
  0
LINE
  5
5E4
330
1F
100
AcDbEntity
  8
0
  6
Continuous
 62
     7
100
AcDbLine
 10
495.0623072160373
 20
459.5434103122035
 30
-10.59933933933941
 11
497.631808717539
 21
459.5434103122035
 31
-10.59933933933941
  0
LINE
  5
5E5
330
1F
100
AcDbEntity
  8
0
  6
Continuous
 62
     7
100
AcDbLine
 10
497.1855925013224
 20
456.7318667686596
 30
-10.59933933933941
 11
497.4889498586803
 21
456.3302171190104
 31
-10.59933933933941
  0
LINE
  5
5E6
330
1F
100
AcDbEntity
  8
0
  6
Continuous
 62
     7
100
AcDbLine
 10
497.4889498586803
 20
456.3302171190104
 30
-10.59933933933941
 11
497.0581330418631
 21
455.9285674693604
 31
-10.59933933933941
  0
LINE
  5
5E7
330
1F
100
AcDbEntity
  8
0
  6
Continuous
 62
     7
100
AcDbLine
 10
497.9196946034245
 20
456.7318667686596
 30
-10.59933933933941
 11
497.4889498586803
 21
456.3302171190104
 31
-10.59933933933941
  0
LINE
  5
5E8
330
1F
100
AcDbEntity
  8
0
  6
Continuous
 62
     7
100
AcDbLine
 10
497.4889498586803
 20
456.3302171190104
 30
-10.59933933933941
 11
497.7922351439652
 21
455.9285674693604
 31
-10.59933933933941
  0
LINE
  5
5E9
330
1F
100
AcDbEntity
  8
0
  6
Continuous
 62
     7
100
AcDbLine
 10
497.631808717539
 20
459.5434103122035
 30
-10.59933933933941
 11
497.1855925013224
 21
456.7318667686596
 31
-10.59933933933941
  0
LINE
  5
5EA
330
1F
100
AcDbEntity
  8
0
  6
Continuous
 62
     7
100
AcDbLine
 10
497.0581330418631
 20
455.9285674693604
 30
-10.59933933933941
 11
496.611916825647
 21
453.1171060078992
 31
-10.59933933933941
  0
LINE
  5
5EB
330
1F
100
AcDbEntity
  8
0
  6
Continuous
 62
     7
100
AcDbLine
 10
495.0340389477688
 20
460.3467076095005
 30
-10.59933933933941
 11
497.804090999821
 21
460.3467076095005
 31
-10.59933933933941
  0
LINE
  5
5EC
330
1F
100
AcDbEntity
  8
0
  6
Continuous
 62
     7
100
AcDbLine
 10
497.804090999821
 20
460.3467076095005
 30
-10.59933933933941
 11
498.3737186274487
 21
459.5924913932845
 31
-10.59933933933941
  0
LINE
  5
5ED
330
1F
100
AcDbEntity
  8
0
  6
Continuous
 62
     7
100
AcDbLine
 10
498.3737186274487
 20
459.5924913932845
 30
-10.59933933933941
 11
497.9196946034245
 21
456.7318667686596
 31
-10.59933933933941
  0
LINE
  5
5EE
330
1F
100
AcDbEntity
  8
0
  6
Continuous
 62
     7
100
AcDbLine
 10
496.7333022110322
 20
452.3137266285194
 30
-10.59933933933941
 11
497.3028577665878
 21
452.844707609501
 31
-10.59933933933941
  0
LINE
  5
5EF
330
1F
100
AcDbEntity
  8
0
  6
Continuous
 62
     7
100
AcDbLine
 10
497.3028577665878
 20
452.844707609501
 30
-10.59933933933941
 11
497.7922351439652
 21
455.9285674693604
 31
-10.59933933933941
  0
LINE
  5
5F0
330
1F
100
AcDbEntity
  8
0
  6
Continuous
 62
     7
100
AcDbLine
 10
498.0888677765975
 20
459.9696385404315
 30
-10.59933933933941
 11
497.631808717539
 21
459.5434103122035
 31
-10.59933933933941
  0
LINE
  5
5F1
330
1F
100
AcDbEntity
  8
0
  6
Continuous
 62
     7
100
AcDbLine
 10
497.018080989811
 20
452.5792161180095
 30
-10.59933933933941
 11
496.611916825647
 21
453.1171060078992
 31
-10.59933933933941
  0
LINE
  5
5F2
330
1F
100
AcDbEntity
  8
0
  6
Continuous
 62
     7
100
AcDbLine
 10
499.3864833922136
 20
460.3302171190103
 30
-10.59933933933941
 11
499.3864833922136
 21
452.3302171190103
 31
-10.59933933933941
  0
LINE
  5
5F3
330
1F
100
AcDbEntity
  8
0
  6
Continuous
 62
     7
100
AcDbLine
 10
485.3864833922133
 20
476.9302171190106
 30
-10.59933933933941
 11
484.3864833922133
 21
476.9302171190106
 31
-10.59933933933941
  0
LINE
  5
5F4
330
1F
100
AcDbEntity
  8
0
  6
Continuous
 62
     7
100
AcDbLine
 10
484.3864833922133
 20
476.9302171190106
 30
-10.59933933933941
 11
484.3864833922133
 21
475.4302171190101
 31
-10.59933933933941
  0
LINE
  5
5F5
330
1F
100
AcDbEntity
  8
0
  6
Continuous
 62
     7
100
AcDbLine
 10
484.3864833922133
 20
475.4302171190101
 30
-10.59933933933941
 11
482.8864833922136
 21
475.4302171190101
 31
-10.59933933933941
  0
LINE
  5
5F6
330
1F
100
AcDbEntity
  8
0
  6
Continuous
 62
     7
100
AcDbLine
 10
482.8864833922136
 20
475.4302171190101
 30
-10.59933933933941
 11
482.8864833922136
 21
474.4302171190104
 31
-10.59933933933941
  0
LINE
  5
5F7
330
1F
100
AcDbEntity
  8
0
  6
Continuous
 62
     7
100
AcDbLine
 10
482.8864833922136
 20
474.4302171190104
 30
-10.59933933933941
 11
484.3864833922133
 21
474.4302171190104
 31
-10.59933933933941
  0
LINE
  5
5F8
330
1F
100
AcDbEntity
  8
0
  6
Continuous
 62
     7
100
AcDbLine
 10
484.3864833922133
 20
474.4302171190104
 30
-10.59933933933941
 11
484.3864833922133
 21
472.9302171190103
 31
-10.59933933933941
  0
LINE
  5
5F9
330
1F
100
AcDbEntity
  8
0
  6
Continuous
 62
     7
100
AcDbLine
 10
484.3864833922133
 20
472.9302171190103
 30
-10.59933933933941
 11
485.3864833922133
 21
472.9302171190103
 31
-10.59933933933941
  0
LINE
  5
5FA
330
1F
100
AcDbEntity
  8
0
  6
Continuous
 62
     7
100
AcDbLine
 10
485.3864833922133
 20
472.9302171190103
 30
-10.59933933933941
 11
485.3864833922133
 21
474.4302171190104
 31
-10.59933933933941
  0
LINE
  5
5FB
330
1F
100
AcDbEntity
  8
0
  6
Continuous
 62
     7
100
AcDbLine
 10
485.3864833922133
 20
474.4302171190104
 30
-10.59933933933941
 11
486.8864833922136
 21
474.4302171190104
 31
-10.59933933933941
  0
LINE
  5
5FC
330
1F
100
AcDbEntity
  8
0
  6
Continuous
 62
     7
100
AcDbLine
 10
486.8864833922136
 20
474.4302171190104
 30
-10.59933933933941
 11
486.8864833922136
 21
475.4302171190101
 31
-10.59933933933941
  0
LINE
  5
5FD
330
1F
100
AcDbEntity
  8
0
  6
Continuous
 62
     7
100
AcDbLine
 10
486.8864833922136
 20
475.4302171190101
 30
-10.59933933933941
 11
485.3864833922133
 21
475.4302171190101
 31
-10.59933933933941
  0
LINE
  5
5FE
330
1F
100
AcDbEntity
  8
0
  6
Continuous
 62
     7
100
AcDbLine
 10
485.3864833922133
 20
475.4302171190101
 30
-10.59933933933941
 11
485.3864833922133
 21
476.9302171190106
 31
-10.59933933933941
  0
LINE
  5
5FF
330
1F
100
AcDbEntity
  8
0
  6
Continuous
 62
     7
100
AcDbLine
 10
485.3864833922133
 20
476.9302171190106
 30
-10.59933933933941
 11
485.3864833922133
 21
476.9302171190106
 31
-10.59933933933941
  0
LINE
  5
600
330
1F
100
AcDbEntity
  8
0
  6
Continuous
 62
     7
100
AcDbLine
 10
480.462307216037
 20
444.1434103122031
 30
-10.59933933933941
 11
483.0318087175386
 21
444.1434103122031
 31
-10.59933933933941
  0
LINE
  5
601
330
1F
100
AcDbEntity
  8
0
  6
Continuous
 62
     7
100
AcDbLine
 10
479.7552441529743
 20
444.313788690582
 30
-10.59933933933941
 11
480.4340389477688
 21
444.9467076094999
 31
-10.59933933933941
  0
LINE
  5
602
330
1F
100
AcDbEntity
  8
0
  6
Continuous
 62
     7
100
AcDbLine
 10
480.4340389477688
 20
444.9467076094999
 30
-10.59933933933941
 11
483.2040909998205
 21
444.9467076094999
 31
-10.59933933933941
  0
LINE
  5
603
330
1F
100
AcDbEntity
  8
0
  6
Continuous
 62
     7
100
AcDbLine
 10
483.2040909998205
 20
444.9467076094999
 30
-10.59933933933941
 11
483.7737186274483
 21
444.1924913932846
 31
-10.59933933933941
  0
LINE
  5
604
330
1F
100
AcDbEntity
  8
0
  6
Continuous
 62
     7
100
AcDbLine
 10
483.4888677765976
 20
444.5696385404313
 30
-10.59933933933941
 11
483.0318087175386
 21
444.1434103122031
 31
-10.59933933933941
  0
LINE
  5
605
330
1F
100
AcDbEntity
  8
0
  6
Continuous
 62
     7
100
AcDbLine
 10
480.0946775864073
 20
444.6302891910822
 30
-10.59933933933941
 11
480.462307216037
 21
444.1434103122031
 31
-10.59933933933941
  0
LINE
  5
606
330
1F
100
AcDbEntity
  8
0
  6
Continuous
 62
     7
100
AcDbLine
 10
487.7623072160372
 20
444.1434103122031
 30
-10.59933933933941
 11
490.3318087175387
 21
444.1434103122031
 31
-10.59933933933941
  0
LINE
  5
607
330
1F
100
AcDbEntity
  8
0
  6
Continuous
 62
     7
100
AcDbLine
 10
487.0552441529746
 20
444.313788690582
 30
-10.59933933933941
 11
487.7340389477691
 21
444.9467076094999
 31
-10.59933933933941
  0
LINE
  5
608
330
1F
100
AcDbEntity
  8
0
  6
Continuous
 62
     7
100
AcDbLine
 10
487.7340389477691
 20
444.9467076094999
 30
-10.59933933933941
 11
490.5040909998208
 21
444.9467076094999
 31
-10.59933933933941
  0
LINE
  5
609
330
1F
100
AcDbEntity
  8
0
  6
Continuous
 62
     7
100
AcDbLine
 10
490.5040909998208
 20
444.9467076094999
 30
-10.59933933933941
 11
491.0737186274483
 21
444.1924913932846
 31
-10.59933933933941
  0
LINE
  5
60A
330
1F
100
AcDbEntity
  8
0
  6
Continuous
 62
     7
100
AcDbLine
 10
490.7888677765979
 20
444.5696385404313
 30
-10.59933933933941
 11
490.3318087175387
 21
444.1434103122031
 31
-10.59933933933941
  0
LINE
  5
60B
330
1F
100
AcDbEntity
  8
0
  6
Continuous
 62
     7
100
AcDbLine
 10
487.3946775864076
 20
444.6302891910822
 30
-10.59933933933941
 11
487.7623072160372
 21
444.1434103122031
 31
-10.59933933933941
  0
LINE
  5
60C
330
1F
100
AcDbEntity
  8
0
  6
Continuous
 62
     7
100
AcDbLine
 10
480.0161630718931
 20
456.7318667686596
 30
-10.59933933933941
 11
482.5855925013224
 21
456.7318667686596
 31
-10.59933933933941
  0
LINE
  5
60D
330
1F
100
AcDbEntity
  8
0
  6
Continuous
 62
     7
100
AcDbLine
 10
479.8887036124336
 20
455.9285674693604
 30
-10.59933933933941
 11
482.458133041863
 21
455.9285674693604
 31
-10.59933933933941
  0
LINE
  5
60E
330
1F
100
AcDbEntity
  8
0
  6
Continuous
 62
     7
100
AcDbLine
 10
480.462307216037
 20
459.5434103122035
 30
-10.59933933933941
 11
483.0318087175386
 21
459.5434103122035
 31
-10.59933933933941
  0
LINE
  5
60F
330
1F
100
AcDbEntity
  8
0
  6
Continuous
 62
     7
100
AcDbLine
 10
482.0119168256471
 20
453.1171060078992
 30
-10.59933933933941
 11
479.4424873962173
 21
453.1171060078992
 31
-10.59933933933941
  0
LINE
  5
610
330
1F
100
AcDbEntity
  8
0
  6
Continuous
 62
     7
100
AcDbLine
 10
480.0161630718931
 20
456.7318667686596
 30
-10.59933933933941
 11
479.5853462550763
 21
456.3302171190104
 31
-10.59933933933941
  0
LINE
  5
611
330
1F
100
AcDbEntity
  8
0
  6
Continuous
 62
     7
100
AcDbLine
 10
479.5853462550763
 20
456.3302171190104
 30
-10.59933933933941
 11
479.8887036124336
 21
455.9285674693604
 31
-10.59933933933941
  0
LINE
  5
612
330
1F
100
AcDbEntity
  8
0
  6
Continuous
 62
     7
100
AcDbLine
 10
479.2820609697907
 20
456.7318667686596
 30
-10.59933933933941
 11
479.5853462550763
 21
456.3302171190104
 31
-10.59933933933941
  0
LINE
  5
613
330
1F
100
AcDbEntity
  8
0
  6
Continuous
 62
     7
100
AcDbLine
 10
479.5853462550763
 20
456.3302171190104
 30
-10.59933933933941
 11
479.1546015103318
 21
455.9285674693604
 31
-10.59933933933941
  0
LINE
  5
614
330
1F
100
AcDbEntity
  8
0
  6
Continuous
 62
     7
100
AcDbLine
 10
482.5855925013224
 20
456.7318667686596
 30
-10.59933933933941
 11
482.8889498586796
 21
456.3302171190104
 31
-10.59933933933941
  0
LINE
  5
615
330
1F
100
AcDbEntity
  8
0
  6
Continuous
 62
     7
100
AcDbLine
 10
482.8889498586796
 20
456.3302171190104
 30
-10.59933933933941
 11
482.458133041863
 21
455.9285674693604
 31
-10.59933933933941
  0
LINE
  5
616
330
1F
100
AcDbEntity
  8
0
  6
Continuous
 62
     7
100
AcDbLine
 10
483.3196946034245
 20
456.7318667686596
 30
-10.59933933933941
 11
482.8889498586796
 21
456.3302171190104
 31
-10.59933933933941
  0
LINE
  5
617
330
1F
100
AcDbEntity
  8
0
  6
Continuous
 62
     7
100
AcDbLine
 10
482.8889498586796
 20
456.3302171190104
 30
-10.59933933933941
 11
483.1922351439652
 21
455.9285674693604
 31
-10.59933933933941
  0
LINE
  5
618
330
1F
100
AcDbEntity
  8
0
  6
Continuous
 62
     7
100
AcDbLine
 10
483.0318087175386
 20
459.5434103122035
 30
-10.59933933933941
 11
482.5855925013224
 21
456.7318667686596
 31
-10.59933933933941
  0
LINE
  5
619
330
1F
100
AcDbEntity
  8
0
  6
Continuous
 62
     7
100
AcDbLine
 10
482.458133041863
 20
455.9285674693604
 30
-10.59933933933941
 11
482.0119168256471
 21
453.1171060078992
 31
-10.59933933933941
  0
LINE
  5
61A
330
1F
100
AcDbEntity
  8
0
  6
Continuous
 62
     7
100
AcDbLine
 10
479.4424873962173
 20
453.1171060078992
 30
-10.59933933933941
 11
479.8887036124336
 21
455.9285674693604
 31
-10.59933933933941
  0
LINE
  5
61B
330
1F
100
AcDbEntity
  8
0
  6
Continuous
 62
     7
100
AcDbLine
 10
480.0161630718931
 20
456.7318667686596
 30
-10.59933933933941
 11
480.462307216037
 21
459.5434103122035
 31
-10.59933933933941
  0
LINE
  5
61C
330
1F
100
AcDbEntity
  8
0
  6
Continuous
 62
     7
100
AcDbLine
 10
479.2820609697907
 20
456.7318667686596
 30
-10.59933933933941
 11
479.7552441529743
 21
459.7137886905817
 31
-10.59933933933941
  0
LINE
  5
61D
330
1F
100
AcDbEntity
  8
0
  6
Continuous
 62
     7
100
AcDbLine
 10
479.7552441529743
 20
459.7137886905817
 30
-10.59933933933941
 11
480.4340389477688
 21
460.3467076095005
 31
-10.59933933933941
  0
LINE
  5
61E
330
1F
100
AcDbEntity
  8
0
  6
Continuous
 62
     7
100
AcDbLine
 10
480.4340389477688
 20
460.3467076095005
 30
-10.59933933933941
 11
483.2040909998205
 21
460.3467076095005
 31
-10.59933933933941
  0
LINE
  5
61F
330
1F
100
AcDbEntity
  8
0
  6
Continuous
 62
     7
100
AcDbLine
 10
483.2040909998205
 20
460.3467076095005
 30
-10.59933933933941
 11
483.7737186274483
 21
459.5924913932845
 31
-10.59933933933941
  0
LINE
  5
620
330
1F
100
AcDbEntity
  8
0
  6
Continuous
 62
     7
100
AcDbLine
 10
483.7737186274483
 20
459.5924913932845
 30
-10.59933933933941
 11
483.3196946034245
 21
456.7318667686596
 31
-10.59933933933941
  0
LINE
  5
621
330
1F
100
AcDbEntity
  8
0
  6
Continuous
 62
     7
100
AcDbLine
 10
479.1546015103318
 20
455.9285674693604
 30
-10.59933933933941
 11
478.6813462550759
 21
452.9465654673584
 31
-10.59933933933941
  0
LINE
  5
622
330
1F
100
AcDbEntity
  8
0
  6
Continuous
 62
     7
100
AcDbLine
 10
478.6813462550759
 20
452.9465654673584
 30
-10.59933933933941
 11
479.1593002090298
 21
452.3137266285194
 31
-10.59933933933941
  0
LINE
  5
623
330
1F
100
AcDbEntity
  8
0
  6
Continuous
 62
     7
100
AcDbLine
 10
479.1593002090298
 20
452.3137266285194
 30
-10.59933933933941
 11
482.1333022110321
 21
452.3137266285194
 31
-10.59933933933941
  0
LINE
  5
624
330
1F
100
AcDbEntity
  8
0
  6
Continuous
 62
     7
100
AcDbLine
 10
482.1333022110321
 20
452.3137266285194
 30
-10.59933933933941
 11
482.7028577665878
 21
452.844707609501
 31
-10.59933933933941
  0
LINE
  5
625
330
1F
100
AcDbEntity
  8
0
  6
Continuous
 62
     7
100
AcDbLine
 10
482.7028577665878
 20
452.844707609501
 30
-10.59933933933941
 11
483.1922351439652
 21
455.9285674693604
 31
-10.59933933933941
  0
LINE
  5
626
330
1F
100
AcDbEntity
  8
0
  6
Continuous
 62
     7
100
AcDbLine
 10
483.4888677765976
 20
459.9696385404315
 30
-10.59933933933941
 11
483.0318087175386
 21
459.5434103122035
 31
-10.59933933933941
  0
LINE
  5
627
330
1F
100
AcDbEntity
  8
0
  6
Continuous
 62
     7
100
AcDbLine
 10
480.0946775864073
 20
460.0302891910825
 30
-10.59933933933941
 11
480.462307216037
 21
459.5434103122035
 31
-10.59933933933941
  0
LINE
  5
628
330
1F
100
AcDbEntity
  8
0
  6
Continuous
 62
     7
100
AcDbLine
 10
478.9202871960172
 20
452.6301450469381
 30
-10.59933933933941
 11
479.4424873962173
 21
453.1171060078992
 31
-10.59933933933941
  0
LINE
  5
629
330
1F
100
AcDbEntity
  8
0
  6
Continuous
 62
     7
100
AcDbLine
 10
482.4180809898108
 20
452.5792161180095
 30
-10.59933933933941
 11
482.0119168256471
 21
453.1171060078992
 31
-10.59933933933941
  0
LINE
  5
62A
330
1F
100
AcDbEntity
  8
0
  6
Continuous
 62
     7
100
AcDbLine
 10
487.316163071893
 20
456.7318667686596
 30
-10.59933933933941
 11
489.8855925013225
 21
456.7318667686596
 31
-10.59933933933941
  0
LINE
  5
62B
330
1F
100
AcDbEntity
  8
0
  6
Continuous
 62
     7
100
AcDbLine
 10
487.1887036124337
 20
455.9285674693604
 30
-10.59933933933941
 11
489.7581330418629
 21
455.9285674693604
 31
-10.59933933933941
  0
LINE
  5
62C
330
1F
100
AcDbEntity
  8
0
  6
Continuous
 62
     7
100
AcDbLine
 10
487.7623072160372
 20
459.5434103122035
 30
-10.59933933933941
 11
490.3318087175387
 21
459.5434103122035
 31
-10.59933933933941
  0
LINE
  5
62D
330
1F
100
AcDbEntity
  8
0
  6
Continuous
 62
     7
100
AcDbLine
 10
489.3119168256466
 20
453.1171060078992
 30
-10.59933933933941
 11
486.7424873962173
 21
453.1171060078992
 31
-10.59933933933941
  0
LINE
  5
62E
330
1F
100
AcDbEntity
  8
0
  6
Continuous
 62
     7
100
AcDbLine
 10
487.316163071893
 20
456.7318667686596
 30
-10.59933933933941
 11
486.885346255076
 21
456.3302171190104
 31
-10.59933933933941
  0
LINE
  5
62F
330
1F
100
AcDbEntity
  8
0
  6
Continuous
 62
     7
100
AcDbLine
 10
486.885346255076
 20
456.3302171190104
 30
-10.59933933933941
 11
487.1887036124337
 21
455.9285674693604
 31
-10.59933933933941
  0
LINE
  5
630
330
1F
100
AcDbEntity
  8
0
  6
Continuous
 62
     7
100
AcDbLine
 10
486.582060969791
 20
456.7318667686596
 30
-10.59933933933941
 11
486.885346255076
 21
456.3302171190104
 31
-10.59933933933941
  0
LINE
  5
631
330
1F
100
AcDbEntity
  8
0
  6
Continuous
 62
     7
100
AcDbLine
 10
486.885346255076
 20
456.3302171190104
 30
-10.59933933933941
 11
486.4546015103313
 21
455.9285674693604
 31
-10.59933933933941
  0
LINE
  5
632
330
1F
100
AcDbEntity
  8
0
  6
Continuous
 62
     7
100
AcDbLine
 10
489.8855925013225
 20
456.7318667686596
 30
-10.59933933933941
 11
490.18894985868
 21
456.3302171190104
 31
-10.59933933933941
  0
LINE
  5
633
330
1F
100
AcDbEntity
  8
0
  6
Continuous
 62
     7
100
AcDbLine
 10
490.18894985868
 20
456.3302171190104
 30
-10.59933933933941
 11
489.7581330418629
 21
455.9285674693604
 31
-10.59933933933941
  0
LINE
  5
634
330
1F
100
AcDbEntity
  8
0
  6
Continuous
 62
     7
100
AcDbLine
 10
490.6196946034246
 20
456.7318667686596
 30
-10.59933933933941
 11
490.18894985868
 21
456.3302171190104
 31
-10.59933933933941
  0
LINE
  5
635
330
1F
100
AcDbEntity
  8
0
  6
Continuous
 62
     7
100
AcDbLine
 10
490.18894985868
 20
456.3302171190104
 30
-10.59933933933941
 11
490.4922351439652
 21
455.9285674693604
 31
-10.59933933933941
  0
LINE
  5
636
330
1F
100
AcDbEntity
  8
0
  6
Continuous
 62
     7
100
AcDbLine
 10
490.3318087175387
 20
459.5434103122035
 30
-10.59933933933941
 11
489.8855925013225
 21
456.7318667686596
 31
-10.59933933933941
  0
LINE
  5
637
330
1F
100
AcDbEntity
  8
0
  6
Continuous
 62
     7
100
AcDbLine
 10
489.7581330418629
 20
455.9285674693604
 30
-10.59933933933941
 11
489.3119168256466
 21
453.1171060078992
 31
-10.59933933933941
  0
LINE
  5
638
330
1F
100
AcDbEntity
  8
0
  6
Continuous
 62
     7
100
AcDbLine
 10
486.7424873962173
 20
453.1171060078992
 30
-10.59933933933941
 11
487.1887036124337
 21
455.9285674693604
 31
-10.59933933933941
  0
LINE
  5
639
330
1F
100
AcDbEntity
  8
0
  6
Continuous
 62
     7
100
AcDbLine
 10
487.316163071893
 20
456.7318667686596
 30
-10.59933933933941
 11
487.7623072160372
 21
459.5434103122035
 31
-10.59933933933941
  0
LINE
  5
63A
330
1F
100
AcDbEntity
  8
0
  6
Continuous
 62
     7
100
AcDbLine
 10
486.582060969791
 20
456.7318667686596
 30
-10.59933933933941
 11
487.0552441529746
 21
459.7137886905817
 31
-10.59933933933941
  0
LINE
  5
63B
330
1F
100
AcDbEntity
  8
0
  6
Continuous
 62
     7
100
AcDbLine
 10
487.0552441529746
 20
459.7137886905817
 30
-10.59933933933941
 11
487.7340389477691
 21
460.3467076095005
 31
-10.59933933933941
  0
LINE
  5
63C
330
1F
100
AcDbEntity
  8
0
  6
Continuous
 62
     7
100
AcDbLine
 10
487.7340389477691
 20
460.3467076095005
 30
-10.59933933933941
 11
490.5040909998208
 21
460.3467076095005
 31
-10.59933933933941
  0
LINE
  5
63D
330
1F
100
AcDbEntity
  8
0
  6
Continuous
 62
     7
100
AcDbLine
 10
490.5040909998208
 20
460.3467076095005
 30
-10.59933933933941
 11
491.0737186274483
 21
459.5924913932845
 31
-10.59933933933941
  0
LINE
  5
63E
330
1F
100
AcDbEntity
  8
0
  6
Continuous
 62
     7
100
AcDbLine
 10
491.0737186274483
 20
459.5924913932845
 30
-10.59933933933941
 11
490.6196946034246
 21
456.7318667686596
 31
-10.59933933933941
  0
LINE
  5
63F
330
1F
100
AcDbEntity
  8
0
  6
Continuous
 62
     7
100
AcDbLine
 10
486.4546015103313
 20
455.9285674693604
 30
-10.59933933933941
 11
485.9813462550762
 21
452.9465654673584
 31
-10.59933933933941
  0
LINE
  5
640
330
1F
100
AcDbEntity
  8
0
  6
Continuous
 62
     7
100
AcDbLine
 10
485.9813462550762
 20
452.9465654673584
 30
-10.59933933933941
 11
486.4593002090301
 21
452.3137266285194
 31
-10.59933933933941
  0
LINE
  5
641
330
1F
100
AcDbEntity
  8
0
  6
Continuous
 62
     7
100
AcDbLine
 10
486.4593002090301
 20
452.3137266285194
 30
-10.59933933933941
 11
489.4333022110321
 21
452.3137266285194
 31
-10.59933933933941
  0
LINE
  5
642
330
1F
100
AcDbEntity
  8
0
  6
Continuous
 62
     7
100
AcDbLine
 10
489.4333022110321
 20
452.3137266285194
 30
-10.59933933933941
 11
490.0028577665881
 21
452.844707609501
 31
-10.59933933933941
  0
LINE
  5
643
330
1F
100
AcDbEntity
  8
0
  6
Continuous
 62
     7
100
AcDbLine
 10
490.0028577665881
 20
452.844707609501
 30
-10.59933933933941
 11
490.4922351439652
 21
455.9285674693604
 31
-10.59933933933941
  0
LINE
  5
644
330
1F
100
AcDbEntity
  8
0
  6
Continuous
 62
     7
100
AcDbLine
 10
490.7888677765979
 20
459.9696385404315
 30
-10.59933933933941
 11
490.3318087175387
 21
459.5434103122035
 31
-10.59933933933941
  0
LINE
  5
645
330
1F
100
AcDbEntity
  8
0
  6
Continuous
 62
     7
100
AcDbLine
 10
487.3946775864076
 20
460.0302891910825
 30
-10.59933933933941
 11
487.7623072160372
 21
459.5434103122035
 31
-10.59933933933941
  0
LINE
  5
646
330
1F
100
AcDbEntity
  8
0
  6
Continuous
 62
     7
100
AcDbLine
 10
486.2202871960175
 20
452.6301450469381
 30
-10.59933933933941
 11
486.7424873962173
 21
453.1171060078992
 31
-10.59933933933941
  0
LINE
  5
647
330
1F
100
AcDbEntity
  8
0
  6
Continuous
 62
     7
100
AcDbLine
 10
489.7180809898109
 20
452.5792161180095
 30
-10.59933933933941
 11
489.3119168256466
 21
453.1171060078992
 31
-10.59933933933941
  0
LINE
  5
648
330
1F
100
AcDbEntity
  8
0
  6
Continuous
 62
     7
100
AcDbLine
 10
494.6161630718931
 20
456.7318667686596
 30
-10.59933933933941
 11
494.1853462550762
 21
456.3302171190104
 31
-10.59933933933941
  0
LINE
  5
649
330
1F
100
AcDbEntity
  8
0
  6
Continuous
 62
     7
100
AcDbLine
 10
494.1853462550762
 20
456.3302171190104
 30
-10.59933933933941
 11
494.4887036124335
 21
455.9285674693604
 31
-10.59933933933941
  0
LINE
  5
64A
330
1F
100
AcDbEntity
  8
0
  6
Continuous
 62
     7
100
AcDbLine
 10
493.882060969791
 20
456.7318667686596
 30
-10.59933933933941
 11
494.1853462550762
 21
456.3302171190104
 31
-10.59933933933941
  0
LINE
  5
64B
330
1F
100
AcDbEntity
  8
0
  6
Continuous
 62
     7
100
AcDbLine
 10
494.1853462550762
 20
456.3302171190104
 30
-10.59933933933941
 11
493.7546015103317
 21
455.9285674693604
 31
-10.59933933933941
  0
LINE
  5
64C
330
1F
100
AcDbEntity
  8
0
  6
Continuous
 62
     7
100
AcDbLine
 10
494.0424873962173
 20
453.1171060078992
 30
-10.59933933933941
 11
494.4887036124335
 21
455.9285674693604
 31
-10.59933933933941
  0
LINE
  5
64D
330
1F
100
AcDbEntity
  8
0
  6
Continuous
 62
     7
100
AcDbLine
 10
493.882060969791
 20
456.7318667686596
 30
-10.59933933933941
 11
494.3552441529742
 21
459.7137886905817
 31
-10.59933933933941
  0
LINE
  5
64E
330
1F
100
AcDbEntity
  8
0
  6
Continuous
 62
     7
100
AcDbLine
 10
493.7546015103317
 20
455.9285674693604
 30
-10.59933933933941
 11
493.2813462550765
 21
452.9465654673584
 31
-10.59933933933941
  0
LINE
  5
64F
330
1F
100
AcDbEntity
  8
0
  6
Continuous
 62
     7
100
AcDbLine
 10
493.2813462550765
 20
452.9465654673584
 30
-10.59933933933941
 11
493.75930020903
 21
452.3137266285194
 31
-10.59933933933941
  0
LINE
  5
650
330
1F
100
AcDbEntity
  8
0
  6
Continuous
 62
     7
100
AcDbLine
 10
493.5202871960175
 20
452.6301450469381
 30
-10.59933933933941
 11
494.0424873962173
 21
453.1171060078992
 31
-10.59933933933941
  0
LINE
  5
651
330
1F
100
AcDbEntity
  8
0
  6
Continuous
 62
     7
100
AcDbLine
 10
480.8864833922133
 20
477.9302171190105
 30
-10.59933933933941
 11
480.8864833922133
 21
474.9302171190104
 31
-10.59933933933941
  0
LINE
  5
652
330
1F
100
AcDbEntity
  8
0
  6
Continuous
 62
     7
100
AcDbLine
 10
488.8864833922133
 20
477.9302171190105
 30
-10.59933933933941
 11
488.8864833922133
 21
474.9302171190104
 31
-10.59933933933941
  0
LINE
  5
653
330
1F
100
AcDbEntity
  8
0
  6
Continuous
 62
     7
100
AcDbLine
 10
494.3552441529742
 20
444.313788690582
 30
-10.59933933933941
 11
495.0340389477688
 21
444.9467076094999
 31
-10.59933933933941
  0
LINE
  5
654
330
1F
100
AcDbEntity
  8
0
  6
Continuous
 62
     7
100
AcDbLine
 10
494.6946775864073
 20
444.6302891910822
 30
-10.59933933933941
 11
495.0623072160373
 21
444.1434103122031
 31
-10.59933933933941
  0
LINE
  5
655
330
1F
100
AcDbEntity
  8
0
  6
Continuous
 62
     7
100
AcDbLine
 10
494.6161630718931
 20
456.7318667686596
 30
-10.59933933933941
 11
497.1855925013224
 21
456.7318667686596
 31
-10.59933933933941
  0
LINE
  5
656
330
1F
100
AcDbEntity
  8
0
  6
Continuous
 62
     7
100
AcDbLine
 10
494.4887036124335
 20
455.9285674693604
 30
-10.59933933933941
 11
497.0581330418631
 21
455.9285674693604
 31
-10.59933933933941
  0
LINE
  5
657
330
1F
100
AcDbEntity
  8
0
  6
Continuous
 62
     7
100
AcDbLine
 10
496.611916825647
 20
453.1171060078992
 30
-10.59933933933941
 11
494.0424873962173
 21
453.1171060078992
 31
-10.59933933933941
  0
LINE
  5
658
330
1F
100
AcDbEntity
  8
0
  6
Continuous
 62
     7
100
AcDbLine
 10
494.6161630718931
 20
456.7318667686596
 30
-10.59933933933941
 11
495.0623072160373
 21
459.5434103122035
 31
-10.59933933933941
  0
LINE
  5
659
330
1F
100
AcDbEntity
  8
0
  6
Continuous
 62
     7
100
AcDbLine
 10
494.3552441529742
 20
459.7137886905817
 30
-10.59933933933941
 11
495.0340389477688
 21
460.3467076095005
 31
-10.59933933933941
  0
LINE
  5
65A
330
1F
100
AcDbEntity
  8
0
  6
Continuous
 62
     7
100
AcDbLine
 10
493.75930020903
 20
452.3137266285194
 30
-10.59933933933941
 11
496.7333022110322
 21
452.3137266285194
 31
-10.59933933933941
  0
LINE
  5
65B
330
1F
100
AcDbEntity
  8
0
  6
Continuous
 62
     7
100
AcDbLine
 10
494.6946775864073
 20
460.0302891910825
 30
-10.59933933933941
 11
495.0623072160373
 21
459.5434103122035
 31
-10.59933933933941
  0
LINE
  5
65C
330
1F
100
AcDbEntity
  8
0
  6
Continuous
 62
     7
100
AcDbLine
 10
473.1623072160369
 20
444.1434103122031
 30
-10.59933933933941
 11
475.7318087175382
 21
444.1434103122031
 31
-10.59933933933941
  0
LINE
  5
65D
330
1F
100
AcDbEntity
  8
0
  6
Continuous
 62
     7
100
AcDbLine
 10
472.4552441529739
 20
444.313788690582
 30
-10.59933933933941
 11
473.1340389477688
 21
444.9467076094999
 31
-10.59933933933941
  0
LINE
  5
65E
330
1F
100
AcDbEntity
  8
0
  6
Continuous
 62
     7
100
AcDbLine
 10
473.1340389477688
 20
444.9467076094999
 30
-10.59933933933941
 11
475.9040909998207
 21
444.9467076094999
 31
-10.59933933933941
  0
LINE
  5
65F
330
1F
100
AcDbEntity
  8
0
  6
Continuous
 62
     7
100
AcDbLine
 10
475.9040909998207
 20
444.9467076094999
 30
-10.59933933933941
 11
476.4737186274484
 21
444.1924913932846
 31
-10.59933933933941
  0
LINE
  5
660
330
1F
100
AcDbEntity
  8
0
  6
Continuous
 62
     7
100
AcDbLine
 10
476.1888677765976
 20
444.5696385404313
 30
-10.59933933933941
 11
475.7318087175382
 21
444.1434103122031
 31
-10.59933933933941
  0
LINE
  5
661
330
1F
100
AcDbEntity
  8
0
  6
Continuous
 62
     7
100
AcDbLine
 10
472.7946775864075
 20
444.6302891910822
 30
-10.59933933933941
 11
473.1623072160369
 21
444.1434103122031
 31
-10.59933933933941
  0
LINE
  5
662
330
1F
100
AcDbEntity
  8
0
  6
Continuous
 62
     7
100
AcDbLine
 10
472.7161630718931
 20
456.7318667686596
 30
-10.59933933933941
 11
475.2855925013226
 21
456.7318667686596
 31
-10.59933933933941
  0
LINE
  5
663
330
1F
100
AcDbEntity
  8
0
  6
Continuous
 62
     7
100
AcDbLine
 10
472.5887036124336
 20
455.9285674693604
 30
-10.59933933933941
 11
475.158133041863
 21
455.9285674693604
 31
-10.59933933933941
  0
LINE
  5
664
330
1F
100
AcDbEntity
  8
0
  6
Continuous
 62
     7
100
AcDbLine
 10
473.1623072160369
 20
459.5434103122035
 30
-10.59933933933941
 11
475.7318087175382
 21
459.5434103122035
 31
-10.59933933933941
  0
LINE
  5
665
330
1F
100
AcDbEntity
  8
0
  6
Continuous
 62
     7
100
AcDbLine
 10
474.7119168256469
 20
453.1171060078992
 30
-10.59933933933941
 11
472.142487396217
 21
453.1171060078992
 31
-10.59933933933941
  0
LINE
  5
666
330
1F
100
AcDbEntity
  8
0
  6
Continuous
 62
     7
100
AcDbLine
 10
472.7161630718931
 20
456.7318667686596
 30
-10.59933933933941
 11
472.2853462550761
 21
456.3302171190104
 31
-10.59933933933941
  0
LINE
  5
667
330
1F
100
AcDbEntity
  8
0
  6
Continuous
 62
     7
100
AcDbLine
 10
472.2853462550761
 20
456.3302171190104
 30
-10.59933933933941
 11
472.5887036124336
 21
455.9285674693604
 31
-10.59933933933941
  0
LINE
  5
668
330
1F
100
AcDbEntity
  8
0
  6
Continuous
 62
     7
100
AcDbLine
 10
471.9820609697907
 20
456.7318667686596
 30
-10.59933933933941
 11
472.2853462550761
 21
456.3302171190104
 31
-10.59933933933941
  0
LINE
  5
669
330
1F
100
AcDbEntity
  8
0
  6
Continuous
 62
     7
100
AcDbLine
 10
472.2853462550761
 20
456.3302171190104
 30
-10.59933933933941
 11
471.8546015103313
 21
455.9285674693604
 31
-10.59933933933941
  0
LINE
  5
66A
330
1F
100
AcDbEntity
  8
0
  6
Continuous
 62
     7
100
AcDbLine
 10
475.2855925013226
 20
456.7318667686596
 30
-10.59933933933941
 11
475.5889498586798
 21
456.3302171190104
 31
-10.59933933933941
  0
LINE
  5
66B
330
1F
100
AcDbEntity
  8
0
  6
Continuous
 62
     7
100
AcDbLine
 10
475.5889498586798
 20
456.3302171190104
 30
-10.59933933933941
 11
475.158133041863
 21
455.9285674693604
 31
-10.59933933933941
  0
LINE
  5
66C
330
1F
100
AcDbEntity
  8
0
  6
Continuous
 62
     7
100
AcDbLine
 10
476.0196946034246
 20
456.7318667686596
 30
-10.59933933933941
 11
475.5889498586798
 21
456.3302171190104
 31
-10.59933933933941
  0
LINE
  5
66D
330
1F
100
AcDbEntity
  8
0
  6
Continuous
 62
     7
100
AcDbLine
 10
475.5889498586798
 20
456.3302171190104
 30
-10.59933933933941
 11
475.8922351439652
 21
455.9285674693604
 31
-10.59933933933941
  0
LINE
  5
66E
330
1F
100
AcDbEntity
  8
0
  6
Continuous
 62
     7
100
AcDbLine
 10
475.7318087175382
 20
459.5434103122035
 30
-10.59933933933941
 11
475.2855925013226
 21
456.7318667686596
 31
-10.59933933933941
  0
LINE
  5
66F
330
1F
100
AcDbEntity
  8
0
  6
Continuous
 62
     7
100
AcDbLine
 10
475.158133041863
 20
455.9285674693604
 30
-10.59933933933941
 11
474.7119168256469
 21
453.1171060078992
 31
-10.59933933933941
  0
LINE
  5
670
330
1F
100
AcDbEntity
  8
0
  6
Continuous
 62
     7
100
AcDbLine
 10
472.142487396217
 20
453.1171060078992
 30
-10.59933933933941
 11
472.5887036124336
 21
455.9285674693604
 31
-10.59933933933941
  0
LINE
  5
671
330
1F
100
AcDbEntity
  8
0
  6
Continuous
 62
     7
100
AcDbLine
 10
472.7161630718931
 20
456.7318667686596
 30
-10.59933933933941
 11
473.1623072160369
 21
459.5434103122035
 31
-10.59933933933941
  0
LINE
  5
672
330
1F
100
AcDbEntity
  8
0
  6
Continuous
 62
     7
100
AcDbLine
 10
471.9820609697907
 20
456.7318667686596
 30
-10.59933933933941
 11
472.4552441529739
 21
459.7137886905817
 31
-10.59933933933941
  0
LINE
  5
673
330
1F
100
AcDbEntity
  8
0
  6
Continuous
 62
     7
100
AcDbLine
 10
472.4552441529739
 20
459.7137886905817
 30
-10.59933933933941
 11
473.1340389477688
 21
460.3467076095005
 31
-10.59933933933941
  0
LINE
  5
674
330
1F
100
AcDbEntity
  8
0
  6
Continuous
 62
     7
100
AcDbLine
 10
473.1340389477688
 20
460.3467076095005
 30
-10.59933933933941
 11
475.9040909998207
 21
460.3467076095005
 31
-10.59933933933941
  0
LINE
  5
675
330
1F
100
AcDbEntity
  8
0
  6
Continuous
 62
     7
100
AcDbLine
 10
475.9040909998207
 20
460.3467076095005
 30
-10.59933933933941
 11
476.4737186274484
 21
459.5924913932845
 31
-10.59933933933941
  0
LINE
  5
676
330
1F
100
AcDbEntity
  8
0
  6
Continuous
 62
     7
100
AcDbLine
 10
476.4737186274484
 20
459.5924913932845
 30
-10.59933933933941
 11
476.0196946034246
 21
456.7318667686596
 31
-10.59933933933941
  0
LINE
  5
677
330
1F
100
AcDbEntity
  8
0
  6
Continuous
 62
     7
100
AcDbLine
 10
471.8546015103313
 20
455.9285674693604
 30
-10.59933933933941
 11
471.3813462550762
 21
452.9465654673584
 31
-10.59933933933941
  0
LINE
  5
678
330
1F
100
AcDbEntity
  8
0
  6
Continuous
 62
     7
100
AcDbLine
 10
471.3813462550762
 20
452.9465654673584
 30
-10.59933933933941
 11
471.8593002090297
 21
452.3137266285194
 31
-10.59933933933941
  0
LINE
  5
679
330
1F
100
AcDbEntity
  8
0
  6
Continuous
 62
     7
100
AcDbLine
 10
471.8593002090297
 20
452.3137266285194
 30
-10.59933933933941
 11
474.833302211032
 21
452.3137266285194
 31
-10.59933933933941
  0
LINE
  5
67A
330
1F
100
AcDbEntity
  8
0
  6
Continuous
 62
     7
100
AcDbLine
 10
474.833302211032
 20
452.3137266285194
 30
-10.59933933933941
 11
475.4028577665876
 21
452.844707609501
 31
-10.59933933933941
  0
LINE
  5
67B
330
1F
100
AcDbEntity
  8
0
  6
Continuous
 62
     7
100
AcDbLine
 10
475.4028577665876
 20
452.844707609501
 30
-10.59933933933941
 11
475.8922351439652
 21
455.9285674693604
 31
-10.59933933933941
  0
LINE
  5
67C
330
1F
100
AcDbEntity
  8
0
  6
Continuous
 62
     7
100
AcDbLine
 10
476.1888677765976
 20
459.9696385404315
 30
-10.59933933933941
 11
475.7318087175382
 21
459.5434103122035
 31
-10.59933933933941
  0
LINE
  5
67D
330
1F
100
AcDbEntity
  8
0
  6
Continuous
 62
     7
100
AcDbLine
 10
472.7946775864075
 20
460.0302891910825
 30
-10.59933933933941
 11
473.1623072160369
 21
459.5434103122035
 31
-10.59933933933941
  0
LINE
  5
67E
330
1F
100
AcDbEntity
  8
0
  6
Continuous
 62
     7
100
AcDbLine
 10
471.6202871960173
 20
452.6301450469381
 30
-10.59933933933941
 11
472.142487396217
 21
453.1171060078992
 31
-10.59933933933941
  0
LINE
  5
67F
330
1F
100
AcDbEntity
  8
0
  6
Continuous
 62
     7
100
AcDbLine
 10
475.1180809898109
 20
452.5792161180095
 30
-10.59933933933941
 11
474.7119168256469
 21
453.1171060078992
 31
-10.59933933933941
  0
LINE
  5
680
330
1F
100
AcDbEntity
  8
0
  6
Continuous
 62
     7
100
AcDbLine
 10
470.3864833922136
 20
460.3302171190103
 30
-10.59933933933941
 11
470.3864833922136
 21
452.3302171190103
 31
-10.59933933933941
  0
LINE
  5
681
330
1F
100
AcDbEntity
  8
0
  6
Continuous
 62
     7
100
AcDbLine
 10
471.3864833922132
 20
445.9302171190104
 30
-10.59933933933941
 11
498.3864833922133
 21
445.9302171190104
 31
-10.59933933933941
  0
LINE
  5
682
330
1F
100
AcDbEntity
  8
0
  6
Continuous
 62
     7
100
AcDbLine
 10
471.3864833922132
 20
451.3302171190104
 30
-10.59933933933941
 11
498.3864833922133
 21
451.3302171190104
 31
-10.59933933933941
  0
LINE
  5
683
330
1F
100
AcDbEntity
  8
0
  6
Continuous
 62
     7
100
AcDbLine
 10
471.3864833922132
 20
461.3302171190102
 30
-10.59933933933941
 11
498.3864833922133
 21
461.3302171190102
 31
-10.59933933933941
  0
LINE
  5
684
330
1F
100
AcDbEntity
  8
0
  6
Continuous
 62
     7
100
AcDbLine
 10
463.8864833922132
 20
468.9302171190101
 30
-10.59933933933941
 11
505.8864833922139
 21
468.9302171190101
 31
-10.59933933933941
  0
LINE
  5
685
330
1F
100
AcDbEntity
  8
0
  6
Continuous
 62
     7
100
AcDbLine
 10
463.8864833922132
 20
468.9302171190101
 30
-10.59933933933941
 11
505.8864833922139
 21
468.9302171190101
 31
-10.59933933933941
  0
LINE
  5
686
330
1F
100
AcDbEntity
  8
0
  6
Continuous
 62
     7
100
AcDbLine
 10
461.8864833922128
 20
477.9302171190105
 30
-10.59933933933941
 11
507.8864833922136
 21
477.9302171190105
 31
-10.59933933933941
  0
ARC
  5
687
330
1F
100
AcDbEntity
  8
0
  6
Continuous
 62
     7
100
AcDbCircle
 10
498.3096128094699
 20
437.3865317214518
 30
0.0
 40
0.3856733855464461
100
AcDbArc
 50
359.9999571957046
 51
90.00004280427578
  0
ARC
  5
688
330
1F
100
AcDbEntity
  8
0
  6
Continuous
 62
     7
100
AcDbCircle
 10
498.3096124719073
 20
437.3865313838898
 30
0.0
 40
0.3856737231085093
100
AcDbArc
 50
89.99999265593251
 51
0.0000073440577008
  0
LINE
  5
689
330
1F
100
AcDbEntity
  8
0
  6
Continuous
 62
     7
100
AcDbLine
 10
498.6952861950162
 20
437.3865314333245
 30
0.0
 11
498.6952861950162
 21
437.3865314333245
 31
0.0
  0
ARC
  5
68A
330
1F
100
AcDbEntity
  8
0
  6
Continuous
 62
     7
100
AcDbCircle
 10
498.3864841392884
 20
436.9302163719344
 30
0.0
 40
0.9999992529251803
100
AcDbArc
 50
269.9999571957111
 51
0.0000428042855519
  0
ARC
  5
68B
330
1F
100
AcDbEntity
  8
0
  6
Continuous
 62
     7
100
AcDbCircle
 10
499.8864848863639
 20
427.9302186131604
 30
0.0
 40
1.999998505850189
100
AcDbArc
 50
359.9999571957112
 51
90.00004280428877
  0
ARC
  5
68C
330
1F
100
AcDbEntity
  8
0
  6
Continuous
 62
     7
100
AcDbCircle
 10
499.8864831358574
 20
427.9302168626545
 30
0.0
 40
2.000000256355933
100
AcDbArc
 50
89.99999265594556
 51
0.0000073440544439
  0
LINE
  5
68D
330
1F
100
AcDbEntity
  8
0
  6
Continuous
 62
     7
100
AcDbLine
 10
501.8864833922133
 20
427.9302171190101
 30
0.0
 11
501.8864833922133
 21
427.9302171190101
 31
0.0
  0
ARC
  5
68E
330
1F
100
AcDbEntity
  8
0
  6
DASHED
 62
     7
 48
4.0
100
AcDbCircle
 10
499.8864860069764
 20
415.9302197337733
 30
0.0
 40
3.499997385237846
100
AcDbArc
 50
359.9999571957143
 51
90.00004280428877
  0
ARC
  5
68F
330
1F
100
AcDbEntity
  8
0
  6
DASHED
 62
     7
 48
4.0
100
AcDbCircle
 10
499.8864829435905
 20
415.9302166703865
 30
0.0
 40
3.500000448622851
100
AcDbArc
 50
89.99999265594556
 51
0.0000073440544439
  0
LINE
  5
690
330
1F
100
AcDbEntity
  8
0
  6
DASHED
 62
     7
 48
4.0
100
AcDbLine
 10
503.3864833922136
 20
415.9302171190101
 30
0.0
 11
503.3864833922136
 21
415.9302171190101
 31
0.0
  0
ARC
  5
691
330
1F
100
AcDbEntity
  8
0
  6
Continuous
 62
     7
100
AcDbCircle
 10
505.8864841392884
 20
405.4302163719349
 30
0.0
 40
0.9999992529251803
100
AcDbArc
 50
269.9999571957111
 51
0.0000428042855519
  0
ARC
  5
692
330
1F
100
AcDbEntity
  8
0
  6
Continuous
 62
     7
100
AcDbCircle
 10
499.8864833922133
 20
417.4302171190101
 30
0.0
 40
4.000000000000006
100
AcDbArc
 50
0.0
 51
180.0
  0
ARC
  5
693
330
1F
100
AcDbEntity
  8
0
  6
Continuous
 62
     7
100
AcDbCircle
 10
499.8864833922133
 20
414.4302171190101
 30
0.0
 40
4.000000000000069
100
AcDbArc
 50
180.0
 51
0.0
  0
ARC
  5
694
330
1F
100
AcDbEntity
  8
0
  6
Continuous
 62
     7
100
AcDbCircle
 10
502.3864841392887
 20
432.9302178660851
 30
0.0
 40
0.9999992529251235
100
AcDbArc
 50
359.9999571957078
 51
90.0000428042823
  0
ARC
  5
695
330
1F
100
AcDbEntity
  8
0
  6
Continuous
 62
     7
100
AcDbCircle
 10
502.3864841392887
 20
425.9302163719345
 30
0.0
 40
0.9999992529250667
100
AcDbArc
 50
269.9999571957174
 51
0.0000428042920657
  0
ARC
  5
696
330
1F
100
AcDbEntity
  8
0
  6
Continuous
 62
     7
100
AcDbCircle
 10
505.8864841392884
 20
405.4302163719349
 30
0.0
 40
0.9999992529251803
100
AcDbArc
 50
269.9999571957111
 51
0.0000428042855519
  0
ARC
  5
697
330
1F
100
AcDbEntity
  8
0
  6
Continuous
 62
     7
100
AcDbCircle
 10
499.8864848863639
 20
427.9302186131604
 30
0.0
 40
1.999998505850189
100
AcDbArc
 50
359.9999571957112
 51
90.00004280428877
  0
ARC
  5
698
330
1F
100
AcDbEntity
  8
0
  6
Continuous
 62
     7
100
AcDbCircle
 10
499.8864831358574
 20
427.9302168626545
 30
0.0
 40
2.000000256355933
100
AcDbArc
 50
89.99999265594556
 51
0.0000073440544439
  0
LINE
  5
699
330
1F
100
AcDbEntity
  8
0
  6
Continuous
 62
     7
100
AcDbLine
 10
501.8864833922133
 20
427.9302171190101
 30
0.0
 11
501.8864833922133
 21
427.9302171190101
 31
0.0
  0
ARC
  5
69A
330
1F
100
AcDbEntity
  8
0
  6
Continuous
 62
     7
100
AcDbCircle
 10
483.7096128094698
 20
437.3865317214518
 30
0.0
 40
0.3856733855464461
100
AcDbArc
 50
359.9999571957046
 51
90.00004280427578
  0
ARC
  5
69B
330
1F
100
AcDbEntity
  8
0
  6
Continuous
 62
     7
100
AcDbCircle
 10
483.7096124719074
 20
437.3865313838898
 30
0.0
 40
0.3856737231085093
100
AcDbArc
 50
89.99999265593251
 51
0.0000073440577008
  0
LINE
  5
69C
330
1F
100
AcDbEntity
  8
0
  6
Continuous
 62
     7
100
AcDbLine
 10
484.0952861950158
 20
437.3865314333245
 30
0.0
 11
484.0952861950158
 21
437.3865314333245
 31
0.0
  0
ARC
  5
69D
330
1F
100
AcDbEntity
  8
0
  6
Continuous
 62
     7
100
AcDbCircle
 10
491.0096128094696
 20
437.3865317214518
 30
0.0
 40
0.3856733855465599
100
AcDbArc
 50
359.9999571957209
 51
90.00004280428877
  0
ARC
  5
69E
330
1F
100
AcDbEntity
  8
0
  6
Continuous
 62
     7
100
AcDbCircle
 10
491.0096124719071
 20
437.3865313838898
 30
0.0
 40
0.3856737231085093
100
AcDbArc
 50
89.99999265593904
 51
0.0000073440577008
  0
LINE
  5
69F
330
1F
100
AcDbEntity
  8
0
  6
Continuous
 62
     7
100
AcDbLine
 10
491.3952861950161
 20
437.3865314333245
 30
0.0
 11
491.3952861950161
 21
437.3865314333245
 31
0.0
  0
LINE
  5
6A0
330
1F
100
AcDbEntity
  8
0
  6
Continuous
 62
     7
100
AcDbLine
 10
479.3864833922132
 20
427.9302171190101
 30
0.0
 11
479.3864833922132
 21
427.9302171190101
 31
0.0
  0
ARC
  5
6A1
330
1F
100
AcDbEntity
  8
0
  6
Continuous
 62
     7
100
AcDbCircle
 10
484.8864848863636
 20
427.9302186131604
 30
0.0
 40
1.999998505850189
100
AcDbArc
 50
359.9999571957112
 51
90.00004280428877
  0
ARC
  5
6A2
330
1F
100
AcDbEntity
  8
0
  6
Continuous
 62
     7
100
AcDbCircle
 10
484.8864831358572
 20
427.9302168626545
 30
0.0
 40
2.000000256355933
100
AcDbArc
 50
89.99999265594556
 51
0.0000073440544439
  0
LINE
  5
6A3
330
1F
100
AcDbEntity
  8
0
  6
Continuous
 62
     7
100
AcDbLine
 10
486.8864833922136
 20
427.9302171190101
 30
0.0
 11
486.8864833922136
 21
427.9302171190101
 31
0.0
  0
ARC
  5
6A4
330
1F
100
AcDbEntity
  8
0
  6
Continuous
 62
     7
100
AcDbCircle
 10
492.3864848863636
 20
427.9302186131608
 30
0.0
 40
1.999998505850133
100
AcDbArc
 50
359.9999571957078
 51
90.0000428042823
  0
ARC
  5
6A5
330
1F
100
AcDbEntity
  8
0
  6
Continuous
 62
     7
100
AcDbCircle
 10
492.3864831358574
 20
427.9302168626545
 30
0.0
 40
2.000000256355933
100
AcDbArc
 50
89.99999265593904
 51
0.0000073440544439
  0
LINE
  5
6A6
330
1F
100
AcDbEntity
  8
0
  6
Continuous
 62
     7
100
AcDbLine
 10
494.3864833922133
 20
427.9302171190101
 30
0.0
 11
494.3864833922133
 21
427.9302171190101
 31
0.0
  0
ARC
  5
6A7
330
1F
100
AcDbEntity
  8
0
  6
DASHED
 62
     7
 48
4.0
100
AcDbCircle
 10
479.8864860069764
 20
415.9302197337733
 30
0.0
 40
3.499997385237898
100
AcDbArc
 50
359.9999571957143
 51
90.00004280428877
  0
LINE
  5
6A8
330
1F
100
AcDbEntity
  8
0
  6
DASHED
 62
     7
 48
4.0
100
AcDbLine
 10
483.3864833922135
 20
415.9302171190101
 30
0.0
 11
483.3864833922135
 21
415.9302171190101
 31
0.0
  0
ARC
  5
6A9
330
1F
100
AcDbEntity
  8
0
  6
DASHED
 62
     7
 48
4.0
100
AcDbCircle
 10
489.8864860069761
 20
415.9302197337733
 30
0.0
 40
3.499997385237787
100
AcDbArc
 50
359.9999571957112
 51
90.0000428042823
  0
ARC
  5
6AA
330
1F
100
AcDbEntity
  8
0
  6
DASHED
 62
     7
 48
4.0
100
AcDbCircle
 10
489.8864829435906
 20
415.9302166703865
 30
0.0
 40
3.500000448622734
100
AcDbArc
 50
89.99999265594556
 51
0.000007344051187
  0
LINE
  5
6AB
330
1F
100
AcDbEntity
  8
0
  6
DASHED
 62
     7
 48
4.0
100
AcDbLine
 10
493.3864833922132
 20
415.9302171190101
 30
0.0
 11
493.3864833922132
 21
415.9302171190101
 31
0.0
  0
ARC
  5
6AC
330
1F
100
AcDbEntity
  8
0
  6
Continuous
 62
     7
100
AcDbCircle
 10
489.8864833922133
 20
417.4302171190101
 30
0.0
 40
3.999999999999951
100
AcDbArc
 50
0.0
 51
180.0
  0
ARC
  5
6AD
330
1F
100
AcDbEntity
  8
0
  6
Continuous
 62
     7
100
AcDbCircle
 10
489.8864833922133
 20
414.4302171190101
 30
0.0
 40
3.999999999999896
100
AcDbArc
 50
180.0
 51
0.0
  0
ARC
  5
6AE
330
1F
100
AcDbEntity
  8
0
  6
Continuous
 62
     7
100
AcDbCircle
 10
492.3864848863636
 20
427.9302186131608
 30
0.0
 40
1.999998505850133
100
AcDbArc
 50
359.9999571957078
 51
90.0000428042823
  0
ARC
  5
6AF
330
1F
100
AcDbEntity
  8
0
  6
Continuous
 62
     7
100
AcDbCircle
 10
492.3864831358574
 20
427.9302168626545
 30
0.0
 40
2.000000256355933
100
AcDbArc
 50
89.99999265593904
 51
0.0000073440544439
  0
LINE
  5
6B0
330
1F
100
AcDbEntity
  8
0
  6
Continuous
 62
     7
100
AcDbLine
 10
494.3864833922133
 20
427.9302171190101
 30
0.0
 11
494.3864833922133
 21
427.9302171190101
 31
0.0
  0
ARC
  5
6B1
330
1F
100
AcDbEntity
  8
0
  6
Continuous
 62
     7
100
AcDbCircle
 10
484.8864848863636
 20
427.9302186131604
 30
0.0
 40
1.999998505850189
100
AcDbArc
 50
359.9999571957112
 51
90.00004280428877
  0
ARC
  5
6B2
330
1F
100
AcDbEntity
  8
0
  6
Continuous
 62
     7
100
AcDbCircle
 10
484.8864831358572
 20
427.9302168626545
 30
0.0
 40
2.000000256355933
100
AcDbArc
 50
89.99999265594556
 51
0.0000073440544439
  0
LINE
  5
6B3
330
1F
100
AcDbEntity
  8
0
  6
Continuous
 62
     7
100
AcDbLine
 10
486.8864833922136
 20
427.9302171190101
 30
0.0
 11
486.8864833922136
 21
427.9302171190101
 31
0.0
  0
LINE
  5
6B4
330
1F
100
AcDbEntity
  8
0
  6
Continuous
 62
     7
100
AcDbLine
 10
479.3864833922132
 20
427.9302171190101
 30
0.0
 11
479.3864833922132
 21
427.9302171190101
 31
0.0
  0
ARC
  5
6B5
330
1F
100
AcDbEntity
  8
0
  6
Continuous
 62
     7
100
AcDbCircle
 10
507.8864848863632
 20
375.9302156248589
 30
0.0
 40
1.999998505850244
100
AcDbArc
 50
269.9999571957111
 51
0.0000428042888088
  0
ARC
  5
6B6
330
1F
100
AcDbEntity
  8
0
  6
Continuous
 62
     7
100
AcDbCircle
 10
484.8864854466698
 20
376.9302191734664
 30
0.0
 40
2.749997945544043
100
AcDbArc
 50
359.9999571957112
 51
90.00004280428877
  0
ARC
  5
6B7
330
1F
100
AcDbEntity
  8
0
  6
Continuous
 62
     7
100
AcDbCircle
 10
484.8864830397245
 20
376.9302167665204
 30
0.0
 40
2.750000352489335
100
AcDbArc
 50
89.99999265594556
 51
0.0000073440544439
  0
LINE
  5
6B8
330
1F
100
AcDbEntity
  8
0
  6
Continuous
 62
     7
100
AcDbLine
 10
487.6364833922136
 20
376.9302171190098
 30
0.0
 11
487.6364833922136
 21
376.9302171190098
 31
0.0
  0
ARC
  5
6B9
330
1F
100
AcDbEntity
  8
0
  6
Continuous
 62
     7
100
AcDbCircle
 10
484.8864833922132
 20
376.9302171190098
 30
0.0
 40
3.999999999999951
100
AcDbArc
 50
0.0
 51
180.0
  0
ARC
  5
6BA
330
1F
100
AcDbEntity
  8
0
  6
Continuous
 62
     7
100
AcDbCircle
 10
476.4096128094689
 20
437.3865317214518
 30
0.0
 40
0.3856733855465029
100
AcDbArc
 50
359.9999571957209
 51
90.00004280429529
  0
ARC
  5
6BB
330
1F
100
AcDbEntity
  8
0
  6
Continuous
 62
     7
100
AcDbCircle
 10
476.4096124719069
 20
437.3865313838898
 30
0.0
 40
0.3856737231085093
100
AcDbArc
 50
89.99999265595205
 51
0.0000073440577008
  0
LINE
  5
6BC
330
1F
100
AcDbEntity
  8
0
  6
Continuous
 62
     7
100
AcDbLine
 10
476.7952861950161
 20
437.3865314333245
 30
0.0
 11
476.7952861950161
 21
437.3865314333245
 31
0.0
  0
ARC
  5
6BD
330
1F
100
AcDbEntity
  8
0
  6
Continuous
 62
     7
100
AcDbCircle
 10
471.3864826451381
 20
436.9302163719344
 30
0.0
 40
0.9999992529251235
100
AcDbArc
 50
179.9999571957144
 51
270.0000428042887
  0
ARC
  5
6BE
330
1F
100
AcDbEntity
  8
0
  6
Continuous
 62
     7
100
AcDbCircle
 10
463.886482645138
 20
405.4302163719349
 30
0.0
 40
0.9999992529251235
100
AcDbArc
 50
179.9999571957144
 51
270.0000428042887
  0
ARC
  5
6BF
330
1F
100
AcDbEntity
  8
0
  6
Continuous
 62
     7
100
AcDbCircle
 10
469.8864848863632
 20
427.9302186131608
 30
0.0
 40
1.999998505850133
100
AcDbArc
 50
359.9999571957078
 51
90.0000428042823
  0
ARC
  5
6C0
330
1F
100
AcDbEntity
  8
0
  6
Continuous
 62
     7
100
AcDbCircle
 10
469.8864831358571
 20
427.9302168626545
 30
0.0
 40
2.000000256355933
100
AcDbArc
 50
89.99999265593904
 51
0.0000073440544439
  0
LINE
  5
6C1
330
1F
100
AcDbEntity
  8
0
  6
Continuous
 62
     7
100
AcDbLine
 10
471.8864833922132
 20
427.9302171190101
 30
0.0
 11
471.8864833922132
 21
427.9302171190101
 31
0.0
  0
ARC
  5
6C2
330
1F
100
AcDbEntity
  8
0
  6
DASHED
 62
     7
 48
4.0
100
AcDbCircle
 10
469.8864860069766
 20
415.9302197337733
 30
0.0
 40
3.499997385237898
100
AcDbArc
 50
359.9999571957143
 51
90.00004280428877
  0
ARC
  5
6C3
330
1F
100
AcDbEntity
  8
0
  6
DASHED
 62
     7
 48
4.0
100
AcDbCircle
 10
469.8864829435906
 20
415.9302166703865
 30
0.0
 40
3.500000448622851
100
AcDbArc
 50
89.99999265594556
 51
0.0000073440544439
  0
LINE
  5
6C4
330
1F
100
AcDbEntity
  8
0
  6
DASHED
 62
     7
 48
4.0
100
AcDbLine
 10
473.3864833922133
 20
415.9302171190101
 30
0.0
 11
473.3864833922133
 21
415.9302171190101
 31
0.0
  0
ARC
  5
6C5
330
1F
100
AcDbEntity
  8
0
  6
Continuous
 62
     7
100
AcDbCircle
 10
469.8864833922133
 20
417.4302171190101
 30
0.0
 40
4.000000000000069
100
AcDbArc
 50
0.0
 51
180.0
  0
ARC
  5
6C6
330
1F
100
AcDbEntity
  8
0
  6
Continuous
 62
     7
100
AcDbCircle
 10
469.8864833922133
 20
414.4302171190101
 30
0.0
 40
4.000000000000006
100
AcDbArc
 50
180.0
 51
0.0
  0
ARC
  5
6C7
330
1F
100
AcDbEntity
  8
0
  6
Continuous
 62
     7
100
AcDbCircle
 10
474.8864826451378
 20
432.9302178660851
 30
0.0
 40
0.9999992529250667
100
AcDbArc
 50
89.99995719571119
 51
180.0000428042888
  0
ARC
  5
6C8
330
1F
100
AcDbEntity
  8
0
  6
Continuous
 62
     7
100
AcDbCircle
 10
474.8864826451378
 20
425.9302163719345
 30
0.0
 40
0.9999992529250667
100
AcDbArc
 50
179.9999571957079
 51
270.0000428042887
  0
ARC
  5
6C9
330
1F
100
AcDbEntity
  8
0
  6
Continuous
 62
     7
100
AcDbCircle
 10
469.8864848863632
 20
427.9302186131608
 30
0.0
 40
1.999998505850133
100
AcDbArc
 50
359.9999571957078
 51
90.0000428042823
  0
ARC
  5
6CA
330
1F
100
AcDbEntity
  8
0
  6
Continuous
 62
     7
100
AcDbCircle
 10
469.8864831358571
 20
427.9302168626545
 30
0.0
 40
2.000000256355933
100
AcDbArc
 50
89.99999265593904
 51
0.0000073440544439
  0
LINE
  5
6CB
330
1F
100
AcDbEntity
  8
0
  6
Continuous
 62
     7
100
AcDbLine
 10
471.8864833922132
 20
427.9302171190101
 30
0.0
 11
471.8864833922132
 21
427.9302171190101
 31
0.0
  0
ARC
  5
6CC
330
1F
100
AcDbEntity
  8
0
  6
Continuous
 62
     7
100
AcDbCircle
 10
463.886482645138
 20
405.4302163719349
 30
0.0
 40
0.9999992529251235
100
AcDbArc
 50
179.9999571957144
 51
270.0000428042887
  0
ARC
  5
6CD
330
1F
100
AcDbEntity
  8
0
  6
Continuous
 62
     7
100
AcDbCircle
 10
461.8864818980632
 20
375.9302156248589
 30
0.0
 40
1.999998505850244
100
AcDbArc
 50
179.9999571957112
 51
270.0000428042887
  0
ARC
  5
6CE
330
1F
100
AcDbEntity
  8
0
  6
Continuous
 62
     7
100
AcDbCircle
 10
477.3864848863635
 20
427.9302186131604
 30
0.0
 40
1.999998505850244
100
AcDbArc
 50
359.9999571957112
 51
90.0000428042823
  0
ARC
  5
6CF
330
1F
100
AcDbEntity
  8
0
  6
Continuous
 62
     7
100
AcDbCircle
 10
477.3864831358576
 20
427.9302168626545
 30
0.0
 40
2.000000256355933
100
AcDbArc
 50
89.99999265594556
 51
0.0000073440544439
  0
ARC
  5
6D0
330
1F
100
AcDbEntity
  8
0
  6
DASHED
 62
     7
 48
4.0
100
AcDbCircle
 10
479.8864829435904
 20
415.9302166703865
 30
0.0
 40
3.500000448622851
100
AcDbArc
 50
89.99999265594556
 51
0.0000073440544439
  0
ARC
  5
6D1
330
1F
100
AcDbEntity
  8
0
  6
Continuous
 62
     7
100
AcDbCircle
 10
479.8864833922132
 20
417.4302171190101
 30
0.0
 40
4.000000000000006
100
AcDbArc
 50
0.0
 51
180.0
  0
ARC
  5
6D2
330
1F
100
AcDbEntity
  8
0
  6
Continuous
 62
     7
100
AcDbCircle
 10
479.8864833922132
 20
414.4302171190101
 30
0.0
 40
4.000000000000006
100
AcDbArc
 50
180.0
 51
0.0
  0
ARC
  5
6D3
330
1F
100
AcDbEntity
  8
0
  6
Continuous
 62
     7
100
AcDbCircle
 10
477.3864848863635
 20
427.9302186131604
 30
0.0
 40
1.999998505850244
100
AcDbArc
 50
359.9999571957112
 51
90.0000428042823
  0
ARC
  5
6D4
330
1F
100
AcDbEntity
  8
0
  6
Continuous
 62
     7
100
AcDbCircle
 10
477.3864831358576
 20
427.9302168626545
 30
0.0
 40
2.000000256355933
100
AcDbArc
 50
89.99999265594556
 51
0.0000073440544439
  0
LINE
  5
6D5
330
1F
100
AcDbEntity
  8
0
  6
Continuous
 62
     7
100
AcDbLine
 10
497.1855925013224
 20
441.3318667686595
 30
-10.59933933933941
 11
497.4889498586803
 21
440.9302171190096
 31
-10.59933933933941
  0
LINE
  5
6D6
330
1F
100
AcDbEntity
  8
0
  6
Continuous
 62
     7
100
AcDbLine
 10
497.4889498586803
 20
440.9302171190096
 30
-10.59933933933941
 11
497.0581330418631
 21
440.5285674693605
 31
-10.59933933933941
  0
LINE
  5
6D7
330
1F
100
AcDbEntity
  8
0
  6
Continuous
 62
     7
100
AcDbLine
 10
497.9196946034245
 20
441.3318667686595
 30
-10.59933933933941
 11
497.4889498586803
 21
440.9302171190096
 31
-10.59933933933941
  0
LINE
  5
6D8
330
1F
100
AcDbEntity
  8
0
  6
Continuous
 62
     7
100
AcDbLine
 10
497.4889498586803
 20
440.9302171190096
 30
-10.59933933933941
 11
497.7922351439652
 21
440.5285674693605
 31
-10.59933933933941
  0
LINE
  5
6D9
330
1F
100
AcDbEntity
  8
0
  6
Continuous
 62
     7
100
AcDbLine
 10
497.0581330418631
 20
440.5285674693605
 30
-10.59933933933941
 11
496.611916825647
 21
437.7171060078992
 31
-10.59933933933941
  0
LINE
  5
6DA
330
1F
100
AcDbEntity
  8
0
  6
Continuous
 62
     7
100
AcDbLine
 10
496.7333022110322
 20
436.9137266285196
 30
-10.59933933933941
 11
497.3028577665878
 21
437.4447076095006
 31
-10.59933933933941
  0
LINE
  5
6DB
330
1F
100
AcDbEntity
  8
0
  6
Continuous
 62
     7
100
AcDbLine
 10
497.3028577665878
 20
437.4447076095006
 30
-10.59933933933941
 11
497.7922351439652
 21
440.5285674693605
 31
-10.59933933933941
  0
LINE
  5
6DC
330
1F
100
AcDbEntity
  8
0
  6
Continuous
 62
     7
100
AcDbLine
 10
497.018080989811
 20
437.1792161180088
 30
-10.59933933933941
 11
496.611916825647
 21
437.7171060078992
 31
-10.59933933933941
  0
LINE
  5
6DD
330
1F
100
AcDbEntity
  8
0
  6
Continuous
 62
     7
100
AcDbLine
 10
503.8864833922136
 20
417.4302171190101
 30
-10.59933933933941
 11
503.8864833922136
 21
414.4302171190101
 31
-10.59933933933941
  0
LINE
  5
6DE
330
1F
100
AcDbEntity
  8
0
  6
Continuous
 62
     7
100
AcDbLine
 10
495.8864833922135
 20
417.4302171190101
 30
-10.59933933933941
 11
495.8864833922135
 21
414.4302171190101
 31
-10.59933933933941
  0
LINE
  5
6DF
330
1F
100
AcDbEntity
  8
0
  6
Continuous
 62
     7
100
AcDbLine
 10
503.3864833922136
 20
425.9302171190101
 30
-10.59933933933941
 11
503.3864833922136
 21
432.9302171190104
 31
-10.59933933933941
  0
LINE
  5
6E0
330
1F
100
AcDbEntity
  8
0
  6
Continuous
 62
     7
100
AcDbLine
 10
480.0161630718931
 20
441.3318667686595
 30
-10.59933933933941
 11
482.5855925013224
 21
441.3318667686595
 31
-10.59933933933941
  0
LINE
  5
6E1
330
1F
100
AcDbEntity
  8
0
  6
Continuous
 62
     7
100
AcDbLine
 10
479.8887036124336
 20
440.5285674693605
 30
-10.59933933933941
 11
482.458133041863
 21
440.5285674693605
 31
-10.59933933933941
  0
LINE
  5
6E2
330
1F
100
AcDbEntity
  8
0
  6
Continuous
 62
     7
100
AcDbLine
 10
482.0119168256471
 20
437.7171060078992
 30
-10.59933933933941
 11
479.4424873962173
 21
437.7171060078992
 31
-10.59933933933941
  0
LINE
  5
6E3
330
1F
100
AcDbEntity
  8
0
  6
Continuous
 62
     7
100
AcDbLine
 10
480.0161630718931
 20
441.3318667686595
 30
-10.59933933933941
 11
479.5853462550763
 21
440.9302171190096
 31
-10.59933933933941
  0
LINE
  5
6E4
330
1F
100
AcDbEntity
  8
0
  6
Continuous
 62
     7
100
AcDbLine
 10
479.5853462550763
 20
440.9302171190096
 30
-10.59933933933941
 11
479.8887036124336
 21
440.5285674693605
 31
-10.59933933933941
  0
LINE
  5
6E5
330
1F
100
AcDbEntity
  8
0
  6
Continuous
 62
     7
100
AcDbLine
 10
479.2820609697907
 20
441.3318667686595
 30
-10.59933933933941
 11
479.5853462550763
 21
440.9302171190096
 31
-10.59933933933941
  0
LINE
  5
6E6
330
1F
100
AcDbEntity
  8
0
  6
Continuous
 62
     7
100
AcDbLine
 10
479.5853462550763
 20
440.9302171190096
 30
-10.59933933933941
 11
479.1546015103318
 21
440.5285674693605
 31
-10.59933933933941
  0
LINE
  5
6E7
330
1F
100
AcDbEntity
  8
0
  6
Continuous
 62
     7
100
AcDbLine
 10
482.5855925013224
 20
441.3318667686595
 30
-10.59933933933941
 11
482.8889498586796
 21
440.9302171190096
 31
-10.59933933933941
  0
LINE
  5
6E8
330
1F
100
AcDbEntity
  8
0
  6
Continuous
 62
     7
100
AcDbLine
 10
482.8889498586796
 20
440.9302171190096
 30
-10.59933933933941
 11
482.458133041863
 21
440.5285674693605
 31
-10.59933933933941
  0
LINE
  5
6E9
330
1F
100
AcDbEntity
  8
0
  6
Continuous
 62
     7
100
AcDbLine
 10
483.3196946034245
 20
441.3318667686595
 30
-10.59933933933941
 11
482.8889498586796
 21
440.9302171190096
 31
-10.59933933933941
  0
LINE
  5
6EA
330
1F
100
AcDbEntity
  8
0
  6
Continuous
 62
     7
100
AcDbLine
 10
482.8889498586796
 20
440.9302171190096
 30
-10.59933933933941
 11
483.1922351439652
 21
440.5285674693605
 31
-10.59933933933941
  0
LINE
  5
6EB
330
1F
100
AcDbEntity
  8
0
  6
Continuous
 62
     7
100
AcDbLine
 10
482.458133041863
 20
440.5285674693605
 30
-10.59933933933941
 11
482.0119168256471
 21
437.7171060078992
 31
-10.59933933933941
  0
LINE
  5
6EC
330
1F
100
AcDbEntity
  8
0
  6
Continuous
 62
     7
100
AcDbLine
 10
479.4424873962173
 20
437.7171060078992
 30
-10.59933933933941
 11
479.8887036124336
 21
440.5285674693605
 31
-10.59933933933941
  0
LINE
  5
6ED
330
1F
100
AcDbEntity
  8
0
  6
Continuous
 62
     7
100
AcDbLine
 10
479.1546015103318
 20
440.5285674693605
 30
-10.59933933933941
 11
478.6813462550759
 21
437.5465654673586
 31
-10.59933933933941
  0
LINE
  5
6EE
330
1F
100
AcDbEntity
  8
0
  6
Continuous
 62
     7
100
AcDbLine
 10
478.6813462550759
 20
437.5465654673586
 30
-10.59933933933941
 11
479.1593002090298
 21
436.9137266285196
 31
-10.59933933933941
  0
LINE
  5
6EF
330
1F
100
AcDbEntity
  8
0
  6
Continuous
 62
     7
100
AcDbLine
 10
479.1593002090298
 20
436.9137266285196
 30
-10.59933933933941
 11
482.1333022110321
 21
436.9137266285196
 31
-10.59933933933941
  0
LINE
  5
6F0
330
1F
100
AcDbEntity
  8
0
  6
Continuous
 62
     7
100
AcDbLine
 10
482.1333022110321
 20
436.9137266285196
 30
-10.59933933933941
 11
482.7028577665878
 21
437.4447076095006
 31
-10.59933933933941
  0
LINE
  5
6F1
330
1F
100
AcDbEntity
  8
0
  6
Continuous
 62
     7
100
AcDbLine
 10
482.7028577665878
 20
437.4447076095006
 30
-10.59933933933941
 11
483.1922351439652
 21
440.5285674693605
 31
-10.59933933933941
  0
LINE
  5
6F2
330
1F
100
AcDbEntity
  8
0
  6
Continuous
 62
     7
100
AcDbLine
 10
478.9202871960172
 20
437.230145046938
 30
-10.59933933933941
 11
479.4424873962173
 21
437.7171060078992
 31
-10.59933933933941
  0
LINE
  5
6F3
330
1F
100
AcDbEntity
  8
0
  6
Continuous
 62
     7
100
AcDbLine
 10
482.4180809898108
 20
437.1792161180088
 30
-10.59933933933941
 11
482.0119168256471
 21
437.7171060078992
 31
-10.59933933933941
  0
LINE
  5
6F4
330
1F
100
AcDbEntity
  8
0
  6
Continuous
 62
     7
100
AcDbLine
 10
487.316163071893
 20
441.3318667686595
 30
-10.59933933933941
 11
489.8855925013225
 21
441.3318667686595
 31
-10.59933933933941
  0
LINE
  5
6F5
330
1F
100
AcDbEntity
  8
0
  6
Continuous
 62
     7
100
AcDbLine
 10
487.1887036124337
 20
440.5285674693605
 30
-10.59933933933941
 11
489.7581330418629
 21
440.5285674693605
 31
-10.59933933933941
  0
LINE
  5
6F6
330
1F
100
AcDbEntity
  8
0
  6
Continuous
 62
     7
100
AcDbLine
 10
489.3119168256466
 20
437.7171060078992
 30
-10.59933933933941
 11
486.7424873962173
 21
437.7171060078992
 31
-10.59933933933941
  0
LINE
  5
6F7
330
1F
100
AcDbEntity
  8
0
  6
Continuous
 62
     7
100
AcDbLine
 10
487.316163071893
 20
441.3318667686595
 30
-10.59933933933941
 11
486.885346255076
 21
440.9302171190096
 31
-10.59933933933941
  0
LINE
  5
6F8
330
1F
100
AcDbEntity
  8
0
  6
Continuous
 62
     7
100
AcDbLine
 10
486.885346255076
 20
440.9302171190096
 30
-10.59933933933941
 11
487.1887036124337
 21
440.5285674693605
 31
-10.59933933933941
  0
LINE
  5
6F9
330
1F
100
AcDbEntity
  8
0
  6
Continuous
 62
     7
100
AcDbLine
 10
486.582060969791
 20
441.3318667686595
 30
-10.59933933933941
 11
486.885346255076
 21
440.9302171190096
 31
-10.59933933933941
  0
LINE
  5
6FA
330
1F
100
AcDbEntity
  8
0
  6
Continuous
 62
     7
100
AcDbLine
 10
486.885346255076
 20
440.9302171190096
 30
-10.59933933933941
 11
486.4546015103313
 21
440.5285674693605
 31
-10.59933933933941
  0
LINE
  5
6FB
330
1F
100
AcDbEntity
  8
0
  6
Continuous
 62
     7
100
AcDbLine
 10
489.8855925013225
 20
441.3318667686595
 30
-10.59933933933941
 11
490.18894985868
 21
440.9302171190096
 31
-10.59933933933941
  0
LINE
  5
6FC
330
1F
100
AcDbEntity
  8
0
  6
Continuous
 62
     7
100
AcDbLine
 10
490.18894985868
 20
440.9302171190096
 30
-10.59933933933941
 11
489.7581330418629
 21
440.5285674693605
 31
-10.59933933933941
  0
LINE
  5
6FD
330
1F
100
AcDbEntity
  8
0
  6
Continuous
 62
     7
100
AcDbLine
 10
490.6196946034246
 20
441.3318667686595
 30
-10.59933933933941
 11
490.18894985868
 21
440.9302171190096
 31
-10.59933933933941
  0
LINE
  5
6FE
330
1F
100
AcDbEntity
  8
0
  6
Continuous
 62
     7
100
AcDbLine
 10
490.18894985868
 20
440.9302171190096
 30
-10.59933933933941
 11
490.4922351439652
 21
440.5285674693605
 31
-10.59933933933941
  0
LINE
  5
6FF
330
1F
100
AcDbEntity
  8
0
  6
Continuous
 62
     7
100
AcDbLine
 10
489.7581330418629
 20
440.5285674693605
 30
-10.59933933933941
 11
489.3119168256466
 21
437.7171060078992
 31
-10.59933933933941
  0
LINE
  5
700
330
1F
100
AcDbEntity
  8
0
  6
Continuous
 62
     7
100
AcDbLine
 10
486.7424873962173
 20
437.7171060078992
 30
-10.59933933933941
 11
487.1887036124337
 21
440.5285674693605
 31
-10.59933933933941
  0
LINE
  5
701
330
1F
100
AcDbEntity
  8
0
  6
Continuous
 62
     7
100
AcDbLine
 10
486.4546015103313
 20
440.5285674693605
 30
-10.59933933933941
 11
485.9813462550762
 21
437.5465654673586
 31
-10.59933933933941
  0
LINE
  5
702
330
1F
100
AcDbEntity
  8
0
  6
Continuous
 62
     7
100
AcDbLine
 10
485.9813462550762
 20
437.5465654673586
 30
-10.59933933933941
 11
486.4593002090301
 21
436.9137266285196
 31
-10.59933933933941
  0
LINE
  5
703
330
1F
100
AcDbEntity
  8
0
  6
Continuous
 62
     7
100
AcDbLine
 10
486.4593002090301
 20
436.9137266285196
 30
-10.59933933933941
 11
489.4333022110321
 21
436.9137266285196
 31
-10.59933933933941
  0
LINE
  5
704
330
1F
100
AcDbEntity
  8
0
  6
Continuous
 62
     7
100
AcDbLine
 10
489.4333022110321
 20
436.9137266285196
 30
-10.59933933933941
 11
490.0028577665881
 21
437.4447076095006
 31
-10.59933933933941
  0
LINE
  5
705
330
1F
100
AcDbEntity
  8
0
  6
Continuous
 62
     7
100
AcDbLine
 10
490.0028577665881
 20
437.4447076095006
 30
-10.59933933933941
 11
490.4922351439652
 21
440.5285674693605
 31
-10.59933933933941
  0
LINE
  5
706
330
1F
100
AcDbEntity
  8
0
  6
Continuous
 62
     7
100
AcDbLine
 10
486.2202871960175
 20
437.230145046938
 30
-10.59933933933941
 11
486.7424873962173
 21
437.7171060078992
 31
-10.59933933933941
  0
LINE
  5
707
330
1F
100
AcDbEntity
  8
0
  6
Continuous
 62
     7
100
AcDbLine
 10
489.7180809898109
 20
437.1792161180088
 30
-10.59933933933941
 11
489.3119168256466
 21
437.7171060078992
 31
-10.59933933933941
  0
LINE
  5
708
330
1F
100
AcDbEntity
  8
0
  6
Continuous
 62
     7
100
AcDbLine
 10
494.6161630718931
 20
441.3318667686595
 30
-10.59933933933941
 11
494.1853462550762
 21
440.9302171190096
 31
-10.59933933933941
  0
LINE
  5
709
330
1F
100
AcDbEntity
  8
0
  6
Continuous
 62
     7
100
AcDbLine
 10
494.1853462550762
 20
440.9302171190096
 30
-10.59933933933941
 11
494.4887036124335
 21
440.5285674693605
 31
-10.59933933933941
  0
LINE
  5
70A
330
1F
100
AcDbEntity
  8
0
  6
Continuous
 62
     7
100
AcDbLine
 10
493.882060969791
 20
441.3318667686595
 30
-10.59933933933941
 11
494.1853462550762
 21
440.9302171190096
 31
-10.59933933933941
  0
LINE
  5
70B
330
1F
100
AcDbEntity
  8
0
  6
Continuous
 62
     7
100
AcDbLine
 10
494.1853462550762
 20
440.9302171190096
 30
-10.59933933933941
 11
493.7546015103317
 21
440.5285674693605
 31
-10.59933933933941
  0
LINE
  5
70C
330
1F
100
AcDbEntity
  8
0
  6
Continuous
 62
     7
100
AcDbLine
 10
494.0424873962173
 20
437.7171060078992
 30
-10.59933933933941
 11
494.4887036124335
 21
440.5285674693605
 31
-10.59933933933941
  0
LINE
  5
70D
330
1F
100
AcDbEntity
  8
0
  6
Continuous
 62
     7
100
AcDbLine
 10
493.7546015103317
 20
440.5285674693605
 30
-10.59933933933941
 11
493.2813462550765
 21
437.5465654673586
 31
-10.59933933933941
  0
LINE
  5
70E
330
1F
100
AcDbEntity
  8
0
  6
Continuous
 62
     7
100
AcDbLine
 10
493.2813462550765
 20
437.5465654673586
 30
-10.59933933933941
 11
493.75930020903
 21
436.9137266285196
 31
-10.59933933933941
  0
LINE
  5
70F
330
1F
100
AcDbEntity
  8
0
  6
Continuous
 62
     7
100
AcDbLine
 10
493.5202871960175
 20
437.230145046938
 30
-10.59933933933941
 11
494.0424873962173
 21
437.7171060078992
 31
-10.59933933933941
  0
LINE
  5
710
330
1F
100
AcDbEntity
  8
0
  6
Continuous
 62
     7
100
AcDbLine
 10
493.8864833922133
 20
417.4302171190101
 30
-10.59933933933941
 11
493.8864833922133
 21
414.4302171190101
 31
-10.59933933933941
  0
LINE
  5
711
330
1F
100
AcDbEntity
  8
0
  6
Continuous
 62
     7
100
AcDbLine
 10
485.8864833922133
 20
417.4302171190101
 30
-10.59933933933941
 11
485.8864833922133
 21
414.4302171190101
 31
-10.59933933933941
  0
LINE
  5
712
330
1F
100
AcDbEntity
  8
0
  6
Continuous
 62
     7
100
AcDbLine
 10
483.8864833922133
 20
417.4302171190101
 30
-10.59933933933941
 11
483.8864833922133
 21
414.4302171190101
 31
-10.59933933933941
  0
LINE
  5
713
330
1F
100
AcDbEntity
  8
0
  6
Continuous
 62
     7
100
AcDbLine
 10
494.6161630718931
 20
441.3318667686595
 30
-10.59933933933941
 11
497.1855925013224
 21
441.3318667686595
 31
-10.59933933933941
  0
LINE
  5
714
330
1F
100
AcDbEntity
  8
0
  6
Continuous
 62
     7
100
AcDbLine
 10
494.4887036124335
 20
440.5285674693605
 30
-10.59933933933941
 11
497.0581330418631
 21
440.5285674693605
 31
-10.59933933933941
  0
LINE
  5
715
330
1F
100
AcDbEntity
  8
0
  6
Continuous
 62
     7
100
AcDbLine
 10
496.611916825647
 20
437.7171060078992
 30
-10.59933933933941
 11
494.0424873962173
 21
437.7171060078992
 31
-10.59933933933941
  0
LINE
  5
716
330
1F
100
AcDbEntity
  8
0
  6
Continuous
 62
     7
100
AcDbLine
 10
493.75930020903
 20
436.9137266285196
 30
-10.59933933933941
 11
496.7333022110322
 21
436.9137266285196
 31
-10.59933933933941
  0
LINE
  5
717
330
1F
100
AcDbEntity
  8
0
  6
Continuous
 62
     7
100
AcDbLine
 10
500.8364833922136
 20
391.4302171190098
 30
-10.59933933933941
 11
500.8364833922136
 21
385.7302171190098
 31
-10.59933933933941
  0
LINE
  5
718
330
1F
100
AcDbEntity
  8
0
  6
Continuous
 62
     7
100
AcDbLine
 10
500.8364833922136
 20
399.1302171190098
 30
-10.59933933933941
 11
500.8364833922136
 21
393.4302171190094
 31
-10.59933933933941
  0
LINE
  5
719
330
1F
100
AcDbEntity
  8
0
  6
Continuous
 62
     7
100
AcDbLine
 10
500.6364833922133
 20
391.4302171190098
 30
-10.59933933933941
 11
501.1364833922136
 21
391.4302171190098
 31
-10.59933933933941
  0
LINE
  5
71A
330
1F
100
AcDbEntity
  8
0
  6
Continuous
 62
     7
100
AcDbLine
 10
500.6364833922133
 20
393.4302171190094
 30
-10.59933933933941
 11
501.1364833922136
 21
393.4302171190094
 31
-10.59933933933941
  0
LINE
  5
71B
330
1F
100
AcDbEntity
  8
0
  6
Continuous
 62
     7
100
AcDbLine
 10
500.6364833922133
 20
393.4302171190094
 30
-10.59933933933941
 11
500.6364833922133
 21
391.4302171190098
 31
-10.59933933933941
  0
LINE
  5
71C
330
1F
100
AcDbEntity
  8
0
  6
Continuous
 62
     7
100
AcDbLine
 10
495.8864833922135
 20
399.1302171190098
 30
-10.59933933933941
 11
500.8364833922136
 21
399.1302171190098
 31
-10.59933933933941
  0
LINE
  5
71D
330
1F
100
AcDbEntity
  8
0
  6
Continuous
 62
     7
100
AcDbLine
 10
495.8864833922135
 20
399.4302171190098
 30
-10.59933933933941
 11
495.8864833922135
 21
398.9302171190098
 31
-10.59933933933941
  0
LINE
  5
71E
330
1F
100
AcDbEntity
  8
0
  6
Continuous
 62
     7
100
AcDbLine
 10
495.8864833922135
 20
385.7302171190098
 30
-10.59933933933941
 11
500.8364833922136
 21
385.7302171190098
 31
-10.59933933933941
  0
LINE
  5
71F
330
1F
100
AcDbEntity
  8
0
  6
Continuous
 62
     7
100
AcDbLine
 10
501.1364833922136
 20
399.4302171190098
 30
-10.59933933933941
 11
501.1364833922136
 21
385.4302171190098
 31
-10.59933933933941
  0
LINE
  5
720
330
1F
100
AcDbEntity
  8
0
  6
Continuous
 62
     7
100
AcDbLine
 10
495.8864833922135
 20
385.9302171190098
 30
-10.59933933933941
 11
495.8864833922135
 21
385.4302171190098
 31
-10.59933933933941
  0
LINE
  5
721
330
1F
100
AcDbEntity
  8
0
  6
Continuous
 62
     7
100
AcDbLine
 10
499.9364833922133
 20
398.2302171190098
 30
-10.59933933933941
 11
499.9364833922133
 21
386.6302171190097
 31
-10.59933933933941
  0
LINE
  5
722
330
1F
100
AcDbEntity
  8
0
  6
Continuous
 62
     7
100
AcDbLine
 10
500.8364833922136
 20
385.7302171190098
 30
-10.59933933933941
 11
499.9364833922133
 21
386.6302171190097
 31
-10.59933933933941
  0
LINE
  5
723
330
1F
100
AcDbEntity
  8
0
  6
Continuous
 62
     7
100
AcDbLine
 10
501.1364833922136
 20
385.4302171190098
 30
-10.59933933933941
 11
501.6364833922136
 21
384.9302171190097
 31
-10.59933933933941
  0
LINE
  5
724
330
1F
100
AcDbEntity
  8
0
  6
Continuous
 62
     7
100
AcDbLine
 10
500.8364833922136
 20
399.1302171190098
 30
-10.59933933933941
 11
499.9364833922133
 21
398.2302171190098
 31
-10.59933933933941
  0
LINE
  5
725
330
1F
100
AcDbEntity
  8
0
  6
Continuous
 62
     7
100
AcDbLine
 10
501.1364833922136
 20
399.4302171190098
 30
-10.59933933933941
 11
501.6364833922136
 21
399.9302171190098
 31
-10.59933933933941
  0
LINE
  5
726
330
1F
100
AcDbEntity
  8
0
  6
Continuous
 62
     7
100
AcDbLine
 10
501.6364833922136
 20
399.9302171190098
 30
-10.59933933933941
 11
501.6364833922136
 21
384.9302171190097
 31
-10.59933933933941
  0
LINE
  5
727
330
1F
100
AcDbEntity
  8
0
  6
Continuous
 62
     7
100
AcDbLine
 10
485.3864833922133
 20
378.9302171190097
 30
-10.59933933933941
 11
484.3864833922133
 21
378.9302171190097
 31
-10.59933933933941
  0
LINE
  5
728
330
1F
100
AcDbEntity
  8
0
  6
Continuous
 62
     7
100
AcDbLine
 10
484.3864833922133
 20
378.9302171190097
 30
-10.59933933933941
 11
484.3864833922133
 21
377.4302171190098
 31
-10.59933933933941
  0
LINE
  5
729
330
1F
100
AcDbEntity
  8
0
  6
Continuous
 62
     7
100
AcDbLine
 10
484.3864833922133
 20
377.4302171190098
 30
-10.59933933933941
 11
482.8864833922136
 21
377.4302171190098
 31
-10.59933933933941
  0
LINE
  5
72A
330
1F
100
AcDbEntity
  8
0
  6
Continuous
 62
     7
100
AcDbLine
 10
482.8864833922136
 20
377.4302171190098
 30
-10.59933933933941
 11
482.8864833922136
 21
376.4302171190097
 31
-10.59933933933941
  0
LINE
  5
72B
330
1F
100
AcDbEntity
  8
0
  6
Continuous
 62
     7
100
AcDbLine
 10
482.8864833922136
 20
376.4302171190097
 30
-10.59933933933941
 11
484.3864833922133
 21
376.4302171190097
 31
-10.59933933933941
  0
LINE
  5
72C
330
1F
100
AcDbEntity
  8
0
  6
Continuous
 62
     7
100
AcDbLine
 10
484.3864833922133
 20
376.4302171190097
 30
-10.59933933933941
 11
484.3864833922133
 21
374.9302171190098
 31
-10.59933933933941
  0
LINE
  5
72D
330
1F
100
AcDbEntity
  8
0
  6
Continuous
 62
     7
100
AcDbLine
 10
484.3864833922133
 20
374.9302171190098
 30
-10.59933933933941
 11
485.3864833922133
 21
374.9302171190098
 31
-10.59933933933941
  0
LINE
  5
72E
330
1F
100
AcDbEntity
  8
0
  6
Continuous
 62
     7
100
AcDbLine
 10
485.3864833922133
 20
374.9302171190098
 30
-10.59933933933941
 11
485.3864833922133
 21
376.4302171190097
 31
-10.59933933933941
  0
LINE
  5
72F
330
1F
100
AcDbEntity
  8
0
  6
Continuous
 62
     7
100
AcDbLine
 10
485.3864833922133
 20
376.4302171190097
 30
-10.59933933933941
 11
486.8864833922136
 21
376.4302171190097
 31
-10.59933933933941
  0
LINE
  5
730
330
1F
100
AcDbEntity
  8
0
  6
Continuous
 62
     7
100
AcDbLine
 10
486.8864833922136
 20
376.4302171190097
 30
-10.59933933933941
 11
486.8864833922136
 21
377.4302171190098
 31
-10.59933933933941
  0
LINE
  5
731
330
1F
100
AcDbEntity
  8
0
  6
Continuous
 62
     7
100
AcDbLine
 10
486.8864833922136
 20
377.4302171190098
 30
-10.59933933933941
 11
485.3864833922133
 21
377.4302171190098
 31
-10.59933933933941
  0
LINE
  5
732
330
1F
100
AcDbEntity
  8
0
  6
Continuous
 62
     7
100
AcDbLine
 10
485.3864833922133
 20
377.4302171190098
 30
-10.59933933933941
 11
485.3864833922133
 21
378.9302171190097
 31
-10.59933933933941
  0
LINE
  5
733
330
1F
100
AcDbEntity
  8
0
  6
Continuous
 62
     7
100
AcDbLine
 10
485.3864833922133
 20
378.9302171190097
 30
-10.59933933933941
 11
485.3864833922133
 21
378.9302171190097
 31
-10.59933933933941
  0
LINE
  5
734
330
1F
100
AcDbEntity
  8
0
  6
Continuous
 62
     7
100
AcDbLine
 10
485.8864833922133
 20
399.1302171190098
 30
-10.59933933933941
 11
493.8864833922133
 21
399.1302171190098
 31
-10.59933933933941
  0
LINE
  5
735
330
1F
100
AcDbEntity
  8
0
  6
Continuous
 62
     7
100
AcDbLine
 10
483.8864833922133
 20
399.4302171190098
 30
-10.59933933933941
 11
483.8864833922133
 21
398.9302171190098
 31
-10.59933933933941
  0
LINE
  5
736
330
1F
100
AcDbEntity
  8
0
  6
Continuous
 62
     7
100
AcDbLine
 10
485.8864833922133
 20
399.4302171190098
 30
-10.59933933933941
 11
485.8864833922133
 21
398.9302171190098
 31
-10.59933933933941
  0
LINE
  5
737
330
1F
100
AcDbEntity
  8
0
  6
Continuous
 62
     7
100
AcDbLine
 10
493.8864833922133
 20
399.4302171190098
 30
-10.59933933933941
 11
493.8864833922133
 21
398.9302171190098
 31
-10.59933933933941
  0
LINE
  5
738
330
1F
100
AcDbEntity
  8
0
  6
Continuous
 62
     7
100
AcDbLine
 10
483.8864833922133
 20
398.9302171190098
 30
-10.59933933933941
 11
485.8864833922133
 21
398.9302171190098
 31
-10.59933933933941
  0
LINE
  5
739
330
1F
100
AcDbEntity
  8
0
  6
Continuous
 62
     7
100
AcDbLine
 10
485.8864833922133
 20
385.7302171190098
 30
-10.59933933933941
 11
493.8864833922133
 21
385.7302171190098
 31
-10.59933933933941
  0
LINE
  5
73A
330
1F
100
AcDbEntity
  8
0
  6
Continuous
 62
     7
100
AcDbLine
 10
483.8864833922133
 20
385.9302171190098
 30
-10.59933933933941
 11
485.8864833922133
 21
385.9302171190098
 31
-10.59933933933941
  0
LINE
  5
73B
330
1F
100
AcDbEntity
  8
0
  6
Continuous
 62
     7
100
AcDbLine
 10
485.8864833922133
 20
385.9302171190098
 30
-10.59933933933941
 11
485.8864833922133
 21
385.4302171190098
 31
-10.59933933933941
  0
LINE
  5
73C
330
1F
100
AcDbEntity
  8
0
  6
Continuous
 62
     7
100
AcDbLine
 10
483.8864833922133
 20
385.9302171190098
 30
-10.59933933933941
 11
483.8864833922133
 21
385.4302171190098
 31
-10.59933933933941
  0
LINE
  5
73D
330
1F
100
AcDbEntity
  8
0
  6
Continuous
 62
     7
100
AcDbLine
 10
493.8864833922133
 20
385.9302171190098
 30
-10.59933933933941
 11
493.8864833922133
 21
385.4302171190098
 31
-10.59933933933941
  0
LINE
  5
73E
330
1F
100
AcDbEntity
  8
0
  6
Continuous
 62
     7
100
AcDbLine
 10
480.8864833922133
 20
376.9302171190098
 30
-10.59933933933941
 11
480.8864833922133
 21
373.9302171190098
 31
-10.59933933933941
  0
LINE
  5
73F
330
1F
100
AcDbEntity
  8
0
  6
Continuous
 62
     7
100
AcDbLine
 10
488.8864833922133
 20
376.9302171190098
 30
-10.59933933933941
 11
488.8864833922133
 21
373.9302171190098
 31
-10.59933933933941
  0
LINE
  5
740
330
1F
100
AcDbEntity
  8
0
  6
Continuous
 62
     7
100
AcDbLine
 10
493.8864833922133
 20
398.9302171190098
 30
-10.59933933933941
 11
495.8864833922135
 21
398.9302171190098
 31
-10.59933933933941
  0
LINE
  5
741
330
1F
100
AcDbEntity
  8
0
  6
Continuous
 62
     7
100
AcDbLine
 10
493.8864833922133
 20
385.9302171190098
 30
-10.59933933933941
 11
495.8864833922135
 21
385.9302171190098
 31
-10.59933933933941
  0
LINE
  5
742
330
1F
100
AcDbEntity
  8
0
  6
Continuous
 62
     7
100
AcDbLine
 10
472.7161630718931
 20
441.3318667686595
 30
-10.59933933933941
 11
475.2855925013226
 21
441.3318667686595
 31
-10.59933933933941
  0
LINE
  5
743
330
1F
100
AcDbEntity
  8
0
  6
Continuous
 62
     7
100
AcDbLine
 10
472.5887036124336
 20
440.5285674693605
 30
-10.59933933933941
 11
475.158133041863
 21
440.5285674693605
 31
-10.59933933933941
  0
LINE
  5
744
330
1F
100
AcDbEntity
  8
0
  6
Continuous
 62
     7
100
AcDbLine
 10
474.7119168256469
 20
437.7171060078992
 30
-10.59933933933941
 11
472.142487396217
 21
437.7171060078992
 31
-10.59933933933941
  0
LINE
  5
745
330
1F
100
AcDbEntity
  8
0
  6
Continuous
 62
     7
100
AcDbLine
 10
472.7161630718931
 20
441.3318667686595
 30
-10.59933933933941
 11
472.2853462550761
 21
440.9302171190096
 31
-10.59933933933941
  0
LINE
  5
746
330
1F
100
AcDbEntity
  8
0
  6
Continuous
 62
     7
100
AcDbLine
 10
472.2853462550761
 20
440.9302171190096
 30
-10.59933933933941
 11
472.5887036124336
 21
440.5285674693605
 31
-10.59933933933941
  0
LINE
  5
747
330
1F
100
AcDbEntity
  8
0
  6
Continuous
 62
     7
100
AcDbLine
 10
471.9820609697907
 20
441.3318667686595
 30
-10.59933933933941
 11
472.2853462550761
 21
440.9302171190096
 31
-10.59933933933941
  0
LINE
  5
748
330
1F
100
AcDbEntity
  8
0
  6
Continuous
 62
     7
100
AcDbLine
 10
472.2853462550761
 20
440.9302171190096
 30
-10.59933933933941
 11
471.8546015103313
 21
440.5285674693605
 31
-10.59933933933941
  0
LINE
  5
749
330
1F
100
AcDbEntity
  8
0
  6
Continuous
 62
     7
100
AcDbLine
 10
475.2855925013226
 20
441.3318667686595
 30
-10.59933933933941
 11
475.5889498586798
 21
440.9302171190096
 31
-10.59933933933941
  0
LINE
  5
74A
330
1F
100
AcDbEntity
  8
0
  6
Continuous
 62
     7
100
AcDbLine
 10
475.5889498586798
 20
440.9302171190096
 30
-10.59933933933941
 11
475.158133041863
 21
440.5285674693605
 31
-10.59933933933941
  0
LINE
  5
74B
330
1F
100
AcDbEntity
  8
0
  6
Continuous
 62
     7
100
AcDbLine
 10
476.0196946034246
 20
441.3318667686595
 30
-10.59933933933941
 11
475.5889498586798
 21
440.9302171190096
 31
-10.59933933933941
  0
LINE
  5
74C
330
1F
100
AcDbEntity
  8
0
  6
Continuous
 62
     7
100
AcDbLine
 10
475.5889498586798
 20
440.9302171190096
 30
-10.59933933933941
 11
475.8922351439652
 21
440.5285674693605
 31
-10.59933933933941
  0
LINE
  5
74D
330
1F
100
AcDbEntity
  8
0
  6
Continuous
 62
     7
100
AcDbLine
 10
475.158133041863
 20
440.5285674693605
 30
-10.59933933933941
 11
474.7119168256469
 21
437.7171060078992
 31
-10.59933933933941
  0
LINE
  5
74E
330
1F
100
AcDbEntity
  8
0
  6
Continuous
 62
     7
100
AcDbLine
 10
472.142487396217
 20
437.7171060078992
 30
-10.59933933933941
 11
472.5887036124336
 21
440.5285674693605
 31
-10.59933933933941
  0
LINE
  5
74F
330
1F
100
AcDbEntity
  8
0
  6
Continuous
 62
     7
100
AcDbLine
 10
471.8546015103313
 20
440.5285674693605
 30
-10.59933933933941
 11
471.3813462550762
 21
437.5465654673586
 31
-10.59933933933941
  0
LINE
  5
750
330
1F
100
AcDbEntity
  8
0
  6
Continuous
 62
     7
100
AcDbLine
 10
471.3813462550762
 20
437.5465654673586
 30
-10.59933933933941
 11
471.8593002090297
 21
436.9137266285196
 31
-10.59933933933941
  0
LINE
  5
751
330
1F
100
AcDbEntity
  8
0
  6
Continuous
 62
     7
100
AcDbLine
 10
471.8593002090297
 20
436.9137266285196
 30
-10.59933933933941
 11
474.833302211032
 21
436.9137266285196
 31
-10.59933933933941
  0
LINE
  5
752
330
1F
100
AcDbEntity
  8
0
  6
Continuous
 62
     7
100
AcDbLine
 10
474.833302211032
 20
436.9137266285196
 30
-10.59933933933941
 11
475.4028577665876
 21
437.4447076095006
 31
-10.59933933933941
  0
LINE
  5
753
330
1F
100
AcDbEntity
  8
0
  6
Continuous
 62
     7
100
AcDbLine
 10
475.4028577665876
 20
437.4447076095006
 30
-10.59933933933941
 11
475.8922351439652
 21
440.5285674693605
 31
-10.59933933933941
  0
LINE
  5
754
330
1F
100
AcDbEntity
  8
0
  6
Continuous
 62
     7
100
AcDbLine
 10
471.6202871960173
 20
437.230145046938
 30
-10.59933933933941
 11
472.142487396217
 21
437.7171060078992
 31
-10.59933933933941
  0
LINE
  5
755
330
1F
100
AcDbEntity
  8
0
  6
Continuous
 62
     7
100
AcDbLine
 10
475.1180809898109
 20
437.1792161180088
 30
-10.59933933933941
 11
474.7119168256469
 21
437.7171060078992
 31
-10.59933933933941
  0
LINE
  5
756
330
1F
100
AcDbEntity
  8
0
  6
Continuous
 62
     7
100
AcDbLine
 10
475.8864833922133
 20
417.4302171190101
 30
-10.59933933933941
 11
475.8864833922133
 21
414.4302171190101
 31
-10.59933933933941
  0
LINE
  5
757
330
1F
100
AcDbEntity
  8
0
  6
Continuous
 62
     7
100
AcDbLine
 10
473.8864833922133
 20
417.4302171190101
 30
-10.59933933933941
 11
473.8864833922133
 21
414.4302171190101
 31
-10.59933933933941
  0
LINE
  5
758
330
1F
100
AcDbEntity
  8
0
  6
Continuous
 62
     7
100
AcDbLine
 10
465.8864833922136
 20
417.4302171190101
 30
-10.59933933933941
 11
465.8864833922136
 21
414.4302171190101
 31
-10.59933933933941
  0
LINE
  5
759
330
1F
100
AcDbEntity
  8
0
  6
Continuous
 62
     7
100
AcDbLine
 10
473.8864833922133
 20
425.9302171190101
 30
-10.59933933933941
 11
473.8864833922133
 21
432.9302171190104
 31
-10.59933933933941
  0
LINE
  5
75A
330
1F
100
AcDbEntity
  8
0
  6
Continuous
 62
     7
100
AcDbLine
 10
469.1364833922132
 20
393.4302171190094
 30
-10.59933933933941
 11
469.1364833922132
 21
391.4302171190098
 31
-10.59933933933941
  0
LINE
  5
75B
330
1F
100
AcDbEntity
  8
0
  6
Continuous
 62
     7
100
AcDbLine
 10
468.9364833922135
 20
391.4302171190098
 30
-10.59933933933941
 11
468.9364833922135
 21
385.7302171190098
 31
-10.59933933933941
  0
LINE
  5
75C
330
1F
100
AcDbEntity
  8
0
  6
Continuous
 62
     7
100
AcDbLine
 10
468.9364833922135
 20
399.1302171190098
 30
-10.59933933933941
 11
468.9364833922135
 21
393.4302171190094
 31
-10.59933933933941
  0
LINE
  5
75D
330
1F
100
AcDbEntity
  8
0
  6
Continuous
 62
     7
100
AcDbLine
 10
468.9364833922135
 20
399.1302171190098
 30
-10.59933933933941
 11
473.8864833922133
 21
399.1302171190098
 31
-10.59933933933941
  0
LINE
  5
75E
330
1F
100
AcDbEntity
  8
0
  6
Continuous
 62
     7
100
AcDbLine
 10
475.8864833922133
 20
399.4302171190098
 30
-10.59933933933941
 11
475.8864833922133
 21
398.9302171190098
 31
-10.59933933933941
  0
LINE
  5
75F
330
1F
100
AcDbEntity
  8
0
  6
Continuous
 62
     7
100
AcDbLine
 10
473.8864833922133
 20
399.4302171190098
 30
-10.59933933933941
 11
473.8864833922133
 21
398.9302171190098
 31
-10.59933933933941
  0
LINE
  5
760
330
1F
100
AcDbEntity
  8
0
  6
Continuous
 62
     7
100
AcDbLine
 10
473.8864833922133
 20
398.9302171190098
 30
-10.59933933933941
 11
475.8864833922133
 21
398.9302171190098
 31
-10.59933933933941
  0
LINE
  5
761
330
1F
100
AcDbEntity
  8
0
  6
Continuous
 62
     7
100
AcDbLine
 10
473.8864833922133
 20
385.9302171190098
 30
-10.59933933933941
 11
475.8864833922133
 21
385.9302171190098
 31
-10.59933933933941
  0
LINE
  5
762
330
1F
100
AcDbEntity
  8
0
  6
Continuous
 62
     7
100
AcDbLine
 10
468.9364833922135
 20
385.7302171190098
 30
-10.59933933933941
 11
473.8864833922133
 21
385.7302171190098
 31
-10.59933933933941
  0
LINE
  5
763
330
1F
100
AcDbEntity
  8
0
  6
Continuous
 62
     7
100
AcDbLine
 10
468.6364833922129
 20
399.4302171190098
 30
-10.59933933933941
 11
468.6364833922129
 21
385.4302171190098
 31
-10.59933933933941
  0
LINE
  5
764
330
1F
100
AcDbEntity
  8
0
  6
Continuous
 62
     7
100
AcDbLine
 10
468.6364833922129
 20
391.4302171190098
 30
-10.59933933933941
 11
469.1364833922132
 21
391.4302171190098
 31
-10.59933933933941
  0
LINE
  5
765
330
1F
100
AcDbEntity
  8
0
  6
Continuous
 62
     7
100
AcDbLine
 10
468.6364833922129
 20
393.4302171190094
 30
-10.59933933933941
 11
469.1364833922132
 21
393.4302171190094
 31
-10.59933933933941
  0
LINE
  5
766
330
1F
100
AcDbEntity
  8
0
  6
Continuous
 62
     7
100
AcDbLine
 10
475.8864833922133
 20
385.9302171190098
 30
-10.59933933933941
 11
475.8864833922133
 21
385.4302171190098
 31
-10.59933933933941
  0
LINE
  5
767
330
1F
100
AcDbEntity
  8
0
  6
Continuous
 62
     7
100
AcDbLine
 10
473.8864833922133
 20
385.9302171190098
 30
-10.59933933933941
 11
473.8864833922133
 21
385.4302171190098
 31
-10.59933933933941
  0
LINE
  5
768
330
1F
100
AcDbEntity
  8
0
  6
Continuous
 62
     7
100
AcDbLine
 10
469.8364833922132
 20
398.2302171190098
 30
-10.59933933933941
 11
469.8364833922132
 21
386.6302171190097
 31
-10.59933933933941
  0
LINE
  5
769
330
1F
100
AcDbEntity
  8
0
  6
Continuous
 62
     7
100
AcDbLine
 10
468.6364833922129
 20
399.4302171190098
 30
-10.59933933933941
 11
468.1364833922136
 21
399.9302171190098
 31
-10.59933933933941
  0
LINE
  5
76A
330
1F
100
AcDbEntity
  8
0
  6
Continuous
 62
     7
100
AcDbLine
 10
469.8364833922132
 20
398.2302171190098
 30
-10.59933933933941
 11
468.9364833922135
 21
399.1302171190098
 31
-10.59933933933941
  0
LINE
  5
76B
330
1F
100
AcDbEntity
  8
0
  6
Continuous
 62
     7
100
AcDbLine
 10
468.6364833922129
 20
385.4302171190098
 30
-10.59933933933941
 11
468.1364833922136
 21
384.9302171190097
 31
-10.59933933933941
  0
LINE
  5
76C
330
1F
100
AcDbEntity
  8
0
  6
Continuous
 62
     7
100
AcDbLine
 10
469.8364833922132
 20
386.6302171190097
 30
-10.59933933933941
 11
468.9364833922135
 21
385.7302171190098
 31
-10.59933933933941
  0
LINE
  5
76D
330
1F
100
AcDbEntity
  8
0
  6
Continuous
 62
     7
100
AcDbLine
 10
468.1364833922136
 20
399.9302171190098
 30
-10.59933933933941
 11
468.1364833922136
 21
384.9302171190097
 31
-10.59933933933941
  0
LINE
  5
76E
330
1F
100
AcDbEntity
  8
0
  6
Continuous
 62
     7
100
AcDbLine
 10
471.3864833922132
 20
435.9302171190101
 30
-10.59933933933941
 11
498.3864833922133
 21
435.9302171190101
 31
-10.59933933933941
  0
LINE
  5
76F
330
1F
100
AcDbEntity
  8
0
  6
Continuous
 62
     7
100
AcDbLine
 10
463.8864833922132
 20
404.4302171190101
 30
-10.59933933933941
 11
505.8864833922139
 21
404.4302171190101
 31
-10.59933933933941
  0
LINE
  5
770
330
1F
100
AcDbEntity
  8
0
  6
Continuous
 62
     7
100
AcDbLine
 10
474.8864833922133
 20
424.9302171190104
 30
-10.59933933933941
 11
502.3864833922139
 21
424.9302171190104
 31
-10.59933933933941
  0
LINE
  5
771
330
1F
100
AcDbEntity
  8
0
  6
Continuous
 62
     7
100
AcDbLine
 10
474.8864833922133
 20
433.9302171190104
 30
-10.59933933933941
 11
502.3864833922139
 21
433.9302171190104
 31
-10.59933933933941
  0
LINE
  5
772
330
1F
100
AcDbEntity
  8
0
  6
Continuous
 62
     7
100
AcDbLine
 10
475.8864833922133
 20
399.1302171190098
 30
-10.59933933933941
 11
483.8864833922133
 21
399.1302171190098
 31
-10.59933933933941
  0
LINE
  5
773
330
1F
100
AcDbEntity
  8
0
  6
Continuous
 62
     7
100
AcDbLine
 10
475.8864833922133
 20
385.7302171190098
 30
-10.59933933933941
 11
483.8864833922133
 21
385.7302171190098
 31
-10.59933933933941
  0
LINE
  5
774
330
1F
100
AcDbEntity
  8
0
  6
Continuous
 62
     7
100
AcDbLine
 10
468.6364833922129
 20
385.4302171190098
 30
-10.59933933933941
 11
501.1364833922136
 21
385.4302171190098
 31
-10.59933933933941
  0
LINE
  5
775
330
1F
100
AcDbEntity
  8
0
  6
Continuous
 62
     7
100
AcDbLine
 10
468.6364833922129
 20
399.4302171190098
 30
-10.59933933933941
 11
501.1364833922136
 21
399.4302171190098
 31
-10.59933933933941
  0
LINE
  5
776
330
1F
100
AcDbEntity
  8
0
  6
Continuous
 62
     7
100
AcDbLine
 10
469.8364833922132
 20
386.6302171190097
 30
-10.59933933933941
 11
499.9364833922133
 21
386.6302171190097
 31
-10.59933933933941
  0
LINE
  5
777
330
1F
100
AcDbEntity
  8
0
  6
Continuous
 62
     7
100
AcDbLine
 10
469.8364833922132
 20
398.2302171190098
 30
-10.59933933933941
 11
499.9364833922133
 21
398.2302171190098
 31
-10.59933933933941
  0
LINE
  5
778
330
1F
100
AcDbEntity
  8
0
  6
Continuous
 62
     7
100
AcDbLine
 10
468.1364833922136
 20
384.9302171190097
 30
-10.59933933933941
 11
501.6364833922136
 21
384.9302171190097
 31
-10.59933933933941
  0
LINE
  5
779
330
1F
100
AcDbEntity
  8
0
  6
Continuous
 62
     7
100
AcDbLine
 10
468.1364833922136
 20
399.9302171190098
 30
-10.59933933933941
 11
501.6364833922136
 21
399.9302171190098
 31
-10.59933933933941
  0
LINE
  5
77A
330
1F
100
AcDbEntity
  8
0
  6
Continuous
 62
     7
100
AcDbLine
 10
463.8864833922132
 20
404.4302171190101
 30
-10.59933933933941
 11
505.8864833922139
 21
404.4302171190101
 31
-10.59933933933941
  0
LINE
  5
77B
330
1F
100
AcDbEntity
  8
0
  6
Continuous
 62
     7
100
AcDbLine
 10
475.7318087175382
 20
444.1434103122031
 30
-10.59933933933941
 11
475.2855925013226
 21
441.3318667686595
 31
-10.59933933933941
  0
LINE
  5
77C
330
1F
100
AcDbEntity
  8
0
  6
Continuous
 62
     7
100
AcDbLine
 10
472.7161630718931
 20
441.3318667686595
 30
-10.59933933933941
 11
473.1623072160369
 21
444.1434103122031
 31
-10.59933933933941
  0
LINE
  5
77D
330
1F
100
AcDbEntity
  8
0
  6
Continuous
 62
     7
100
AcDbLine
 10
471.9820609697907
 20
441.3318667686595
 30
-10.59933933933941
 11
472.4552441529739
 21
444.313788690582
 31
-10.59933933933941
  0
LINE
  5
77E
330
1F
100
AcDbEntity
  8
0
  6
Continuous
 62
     7
100
AcDbLine
 10
476.4737186274484
 20
444.1924913932846
 30
-10.59933933933941
 11
476.0196946034246
 21
441.3318667686595
 31
-10.59933933933941
  0
LINE
  5
77F
330
1F
100
AcDbEntity
  8
0
  6
Continuous
 62
     7
100
AcDbLine
 10
483.0318087175386
 20
444.1434103122031
 30
-10.59933933933941
 11
482.5855925013224
 21
441.3318667686595
 31
-10.59933933933941
  0
LINE
  5
780
330
1F
100
AcDbEntity
  8
0
  6
Continuous
 62
     7
100
AcDbLine
 10
480.0161630718931
 20
441.3318667686595
 30
-10.59933933933941
 11
480.462307216037
 21
444.1434103122031
 31
-10.59933933933941
  0
LINE
  5
781
330
1F
100
AcDbEntity
  8
0
  6
Continuous
 62
     7
100
AcDbLine
 10
479.2820609697907
 20
441.3318667686595
 30
-10.59933933933941
 11
479.7552441529743
 21
444.313788690582
 31
-10.59933933933941
  0
LINE
  5
782
330
1F
100
AcDbEntity
  8
0
  6
Continuous
 62
     7
100
AcDbLine
 10
483.7737186274483
 20
444.1924913932846
 30
-10.59933933933941
 11
483.3196946034245
 21
441.3318667686595
 31
-10.59933933933941
  0
LINE
  5
783
330
1F
100
AcDbEntity
  8
0
  6
Continuous
 62
     7
100
AcDbLine
 10
490.3318087175387
 20
444.1434103122031
 30
-10.59933933933941
 11
489.8855925013225
 21
441.3318667686595
 31
-10.59933933933941
  0
LINE
  5
784
330
1F
100
AcDbEntity
  8
0
  6
Continuous
 62
     7
100
AcDbLine
 10
487.316163071893
 20
441.3318667686595
 30
-10.59933933933941
 11
487.7623072160372
 21
444.1434103122031
 31
-10.59933933933941
  0
LINE
  5
785
330
1F
100
AcDbEntity
  8
0
  6
Continuous
 62
     7
100
AcDbLine
 10
486.582060969791
 20
441.3318667686595
 30
-10.59933933933941
 11
487.0552441529746
 21
444.313788690582
 31
-10.59933933933941
  0
LINE
  5
786
330
1F
100
AcDbEntity
  8
0
  6
Continuous
 62
     7
100
AcDbLine
 10
491.0737186274483
 20
444.1924913932846
 30
-10.59933933933941
 11
490.6196946034246
 21
441.3318667686595
 31
-10.59933933933941
  0
LINE
  5
787
330
1F
100
AcDbEntity
  8
0
  6
Continuous
 62
     7
100
AcDbLine
 10
497.631808717539
 20
444.1434103122031
 30
-10.59933933933941
 11
497.1855925013224
 21
441.3318667686595
 31
-10.59933933933941
  0
LINE
  5
788
330
1F
100
AcDbEntity
  8
0
  6
Continuous
 62
     7
100
AcDbLine
 10
494.6161630718931
 20
441.3318667686595
 30
-10.59933933933941
 11
495.0623072160373
 21
444.1434103122031
 31
-10.59933933933941
  0
LINE
  5
789
330
1F
100
AcDbEntity
  8
0
  6
Continuous
 62
     7
100
AcDbLine
 10
493.882060969791
 20
441.3318667686595
 30
-10.59933933933941
 11
494.3552441529742
 21
444.313788690582
 31
-10.59933933933941
  0
LINE
  5
78A
330
1F
100
AcDbEntity
  8
0
  6
Continuous
 62
     7
100
AcDbLine
 10
498.3737186274487
 20
444.1924913932846
 30
-10.59933933933941
 11
497.9196946034245
 21
441.3318667686595
 31
-10.59933933933941
  0
LINE
  5
78B
330
1F
100
AcDbEntity
  8
0
  6
Continuous
 62
     7
100
AcDbLine
 10
499.3864833922136
 20
444.9302171190105
 30
-10.59933933933941
 11
499.3864833922136
 21
436.9302171190104
 31
-10.59933933933941
  0
LINE
  5
78C
330
1F
100
AcDbEntity
  8
0
  6
Continuous
 62
     7
100
AcDbLine
 10
470.3864833922136
 20
444.9302171190105
 30
-10.59933933933941
 11
470.3864833922136
 21
436.9302171190104
 31
-10.59933933933941
  0
LINE
  5
78D
330
1F
100
AcDbEntity
  8
0
  6
Continuous
 62
     7
100
AcDbLine
 10
462.8864833922132
 20
467.9302171190101
 30
-10.59933933933941
 11
462.8864833922132
 21
405.4302171190101
 31
-10.59933933933941
  0
LINE
  5
78E
330
1F
100
AcDbEntity
  8
0
  6
Continuous
 62
     7
100
AcDbLine
 10
506.8864833922138
 20
467.9302171190101
 30
-10.59933933933941
 11
506.8864833922138
 21
405.4302171190101
 31
-10.59933933933941
  0
LINE
  5
78F
330
1F
100
AcDbEntity
  8
0
  6
Continuous
 62
     7
100
AcDbLine
 10
506.8864833922138
 20
467.9302171190101
 30
-10.59933933933941
 11
506.8864833922138
 21
405.4302171190101
 31
-10.59933933933941
  0
LINE
  5
790
330
1F
100
AcDbEntity
  8
0
  6
Continuous
 62
     7
100
AcDbLine
 10
462.8864833922132
 20
467.9302171190101
 30
-10.59933933933941
 11
462.8864833922132
 21
405.4302171190101
 31
-10.59933933933941
  0
LINE
  5
791
330
1F
100
AcDbEntity
  8
0
  6
Continuous
 62
     7
100
AcDbLine
 10
509.886483392214
 20
475.9302171190101
 30
-10.59933933933941
 11
509.886483392214
 21
375.9302171190098
 31
-10.59933933933941
  0
LINE
  5
792
330
1F
100
AcDbEntity
  8
0
  6
Continuous
 62
     7
100
AcDbLine
 10
459.8864833922132
 20
475.9302171190101
 30
-10.59933933933941
 11
459.8864833922132
 21
375.9302171190098
 31
-10.59933933933941
  0
LINE
  5
793
330
1F
100
AcDbEntity
  8
0
  6
Continuous
 62
     7
100
AcDbLine
 10
990.1859763922136
 20
477.9270791190106
 30
0.0
 11
988.6859763922135
 21
477.9270791190106
 31
0.0
  0
ARC
  5
794
330
1F
100
AcDbEntity
  8
0
  6
Continuous
 62
     7
100
AcDbCircle
 10
988.6859748980644
 20
475.9270826131593
 30
0.0
 40
1.999996505851686
100
AcDbArc
 50
89.99995719571119
 51
180.0000428042888
  0
ARC
  5
795
330
1F
100
AcDbEntity
  8
0
  6
Continuous
 62
     7
100
AcDbCircle
 10
988.6859748980644
 20
376.0311806248618
 30
0.0
 40
1.999996505851514
100
AcDbArc
 50
179.9999571957144
 51
270.0000428042953
  0
LINE
  5
796
330
1F
100
AcDbEntity
  8
0
  6
Continuous
 62
     7
100
AcDbLine
 10
988.6859763922135
 20
374.0311841190103
 30
0.0
 11
990.1859763922136
 21
374.0311841190103
 31
0.0
  0
LINE
  5
797
330
1F
100
AcDbEntity
  8
0
  6
Continuous
 62
     7
100
AcDbLine
 10
986.6859783922134
 20
475.9270811190101
 30
0.0
 11
986.6859783922134
 21
376.0311821190104
 31
0.0
  0
LINE
  5
798
330
1F
100
AcDbEntity
  8
0
  6
Continuous
 62
     7
100
AcDbLine
 10
1228.786398392212
 20
577.4702141190101
 30
0.0
 11
1230.386397392212
 21
577.4702141190101
 31
0.0
  0
LINE
  5
799
330
1F
100
AcDbEntity
  8
0
  6
Continuous
 62
     7
100
AcDbLine
 10
1219.886400392212
 20
547.4702171190101
 30
0.0
 11
1228.786398392212
 21
547.4702171190101
 31
0.0
  0
LINE
  5
79A
330
1F
100
AcDbEntity
  8
0
  6
Continuous
 62
     7
100
AcDbLine
 10
1220.386398392212
 20
545.8702181190098
 30
0.0
 11
1228.886397392212
 21
545.8702181190098
 31
0.0
  0
ARC
  5
79B
330
1F
100
AcDbEntity
  8
0
  6
Continuous
 62
     7
100
AcDbCircle
 10
1228.886398512825
 20
547.3702169983965
 30
0.0
 40
1.49999887938761
100
AcDbArc
 50
269.9999571957111
 51
0.0000428042888088
  0
LINE
  5
79C
330
1F
100
AcDbEntity
  8
0
  6
Continuous
 62
     7
100
AcDbLine
 10
1221.986400392212
 20
542.9702171190101
 30
0.0
 11
1220.386398392212
 21
542.9702171190101
 31
0.0
  0
LINE
  5
79D
330
1F
100
AcDbEntity
  8
0
  6
Continuous
 62
     7
100
AcDbLine
 10
1220.386398392212
 20
542.9702171190101
 30
0.0
 11
1220.386398392212
 21
547.4702171190101
 31
0.0
  0
LINE
  5
79E
330
1F
100
AcDbEntity
  8
0
  6
Continuous
 62
     7
100
AcDbLine
 10
1228.786398392212
 20
577.4702141190101
 30
0.0
 11
1228.786398392212
 21
547.4702171190101
 31
0.0
  0
LINE
  5
79F
330
1F
100
AcDbEntity
  8
0
  6
Continuous
 62
     7
100
AcDbLine
 10
1230.386397392212
 20
547.3702181190096
 30
0.0
 11
1230.386397392212
 21
577.4702141190101
 31
0.0
  0
LINE
  5
7A0
330
1F
100
AcDbEntity
  8
0
  6
Continuous
 62
     7
100
AcDbLine
 10
1193.386401392211
 20
544.5702161190096
 30
0.0
 11
1190.386401392212
 21
544.5702161190096
 31
0.0
  0
LINE
  5
7A1
330
1F
100
AcDbEntity
  8
0
  6
Continuous
 62
     7
100
AcDbLine
 10
1190.386401392212
 20
546.1702181190097
 30
0.0
 11
1190.386401392212
 21
544.5702161190096
 31
0.0
  0
LINE
  5
7A2
330
1F
100
AcDbEntity
  8
0
  6
Continuous
 62
     7
100
AcDbLine
 10
1193.386401392211
 20
547.4702171190101
 30
0.0
 11
1193.386401392211
 21
544.5702161190096
 31
0.0
  0
ARC
  5
7A3
330
1F
100
AcDbEntity
  8
0
  6
Continuous
 62
     7
100
AcDbCircle
 10
1169.706400957828
 20
549.3702175533941
 30
0.0
 40
1.919998565616278
100
AcDbArc
 50
89.99995719571769
 51
180.0000428042919
  0
ARC
  5
7A4
330
1F
100
AcDbEntity
  8
0
  6
Continuous
 62
     7
100
AcDbCircle
 10
1173.066403826596
 20
549.3702175533941
 30
0.0
 40
1.919998565616106
100
AcDbArc
 50
359.9999571957046
 51
90.0000428042823
  0
LINE
  5
7A5
330
1F
100
AcDbEntity
  8
0
  6
Continuous
 62
     7
100
AcDbLine
 10
1169.706402392212
 20
551.2902161190102
 30
0.0
 11
1173.066402392212
 21
551.2902161190102
 31
0.0
  0
LINE
  5
7A6
330
1F
100
AcDbEntity
  8
0
  6
Continuous
 62
     7
100
AcDbLine
 10
1166.346405392212
 20
548.3702171190101
 30
0.0
 11
1176.426405392212
 21
548.3702171190101
 31
0.0
  0
LINE
  5
7A7
330
1F
100
AcDbEntity
  8
0
  6
Continuous
 62
     7
100
AcDbLine
 10
1167.786402392212
 20
549.3702161190099
 30
0.0
 11
1167.786402392212
 21
548.3702171190101
 31
0.0
  0
LINE
  5
7A8
330
1F
100
AcDbEntity
  8
0
  6
Continuous
 62
     7
100
AcDbLine
 10
1174.986402392212
 20
549.3702161190099
 30
0.0
 11
1174.986402392212
 21
548.3702171190101
 31
0.0
  0
LINE
  5
7A9
330
1F
100
AcDbEntity
  8
0
  6
Continuous
 62
     7
100
AcDbLine
 10
1166.346405392212
 20
548.3702171190101
 30
0.0
 11
1166.346405392212
 21
547.3702181190096
 31
0.0
  0
LINE
  5
7AA
330
1F
100
AcDbEntity
  8
0
  6
Continuous
 62
     7
100
AcDbLine
 10
1176.426405392212
 20
548.3702171190101
 30
0.0
 11
1176.426405392212
 21
547.3702181190096
 31
0.0
  0
LINE
  5
7AB
330
1F
100
AcDbEntity
  8
0
  6
Continuous
 62
     7
100
AcDbLine
 10
1193.386401392211
 20
547.4702171190101
 30
0.0
 11
1220.386398392212
 21
547.4702171190101
 31
0.0
  0
LINE
  5
7AC
330
1F
100
AcDbEntity
  8
0
  6
Continuous
 62
     7
100
AcDbLine
 10
1123.386408392212
 20
544.5702161190096
 30
0.0
 11
1120.386408392213
 21
544.5702161190096
 31
0.0
  0
LINE
  5
7AD
330
1F
100
AcDbEntity
  8
0
  6
Continuous
 62
     7
100
AcDbLine
 10
1120.386408392213
 20
546.1702181190097
 30
0.0
 11
1120.386408392213
 21
544.5702161190096
 31
0.0
  0
LINE
  5
7AE
330
1F
100
AcDbEntity
  8
0
  6
Continuous
 62
     7
100
AcDbLine
 10
1123.386408392212
 20
546.1702181190097
 30
0.0
 11
1123.386408392212
 21
544.5702161190096
 31
0.0
  0
LINE
  5
7AF
330
1F
100
AcDbEntity
  8
0
  6
Continuous
 62
     7
100
AcDbLine
 10
1057.386414392212
 20
544.5702161190096
 30
0.0
 11
1060.386414392213
 21
544.5702161190096
 31
0.0
  0
LINE
  5
7B0
330
1F
100
AcDbEntity
  8
0
  6
Continuous
 62
     7
100
AcDbLine
 10
1057.386414392212
 20
546.1702181190097
 30
0.0
 11
1057.386414392212
 21
544.5702161190096
 31
0.0
  0
LINE
  5
7B1
330
1F
100
AcDbEntity
  8
0
  6
Continuous
 62
     7
100
AcDbLine
 10
1060.386414392213
 20
546.1702181190097
 30
0.0
 11
1060.386414392213
 21
544.5702161190096
 31
0.0
  0
LINE
  5
7B2
330
1F
100
AcDbEntity
  8
0
  6
Continuous
 62
     7
100
AcDbLine
 10
1120.386408392213
 20
546.1702181190097
 30
0.0
 11
1060.386414392213
 21
546.1702181190097
 31
0.0
  0
LINE
  5
7B3
330
1F
100
AcDbEntity
  8
0
  6
Continuous
 62
     7
100
AcDbLine
 10
1190.386401392212
 20
546.1702181190097
 30
0.0
 11
1123.386408392212
 21
546.1702181190097
 31
0.0
  0
LINE
  5
7B4
330
1F
100
AcDbEntity
  8
0
  6
Continuous
 62
     7
 48
6.0
100
AcDbLine
 10
1211.983188392212
 20
501.9710231190101
 30
0.0
 11
1211.983188392212
 21
502.9694231190098
 31
0.0
  0
LINE
  5
7B5
330
1F
100
AcDbEntity
  8
0
  6
Continuous
 62
     7
 48
6.0
100
AcDbLine
 10
1211.983188392212
 20
502.9694231190098
 30
0.0
 11
1210.485588392212
 21
502.9694231190098
 31
0.0
  0
LINE
  5
7B6
330
1F
100
AcDbEntity
  8
0
  6
Continuous
 62
     7
 48
6.0
100
AcDbLine
 10
1210.485588392212
 20
502.9694231190098
 30
0.0
 11
1210.485588392212
 21
504.4670231190101
 31
0.0
  0
LINE
  5
7B7
330
1F
100
AcDbEntity
  8
0
  6
Continuous
 62
     7
 48
6.0
100
AcDbLine
 10
1210.485588392212
 20
504.4670231190101
 30
0.0
 11
1209.487188392212
 21
504.4670231190101
 31
0.0
  0
LINE
  5
7B8
330
1F
100
AcDbEntity
  8
0
  6
Continuous
 62
     7
 48
6.0
100
AcDbLine
 10
1209.487188392212
 20
504.4670231190101
 30
0.0
 11
1209.487188392212
 21
502.9694231190098
 31
0.0
  0
LINE
  5
7B9
330
1F
100
AcDbEntity
  8
0
  6
Continuous
 62
     7
 48
6.0
100
AcDbLine
 10
1209.487188392212
 20
501.9710231190101
 30
0.0
 11
1209.487188392212
 21
500.4734231190101
 31
0.0
  0
LINE
  5
7BA
330
1F
100
AcDbEntity
  8
0
  6
Continuous
 62
     7
 48
6.0
100
AcDbLine
 10
1209.487188392212
 20
500.4734231190101
 30
0.0
 11
1210.485588392212
 21
500.4734231190101
 31
0.0
  0
LINE
  5
7BB
330
1F
100
AcDbEntity
  8
0
  6
Continuous
 62
     7
 48
6.0
100
AcDbLine
 10
1210.485588392212
 20
500.4734231190101
 30
0.0
 11
1210.485588392212
 21
501.9710231190101
 31
0.0
  0
LINE
  5
7BC
330
1F
100
AcDbEntity
  8
0
  6
Continuous
 62
     7
 48
6.0
100
AcDbLine
 10
1210.485588392212
 20
501.9710231190101
 30
0.0
 11
1211.983188392212
 21
501.9710231190101
 31
0.0
  0
LINE
  5
7BD
330
1F
100
AcDbEntity
  8
0
  6
Continuous
 62
     7
 48
6.0
100
AcDbLine
 10
1211.983188392212
 20
501.9710231190101
 30
0.0
 11
1211.983188392212
 21
501.9710231190101
 31
0.0
  0
LINE
  5
7BE
330
1F
100
AcDbEntity
  8
0
  6
Continuous
 62
     7
 48
6.0
100
AcDbLine
 10
1207.989588392212
 20
502.9694231190098
 30
0.0
 11
1207.989588392212
 21
501.9710231190101
 31
0.0
  0
LINE
  5
7BF
330
1F
100
AcDbEntity
  8
0
  6
Continuous
 62
     7
 48
6.0
100
AcDbLine
 10
1209.487188392212
 20
502.9694231190098
 30
0.0
 11
1207.989588392212
 21
502.9694231190098
 31
0.0
  0
LINE
  5
7C0
330
1F
100
AcDbEntity
  8
0
  6
Continuous
 62
     7
 48
6.0
100
AcDbLine
 10
1207.989588392212
 20
501.9710231190101
 30
0.0
 11
1209.487188392212
 21
501.9710231190101
 31
0.0
  0
CIRCLE
  5
7C1
330
1F
100
AcDbEntity
  8
0
  6
Continuous
 62
     7
370
     0
100
AcDbCircle
 10
1209.98639126098
 20
502.4702259877788
 30
0.0
 40
3.839997131232553
  0
CIRCLE
  5
7C2
330
1F
100
AcDbEntity
  8
0
  6
Continuous
 62
     7
370
     0
100
AcDbCircle
 10
1209.986390629851
 20
502.4702253566497
 30
0.0
 40
2.995197762361396
  0
LINE
  5
7C3
330
1F
100
AcDbEntity
  8
0
  6
Continuous
 62
     7
 48
6.0
100
AcDbLine
 10
1211.983188392212
 20
321.9710411190102
 30
0.0
 11
1211.983188392212
 21
322.9694411190096
 31
0.0
  0
LINE
  5
7C4
330
1F
100
AcDbEntity
  8
0
  6
Continuous
 62
     7
 48
6.0
100
AcDbLine
 10
1211.983188392212
 20
322.9694411190096
 30
0.0
 11
1210.485588392212
 21
322.9694411190096
 31
0.0
  0
LINE
  5
7C5
330
1F
100
AcDbEntity
  8
0
  6
Continuous
 62
     7
 48
6.0
100
AcDbLine
 10
1210.485588392212
 20
322.9694411190096
 30
0.0
 11
1210.485588392212
 21
324.4670411190101
 31
0.0
  0
LINE
  5
7C6
330
1F
100
AcDbEntity
  8
0
  6
Continuous
 62
     7
 48
6.0
100
AcDbLine
 10
1210.485588392212
 20
324.4670411190101
 30
0.0
 11
1209.487188392212
 21
324.4670411190101
 31
0.0
  0
LINE
  5
7C7
330
1F
100
AcDbEntity
  8
0
  6
Continuous
 62
     7
 48
6.0
100
AcDbLine
 10
1209.487188392212
 20
324.4670411190101
 30
0.0
 11
1209.487188392212
 21
322.9694411190096
 31
0.0
  0
LINE
  5
7C8
330
1F
100
AcDbEntity
  8
0
  6
Continuous
 62
     7
 48
6.0
100
AcDbLine
 10
1209.487188392212
 20
321.9710411190102
 30
0.0
 11
1209.487188392212
 21
320.4734411190098
 31
0.0
  0
LINE
  5
7C9
330
1F
100
AcDbEntity
  8
0
  6
Continuous
 62
     7
 48
6.0
100
AcDbLine
 10
1209.487188392212
 20
320.4734411190098
 30
0.0
 11
1210.485588392212
 21
320.4734411190098
 31
0.0
  0
LINE
  5
7CA
330
1F
100
AcDbEntity
  8
0
  6
Continuous
 62
     7
 48
6.0
100
AcDbLine
 10
1210.485588392212
 20
320.4734411190098
 30
0.0
 11
1210.485588392212
 21
321.9710411190102
 31
0.0
  0
LINE
  5
7CB
330
1F
100
AcDbEntity
  8
0
  6
Continuous
 62
     7
 48
6.0
100
AcDbLine
 10
1210.485588392212
 20
321.9710411190102
 30
0.0
 11
1211.983188392212
 21
321.9710411190102
 31
0.0
  0
LINE
  5
7CC
330
1F
100
AcDbEntity
  8
0
  6
Continuous
 62
     7
 48
6.0
100
AcDbLine
 10
1211.983188392212
 20
321.9710411190102
 30
0.0
 11
1211.983188392212
 21
321.9710411190102
 31
0.0
  0
LINE
  5
7CD
330
1F
100
AcDbEntity
  8
0
  6
Continuous
 62
     7
 48
6.0
100
AcDbLine
 10
1207.989588392212
 20
322.9694411190096
 30
0.0
 11
1207.989588392212
 21
321.9710411190102
 31
0.0
  0
LINE
  5
7CE
330
1F
100
AcDbEntity
  8
0
  6
Continuous
 62
     7
 48
6.0
100
AcDbLine
 10
1209.487188392212
 20
322.9694411190096
 30
0.0
 11
1207.989588392212
 21
322.9694411190096
 31
0.0
  0
LINE
  5
7CF
330
1F
100
AcDbEntity
  8
0
  6
Continuous
 62
     7
 48
6.0
100
AcDbLine
 10
1207.989588392212
 20
321.9710411190102
 30
0.0
 11
1209.487188392212
 21
321.9710411190102
 31
0.0
  0
CIRCLE
  5
7D0
330
1F
100
AcDbEntity
  8
0
  6
Continuous
 62
     7
370
     0
100
AcDbCircle
 10
1209.986390629851
 20
322.470243356649
 30
0.0
 40
2.995197762361396
  0
CIRCLE
  5
7D1
330
1F
100
AcDbEntity
  8
0
  6
Continuous
 62
     7
370
     0
100
AcDbCircle
 10
1209.98639126098
 20
322.4702439877781
 30
0.0
 40
3.839997131232553
  0
LINE
  5
7D2
330
1F
100
AcDbEntity
  8
0
  6
Continuous
 62
     7
100
AcDbLine
 10
1219.886400392212
 20
277.4702441190098
 30
0.0
 11
1228.786398392212
 21
277.4702441190098
 31
0.0
  0
LINE
  5
7D3
330
1F
100
AcDbEntity
  8
0
  6
Continuous
 62
     7
100
AcDbLine
 10
1220.386398392212
 20
279.07024311901
 30
0.0
 11
1228.886397392212
 21
279.07024311901
 31
0.0
  0
ARC
  5
7D4
330
1F
100
AcDbEntity
  8
0
  6
Continuous
 62
     7
100
AcDbCircle
 10
1228.886398512823
 20
277.5702442396223
 30
0.0
 40
1.499998879387696
100
AcDbArc
 50
359.9999571957078
 51
90.0000428042823
  0
LINE
  5
7D5
330
1F
100
AcDbEntity
  8
0
  6
Continuous
 62
     7
100
AcDbLine
 10
1220.386398392212
 20
280.4702441190103
 30
0.0
 11
1221.986400392212
 21
280.4702441190103
 31
0.0
  0
LINE
  5
7D6
330
1F
100
AcDbEntity
  8
0
  6
Continuous
 62
     7
100
AcDbLine
 10
1220.386398392212
 20
280.4702441190103
 30
0.0
 11
1220.386398392212
 21
277.4702441190098
 31
0.0
  0
LINE
  5
7D7
330
1F
100
AcDbEntity
  8
0
  6
Continuous
 62
     7
100
AcDbLine
 10
1228.786398392212
 20
252.47024811901
 30
0.0
 11
1230.386397392212
 21
252.47024811901
 31
0.0
  0
LINE
  5
7D8
330
1F
100
AcDbEntity
  8
0
  6
Continuous
 62
     7
100
AcDbLine
 10
1230.386397392212
 20
277.5702431190099
 30
0.0
 11
1230.386397392212
 21
252.47024811901
 31
0.0
  0
LINE
  5
7D9
330
1F
100
AcDbEntity
  8
0
  6
Continuous
 62
     7
100
AcDbLine
 10
1228.786398392212
 20
277.4702441190098
 30
0.0
 11
1228.786398392212
 21
252.47024811901
 31
0.0
  0
LINE
  5
7DA
330
1F
100
AcDbEntity
  8
0
  6
Continuous
 62
     7
100
AcDbLine
 10
1193.386401392211
 20
280.3702451190103
 30
0.0
 11
1190.386401392212
 21
280.3702451190103
 31
0.0
  0
LINE
  5
7DB
330
1F
100
AcDbEntity
  8
0
  6
Continuous
 62
     7
100
AcDbLine
 10
1190.386401392212
 20
278.7702431190101
 30
0.0
 11
1190.386401392212
 21
280.3702451190103
 31
0.0
  0
LINE
  5
7DC
330
1F
100
AcDbEntity
  8
0
  6
Continuous
 62
     7
100
AcDbLine
 10
1193.386401392211
 20
277.4702441190098
 30
0.0
 11
1193.386401392211
 21
280.3702451190103
 31
0.0
  0
LINE
  5
7DD
330
1F
100
AcDbEntity
  8
0
  6
Continuous
 62
     7
100
AcDbLine
 10
1193.386401392211
 20
277.4702441190098
 30
0.0
 11
1220.386398392212
 21
277.4702441190098
 31
0.0
  0
LINE
  5
7DE
330
1F
100
AcDbEntity
  8
0
  6
Continuous
 62
     7
100
AcDbLine
 10
1123.386408392212
 20
280.3702451190103
 30
0.0
 11
1120.386408392213
 21
280.3702451190103
 31
0.0
  0
LINE
  5
7DF
330
1F
100
AcDbEntity
  8
0
  6
Continuous
 62
     7
100
AcDbLine
 10
1120.386408392213
 20
278.7702431190101
 30
0.0
 11
1120.386408392213
 21
280.3702451190103
 31
0.0
  0
LINE
  5
7E0
330
1F
100
AcDbEntity
  8
0
  6
Continuous
 62
     7
100
AcDbLine
 10
1123.386408392212
 20
278.7702431190101
 30
0.0
 11
1123.386408392212
 21
280.3702451190103
 31
0.0
  0
LINE
  5
7E1
330
1F
100
AcDbEntity
  8
0
  6
DASHED
 62
     4
 48
6.0
100
AcDbLine
 10
1103.386410392212
 20
283.4702441190103
 30
0.0
 11
1099.386411392212
 21
283.4702441190103
 31
0.0
  0
LINE
  5
7E2
330
1F
100
AcDbEntity
  8
0
  6
Continuous
 62
     7
100
AcDbLine
 10
1060.386414392213
 20
278.7702431190101
 30
0.0
 11
1060.386414392213
 21
280.3702451190103
 31
0.0
  0
LINE
  5
7E3
330
1F
100
AcDbEntity
  8
0
  6
Continuous
 62
     7
100
AcDbLine
 10
1057.386414392212
 20
280.3702451190103
 30
0.0
 11
1060.386414392213
 21
280.3702451190103
 31
0.0
  0
LINE
  5
7E4
330
1F
100
AcDbEntity
  8
0
  6
Continuous
 62
     7
100
AcDbLine
 10
1057.386414392212
 20
278.7702431190101
 30
0.0
 11
1057.386414392212
 21
280.3702451190103
 31
0.0
  0
LINE
  5
7E5
330
1F
100
AcDbEntity
  8
0
  6
Continuous
 62
     7
100
AcDbLine
 10
1120.386408392213
 20
278.7702431190101
 30
0.0
 11
1060.386414392213
 21
278.7702431190101
 31
0.0
  0
LINE
  5
7E6
330
1F
100
AcDbEntity
  8
0
  6
DASHED
 62
     4
 48
6.0
100
AcDbLine
 10
1103.386410392212
 20
303.79666611901
 30
0.0
 11
1103.386410392212
 21
283.4702441190103
 31
0.0
  0
LINE
  5
7E7
330
1F
100
AcDbEntity
  8
0
  6
DASHED
 62
     4
 48
6.0
100
AcDbLine
 10
1099.386411392212
 20
283.4702441190103
 30
0.0
 11
1099.386411392212
 21
305.8517831190101
 31
0.0
  0
LINE
  5
7E8
330
1F
100
AcDbEntity
  8
0
  6
Continuous
 62
     7
100
AcDbLine
 10
1190.386401392212
 20
278.7702431190101
 30
0.0
 11
1123.386408392212
 21
278.7702431190101
 31
0.0
  0
LINE
  5
7E9
330
1F
100
AcDbEntity
  8
0
  6
Continuous
 62
     7
100
AcDbLine
 10
1221.986400392212
 20
542.9702171190101
 30
0.0
 11
1221.986400392212
 21
280.4702441190103
 31
0.0
  0
CIRCLE
  5
7EA
330
1F
100
AcDbEntity
  8
0
  6
DASHED
 62
     4
100
AcDbCircle
 10
611.9216596334374
 20
526.9046953602358
 30
10.58873999999982
 40
2.999997758775298
  0
CIRCLE
  5
7EB
330
1F
100
AcDbEntity
  8
0
  6
DASHED
 62
     4
100
AcDbCircle
 10
596.6816596334377
 20
526.9046953602358
 30
10.58873999999982
 40
2.999997758775298
  0
CIRCLE
  5
7EC
330
1F
100
AcDbEntity
  8
0
  6
DASHED
 62
     4
100
AcDbCircle
 10
604.3016596334377
 20
526.9046953602358
 30
10.58873999999982
 40
2.999997758775298
  0
CIRCLE
  5
7ED
330
1F
100
AcDbEntity
  8
0
  6
DASHED
 62
     4
100
AcDbCircle
 10
619.5416596334374
 20
526.9046953602358
 30
10.58873999999982
 40
2.999997758775298
  0
CIRCLE
  5
7EE
330
1F
100
AcDbEntity
  8
0
  6
DASHED
 62
     4
100
AcDbCircle
 10
581.4416596334377
 20
526.9046953602358
 30
10.58873999999982
 40
2.999997758775298
  0
CIRCLE
  5
7EF
330
1F
100
AcDbEntity
  8
0
  6
DASHED
 62
     4
100
AcDbCircle
 10
573.8216596334377
 20
526.9046953602358
 30
10.58873999999982
 40
2.999997758775298
  0
CIRCLE
  5
7F0
330
1F
100
AcDbEntity
  8
0
  6
DASHED
 62
     4
100
AcDbCircle
 10
550.9616596334382
 20
526.9046953602358
 30
10.58873999999982
 40
2.999997758775298
  0
CIRCLE
  5
7F1
330
1F
100
AcDbEntity
  8
0
  6
DASHED
 62
     4
100
AcDbCircle
 10
558.5816596334383
 20
526.9046953602358
 30
10.58873999999982
 40
2.999997758775298
  0
CIRCLE
  5
7F2
330
1F
100
AcDbEntity
  8
0
  6
DASHED
 62
     4
100
AcDbCircle
 10
566.2016596334382
 20
526.9046953602358
 30
10.58873999999982
 40
2.999997758775298
  0
CIRCLE
  5
7F3
330
1F
100
AcDbEntity
  8
0
  6
DASHED
 62
     4
100
AcDbCircle
 10
589.0616596334377
 20
526.9046953602358
 30
10.58873999999982
 40
2.999997758775298
  0
CIRCLE
  5
7F4
330
1F
100
AcDbEntity
  8
0
  6
DASHED
 62
     4
100
AcDbCircle
 10
520.4816596334382
 20
526.9046953602358
 30
10.58873999999982
 40
2.999997758775413
  0
CIRCLE
  5
7F5
330
1F
100
AcDbEntity
  8
0
  6
DASHED
 62
     4
100
AcDbCircle
 10
528.1016596334382
 20
526.9046953602358
 30
10.58873999999982
 40
2.999997758775413
  0
CIRCLE
  5
7F6
330
1F
100
AcDbEntity
  8
0
  6
DASHED
 62
     4
100
AcDbCircle
 10
535.7216596334382
 20
526.9046953602358
 30
10.58873999999982
 40
2.999997758775413
  0
CIRCLE
  5
7F7
330
1F
100
AcDbEntity
  8
0
  6
DASHED
 62
     4
100
AcDbCircle
 10
543.3416596334383
 20
526.9046953602358
 30
10.58873999999982
 40
2.999997758775298
  0
CIRCLE
  5
7F8
330
1F
100
AcDbEntity
  8
0
  6
DASHED
 62
     4
100
AcDbCircle
 10
524.3350876334385
 20
516.6288813602354
 30
10.58873999999982
 40
2.999997758775413
  0
CIRCLE
  5
7F9
330
1F
100
AcDbEntity
  8
0
  6
DASHED
 62
     4
100
AcDbCircle
 10
516.7150876334387
 20
516.6288813602354
 30
10.58873999999982
 40
2.999997758775413
  0
CIRCLE
  5
7FA
330
1F
100
AcDbEntity
  8
0
  6
DASHED
 62
     4
100
AcDbCircle
 10
585.2950876334376
 20
516.6288813602354
 30
10.58873999999982
 40
2.999997758775298
  0
CIRCLE
  5
7FB
330
1F
100
AcDbEntity
  8
0
  6
DASHED
 62
     4
100
AcDbCircle
 10
554.8150876334383
 20
516.6288813602354
 30
10.58873999999982
 40
2.999997758775298
  0
CIRCLE
  5
7FC
330
1F
100
AcDbEntity
  8
0
  6
DASHED
 62
     4
100
AcDbCircle
 10
539.5750876334383
 20
516.6288813602354
 30
10.58873999999982
 40
2.999997758775298
  0
CIRCLE
  5
7FD
330
1F
100
AcDbEntity
  8
0
  6
DASHED
 62
     4
100
AcDbCircle
 10
531.9550876334383
 20
516.6288813602354
 30
10.58873999999982
 40
2.999997758775413
  0
CIRCLE
  5
7FE
330
1F
100
AcDbEntity
  8
0
  6
DASHED
 62
     4
100
AcDbCircle
 10
547.1950876334381
 20
516.6288813602354
 30
10.58873999999982
 40
2.999997758775298
  0
CIRCLE
  5
7FF
330
1F
100
AcDbEntity
  8
0
  6
DASHED
 62
     4
100
AcDbCircle
 10
570.0550876334379
 20
516.6288813602354
 30
10.58873999999982
 40
2.999997758775298
  0
CIRCLE
  5
800
330
1F
100
AcDbEntity
  8
0
  6
DASHED
 62
     4
100
AcDbCircle
 10
562.4350876334381
 20
516.6288813602354
 30
10.58873999999982
 40
2.999997758775298
  0
CIRCLE
  5
801
330
1F
100
AcDbEntity
  8
0
  6
DASHED
 62
     4
100
AcDbCircle
 10
577.6750876334376
 20
516.6288813602354
 30
10.58873999999982
 40
2.999997758775298
  0
CIRCLE
  5
802
330
1F
100
AcDbEntity
  8
0
  6
DASHED
 62
     4
100
AcDbCircle
 10
600.5350876334376
 20
516.6288813602354
 30
10.58873999999982
 40
2.999997758775298
  0
CIRCLE
  5
803
330
1F
100
AcDbEntity
  8
0
  6
DASHED
 62
     4
100
AcDbCircle
 10
592.9150876334379
 20
516.6288813602354
 30
10.58873999999982
 40
2.999997758775298
  0
CIRCLE
  5
804
330
1F
100
AcDbEntity
  8
0
  6
DASHED
 62
     4
100
AcDbCircle
 10
608.1550876334374
 20
516.6288813602354
 30
10.58873999999982
 40
2.999997758775298
  0
CIRCLE
  5
805
330
1F
100
AcDbEntity
  8
0
  6
DASHED
 62
     4
100
AcDbCircle
 10
615.7750876334374
 20
516.6288813602354
 30
10.58873999999982
 40
2.999997758775298
  0
CIRCLE
  5
806
330
1F
100
AcDbEntity
  8
0
  6
DASHED
 62
     4
100
AcDbCircle
 10
623.3950876334374
 20
516.6288813602354
 30
10.58873999999982
 40
2.999997758775298
  0
ARC
  5
807
330
1F
100
AcDbEntity
  8
0
  6
Continuous
 62
     7
100
AcDbCircle
 10
1039.706428957827
 20
549.3702175533941
 30
0.0
 40
1.919998565616278
100
AcDbArc
 50
89.99995719571769
 51
180.0000428042919
  0
ARC
  5
808
330
1F
100
AcDbEntity
  8
0
  6
Continuous
 62
     7
100
AcDbCircle
 10
1043.066431826596
 20
549.3702175533941
 30
0.0
 40
1.919998565616193
100
AcDbArc
 50
359.9999571957046
 51
90.00004280427901
  0
LINE
  5
809
330
1F
100
AcDbEntity
  8
0
  6
Continuous
 62
     7
100
AcDbLine
 10
1039.706430392212
 20
551.2902161190102
 30
0.0
 11
1043.066430392212
 21
551.2902161190102
 31
0.0
  0
LINE
  5
80A
330
1F
100
AcDbEntity
  8
0
  6
Continuous
 62
     7
100
AcDbLine
 10
1036.346433392212
 20
548.3702171190101
 30
0.0
 11
1046.426430392212
 21
548.3702171190101
 31
0.0
  0
LINE
  5
80B
330
1F
100
AcDbEntity
  8
0
  6
Continuous
 62
     7
100
AcDbLine
 10
1037.786430392211
 20
549.3702161190099
 30
0.0
 11
1037.786430392211
 21
548.3702171190101
 31
0.0
  0
LINE
  5
80C
330
1F
100
AcDbEntity
  8
0
  6
Continuous
 62
     7
100
AcDbLine
 10
1044.986430392212
 20
549.3702161190099
 30
0.0
 11
1044.986430392212
 21
548.3702171190101
 31
0.0
  0
LINE
  5
80D
330
1F
100
AcDbEntity
  8
0
  6
Continuous
 62
     7
100
AcDbLine
 10
1036.346433392212
 20
548.3702171190101
 30
0.0
 11
1036.346433392212
 21
547.3702181190096
 31
0.0
  0
LINE
  5
80E
330
1F
100
AcDbEntity
  8
0
  6
Continuous
 62
     7
100
AcDbLine
 10
1046.426430392212
 20
548.3702171190101
 30
0.0
 11
1046.426430392212
 21
547.3702181190096
 31
0.0
  0
LINE
  5
80F
330
1F
100
AcDbEntity
  8
0
  6
Continuous
 62
     7
 48
6.0
100
AcDbLine
 10
1035.383208392212
 20
527.4710201190101
 30
0.0
 11
1035.383208392212
 21
528.4694201190101
 31
0.0
  0
LINE
  5
810
330
1F
100
AcDbEntity
  8
0
  6
Continuous
 62
     7
 48
6.0
100
AcDbLine
 10
1035.383208392212
 20
528.4694201190101
 30
0.0
 11
1033.885608392212
 21
528.4694201190101
 31
0.0
  0
LINE
  5
811
330
1F
100
AcDbEntity
  8
0
  6
Continuous
 62
     7
 48
6.0
100
AcDbLine
 10
1033.885608392212
 20
528.4694201190101
 30
0.0
 11
1033.885608392212
 21
529.9670201190101
 31
0.0
  0
LINE
  5
812
330
1F
100
AcDbEntity
  8
0
  6
Continuous
 62
     7
 48
6.0
100
AcDbLine
 10
1033.885608392212
 20
529.9670201190101
 30
0.0
 11
1032.887208392212
 21
529.9670201190101
 31
0.0
  0
LINE
  5
813
330
1F
100
AcDbEntity
  8
0
  6
Continuous
 62
     7
 48
6.0
100
AcDbLine
 10
1032.887208392212
 20
529.9670201190101
 30
0.0
 11
1032.887208392212
 21
528.4694201190101
 31
0.0
  0
LINE
  5
814
330
1F
100
AcDbEntity
  8
0
  6
Continuous
 62
     7
 48
6.0
100
AcDbLine
 10
1032.887208392212
 20
528.4694201190101
 30
0.0
 11
1031.389608392212
 21
528.4694201190101
 31
0.0
  0
LINE
  5
815
330
1F
100
AcDbEntity
  8
0
  6
Continuous
 62
     7
 48
6.0
100
AcDbLine
 10
1031.389608392212
 20
528.4694201190101
 30
0.0
 11
1031.389608392212
 21
527.4710201190101
 31
0.0
  0
LINE
  5
816
330
1F
100
AcDbEntity
  8
0
  6
Continuous
 62
     7
 48
6.0
100
AcDbLine
 10
1031.389608392212
 20
527.4710201190101
 30
0.0
 11
1032.887208392212
 21
527.4710201190101
 31
0.0
  0
LINE
  5
817
330
1F
100
AcDbEntity
  8
0
  6
Continuous
 62
     7
 48
6.0
100
AcDbLine
 10
1032.887208392212
 20
527.4710201190101
 30
0.0
 11
1032.887208392212
 21
525.9734231190101
 31
0.0
  0
LINE
  5
818
330
1F
100
AcDbEntity
  8
0
  6
Continuous
 62
     7
 48
6.0
100
AcDbLine
 10
1032.887208392212
 20
525.9734231190101
 30
0.0
 11
1033.885608392212
 21
525.9734231190101
 31
0.0
  0
LINE
  5
819
330
1F
100
AcDbEntity
  8
0
  6
Continuous
 62
     7
 48
6.0
100
AcDbLine
 10
1033.885608392212
 20
525.9734231190101
 30
0.0
 11
1033.885608392212
 21
527.4710201190101
 31
0.0
  0
LINE
  5
81A
330
1F
100
AcDbEntity
  8
0
  6
Continuous
 62
     7
 48
6.0
100
AcDbLine
 10
1033.885608392212
 20
527.4710201190101
 30
0.0
 11
1035.383208392212
 21
527.4710201190101
 31
0.0
  0
LINE
  5
81B
330
1F
100
AcDbEntity
  8
0
  6
Continuous
 62
     7
 48
6.0
100
AcDbLine
 10
1035.383208392212
 20
527.4710201190101
 30
0.0
 11
1035.383208392212
 21
527.4710201190101
 31
0.0
  0
CIRCLE
  5
81C
330
1F
100
AcDbEntity
  8
0
  6
Continuous
 62
     7
370
     0
100
AcDbCircle
 10
1033.386410629851
 20
527.9702223566497
 30
0.0
 40
2.995197762361396
  0
LINE
  5
81D
330
1F
100
AcDbEntity
  8
0
  6
Continuous
 62
     7
100
AcDbLine
 10
1021.386420392212
 20
546.1702181190097
 30
0.0
 11
1021.386420392212
 21
544.5702161190096
 31
0.0
  0
LINE
  5
81E
330
1F
100
AcDbEntity
  8
0
  6
Continuous
 62
     7
100
AcDbLine
 10
1018.386420392211
 20
547.4702171190101
 30
0.0
 11
1018.386420392211
 21
544.5702161190096
 31
0.0
  0
LINE
  5
81F
330
1F
100
AcDbEntity
  8
0
  6
Continuous
 62
     7
100
AcDbLine
 10
1021.386420392212
 20
544.5702161190096
 30
0.0
 11
1018.386420392211
 21
544.5702161190096
 31
0.0
  0
CIRCLE
  5
820
330
1F
100
AcDbEntity
  8
0
  6
Continuous
 62
     7
370
     0
100
AcDbCircle
 10
1033.38641126098
 20
527.9702229877788
 30
0.0
 40
3.839997131232553
  0
LINE
  5
821
330
1F
100
AcDbEntity
  8
0
  6
Continuous
 62
     7
100
AcDbLine
 10
1018.386420392211
 20
547.4702171190101
 30
0.0
 11
990.1864233922134
 21
547.4702171190101
 31
0.0
  0
ARC
  5
822
330
1F
100
AcDbEntity
  8
0
  6
Continuous
 62
     7
100
AcDbCircle
 10
989.1864214578284
 20
500.7902201846278
 30
0.0
 40
1.919997065617988
100
AcDbArc
 50
179.999912433352
 51
269.9999980419263
  0
ARC
  5
823
330
1F
100
AcDbEntity
  8
0
  6
Continuous
 62
     7
100
AcDbCircle
 10
989.1864214578284
 20
504.1502230533921
 30
0.0
 40
1.919997065617963
100
AcDbArc
 50
90.00000195807361
 51
180.0000875666446
  0
LINE
  5
824
330
1F
100
AcDbEntity
  8
0
  6
Continuous
 62
     7
100
AcDbLine
 10
987.2664243922127
 20
500.7902231190101
 30
0.0
 11
987.2664243922127
 21
504.1502201190101
 31
0.0
  0
LINE
  5
825
330
1F
100
AcDbEntity
  8
0
  6
Continuous
 62
     7
100
AcDbLine
 10
989.1864213922135
 20
498.8702231190101
 30
0.0
 11
990.1864233922134
 21
498.8702231190101
 31
0.0
  0
LINE
  5
826
330
1F
100
AcDbEntity
  8
0
  6
Continuous
 62
     7
100
AcDbLine
 10
989.1864213922135
 20
506.0702201190101
 30
0.0
 11
990.1864233922134
 21
506.0702201190101
 31
0.0
  0
LINE
  5
827
330
1F
100
AcDbEntity
  8
0
  6
Continuous
 62
     7
 48
6.0
100
AcDbLine
 10
1035.383205392212
 20
407.4710321190101
 30
0.0
 11
1035.383205392212
 21
408.4694321190101
 31
0.0
  0
LINE
  5
828
330
1F
100
AcDbEntity
  8
0
  6
Continuous
 62
     7
 48
6.0
100
AcDbLine
 10
1035.383205392212
 20
408.4694321190101
 30
0.0
 11
1033.885605392212
 21
408.4694321190101
 31
0.0
  0
LINE
  5
829
330
1F
100
AcDbEntity
  8
0
  6
Continuous
 62
     7
 48
6.0
100
AcDbLine
 10
1033.885605392212
 20
408.4694321190101
 30
0.0
 11
1033.885605392212
 21
409.9670321190101
 31
0.0
  0
LINE
  5
82A
330
1F
100
AcDbEntity
  8
0
  6
Continuous
 62
     7
 48
6.0
100
AcDbLine
 10
1033.885605392212
 20
409.9670321190101
 30
0.0
 11
1032.887205392212
 21
409.9670321190101
 31
0.0
  0
LINE
  5
82B
330
1F
100
AcDbEntity
  8
0
  6
Continuous
 62
     7
 48
6.0
100
AcDbLine
 10
1032.887205392212
 20
409.9670321190101
 30
0.0
 11
1032.887205392212
 21
408.4694321190101
 31
0.0
  0
LINE
  5
82C
330
1F
100
AcDbEntity
  8
0
  6
Continuous
 62
     7
 48
6.0
100
AcDbLine
 10
1032.887205392212
 20
408.4694321190101
 30
0.0
 11
1031.389605392212
 21
408.4694321190101
 31
0.0
  0
LINE
  5
82D
330
1F
100
AcDbEntity
  8
0
  6
Continuous
 62
     7
 48
6.0
100
AcDbLine
 10
1031.389605392212
 20
408.4694321190101
 30
0.0
 11
1031.389605392212
 21
407.4710321190101
 31
0.0
  0
LINE
  5
82E
330
1F
100
AcDbEntity
  8
0
  6
Continuous
 62
     7
 48
6.0
100
AcDbLine
 10
1031.389605392212
 20
407.4710321190101
 30
0.0
 11
1032.887205392212
 21
407.4710321190101
 31
0.0
  0
LINE
  5
82F
330
1F
100
AcDbEntity
  8
0
  6
Continuous
 62
     7
 48
6.0
100
AcDbLine
 10
1032.887205392212
 20
407.4710321190101
 30
0.0
 11
1032.887205392212
 21
405.97343211901
 31
0.0
  0
LINE
  5
830
330
1F
100
AcDbEntity
  8
0
  6
Continuous
 62
     7
 48
6.0
100
AcDbLine
 10
1032.887205392212
 20
405.97343211901
 30
0.0
 11
1033.885605392212
 21
405.97343211901
 31
0.0
  0
LINE
  5
831
330
1F
100
AcDbEntity
  8
0
  6
Continuous
 62
     7
 48
6.0
100
AcDbLine
 10
1033.885605392212
 20
405.97343211901
 30
0.0
 11
1033.885605392212
 21
407.4710321190101
 31
0.0
  0
LINE
  5
832
330
1F
100
AcDbEntity
  8
0
  6
Continuous
 62
     7
 48
6.0
100
AcDbLine
 10
1033.885605392212
 20
407.4710321190101
 30
0.0
 11
1035.383205392212
 21
407.4710321190101
 31
0.0
  0
LINE
  5
833
330
1F
100
AcDbEntity
  8
0
  6
Continuous
 62
     7
 48
6.0
100
AcDbLine
 10
1035.383205392212
 20
407.4710321190101
 30
0.0
 11
1035.383205392212
 21
407.4710321190101
 31
0.0
  0
ARC
  5
834
330
1F
100
AcDbEntity
  8
0
  6
Continuous
 62
     7
100
AcDbCircle
 10
1035.520546797846
 20
414.836087713375
 30
0.0
 40
2.134141405635344
100
AcDbArc
 50
89.99995719571442
 51
180.0000428042919
  0
ARC
  5
835
330
1F
100
AcDbEntity
  8
0
  6
Continuous
 62
     7
100
AcDbCircle
 10
1035.520548665762
 20
414.8360858454601
 30
0.0
 40
2.134143273550209
100
AcDbArc
 50
179.9999926559488
 51
90.00000734405771
  0
LINE
  5
836
330
1F
100
AcDbEntity
  8
0
  6
Continuous
 62
     7
100
AcDbLine
 10
1035.520548392212
 20
416.9702291190103
 30
0.0
 11
1035.520548392212
 21
416.9702291190103
 31
0.0
  0
CIRCLE
  5
837
330
1F
100
AcDbEntity
  8
0
  6
Continuous
 62
     7
370
     0
100
AcDbCircle
 10
1033.386407629852
 20
407.9702343566496
 30
0.0
 40
2.995197762361396
  0
CIRCLE
  5
838
330
1F
100
AcDbEntity
  8
0
  6
Continuous
 62
     7
370
     0
100
AcDbCircle
 10
1033.38640826098
 20
407.9702349877786
 30
0.0
 40
3.839997131232553
  0
ARC
  5
839
330
1F
100
AcDbEntity
  8
0
  6
Continuous
 62
     7
100
AcDbCircle
 10
782.2864503688125
 20
569.4702220956096
 30
0.0
 40
7.999992023402382
100
AcDbArc
 50
359.9999571957143
 51
90.00004280428878
  0
LINE
  5
83A
330
1F
100
AcDbEntity
  8
0
  6
Continuous
 62
     7
100
AcDbLine
 10
778.8464433922131
 20
548.4702161190097
 30
0.0
 11
778.8464433922131
 21
547.4702171190101
 31
0.0
  0
ARC
  5
83B
330
1F
100
AcDbEntity
  8
0
  6
Continuous
 62
     7
100
AcDbCircle
 10
793.8864438265974
 20
529.6502245533944
 30
0.0
 40
1.919998565616278
100
AcDbArc
 50
359.9999571957177
 51
90.00004280429207
  0
ARC
  5
83C
330
1F
100
AcDbEntity
  8
0
  6
Continuous
 62
     7
100
AcDbCircle
 10
793.8864438265974
 20
526.2902216846257
 30
0.0
 40
1.919998565616278
100
AcDbArc
 50
269.9999571957079
 51
0.000042804282295
  0
LINE
  5
83D
330
1F
100
AcDbEntity
  8
0
  6
Continuous
 62
     7
100
AcDbLine
 10
795.8064423922126
 20
529.6502231190101
 30
0.0
 11
795.8064423922126
 21
526.2902231190102
 31
0.0
  0
LINE
  5
83E
330
1F
100
AcDbEntity
  8
0
  6
Continuous
 62
     7
100
AcDbLine
 10
792.8864433922134
 20
533.0102201190101
 30
0.0
 11
792.8864433922134
 21
522.9302201190101
 31
0.0
  0
LINE
  5
83F
330
1F
100
AcDbEntity
  8
0
  6
Continuous
 62
     7
100
AcDbLine
 10
793.8864423922129
 20
531.5702231190101
 30
0.0
 11
792.8864433922134
 21
531.5702231190101
 31
0.0
  0
LINE
  5
840
330
1F
100
AcDbEntity
  8
0
  6
Continuous
 62
     7
100
AcDbLine
 10
793.8864423922129
 20
524.3702231190101
 30
0.0
 11
792.8864433922134
 21
524.3702231190101
 31
0.0
  0
LINE
  5
841
330
1F
100
AcDbEntity
  8
0
  6
Continuous
 62
     7
100
AcDbLine
 10
792.8864433922134
 20
533.0102201190101
 30
0.0
 11
791.8864413922133
 21
533.0102201190101
 31
0.0
  0
LINE
  5
842
330
1F
100
AcDbEntity
  8
0
  6
Continuous
 62
     7
100
AcDbLine
 10
792.8864433922134
 20
522.9302201190101
 30
0.0
 11
791.8864413922133
 21
522.9302201190101
 31
0.0
  0
ARC
  5
843
330
1F
100
AcDbEntity
  8
0
  6
Continuous
 62
     7
100
AcDbCircle
 10
783.8864433922134
 20
538.4702197486801
 30
0.0
 40
4.999999870329792
100
AcDbArc
 50
296.7436846991601
 51
243.2563153008398
  0
ARC
  5
844
330
1F
100
AcDbEntity
  8
0
  6
Continuous
 62
     7
100
AcDbCircle
 10
789.8864433863632
 20
545.4702191131591
 30
0.0
 40
1.99999800585115
100
AcDbArc
 50
359.9999142238651
 51
89.99999983243963
  0
LINE
  5
845
330
1F
100
AcDbEntity
  8
0
  6
Continuous
 62
     7
100
AcDbLine
 10
788.926443392213
 20
547.4702171190101
 30
0.0
 11
778.8464433922131
 21
547.4702171190101
 31
0.0
  0
ARC
  5
846
330
1F
100
AcDbEntity
  8
0
  6
Continuous
 62
     7
100
AcDbCircle
 10
785.5664448265967
 20
549.4702195533938
 30
0.0
 40
1.919998565616278
100
AcDbArc
 50
359.9999571957177
 51
90.00004280429207
  0
ARC
  5
847
330
1F
100
AcDbEntity
  8
0
  6
Continuous
 62
     7
100
AcDbCircle
 10
782.2064419578282
 20
549.4702195533943
 30
0.0
 40
1.919998565616193
100
AcDbArc
 50
89.99995719571119
 51
180.0000428042855
  0
LINE
  5
848
330
1F
100
AcDbEntity
  8
0
  6
Continuous
 62
     7
100
AcDbLine
 10
785.5664433922127
 20
551.3902181190092
 30
0.0
 11
782.2064433922131
 21
551.3902181190092
 31
0.0
  0
LINE
  5
849
330
1F
100
AcDbEntity
  8
0
  6
Continuous
 62
     7
100
AcDbLine
 10
788.926443392213
 20
548.4702161190097
 30
0.0
 11
778.8464433922131
 21
548.4702161190097
 31
0.0
  0
LINE
  5
84A
330
1F
100
AcDbEntity
  8
0
  6
Continuous
 62
     7
100
AcDbLine
 10
787.4864433922132
 20
549.4702181190098
 30
0.0
 11
787.4864433922132
 21
548.4702161190097
 31
0.0
  0
LINE
  5
84B
330
1F
100
AcDbEntity
  8
0
  6
Continuous
 62
     7
100
AcDbLine
 10
780.2864433922133
 20
549.4702181190098
 30
0.0
 11
780.2864433922133
 21
548.4702161190097
 31
0.0
  0
LINE
  5
84C
330
1F
100
AcDbEntity
  8
0
  6
Continuous
 62
     7
100
AcDbLine
 10
788.926443392213
 20
548.4702161190097
 30
0.0
 11
788.926443392213
 21
547.4702171190101
 31
0.0
  0
LINE
  5
84D
330
1F
100
AcDbEntity
  8
0
  6
Continuous
 62
     7
100
AcDbLine
 10
790.2864423922133
 20
569.4702161190101
 30
0.0
 11
790.2864423922133
 21
547.4702171190101
 31
0.0
  0
ARC
  5
84E
330
1F
100
AcDbEntity
  8
0
  6
Continuous
 62
     7
100
AcDbCircle
 10
711.8864493922134
 20
565.4702141190101
 30
0.0
 40
4.5
100
AcDbArc
 50
0.0
 51
180.0
  0
LINE
  5
84F
330
1F
100
AcDbEntity
  8
0
  6
Continuous
 62
     7
100
AcDbLine
 10
716.3864493922134
 20
565.4702141190101
 30
0.0
 11
716.3864493922134
 21
564.2644451190102
 31
0.0
  0
LINE
  5
850
330
1F
100
AcDbEntity
  8
0
  6
Continuous
 62
     7
100
AcDbLine
 10
707.3864493922134
 20
565.4702141190101
 30
0.0
 11
707.3864493922134
 21
564.2644451190102
 31
0.0
  0
ARC
  5
851
330
1F
100
AcDbEntity
  8
0
  6
Continuous
 62
     7
100
AcDbCircle
 10
711.8864493922134
 20
556.4702160208939
 30
0.0
 40
9.00000040188426
100
AcDbArc
 50
119.9999985228639
 51
60.00000147713606
  0
ARC
  5
852
330
1F
100
AcDbEntity
  8
0
  6
Continuous
 62
     7
100
AcDbCircle
 10
793.8864438265974
 20
504.1502275533946
 30
0.0
 40
1.91999856561636
100
AcDbArc
 50
359.9999571957112
 51
90.00004280429207
  0
ARC
  5
853
330
1F
100
AcDbEntity
  8
0
  6
Continuous
 62
     7
100
AcDbCircle
 10
793.8864438265974
 20
500.7902246846255
 30
0.0
 40
1.919998565616278
100
AcDbArc
 50
269.9999571957079
 51
0.000042804282295
  0
LINE
  5
854
330
1F
100
AcDbEntity
  8
0
  6
Continuous
 62
     7
100
AcDbLine
 10
795.8064423922126
 20
504.1502261190101
 30
0.0
 11
795.8064423922126
 21
500.7902261190102
 31
0.0
  0
LINE
  5
855
330
1F
100
AcDbEntity
  8
0
  6
Continuous
 62
     7
100
AcDbLine
 10
792.8864433922134
 20
507.5102231190101
 30
0.0
 11
792.8864433922134
 21
497.4302231190101
 31
0.0
  0
LINE
  5
856
330
1F
100
AcDbEntity
  8
0
  6
Continuous
 62
     7
100
AcDbLine
 10
793.8864423922129
 20
506.0702261190104
 30
0.0
 11
792.8864433922134
 21
506.0702261190104
 31
0.0
  0
LINE
  5
857
330
1F
100
AcDbEntity
  8
0
  6
Continuous
 62
     7
100
AcDbLine
 10
793.8864423922129
 20
498.8702261190101
 30
0.0
 11
792.8864433922134
 21
498.8702261190101
 31
0.0
  0
LINE
  5
858
330
1F
100
AcDbEntity
  8
0
  6
Continuous
 62
     7
100
AcDbLine
 10
792.8864433922134
 20
507.5102231190101
 30
0.0
 11
791.8864413922133
 21
507.5102231190101
 31
0.0
  0
LINE
  5
859
330
1F
100
AcDbEntity
  8
0
  6
Continuous
 62
     7
100
AcDbLine
 10
792.8864433922134
 20
497.4302231190101
 30
0.0
 11
791.8864413922133
 21
497.4302231190101
 31
0.0
  0
LINE
  5
85A
330
1F
100
AcDbEntity
  8
0
  6
Continuous
 62
     7
 48
6.0
100
AcDbLine
 10
786.2864463922132
 20
501.8702231190101
 30
0.0
 11
786.2864463922132
 21
503.0702201190098
 31
0.0
  0
LINE
  5
85B
330
1F
100
AcDbEntity
  8
0
  6
Continuous
 62
     7
 48
6.0
100
AcDbLine
 10
786.2864463922132
 20
503.0702201190098
 30
0.0
 11
784.4864463922131
 21
503.0702201190098
 31
0.0
  0
LINE
  5
85C
330
1F
100
AcDbEntity
  8
0
  6
Continuous
 62
     7
 48
6.0
100
AcDbLine
 10
784.4864463922131
 20
503.0702201190098
 30
0.0
 11
784.4864463922131
 21
504.8702201190102
 31
0.0
  0
LINE
  5
85D
330
1F
100
AcDbEntity
  8
0
  6
Continuous
 62
     7
 48
6.0
100
AcDbLine
 10
784.4864463922131
 20
504.8702201190102
 30
0.0
 11
783.2864463922133
 21
504.8702201190102
 31
0.0
  0
LINE
  5
85E
330
1F
100
AcDbEntity
  8
0
  6
Continuous
 62
     7
 48
6.0
100
AcDbLine
 10
783.2864463922133
 20
504.8702201190102
 30
0.0
 11
783.2864463922133
 21
503.0702201190098
 31
0.0
  0
LINE
  5
85F
330
1F
100
AcDbEntity
  8
0
  6
Continuous
 62
     7
 48
6.0
100
AcDbLine
 10
783.2864463922133
 20
503.0702201190098
 30
0.0
 11
781.486446392213
 21
503.0702201190098
 31
0.0
  0
LINE
  5
860
330
1F
100
AcDbEntity
  8
0
  6
Continuous
 62
     7
 48
6.0
100
AcDbLine
 10
781.486446392213
 20
503.0702201190098
 30
0.0
 11
781.486446392213
 21
501.8702231190101
 31
0.0
  0
LINE
  5
861
330
1F
100
AcDbEntity
  8
0
  6
Continuous
 62
     7
 48
6.0
100
AcDbLine
 10
781.486446392213
 20
501.8702231190101
 30
0.0
 11
783.2864463922133
 21
501.8702231190101
 31
0.0
  0
LINE
  5
862
330
1F
100
AcDbEntity
  8
0
  6
Continuous
 62
     7
 48
6.0
100
AcDbLine
 10
783.2864463922133
 20
501.8702231190101
 30
0.0
 11
783.2864463922133
 21
500.0702231190096
 31
0.0
  0
LINE
  5
863
330
1F
100
AcDbEntity
  8
0
  6
Continuous
 62
     7
 48
6.0
100
AcDbLine
 10
783.2864463922133
 20
500.0702231190096
 30
0.0
 11
784.4864463922131
 21
500.0702231190096
 31
0.0
  0
LINE
  5
864
330
1F
100
AcDbEntity
  8
0
  6
Continuous
 62
     7
 48
6.0
100
AcDbLine
 10
784.4864463922131
 20
500.0702231190096
 30
0.0
 11
784.4864463922131
 21
501.8702231190101
 31
0.0
  0
LINE
  5
865
330
1F
100
AcDbEntity
  8
0
  6
Continuous
 62
     7
 48
6.0
100
AcDbLine
 10
784.4864463922131
 20
501.8702231190101
 30
0.0
 11
786.2864463922132
 21
501.8702231190101
 31
0.0
  0
LINE
  5
866
330
1F
100
AcDbEntity
  8
0
  6
Continuous
 62
     7
 48
6.0
100
AcDbLine
 10
786.2864463922132
 20
501.8702231190101
 30
0.0
 11
786.2864463922132
 21
501.8702231190101
 31
0.0
  0
CIRCLE
  5
867
330
1F
100
AcDbEntity
  8
0
  6
Continuous
 62
     7
370
     0
100
AcDbCircle
 10
783.8864460816838
 20
502.4702228084803
 30
0.0
 40
3.599997310530261
  0
ARC
  5
868
330
1F
100
AcDbEntity
  8
0
  6
Continuous
 62
     7
100
AcDbCircle
 10
783.8864433922134
 20
451.4702261190094
 30
0.0
 40
2.25
100
AcDbArc
 50
180.0
 51
0.0
  0
LINE
  5
869
330
1F
100
AcDbEntity
  8
0
  6
Continuous
 62
     7
100
AcDbLine
 10
786.1364433922134
 20
451.4702261190094
 30
0.0
 11
786.1364433922134
 21
499.6599701190096
 31
0.0
  0
LINE
  5
86A
330
1F
100
AcDbEntity
  8
0
  6
Continuous
 62
     7
100
AcDbLine
 10
781.6364433922134
 20
451.4702261190094
 30
0.0
 11
781.6364433922134
 21
499.6599731190094
 31
0.0
  0
ARC
  5
86B
330
1F
100
AcDbEntity
  8
0
  6
Continuous
 62
     7
100
AcDbCircle
 10
793.8864438265974
 20
409.650236553394
 30
0.0
 40
1.919998565616193
100
AcDbArc
 50
359.9999571957209
 51
90.00004280429529
  0
LINE
  5
86C
330
1F
100
AcDbEntity
  8
0
  6
Continuous
 62
     7
100
AcDbLine
 10
795.8064423922126
 20
409.6502351190101
 30
0.0
 11
795.8064423922126
 21
406.2902351190102
 31
0.0
  0
LINE
  5
86D
330
1F
100
AcDbEntity
  8
0
  6
Continuous
 62
     7
100
AcDbLine
 10
793.8864423922129
 20
411.5702351190101
 30
0.0
 11
792.8864433922134
 21
411.5702351190101
 31
0.0
  0
LINE
  5
86E
330
1F
100
AcDbEntity
  8
0
  6
Continuous
 62
     7
100
AcDbLine
 10
792.8864433922134
 20
413.0102321190101
 30
0.0
 11
791.8864413922133
 21
413.0102321190101
 31
0.0
  0
LINE
  5
86F
330
1F
100
AcDbEntity
  8
0
  6
Continuous
 62
     7
100
AcDbLine
 10
793.8864423922129
 20
404.3702351190101
 30
0.0
 11
792.8864433922134
 21
404.3702351190101
 31
0.0
  0
LINE
  5
870
330
1F
100
AcDbEntity
  8
0
  6
Continuous
 62
     7
100
AcDbLine
 10
792.8864433922134
 20
402.9302321190101
 30
0.0
 11
791.8864413922133
 21
402.9302321190101
 31
0.0
  0
ARC
  5
871
330
1F
100
AcDbEntity
  8
0
  6
Continuous
 62
     7
100
AcDbCircle
 10
793.8864438265974
 20
406.2902336846256
 30
0.0
 40
1.919998565616278
100
AcDbArc
 50
269.9999571957046
 51
0.0000428042757813
  0
LINE
  5
872
330
1F
100
AcDbEntity
  8
0
  6
Continuous
 62
     7
100
AcDbLine
 10
792.8864433922134
 20
413.0102321190101
 30
0.0
 11
792.8864433922134
 21
402.9302321190101
 31
0.0
  0
LINE
  5
879
330
1F
100
AcDbEntity
  8
0
  6
Continuous
 62
     7
100
AcDbLine
 10
786.1364433922134
 20
505.2804701190101
 30
0.0
 11
786.1364433922134
 21
534.0050771190101
 31
0.0
  0
LINE
  5
87A
330
1F
100
AcDbEntity
  8
0
  6
Continuous
 62
     7
100
AcDbLine
 10
781.6364433922134
 20
505.2804701190101
 30
0.0
 11
781.6364433922134
 21
534.0050771190101
 31
0.0
  0
ARC
  5
87B
330
1F
100
AcDbEntity
  8
0
  6
Continuous
 62
     7
100
AcDbCircle
 10
989.1864214578284
 20
320.7902381846281
 30
0.0
 40
1.919997065618074
100
AcDbArc
 50
179.999912433352
 51
269.9999980419263
  0
ARC
  5
87C
330
1F
100
AcDbEntity
  8
0
  6
Continuous
 62
     7
100
AcDbCircle
 10
989.1864214578284
 20
324.1502410533921
 30
0.0
 40
1.919997065617963
100
AcDbArc
 50
90.00000195807361
 51
180.0000875666446
  0
LINE
  5
87D
330
1F
100
AcDbEntity
  8
0
  6
Continuous
 62
     7
100
AcDbLine
 10
987.2664243922127
 20
320.7902411190101
 30
0.0
 11
987.2664243922127
 21
324.1502381190102
 31
0.0
  0
LINE
  5
87E
330
1F
100
AcDbEntity
  8
0
  6
Continuous
 62
     7
100
AcDbLine
 10
989.1864213922135
 20
318.8702411190098
 30
0.0
 11
990.1864233922134
 21
318.8702411190098
 31
0.0
  0
LINE
  5
87F
330
1F
100
AcDbEntity
  8
0
  6
Continuous
 62
     7
100
AcDbLine
 10
989.1864213922135
 20
326.0702381190103
 30
0.0
 11
990.1864233922134
 21
326.0702381190103
 31
0.0
  0
LINE
  5
880
330
1F
100
AcDbEntity
  8
0
  6
Continuous
 62
     7
100
AcDbLine
 10
1021.386420392212
 20
280.3702451190103
 30
0.0
 11
1018.386420392211
 21
280.3702451190103
 31
0.0
  0
LINE
  5
881
330
1F
100
AcDbEntity
  8
0
  6
Continuous
 62
     7
100
AcDbLine
 10
1018.386420392211
 20
277.4702441190098
 30
0.0
 11
1018.386420392211
 21
280.3702451190103
 31
0.0
  0
LINE
  5
882
330
1F
100
AcDbEntity
  8
0
  6
Continuous
 62
     7
100
AcDbLine
 10
1021.386420392212
 20
278.7702431190101
 30
0.0
 11
1021.386420392212
 21
280.3702451190103
 31
0.0
  0
LINE
  5
883
330
1F
100
AcDbEntity
  8
0
  6
Continuous
 62
     7
100
AcDbLine
 10
1018.386420392211
 20
277.4702441190098
 30
0.0
 11
990.1864233922134
 21
277.4702441190098
 31
0.0
  0
ARC
  5
884
330
1F
100
AcDbEntity
  8
0
  6
Continuous
 62
     7
100
AcDbCircle
 10
793.8864438265974
 20
324.1502425533943
 30
0.0
 40
1.919998565616278
100
AcDbArc
 50
359.9999571957177
 51
90.00004280429207
  0
ARC
  5
885
330
1F
100
AcDbEntity
  8
0
  6
Continuous
 62
     7
100
AcDbCircle
 10
793.8864438265974
 20
320.7902426846255
 30
0.0
 40
1.91999856561636
100
AcDbArc
 50
269.9999571957079
 51
0.000042804282295
  0
LINE
  5
886
330
1F
100
AcDbEntity
  8
0
  6
Continuous
 62
     7
100
AcDbLine
 10
795.8064423922126
 20
324.1502411190101
 30
0.0
 11
795.8064423922126
 21
320.7902441190103
 31
0.0
  0
LINE
  5
887
330
1F
100
AcDbEntity
  8
0
  6
Continuous
 62
     7
100
AcDbLine
 10
792.8864433922134
 20
327.5102411190101
 30
0.0
 11
792.8864433922134
 21
317.4302411190103
 31
0.0
  0
LINE
  5
888
330
1F
100
AcDbEntity
  8
0
  6
Continuous
 62
     7
100
AcDbLine
 10
793.8864423922129
 20
326.0702411190101
 30
0.0
 11
792.8864433922134
 21
326.0702411190101
 31
0.0
  0
LINE
  5
889
330
1F
100
AcDbEntity
  8
0
  6
Continuous
 62
     7
100
AcDbLine
 10
793.8864423922129
 20
318.8702441190101
 30
0.0
 11
792.8864433922134
 21
318.8702441190101
 31
0.0
  0
LINE
  5
88A
330
1F
100
AcDbEntity
  8
0
  6
Continuous
 62
     7
100
AcDbLine
 10
792.8864433922134
 20
327.5102411190101
 30
0.0
 11
791.8864413922133
 21
327.5102411190101
 31
0.0
  0
LINE
  5
88B
330
1F
100
AcDbEntity
  8
0
  6
Continuous
 62
     7
100
AcDbLine
 10
792.8864433922134
 20
317.4302411190103
 30
0.0
 11
791.8864413922133
 21
317.4302411190103
 31
0.0
  0
LINE
  5
88C
330
1F
100
AcDbEntity
  8
0
  6
Continuous
 62
     7
100
AcDbLine
 10
792.8864433922134
 20
302.5102541190103
 30
0.0
 11
791.8864413922133
 21
302.5102541190103
 31
0.0
  0
LINE
  5
88D
330
1F
100
AcDbEntity
  8
0
  6
Continuous
 62
     7
100
AcDbLine
 10
793.8864423922129
 20
293.8702571190103
 30
0.0
 11
792.8864433922134
 21
293.8702571190103
 31
0.0
  0
LINE
  5
88E
330
1F
100
AcDbEntity
  8
0
  6
Continuous
 62
     7
100
AcDbLine
 10
793.8864423922129
 20
301.0702571190102
 30
0.0
 11
792.8864433922134
 21
301.0702571190102
 31
0.0
  0
LINE
  5
88F
330
1F
100
AcDbEntity
  8
0
  6
Continuous
 62
     7
100
AcDbLine
 10
795.8064423922126
 20
299.1502571190101
 30
0.0
 11
795.8064423922126
 21
295.7902571190103
 31
0.0
  0
ARC
  5
890
330
1F
100
AcDbEntity
  8
0
  6
Continuous
 62
     7
100
AcDbCircle
 10
793.8864438265974
 20
299.150258553394
 30
0.0
 40
1.919998565616278
100
AcDbArc
 50
359.9999571957177
 51
90.00004280429207
  0
ARC
  5
891
330
1F
100
AcDbEntity
  8
0
  6
Continuous
 62
     7
100
AcDbCircle
 10
783.8864438968535
 20
316.4702407753607
 30
0.0
 40
4.999999867066358
100
AcDbArc
 50
126.8062053223102
 51
53.19385205859409
  0
LINE
  5
892
330
1F
100
AcDbEntity
  8
0
  6
Continuous
 62
     7
 48
6.0
100
AcDbLine
 10
786.2864433922127
 20
321.8702441190103
 30
0.0
 11
786.2864433922127
 21
323.0702411190101
 31
0.0
  0
LINE
  5
893
330
1F
100
AcDbEntity
  8
0
  6
Continuous
 62
     7
 48
6.0
100
AcDbLine
 10
786.2864433922127
 20
323.0702411190101
 30
0.0
 11
784.4864433922131
 21
323.0702411190101
 31
0.0
  0
LINE
  5
894
330
1F
100
AcDbEntity
  8
0
  6
Continuous
 62
     7
 48
6.0
100
AcDbLine
 10
784.4864433922131
 20
323.0702411190101
 30
0.0
 11
784.4864433922131
 21
324.8702411190098
 31
0.0
  0
LINE
  5
895
330
1F
100
AcDbEntity
  8
0
  6
Continuous
 62
     7
 48
6.0
100
AcDbLine
 10
784.4864433922131
 20
324.8702411190098
 30
0.0
 11
783.286443392213
 21
324.8702411190098
 31
0.0
  0
LINE
  5
896
330
1F
100
AcDbEntity
  8
0
  6
Continuous
 62
     7
 48
6.0
100
AcDbLine
 10
783.286443392213
 20
324.8702411190098
 30
0.0
 11
783.286443392213
 21
323.0702411190101
 31
0.0
  0
LINE
  5
897
330
1F
100
AcDbEntity
  8
0
  6
Continuous
 62
     7
 48
6.0
100
AcDbLine
 10
783.286443392213
 20
323.0702411190101
 30
0.0
 11
781.4864433922131
 21
323.0702411190101
 31
0.0
  0
LINE
  5
898
330
1F
100
AcDbEntity
  8
0
  6
Continuous
 62
     7
 48
6.0
100
AcDbLine
 10
781.4864433922131
 20
323.0702411190101
 30
0.0
 11
781.4864433922131
 21
321.8702441190103
 31
0.0
  0
LINE
  5
899
330
1F
100
AcDbEntity
  8
0
  6
Continuous
 62
     7
 48
6.0
100
AcDbLine
 10
781.4864433922131
 20
321.8702441190103
 30
0.0
 11
783.286443392213
 21
321.8702441190103
 31
0.0
  0
LINE
  5
89A
330
1F
100
AcDbEntity
  8
0
  6
Continuous
 62
     7
 48
6.0
100
AcDbLine
 10
783.286443392213
 20
321.8702441190103
 30
0.0
 11
783.286443392213
 21
320.0702441190104
 31
0.0
  0
LINE
  5
89B
330
1F
100
AcDbEntity
  8
0
  6
Continuous
 62
     7
 48
6.0
100
AcDbLine
 10
783.286443392213
 20
320.0702441190104
 30
0.0
 11
784.4864433922131
 21
320.0702441190104
 31
0.0
  0
LINE
  5
89C
330
1F
100
AcDbEntity
  8
0
  6
Continuous
 62
     7
 48
6.0
100
AcDbLine
 10
784.4864433922131
 20
320.0702441190104
 30
0.0
 11
784.4864433922131
 21
321.8702441190103
 31
0.0
  0
LINE
  5
89D
330
1F
100
AcDbEntity
  8
0
  6
Continuous
 62
     7
 48
6.0
100
AcDbLine
 10
784.4864433922131
 20
321.8702441190103
 30
0.0
 11
786.2864433922127
 21
321.8702441190103
 31
0.0
  0
LINE
  5
89E
330
1F
100
AcDbEntity
  8
0
  6
Continuous
 62
     7
 48
6.0
100
AcDbLine
 10
786.2864433922127
 20
321.8702441190103
 30
0.0
 11
786.2864433922127
 21
321.8702441190103
 31
0.0
  0
CIRCLE
  5
89F
330
1F
100
AcDbEntity
  8
0
  6
Continuous
 62
     7
370
     0
100
AcDbCircle
 10
783.8864430816836
 20
322.4702438084805
 30
0.0
 40
3.599997310530516
  0
LINE
  5
8A0
330
1F
100
AcDbEntity
  8
0
  6
Continuous
 62
     7
100
AcDbLine
 10
792.8864433922134
 20
292.4302571190103
 30
0.0
 11
791.8864413922133
 21
292.4302571190103
 31
0.0
  0
LINE
  5
8A1
330
1F
100
AcDbEntity
  8
0
  6
Continuous
 62
     7
100
AcDbLine
 10
790.2864423922133
 20
277.4702441190098
 30
0.0
 11
790.2864423922133
 21
260.4702461190103
 31
0.0
  0
LINE
  5
8A2
330
1F
100
AcDbEntity
  8
0
  6
Continuous
 62
     7
100
AcDbLine
 10
786.3864423922126
 20
277.4702441190098
 30
0.0
 11
789.8864433922136
 21
277.4702441190098
 31
0.0
  0
LINE
  5
8A3
330
1F
100
AcDbEntity
  8
0
  6
Continuous
 62
     7
100
AcDbLine
 10
777.8864433922134
 20
277.4702441190098
 30
0.0
 11
777.8864433922134
 21
278.6702441190099
 31
0.0
  0
LINE
  5
8A4
330
1F
100
AcDbEntity
  8
0
  6
Continuous
 62
     7
100
AcDbLine
 10
779.8864443922131
 20
277.4702441190098
 30
0.0
 11
779.8864443922131
 21
278.6702441190099
 31
0.0
  0
LINE
  5
8A5
330
1F
100
AcDbEntity
  8
0
  6
Continuous
 62
     7
100
AcDbLine
 10
779.8864443922131
 20
277.4702441190098
 30
0.0
 11
781.3864443922126
 21
277.4702441190098
 31
0.0
  0
LINE
  5
8A6
330
1F
100
AcDbEntity
  8
0
  6
Continuous
 62
     7
100
AcDbLine
 10
777.8864433922134
 20
278.6702441190099
 30
0.0
 11
779.8864443922131
 21
278.6702441190099
 31
0.0
  0
ARC
  5
8A7
330
1F
100
AcDbEntity
  8
0
  6
Continuous
 62
     7
100
AcDbCircle
 10
789.8864433863632
 20
279.4702421248611
 30
0.0
 40
1.999998005851125
100
AcDbArc
 50
270.0000001675602
 51
0.0000857761314774
  0
ARC
  5
8A8
330
1F
100
AcDbEntity
  8
0
  6
Continuous
 62
     7
100
AcDbCircle
 10
783.886443392212
 20
277.4702441190098
 30
0.0
 40
2.499999000000029
100
AcDbArc
 50
0.0
 51
180.0
  0
LINE
  5
8A9
330
1F
100
AcDbEntity
  8
0
  6
DASHED
 62
     4
 48
6.0
100
AcDbLine
 10
764.3864433922134
 20
283.4702441190103
 30
0.0
 11
766.3864443922133
 21
285.4702421190097
 31
0.0
  0
ARC
  5
8AA
330
1F
100
AcDbEntity
  8
0
  6
Continuous
 62
     7
100
AcDbCircle
 10
782.2864503688125
 20
260.4702401424102
 30
0.0
 40
7.999992023402469
100
AcDbArc
 50
269.9999571957111
 51
0.0000428042855519
  0
LINE
  5
8AB
330
1F
100
AcDbEntity
  8
0
  6
Continuous
 62
     7
100
AcDbLine
 10
792.8864433922134
 20
302.5102541190103
 30
0.0
 11
792.8864433922134
 21
292.4302571190103
 31
0.0
  0
ARC
  5
8AC
330
1F
100
AcDbEntity
  8
0
  6
Continuous
 62
     7
100
AcDbCircle
 10
793.8864438265974
 20
295.7902556846261
 30
0.0
 40
1.91999856561636
100
AcDbArc
 50
269.9999571957079
 51
0.000042804282295
  0
LINE
  5
8AD
330
1F
100
AcDbEntity
  8
0
  6
DASHED
 62
     4
 48
6.0
100
AcDbLine
 10
766.3864443922133
 20
285.4702421190097
 30
0.0
 11
766.3864443922133
 21
316.3623161190102
 31
0.0
  0
LINE
  5
8AE
330
1F
100
AcDbEntity
  8
0
  6
DASHED
 62
     4
 48
6.0
100
AcDbLine
 10
741.3864453922133
 20
285.4702421190097
 30
0.0
 11
743.3864463922126
 21
283.4702441190103
 31
0.0
  0
ARC
  5
8AF
330
1F
100
AcDbEntity
  8
0
  6
Continuous
 62
     7
100
AcDbCircle
 10
711.8864493922134
 20
265.4702441190098
 30
0.0
 40
4.5
100
AcDbArc
 50
0.0
 51
180.0
  0
ARC
  5
8B0
330
1F
100
AcDbEntity
  8
0
  6
Continuous
 62
     7
100
AcDbCircle
 10
705.386452886362
 20
254.4702446248606
 30
0.0
 40
1.999996505851686
100
AcDbArc
 50
269.9999571957144
 51
0.0000428042888088
  0
ARC
  5
8B1
330
1F
100
AcDbEntity
  8
0
  6
Continuous
 62
     7
100
AcDbCircle
 10
718.3864473980641
 20
254.4702461248586
 30
0.0
 40
1.999998005851125
100
AcDbArc
 50
180.0000001675571
 51
270.0000857761314
  0
LINE
  5
8B2
330
1F
100
AcDbEntity
  8
0
  6
Continuous
 62
     7
100
AcDbLine
 10
707.3864493922134
 20
254.4702461190103
 30
0.0
 11
707.3864493922134
 21
265.4702441190098
 31
0.0
  0
LINE
  5
8B3
330
1F
100
AcDbEntity
  8
0
  6
Continuous
 62
     7
100
AcDbLine
 10
716.3864493922134
 20
254.4702461190103
 30
0.0
 11
716.3864493922134
 21
265.4702441190098
 31
0.0
  0
LINE
  5
8B4
330
1F
100
AcDbEntity
  8
0
  6
DASHED
 62
     4
 48
6.0
100
AcDbLine
 10
673.3864533922132
 20
283.4702441190103
 30
0.0
 11
694.3864503922131
 21
283.4702441190103
 31
0.0
  0
LINE
  5
8B5
330
1F
100
AcDbEntity
  8
0
  6
DASHED
 62
     4
 48
6.0
100
AcDbLine
 10
694.3864503922131
 20
283.4702441190103
 30
0.0
 11
696.3864513922133
 21
285.4702421190097
 31
0.0
  0
LINE
  5
8B6
330
1F
100
AcDbEntity
  8
0
  6
DASHED
 62
     4
 48
6.0
100
AcDbLine
 10
671.3864523922134
 20
285.4702421190097
 30
0.0
 11
673.3864533922132
 21
283.4702441190103
 31
0.0
  0
LINE
  5
8B7
330
1F
100
AcDbEntity
  8
0
  6
DASHED
 62
     4
 48
6.0
100
AcDbLine
 10
741.3864453922133
 20
310.4702411190098
 30
0.0
 11
741.3864453922133
 21
285.4702421190097
 31
0.0
  0
LINE
  5
8B8
330
1F
100
AcDbEntity
  8
0
  6
DASHED
 62
     4
 48
6.0
100
AcDbLine
 10
671.3864523922134
 20
311.9480261190101
 30
0.0
 11
671.3864523922134
 21
285.4702421190097
 31
0.0
  0
LINE
  5
8B9
330
1F
100
AcDbEntity
  8
0
  6
DASHED
 62
     4
 48
6.0
100
AcDbLine
 10
696.3864513922133
 20
285.4702421190097
 30
0.0
 11
696.3864513922133
 21
312.4702391190098
 31
0.0
  0
CIRCLE
  5
8BA
330
1F
100
AcDbEntity
  8
0
  6
DASHED
 62
     4
370
     0
100
AcDbCircle
 10
683.8864573143572
 20
295.4702450411545
 30
0.0
 40
5.249996077856036
  0
LINE
  5
8BB
330
1F
100
AcDbEntity
  8
0
  6
Continuous
 62
     7
100
AcDbLine
 10
782.286444392212
 20
252.47024811901
 30
0.0
 11
718.3864503922133
 21
252.47024811901
 31
0.0
  0
LINE
  5
8BC
330
1F
100
AcDbEntity
  8
0
  6
DASHED
 62
     4
 48
6.0
100
AcDbLine
 10
743.3864463922126
 20
283.4702441190103
 30
0.0
 11
764.3864433922134
 21
283.4702441190103
 31
0.0
  0
CIRCLE
  5
8BD
330
1F
100
AcDbEntity
  8
0
  6
DASHED
 62
     4
370
     0
100
AcDbCircle
 10
753.8864503143577
 20
295.4702450411545
 30
0.0
 40
5.249996077856462
  0
LINE
  5
8BE
330
1F
100
AcDbEntity
  8
0
  6
Continuous
 62
     7
100
AcDbLine
 10
791.8864413922133
 20
277.4702441190098
 30
0.0
 11
791.8864413922133
 21
547.4702171190101
 31
0.0
  0
LINE
  5
8BF
330
1F
100
AcDbEntity
  8
0
  6
Continuous
 62
     7
100
AcDbLine
 10
791.8864413922133
 20
279.4702451190099
 30
0.0
 11
791.8864413922133
 21
545.4702161190101
 31
0.0
  0
LINE
  5
8C0
330
1F
100
AcDbEntity
  8
0
  6
Continuous
 62
     7
100
AcDbLine
 10
990.1864233922134
 20
547.4702171190101
 30
0.0
 11
990.1864233922134
 21
277.4702441190098
 31
0.0
  0
LINE
  5
8C1
330
1F
100
AcDbEntity
  8
0
  6
Continuous
 62
     7
100
AcDbLine
 10
991.3864233922133
 20
547.4702171190101
 30
0.0
 11
991.3864233922133
 21
277.4702441190098
 31
0.0
  0
LINE
  5
8C2
330
1F
100
AcDbEntity
  8
0
  6
DASHED
 62
     4
 48
5.0
100
AcDbLine
 10
622.6564833922118
 20
522.1702171190104
 30
0.0
 11
622.6564833922118
 21
531.1702171190102
 31
0.0
  0
LINE
  5
8C3
330
1F
100
AcDbEntity
  8
0
  6
DASHED
 62
     4
 48
5.0
100
AcDbLine
 10
623.9764833922111
 20
522.1702171190104
 30
0.0
 11
623.9764833922111
 21
531.1702171190102
 31
0.0
  0
LINE
  5
8C4
330
1F
100
AcDbEntity
  8
0
  6
DASHED
 62
     4
 48
5.0
100
AcDbLine
 10
623.8950853922111
 20
518.6288791190102
 30
0.0
 11
622.8950853922119
 21
518.6288791190102
 31
0.0
  0
LINE
  5
8C5
330
1F
100
AcDbEntity
  8
0
  6
DASHED
 62
     4
 48
5.0
100
AcDbLine
 10
620.0416593922117
 20
526.4046931190099
 30
0.0
 11
621.5416593922118
 21
526.4046931190099
 31
0.0
  0
LINE
  5
8C6
330
1F
100
AcDbEntity
  8
0
  6
DASHED
 62
     4
 48
5.0
100
AcDbLine
 10
621.5416593922118
 20
527.4046931190102
 30
0.0
 11
620.0416593922117
 21
527.4046931190102
 31
0.0
  0
LINE
  5
8C7
330
1F
100
AcDbEntity
  8
0
  6
DASHED
 62
     4
 48
5.0
100
AcDbLine
 10
620.0416593922117
 20
527.4046931190102
 30
0.0
 11
620.0416593922117
 21
528.9046931190098
 31
0.0
  0
LINE
  5
8C8
330
1F
100
AcDbEntity
  8
0
  6
DASHED
 62
     4
 48
5.0
100
AcDbLine
 10
619.0416593922117
 20
528.9046931190098
 30
0.0
 11
619.0416593922117
 21
527.4046931190102
 31
0.0
  0
LINE
  5
8C9
330
1F
100
AcDbEntity
  8
0
  6
DASHED
 62
     4
 48
5.0
100
AcDbLine
 10
617.5416593922122
 20
527.4046931190102
 30
0.0
 11
617.5416593922122
 21
526.4046931190099
 31
0.0
  0
LINE
  5
8CA
330
1F
100
AcDbEntity
  8
0
  6
DASHED
 62
     4
 48
5.0
100
AcDbLine
 10
617.5416593922122
 20
526.4046931190099
 30
0.0
 11
619.0416593922117
 21
526.4046931190099
 31
0.0
  0
LINE
  5
8CB
330
1F
100
AcDbEntity
  8
0
  6
DASHED
 62
     4
 48
5.0
100
AcDbLine
 10
619.0416593922117
 20
526.4046931190099
 30
0.0
 11
619.0416593922117
 21
524.9046931190104
 31
0.0
  0
LINE
  5
8CC
330
1F
100
AcDbEntity
  8
0
  6
DASHED
 62
     4
 48
5.0
100
AcDbLine
 10
619.0416593922117
 20
524.9046931190104
 30
0.0
 11
620.0416593922117
 21
524.9046931190104
 31
0.0
  0
LINE
  5
8CD
330
1F
100
AcDbEntity
  8
0
  6
DASHED
 62
     4
 48
5.0
100
AcDbLine
 10
620.0416593922117
 20
524.9046931190104
 30
0.0
 11
620.0416593922117
 21
526.4046931190099
 31
0.0
  0
LINE
  5
8CE
330
1F
100
AcDbEntity
  8
0
  6
DASHED
 62
     4
 48
5.0
100
AcDbLine
 10
619.0416593922117
 20
527.4046931190102
 30
0.0
 11
617.5416593922122
 21
527.4046931190102
 31
0.0
  0
LINE
  5
8CF
330
1F
100
AcDbEntity
  8
0
  6
DASHED
 62
     4
 48
5.0
100
AcDbLine
 10
620.0416593922117
 20
528.9046931190098
 30
0.0
 11
619.0416593922117
 21
528.9046931190098
 31
0.0
  0
LINE
  5
8D0
330
1F
100
AcDbEntity
  8
0
  6
DASHED
 62
     4
 48
5.0
100
AcDbLine
 10
621.5416593922118
 20
526.4046931190099
 30
0.0
 11
621.5416593922118
 21
527.4046931190102
 31
0.0
  0
LINE
  5
8D1
330
1F
100
AcDbEntity
  8
0
  6
DASHED
 62
     4
 48
5.0
100
AcDbLine
 10
621.5416593922118
 20
526.4046931190099
 30
0.0
 11
621.5416593922118
 21
526.4046931190099
 31
0.0
  0
LINE
  5
8D2
330
1F
100
AcDbEntity
  8
0
  6
DASHED
 62
     4
 48
5.0
100
AcDbLine
 10
612.421659392212
 20
526.4046931190099
 30
0.0
 11
613.9216593922121
 21
526.4046931190099
 31
0.0
  0
LINE
  5
8D3
330
1F
100
AcDbEntity
  8
0
  6
DASHED
 62
     4
 48
5.0
100
AcDbLine
 10
613.9216593922121
 20
527.4046931190102
 30
0.0
 11
612.421659392212
 21
527.4046931190102
 31
0.0
  0
LINE
  5
8D4
330
1F
100
AcDbEntity
  8
0
  6
DASHED
 62
     4
 48
5.0
100
AcDbLine
 10
597.1816593922121
 20
526.4046931190099
 30
0.0
 11
598.6816593922121
 21
526.4046931190099
 31
0.0
  0
LINE
  5
8D5
330
1F
100
AcDbEntity
  8
0
  6
DASHED
 62
     4
 48
5.0
100
AcDbLine
 10
598.6816593922121
 20
527.4046931190102
 30
0.0
 11
597.1816593922121
 21
527.4046931190102
 31
0.0
  0
LINE
  5
8D6
330
1F
100
AcDbEntity
  8
0
  6
DASHED
 62
     4
 48
5.0
100
AcDbLine
 10
592.1764833922122
 20
522.1702171190104
 30
0.0
 11
592.1764833922122
 21
531.1702171190102
 31
0.0
  0
LINE
  5
8D7
330
1F
100
AcDbEntity
  8
0
  6
DASHED
 62
     4
 48
5.0
100
AcDbLine
 10
593.4964833922117
 20
522.1702171190104
 30
0.0
 11
593.4964833922117
 21
531.1702171190102
 31
0.0
  0
LINE
  5
8D8
330
1F
100
AcDbEntity
  8
0
  6
DASHED
 62
     4
 48
5.0
100
AcDbLine
 10
593.4150853922119
 20
518.6288791190102
 30
0.0
 11
592.4150853922124
 21
518.6288791190102
 31
0.0
  0
LINE
  5
8D9
330
1F
100
AcDbEntity
  8
0
  6
DASHED
 62
     4
 48
5.0
100
AcDbLine
 10
597.1816593922121
 20
527.4046931190102
 30
0.0
 11
597.1816593922121
 21
528.9046931190098
 31
0.0
  0
LINE
  5
8DA
330
1F
100
AcDbEntity
  8
0
  6
DASHED
 62
     4
 48
5.0
100
AcDbLine
 10
596.1816593922121
 20
528.9046931190098
 30
0.0
 11
596.1816593922121
 21
527.4046931190102
 31
0.0
  0
LINE
  5
8DB
330
1F
100
AcDbEntity
  8
0
  6
DASHED
 62
     4
 48
5.0
100
AcDbLine
 10
594.6816593922119
 20
527.4046931190102
 30
0.0
 11
594.6816593922119
 21
526.4046931190099
 31
0.0
  0
LINE
  5
8DC
330
1F
100
AcDbEntity
  8
0
  6
DASHED
 62
     4
 48
5.0
100
AcDbLine
 10
597.1816593922121
 20
524.9046931190104
 30
0.0
 11
597.1816593922121
 21
526.4046931190099
 31
0.0
  0
LINE
  5
8DD
330
1F
100
AcDbEntity
  8
0
  6
DASHED
 62
     4
 48
5.0
100
AcDbLine
 10
594.6816593922119
 20
526.4046931190099
 30
0.0
 11
596.1816593922121
 21
526.4046931190099
 31
0.0
  0
LINE
  5
8DE
330
1F
100
AcDbEntity
  8
0
  6
DASHED
 62
     4
 48
5.0
100
AcDbLine
 10
596.1816593922121
 20
526.4046931190099
 30
0.0
 11
596.1816593922121
 21
524.9046931190104
 31
0.0
  0
LINE
  5
8DF
330
1F
100
AcDbEntity
  8
0
  6
DASHED
 62
     4
 48
5.0
100
AcDbLine
 10
596.1816593922121
 20
524.9046931190104
 30
0.0
 11
597.1816593922121
 21
524.9046931190104
 31
0.0
  0
LINE
  5
8E0
330
1F
100
AcDbEntity
  8
0
  6
DASHED
 62
     4
 48
5.0
100
AcDbLine
 10
596.1816593922121
 20
527.4046931190102
 30
0.0
 11
594.6816593922119
 21
527.4046931190102
 31
0.0
  0
LINE
  5
8E1
330
1F
100
AcDbEntity
  8
0
  6
DASHED
 62
     4
 48
5.0
100
AcDbLine
 10
597.1816593922121
 20
528.9046931190098
 30
0.0
 11
596.1816593922121
 21
528.9046931190098
 31
0.0
  0
LINE
  5
8E2
330
1F
100
AcDbEntity
  8
0
  6
DASHED
 62
     4
 48
5.0
100
AcDbLine
 10
607.4164833922122
 20
522.1702171190104
 30
0.0
 11
607.4164833922122
 21
531.1702171190102
 31
0.0
  0
LINE
  5
8E3
330
1F
100
AcDbEntity
  8
0
  6
DASHED
 62
     4
 48
5.0
100
AcDbLine
 10
608.7364833922116
 20
522.1702171190104
 30
0.0
 11
608.7364833922116
 21
531.1702171190102
 31
0.0
  0
LINE
  5
8E4
330
1F
100
AcDbEntity
  8
0
  6
DASHED
 62
     4
 48
5.0
100
AcDbLine
 10
601.1164833922121
 20
522.1702171190104
 30
0.0
 11
601.1164833922121
 21
531.1702171190102
 31
0.0
  0
LINE
  5
8E5
330
1F
100
AcDbEntity
  8
0
  6
DASHED
 62
     4
 48
5.0
100
AcDbLine
 10
599.7964833922122
 20
522.1702171190104
 30
0.0
 11
599.7964833922122
 21
531.1702171190102
 31
0.0
  0
LINE
  5
8E6
330
1F
100
AcDbEntity
  8
0
  6
DASHED
 62
     4
 48
5.0
100
AcDbLine
 10
601.0350853922119
 20
518.6288791190102
 30
0.0
 11
600.0350853922121
 21
518.6288791190102
 31
0.0
  0
LINE
  5
8E7
330
1F
100
AcDbEntity
  8
0
  6
DASHED
 62
     4
 48
5.0
100
AcDbLine
 10
608.6550853922117
 20
518.6288791190102
 30
0.0
 11
607.6550853922118
 21
518.6288791190102
 31
0.0
  0
LINE
  5
8E8
330
1F
100
AcDbEntity
  8
0
  6
DASHED
 62
     4
 48
5.0
100
AcDbLine
 10
604.8016593922121
 20
526.4046931190099
 30
0.0
 11
606.3016593922118
 21
526.4046931190099
 31
0.0
  0
LINE
  5
8E9
330
1F
100
AcDbEntity
  8
0
  6
DASHED
 62
     4
 48
5.0
100
AcDbLine
 10
606.3016593922118
 20
527.4046931190102
 30
0.0
 11
604.8016593922121
 21
527.4046931190102
 31
0.0
  0
LINE
  5
8EA
330
1F
100
AcDbEntity
  8
0
  6
DASHED
 62
     4
 48
5.0
100
AcDbLine
 10
604.8016593922121
 20
527.4046931190102
 30
0.0
 11
604.8016593922121
 21
528.9046931190098
 31
0.0
  0
LINE
  5
8EB
330
1F
100
AcDbEntity
  8
0
  6
DASHED
 62
     4
 48
5.0
100
AcDbLine
 10
603.8016593922117
 20
528.9046931190098
 30
0.0
 11
603.8016593922117
 21
527.4046931190102
 31
0.0
  0
LINE
  5
8EC
330
1F
100
AcDbEntity
  8
0
  6
DASHED
 62
     4
 48
5.0
100
AcDbLine
 10
598.6816593922121
 20
526.4046931190099
 30
0.0
 11
598.6816593922121
 21
527.4046931190102
 31
0.0
  0
LINE
  5
8ED
330
1F
100
AcDbEntity
  8
0
  6
DASHED
 62
     4
 48
5.0
100
AcDbLine
 10
598.6816593922121
 20
526.4046931190099
 30
0.0
 11
598.6816593922121
 21
526.4046931190099
 31
0.0
  0
LINE
  5
8EE
330
1F
100
AcDbEntity
  8
0
  6
DASHED
 62
     4
 48
5.0
100
AcDbLine
 10
602.3016593922119
 20
527.4046931190102
 30
0.0
 11
602.3016593922119
 21
526.4046931190099
 31
0.0
  0
LINE
  5
8EF
330
1F
100
AcDbEntity
  8
0
  6
DASHED
 62
     4
 48
5.0
100
AcDbLine
 10
602.3016593922119
 20
526.4046931190099
 30
0.0
 11
603.8016593922117
 21
526.4046931190099
 31
0.0
  0
LINE
  5
8F0
330
1F
100
AcDbEntity
  8
0
  6
DASHED
 62
     4
 48
5.0
100
AcDbLine
 10
603.8016593922117
 20
526.4046931190099
 30
0.0
 11
603.8016593922117
 21
524.9046931190104
 31
0.0
  0
LINE
  5
8F1
330
1F
100
AcDbEntity
  8
0
  6
DASHED
 62
     4
 48
5.0
100
AcDbLine
 10
603.8016593922117
 20
524.9046931190104
 30
0.0
 11
604.8016593922121
 21
524.9046931190104
 31
0.0
  0
LINE
  5
8F2
330
1F
100
AcDbEntity
  8
0
  6
DASHED
 62
     4
 48
5.0
100
AcDbLine
 10
604.8016593922121
 20
524.9046931190104
 30
0.0
 11
604.8016593922121
 21
526.4046931190099
 31
0.0
  0
LINE
  5
8F3
330
1F
100
AcDbEntity
  8
0
  6
DASHED
 62
     4
 48
5.0
100
AcDbLine
 10
603.8016593922117
 20
527.4046931190102
 30
0.0
 11
602.3016593922119
 21
527.4046931190102
 31
0.0
  0
LINE
  5
8F4
330
1F
100
AcDbEntity
  8
0
  6
DASHED
 62
     4
 48
5.0
100
AcDbLine
 10
604.8016593922121
 20
528.9046931190098
 30
0.0
 11
603.8016593922117
 21
528.9046931190098
 31
0.0
  0
LINE
  5
8F5
330
1F
100
AcDbEntity
  8
0
  6
DASHED
 62
     4
 48
5.0
100
AcDbLine
 10
612.421659392212
 20
527.4046931190102
 30
0.0
 11
612.421659392212
 21
528.9046931190098
 31
0.0
  0
LINE
  5
8F6
330
1F
100
AcDbEntity
  8
0
  6
DASHED
 62
     4
 48
5.0
100
AcDbLine
 10
611.4216593922118
 20
528.9046931190098
 30
0.0
 11
611.4216593922118
 21
527.4046931190102
 31
0.0
  0
LINE
  5
8F7
330
1F
100
AcDbEntity
  8
0
  6
DASHED
 62
     4
 48
5.0
100
AcDbLine
 10
606.3016593922118
 20
526.4046931190099
 30
0.0
 11
606.3016593922118
 21
527.4046931190102
 31
0.0
  0
LINE
  5
8F8
330
1F
100
AcDbEntity
  8
0
  6
DASHED
 62
     4
 48
5.0
100
AcDbLine
 10
606.3016593922118
 20
526.4046931190099
 30
0.0
 11
606.3016593922118
 21
526.4046931190099
 31
0.0
  0
LINE
  5
8F9
330
1F
100
AcDbEntity
  8
0
  6
DASHED
 62
     4
 48
5.0
100
AcDbLine
 10
609.9216593922119
 20
527.4046931190102
 30
0.0
 11
609.9216593922119
 21
526.4046931190099
 31
0.0
  0
LINE
  5
8FA
330
1F
100
AcDbEntity
  8
0
  6
DASHED
 62
     4
 48
5.0
100
AcDbLine
 10
609.9216593922119
 20
526.4046931190099
 30
0.0
 11
611.4216593922118
 21
526.4046931190099
 31
0.0
  0
LINE
  5
8FB
330
1F
100
AcDbEntity
  8
0
  6
DASHED
 62
     4
 48
5.0
100
AcDbLine
 10
611.4216593922118
 20
526.4046931190099
 30
0.0
 11
611.4216593922118
 21
524.9046931190104
 31
0.0
  0
LINE
  5
8FC
330
1F
100
AcDbEntity
  8
0
  6
DASHED
 62
     4
 48
5.0
100
AcDbLine
 10
611.4216593922118
 20
524.9046931190104
 30
0.0
 11
612.421659392212
 21
524.9046931190104
 31
0.0
  0
LINE
  5
8FD
330
1F
100
AcDbEntity
  8
0
  6
DASHED
 62
     4
 48
5.0
100
AcDbLine
 10
612.421659392212
 20
524.9046931190104
 30
0.0
 11
612.421659392212
 21
526.4046931190099
 31
0.0
  0
LINE
  5
8FE
330
1F
100
AcDbEntity
  8
0
  6
DASHED
 62
     4
 48
5.0
100
AcDbLine
 10
611.4216593922118
 20
527.4046931190102
 30
0.0
 11
609.9216593922119
 21
527.4046931190102
 31
0.0
  0
LINE
  5
8FF
330
1F
100
AcDbEntity
  8
0
  6
DASHED
 62
     4
 48
5.0
100
AcDbLine
 10
612.421659392212
 20
528.9046931190098
 30
0.0
 11
611.4216593922118
 21
528.9046931190098
 31
0.0
  0
LINE
  5
900
330
1F
100
AcDbEntity
  8
0
  6
DASHED
 62
     4
 48
5.0
100
AcDbLine
 10
615.0364833922119
 20
522.1702171190104
 30
0.0
 11
615.0364833922119
 21
531.1702171190102
 31
0.0
  0
LINE
  5
901
330
1F
100
AcDbEntity
  8
0
  6
DASHED
 62
     4
 48
5.0
100
AcDbLine
 10
616.3564833922116
 20
522.1702171190104
 30
0.0
 11
616.3564833922116
 21
531.1702171190102
 31
0.0
  0
LINE
  5
902
330
1F
100
AcDbEntity
  8
0
  6
DASHED
 62
     4
 48
5.0
100
AcDbLine
 10
616.2750853922112
 20
518.6288791190102
 30
0.0
 11
615.2750853922117
 21
518.6288791190102
 31
0.0
  0
LINE
  5
903
330
1F
100
AcDbEntity
  8
0
  6
DASHED
 62
     4
 48
5.0
100
AcDbLine
 10
613.9216593922121
 20
526.4046931190099
 30
0.0
 11
613.9216593922121
 21
527.4046931190102
 31
0.0
  0
LINE
  5
904
330
1F
100
AcDbEntity
  8
0
  6
DASHED
 62
     4
 48
5.0
100
AcDbLine
 10
613.9216593922121
 20
526.4046931190099
 30
0.0
 11
613.9216593922121
 21
526.4046931190099
 31
0.0
  0
LINE
  5
905
330
1F
100
AcDbEntity
  8
0
  6
DASHED
 62
     4
 48
5.0
100
AcDbLine
 10
581.9416593922126
 20
526.4046931190099
 30
0.0
 11
583.4416593922123
 21
526.4046931190099
 31
0.0
  0
LINE
  5
906
330
1F
100
AcDbEntity
  8
0
  6
DASHED
 62
     4
 48
5.0
100
AcDbLine
 10
583.4416593922123
 20
527.4046931190102
 30
0.0
 11
581.9416593922126
 21
527.4046931190102
 31
0.0
  0
LINE
  5
907
330
1F
100
AcDbEntity
  8
0
  6
DASHED
 62
     4
 48
5.0
100
AcDbLine
 10
566.7016593922126
 20
527.4046931190102
 30
0.0
 11
566.7016593922126
 21
528.9046931190098
 31
0.0
  0
LINE
  5
908
330
1F
100
AcDbEntity
  8
0
  6
DASHED
 62
     4
 48
5.0
100
AcDbLine
 10
568.2016593922126
 20
526.4046931190099
 30
0.0
 11
568.2016593922126
 21
527.4046931190102
 31
0.0
  0
LINE
  5
909
330
1F
100
AcDbEntity
  8
0
  6
DASHED
 62
     4
 48
5.0
100
AcDbLine
 10
566.7016593922126
 20
524.9046931190104
 30
0.0
 11
566.7016593922126
 21
526.4046931190099
 31
0.0
  0
LINE
  5
90A
330
1F
100
AcDbEntity
  8
0
  6
DASHED
 62
     4
 48
5.0
100
AcDbLine
 10
566.7016593922126
 20
526.4046931190099
 30
0.0
 11
568.2016593922126
 21
526.4046931190099
 31
0.0
  0
LINE
  5
90B
330
1F
100
AcDbEntity
  8
0
  6
DASHED
 62
     4
 48
5.0
100
AcDbLine
 10
568.2016593922126
 20
526.4046931190099
 30
0.0
 11
568.2016593922126
 21
526.4046931190099
 31
0.0
  0
LINE
  5
90C
330
1F
100
AcDbEntity
  8
0
  6
DASHED
 62
     4
 48
5.0
100
AcDbLine
 10
568.2016593922126
 20
527.4046931190102
 30
0.0
 11
566.7016593922126
 21
527.4046931190102
 31
0.0
  0
LINE
  5
90D
330
1F
100
AcDbEntity
  8
0
  6
DASHED
 62
     4
 48
5.0
100
AcDbLine
 10
576.9364833922122
 20
522.1702171190104
 30
0.0
 11
576.9364833922122
 21
531.1702171190102
 31
0.0
  0
LINE
  5
90E
330
1F
100
AcDbEntity
  8
0
  6
DASHED
 62
     4
 48
5.0
100
AcDbLine
 10
578.2564833922117
 20
522.1702171190104
 30
0.0
 11
578.2564833922117
 21
531.1702171190102
 31
0.0
  0
LINE
  5
90F
330
1F
100
AcDbEntity
  8
0
  6
DASHED
 62
     4
 48
5.0
100
AcDbLine
 10
569.3164833922122
 20
522.1702171190104
 30
0.0
 11
569.3164833922122
 21
531.1702171190102
 31
0.0
  0
LINE
  5
910
330
1F
100
AcDbEntity
  8
0
  6
DASHED
 62
     4
 48
5.0
100
AcDbLine
 10
570.6364833922118
 20
522.1702171190104
 30
0.0
 11
570.6364833922118
 21
531.1702171190102
 31
0.0
  0
LINE
  5
911
330
1F
100
AcDbEntity
  8
0
  6
DASHED
 62
     4
 48
5.0
100
AcDbLine
 10
570.5550853922125
 20
518.6288791190102
 30
0.0
 11
569.5550853922124
 21
518.6288791190102
 31
0.0
  0
LINE
  5
912
330
1F
100
AcDbEntity
  8
0
  6
DASHED
 62
     4
 48
5.0
100
AcDbLine
 10
578.1750853922122
 20
518.6288791190102
 30
0.0
 11
577.1750853922124
 21
518.6288791190102
 31
0.0
  0
LINE
  5
913
330
1F
100
AcDbEntity
  8
0
  6
DASHED
 62
     4
 48
5.0
100
AcDbLine
 10
574.3216593922126
 20
527.4046931190102
 30
0.0
 11
574.3216593922126
 21
528.9046931190098
 31
0.0
  0
LINE
  5
914
330
1F
100
AcDbEntity
  8
0
  6
DASHED
 62
     4
 48
5.0
100
AcDbLine
 10
573.3216593922125
 20
528.9046931190098
 30
0.0
 11
573.3216593922125
 21
527.4046931190102
 31
0.0
  0
LINE
  5
915
330
1F
100
AcDbEntity
  8
0
  6
DASHED
 62
     4
 48
5.0
100
AcDbLine
 10
571.8216593922127
 20
526.4046931190099
 30
0.0
 11
573.3216593922125
 21
526.4046931190099
 31
0.0
  0
LINE
  5
916
330
1F
100
AcDbEntity
  8
0
  6
DASHED
 62
     4
 48
5.0
100
AcDbLine
 10
573.3216593922125
 20
527.4046931190102
 30
0.0
 11
571.8216593922127
 21
527.4046931190102
 31
0.0
  0
LINE
  5
917
330
1F
100
AcDbEntity
  8
0
  6
DASHED
 62
     4
 48
5.0
100
AcDbLine
 10
571.8216593922127
 20
527.4046931190102
 30
0.0
 11
571.8216593922127
 21
526.4046931190099
 31
0.0
  0
LINE
  5
918
330
1F
100
AcDbEntity
  8
0
  6
DASHED
 62
     4
 48
5.0
100
AcDbLine
 10
575.8216593922123
 20
526.4046931190099
 30
0.0
 11
575.8216593922123
 21
527.4046931190102
 31
0.0
  0
LINE
  5
919
330
1F
100
AcDbEntity
  8
0
  6
DASHED
 62
     4
 48
5.0
100
AcDbLine
 10
573.3216593922125
 20
526.4046931190099
 30
0.0
 11
573.3216593922125
 21
524.9046931190104
 31
0.0
  0
LINE
  5
91A
330
1F
100
AcDbEntity
  8
0
  6
DASHED
 62
     4
 48
5.0
100
AcDbLine
 10
573.3216593922125
 20
524.9046931190104
 30
0.0
 11
574.3216593922126
 21
524.9046931190104
 31
0.0
  0
LINE
  5
91B
330
1F
100
AcDbEntity
  8
0
  6
DASHED
 62
     4
 48
5.0
100
AcDbLine
 10
574.3216593922126
 20
524.9046931190104
 30
0.0
 11
574.3216593922126
 21
526.4046931190099
 31
0.0
  0
LINE
  5
91C
330
1F
100
AcDbEntity
  8
0
  6
DASHED
 62
     4
 48
5.0
100
AcDbLine
 10
574.3216593922126
 20
526.4046931190099
 30
0.0
 11
575.8216593922123
 21
526.4046931190099
 31
0.0
  0
LINE
  5
91D
330
1F
100
AcDbEntity
  8
0
  6
DASHED
 62
     4
 48
5.0
100
AcDbLine
 10
575.8216593922123
 20
526.4046931190099
 30
0.0
 11
575.8216593922123
 21
526.4046931190099
 31
0.0
  0
LINE
  5
91E
330
1F
100
AcDbEntity
  8
0
  6
DASHED
 62
     4
 48
5.0
100
AcDbLine
 10
575.8216593922123
 20
527.4046931190102
 30
0.0
 11
574.3216593922126
 21
527.4046931190102
 31
0.0
  0
LINE
  5
91F
330
1F
100
AcDbEntity
  8
0
  6
DASHED
 62
     4
 48
5.0
100
AcDbLine
 10
574.3216593922126
 20
528.9046931190098
 30
0.0
 11
573.3216593922125
 21
528.9046931190098
 31
0.0
  0
LINE
  5
920
330
1F
100
AcDbEntity
  8
0
  6
DASHED
 62
     4
 48
5.0
100
AcDbLine
 10
581.9416593922126
 20
527.4046931190102
 30
0.0
 11
581.9416593922126
 21
528.9046931190098
 31
0.0
  0
LINE
  5
921
330
1F
100
AcDbEntity
  8
0
  6
DASHED
 62
     4
 48
5.0
100
AcDbLine
 10
580.9416593922122
 20
528.9046931190098
 30
0.0
 11
580.9416593922122
 21
527.4046931190102
 31
0.0
  0
LINE
  5
922
330
1F
100
AcDbEntity
  8
0
  6
DASHED
 62
     4
 48
5.0
100
AcDbLine
 10
579.4416593922123
 20
526.4046931190099
 30
0.0
 11
580.9416593922122
 21
526.4046931190099
 31
0.0
  0
LINE
  5
923
330
1F
100
AcDbEntity
  8
0
  6
DASHED
 62
     4
 48
5.0
100
AcDbLine
 10
580.9416593922122
 20
527.4046931190102
 30
0.0
 11
579.4416593922123
 21
527.4046931190102
 31
0.0
  0
LINE
  5
924
330
1F
100
AcDbEntity
  8
0
  6
DASHED
 62
     4
 48
5.0
100
AcDbLine
 10
579.4416593922123
 20
527.4046931190102
 30
0.0
 11
579.4416593922123
 21
526.4046931190099
 31
0.0
  0
LINE
  5
925
330
1F
100
AcDbEntity
  8
0
  6
DASHED
 62
     4
 48
5.0
100
AcDbLine
 10
580.9416593922122
 20
526.4046931190099
 30
0.0
 11
580.9416593922122
 21
524.9046931190104
 31
0.0
  0
LINE
  5
926
330
1F
100
AcDbEntity
  8
0
  6
DASHED
 62
     4
 48
5.0
100
AcDbLine
 10
580.9416593922122
 20
524.9046931190104
 30
0.0
 11
581.9416593922126
 21
524.9046931190104
 31
0.0
  0
LINE
  5
927
330
1F
100
AcDbEntity
  8
0
  6
DASHED
 62
     4
 48
5.0
100
AcDbLine
 10
581.9416593922126
 20
524.9046931190104
 30
0.0
 11
581.9416593922126
 21
526.4046931190099
 31
0.0
  0
LINE
  5
928
330
1F
100
AcDbEntity
  8
0
  6
DASHED
 62
     4
 48
5.0
100
AcDbLine
 10
581.9416593922126
 20
528.9046931190098
 30
0.0
 11
580.9416593922122
 21
528.9046931190098
 31
0.0
  0
LINE
  5
929
330
1F
100
AcDbEntity
  8
0
  6
DASHED
 62
     4
 48
5.0
100
AcDbLine
 10
585.8764833922117
 20
522.1702171190104
 30
0.0
 11
585.8764833922117
 21
531.1702171190102
 31
0.0
  0
LINE
  5
92A
330
1F
100
AcDbEntity
  8
0
  6
DASHED
 62
     4
 48
5.0
100
AcDbLine
 10
584.5564833922122
 20
522.1702171190104
 30
0.0
 11
584.5564833922122
 21
531.1702171190102
 31
0.0
  0
LINE
  5
92B
330
1F
100
AcDbEntity
  8
0
  6
DASHED
 62
     4
 48
5.0
100
AcDbLine
 10
585.7950853922122
 20
518.6288791190102
 30
0.0
 11
584.7950853922121
 21
518.6288791190102
 31
0.0
  0
LINE
  5
92C
330
1F
100
AcDbEntity
  8
0
  6
DASHED
 62
     4
 48
5.0
100
AcDbLine
 10
589.5616593922125
 20
526.4046931190099
 30
0.0
 11
591.0616593922121
 21
526.4046931190099
 31
0.0
  0
LINE
  5
92D
330
1F
100
AcDbEntity
  8
0
  6
DASHED
 62
     4
 48
5.0
100
AcDbLine
 10
591.0616593922121
 20
527.4046931190102
 30
0.0
 11
589.5616593922125
 21
527.4046931190102
 31
0.0
  0
LINE
  5
92E
330
1F
100
AcDbEntity
  8
0
  6
DASHED
 62
     4
 48
5.0
100
AcDbLine
 10
589.5616593922125
 20
527.4046931190102
 30
0.0
 11
589.5616593922125
 21
528.9046931190098
 31
0.0
  0
LINE
  5
92F
330
1F
100
AcDbEntity
  8
0
  6
DASHED
 62
     4
 48
5.0
100
AcDbLine
 10
588.5616593922121
 20
528.9046931190098
 30
0.0
 11
588.5616593922121
 21
527.4046931190102
 31
0.0
  0
LINE
  5
930
330
1F
100
AcDbEntity
  8
0
  6
DASHED
 62
     4
 48
5.0
100
AcDbLine
 10
583.4416593922123
 20
526.4046931190099
 30
0.0
 11
583.4416593922123
 21
527.4046931190102
 31
0.0
  0
LINE
  5
931
330
1F
100
AcDbEntity
  8
0
  6
DASHED
 62
     4
 48
5.0
100
AcDbLine
 10
583.4416593922123
 20
526.4046931190099
 30
0.0
 11
583.4416593922123
 21
526.4046931190099
 31
0.0
  0
LINE
  5
932
330
1F
100
AcDbEntity
  8
0
  6
DASHED
 62
     4
 48
5.0
100
AcDbLine
 10
587.0616593922119
 20
527.4046931190102
 30
0.0
 11
587.0616593922119
 21
526.4046931190099
 31
0.0
  0
LINE
  5
933
330
1F
100
AcDbEntity
  8
0
  6
DASHED
 62
     4
 48
5.0
100
AcDbLine
 10
587.0616593922119
 20
526.4046931190099
 30
0.0
 11
588.5616593922121
 21
526.4046931190099
 31
0.0
  0
LINE
  5
934
330
1F
100
AcDbEntity
  8
0
  6
DASHED
 62
     4
 48
5.0
100
AcDbLine
 10
588.5616593922121
 20
526.4046931190099
 30
0.0
 11
588.5616593922121
 21
524.9046931190104
 31
0.0
  0
LINE
  5
935
330
1F
100
AcDbEntity
  8
0
  6
DASHED
 62
     4
 48
5.0
100
AcDbLine
 10
588.5616593922121
 20
524.9046931190104
 30
0.0
 11
589.5616593922125
 21
524.9046931190104
 31
0.0
  0
LINE
  5
936
330
1F
100
AcDbEntity
  8
0
  6
DASHED
 62
     4
 48
5.0
100
AcDbLine
 10
589.5616593922125
 20
524.9046931190104
 30
0.0
 11
589.5616593922125
 21
526.4046931190099
 31
0.0
  0
LINE
  5
937
330
1F
100
AcDbEntity
  8
0
  6
DASHED
 62
     4
 48
5.0
100
AcDbLine
 10
588.5616593922121
 20
527.4046931190102
 30
0.0
 11
587.0616593922119
 21
527.4046931190102
 31
0.0
  0
LINE
  5
938
330
1F
100
AcDbEntity
  8
0
  6
DASHED
 62
     4
 48
5.0
100
AcDbLine
 10
589.5616593922125
 20
528.9046931190098
 30
0.0
 11
588.5616593922121
 21
528.9046931190098
 31
0.0
  0
LINE
  5
939
330
1F
100
AcDbEntity
  8
0
  6
DASHED
 62
     4
 48
5.0
100
AcDbLine
 10
591.0616593922121
 20
526.4046931190099
 30
0.0
 11
591.0616593922121
 21
527.4046931190102
 31
0.0
  0
LINE
  5
93A
330
1F
100
AcDbEntity
  8
0
  6
DASHED
 62
     4
 48
5.0
100
AcDbLine
 10
591.0616593922121
 20
526.4046931190099
 30
0.0
 11
591.0616593922121
 21
526.4046931190099
 31
0.0
  0
LINE
  5
93B
330
1F
100
AcDbEntity
  8
0
  6
DASHED
 62
     4
 48
5.0
100
AcDbLine
 10
547.776483392213
 20
522.1702171190104
 30
0.0
 11
547.776483392213
 21
531.1702171190102
 31
0.0
  0
LINE
  5
93C
330
1F
100
AcDbEntity
  8
0
  6
DASHED
 62
     4
 48
5.0
100
AcDbLine
 10
546.4564833922127
 20
522.1702171190104
 30
0.0
 11
546.4564833922127
 21
531.1702171190102
 31
0.0
  0
LINE
  5
93D
330
1F
100
AcDbEntity
  8
0
  6
DASHED
 62
     4
 48
5.0
100
AcDbLine
 10
547.6950853922128
 20
518.6288791190102
 30
0.0
 11
546.6950853922121
 21
518.6288791190102
 31
0.0
  0
LINE
  5
93E
330
1F
100
AcDbEntity
  8
0
  6
DASHED
 62
     4
 48
5.0
100
AcDbLine
 10
543.8416593922129
 20
527.4046931190102
 30
0.0
 11
543.8416593922129
 21
528.9046931190098
 31
0.0
  0
LINE
  5
93F
330
1F
100
AcDbEntity
  8
0
  6
DASHED
 62
     4
 48
5.0
100
AcDbLine
 10
542.8416593922129
 20
528.9046931190098
 30
0.0
 11
542.8416593922129
 21
527.4046931190102
 31
0.0
  0
LINE
  5
940
330
1F
100
AcDbEntity
  8
0
  6
DASHED
 62
     4
 48
5.0
100
AcDbLine
 10
541.3416593922129
 20
526.4046931190099
 30
0.0
 11
542.8416593922129
 21
526.4046931190099
 31
0.0
  0
LINE
  5
941
330
1F
100
AcDbEntity
  8
0
  6
DASHED
 62
     4
 48
5.0
100
AcDbLine
 10
542.8416593922129
 20
527.4046931190102
 30
0.0
 11
541.3416593922129
 21
527.4046931190102
 31
0.0
  0
LINE
  5
942
330
1F
100
AcDbEntity
  8
0
  6
DASHED
 62
     4
 48
5.0
100
AcDbLine
 10
541.3416593922129
 20
527.4046931190102
 30
0.0
 11
541.3416593922129
 21
526.4046931190099
 31
0.0
  0
LINE
  5
943
330
1F
100
AcDbEntity
  8
0
  6
DASHED
 62
     4
 48
5.0
100
AcDbLine
 10
545.3416593922127
 20
526.4046931190099
 30
0.0
 11
545.3416593922127
 21
527.4046931190102
 31
0.0
  0
LINE
  5
944
330
1F
100
AcDbEntity
  8
0
  6
DASHED
 62
     4
 48
5.0
100
AcDbLine
 10
542.8416593922129
 20
526.4046931190099
 30
0.0
 11
542.8416593922129
 21
524.9046931190104
 31
0.0
  0
LINE
  5
945
330
1F
100
AcDbEntity
  8
0
  6
DASHED
 62
     4
 48
5.0
100
AcDbLine
 10
542.8416593922129
 20
524.9046931190104
 30
0.0
 11
543.8416593922129
 21
524.9046931190104
 31
0.0
  0
LINE
  5
946
330
1F
100
AcDbEntity
  8
0
  6
DASHED
 62
     4
 48
5.0
100
AcDbLine
 10
543.8416593922129
 20
524.9046931190104
 30
0.0
 11
543.8416593922129
 21
526.4046931190099
 31
0.0
  0
LINE
  5
947
330
1F
100
AcDbEntity
  8
0
  6
DASHED
 62
     4
 48
5.0
100
AcDbLine
 10
543.8416593922129
 20
526.4046931190099
 30
0.0
 11
545.3416593922127
 21
526.4046931190099
 31
0.0
  0
LINE
  5
948
330
1F
100
AcDbEntity
  8
0
  6
DASHED
 62
     4
 48
5.0
100
AcDbLine
 10
545.3416593922127
 20
526.4046931190099
 30
0.0
 11
545.3416593922127
 21
526.4046931190099
 31
0.0
  0
LINE
  5
949
330
1F
100
AcDbEntity
  8
0
  6
DASHED
 62
     4
 48
5.0
100
AcDbLine
 10
545.3416593922127
 20
527.4046931190102
 30
0.0
 11
543.8416593922129
 21
527.4046931190102
 31
0.0
  0
LINE
  5
94A
330
1F
100
AcDbEntity
  8
0
  6
DASHED
 62
     4
 48
5.0
100
AcDbLine
 10
543.8416593922129
 20
528.9046931190098
 30
0.0
 11
542.8416593922129
 21
528.9046931190098
 31
0.0
  0
LINE
  5
94B
330
1F
100
AcDbEntity
  8
0
  6
DASHED
 62
     4
 48
5.0
100
AcDbLine
 10
551.4616593922128
 20
527.4046931190102
 30
0.0
 11
551.4616593922128
 21
528.9046931190098
 31
0.0
  0
LINE
  5
94C
330
1F
100
AcDbEntity
  8
0
  6
DASHED
 62
     4
 48
5.0
100
AcDbLine
 10
550.4616593922126
 20
528.9046931190098
 30
0.0
 11
550.4616593922126
 21
527.4046931190102
 31
0.0
  0
LINE
  5
94D
330
1F
100
AcDbEntity
  8
0
  6
DASHED
 62
     4
 48
5.0
100
AcDbLine
 10
548.9616593922126
 20
526.4046931190099
 30
0.0
 11
550.4616593922126
 21
526.4046931190099
 31
0.0
  0
LINE
  5
94E
330
1F
100
AcDbEntity
  8
0
  6
DASHED
 62
     4
 48
5.0
100
AcDbLine
 10
550.4616593922126
 20
527.4046931190102
 30
0.0
 11
548.9616593922126
 21
527.4046931190102
 31
0.0
  0
LINE
  5
94F
330
1F
100
AcDbEntity
  8
0
  6
DASHED
 62
     4
 48
5.0
100
AcDbLine
 10
548.9616593922126
 20
527.4046931190102
 30
0.0
 11
548.9616593922126
 21
526.4046931190099
 31
0.0
  0
LINE
  5
950
330
1F
100
AcDbEntity
  8
0
  6
DASHED
 62
     4
 48
5.0
100
AcDbLine
 10
552.9616593922128
 20
526.4046931190099
 30
0.0
 11
552.9616593922128
 21
527.4046931190102
 31
0.0
  0
LINE
  5
951
330
1F
100
AcDbEntity
  8
0
  6
DASHED
 62
     4
 48
5.0
100
AcDbLine
 10
550.4616593922126
 20
526.4046931190099
 30
0.0
 11
550.4616593922126
 21
524.9046931190104
 31
0.0
  0
LINE
  5
952
330
1F
100
AcDbEntity
  8
0
  6
DASHED
 62
     4
 48
5.0
100
AcDbLine
 10
550.4616593922126
 20
524.9046931190104
 30
0.0
 11
551.4616593922128
 21
524.9046931190104
 31
0.0
  0
LINE
  5
953
330
1F
100
AcDbEntity
  8
0
  6
DASHED
 62
     4
 48
5.0
100
AcDbLine
 10
551.4616593922128
 20
524.9046931190104
 30
0.0
 11
551.4616593922128
 21
526.4046931190099
 31
0.0
  0
LINE
  5
954
330
1F
100
AcDbEntity
  8
0
  6
DASHED
 62
     4
 48
5.0
100
AcDbLine
 10
551.4616593922128
 20
526.4046931190099
 30
0.0
 11
552.9616593922128
 21
526.4046931190099
 31
0.0
  0
LINE
  5
955
330
1F
100
AcDbEntity
  8
0
  6
DASHED
 62
     4
 48
5.0
100
AcDbLine
 10
552.9616593922128
 20
526.4046931190099
 30
0.0
 11
552.9616593922128
 21
526.4046931190099
 31
0.0
  0
LINE
  5
956
330
1F
100
AcDbEntity
  8
0
  6
DASHED
 62
     4
 48
5.0
100
AcDbLine
 10
552.9616593922128
 20
527.4046931190102
 30
0.0
 11
551.4616593922128
 21
527.4046931190102
 31
0.0
  0
LINE
  5
957
330
1F
100
AcDbEntity
  8
0
  6
DASHED
 62
     4
 48
5.0
100
AcDbLine
 10
551.4616593922128
 20
528.9046931190098
 30
0.0
 11
550.4616593922126
 21
528.9046931190098
 31
0.0
  0
LINE
  5
958
330
1F
100
AcDbEntity
  8
0
  6
DASHED
 62
     4
 48
5.0
100
AcDbLine
 10
561.6964833922127
 20
522.1702171190104
 30
0.0
 11
561.6964833922127
 21
531.1702171190102
 31
0.0
  0
LINE
  5
959
330
1F
100
AcDbEntity
  8
0
  6
DASHED
 62
     4
 48
5.0
100
AcDbLine
 10
563.0164833922118
 20
522.1702171190104
 30
0.0
 11
563.0164833922118
 21
531.1702171190102
 31
0.0
  0
LINE
  5
95A
330
1F
100
AcDbEntity
  8
0
  6
DASHED
 62
     4
 48
5.0
100
AcDbLine
 10
554.0764833922128
 20
522.1702171190104
 30
0.0
 11
554.0764833922128
 21
531.1702171190102
 31
0.0
  0
LINE
  5
95B
330
1F
100
AcDbEntity
  8
0
  6
DASHED
 62
     4
 48
5.0
100
AcDbLine
 10
555.3964833922126
 20
522.1702171190104
 30
0.0
 11
555.3964833922126
 21
531.1702171190102
 31
0.0
  0
LINE
  5
95C
330
1F
100
AcDbEntity
  8
0
  6
DASHED
 62
     4
 48
5.0
100
AcDbLine
 10
555.3150853922127
 20
518.6288791190102
 30
0.0
 11
554.3150853922126
 21
518.6288791190102
 31
0.0
  0
LINE
  5
95D
330
1F
100
AcDbEntity
  8
0
  6
DASHED
 62
     4
 48
5.0
100
AcDbLine
 10
562.9350853922122
 20
518.6288791190102
 30
0.0
 11
561.9350853922123
 21
518.6288791190102
 31
0.0
  0
LINE
  5
95E
330
1F
100
AcDbEntity
  8
0
  6
DASHED
 62
     4
 48
5.0
100
AcDbLine
 10
559.0816593922125
 20
527.4046931190102
 30
0.0
 11
559.0816593922125
 21
528.9046931190098
 31
0.0
  0
LINE
  5
95F
330
1F
100
AcDbEntity
  8
0
  6
DASHED
 62
     4
 48
5.0
100
AcDbLine
 10
558.0816593922128
 20
528.9046931190098
 30
0.0
 11
558.0816593922128
 21
527.4046931190102
 31
0.0
  0
LINE
  5
960
330
1F
100
AcDbEntity
  8
0
  6
DASHED
 62
     4
 48
5.0
100
AcDbLine
 10
556.5816593922126
 20
526.4046931190099
 30
0.0
 11
558.0816593922128
 21
526.4046931190099
 31
0.0
  0
LINE
  5
961
330
1F
100
AcDbEntity
  8
0
  6
DASHED
 62
     4
 48
5.0
100
AcDbLine
 10
558.0816593922128
 20
527.4046931190102
 30
0.0
 11
556.5816593922126
 21
527.4046931190102
 31
0.0
  0
LINE
  5
962
330
1F
100
AcDbEntity
  8
0
  6
DASHED
 62
     4
 48
5.0
100
AcDbLine
 10
556.5816593922126
 20
527.4046931190102
 30
0.0
 11
556.5816593922126
 21
526.4046931190099
 31
0.0
  0
LINE
  5
963
330
1F
100
AcDbEntity
  8
0
  6
DASHED
 62
     4
 48
5.0
100
AcDbLine
 10
560.5816593922126
 20
526.4046931190099
 30
0.0
 11
560.5816593922126
 21
527.4046931190102
 31
0.0
  0
LINE
  5
964
330
1F
100
AcDbEntity
  8
0
  6
DASHED
 62
     4
 48
5.0
100
AcDbLine
 10
558.0816593922128
 20
526.4046931190099
 30
0.0
 11
558.0816593922128
 21
524.9046931190104
 31
0.0
  0
LINE
  5
965
330
1F
100
AcDbEntity
  8
0
  6
DASHED
 62
     4
 48
5.0
100
AcDbLine
 10
558.0816593922128
 20
524.9046931190104
 30
0.0
 11
559.0816593922125
 21
524.9046931190104
 31
0.0
  0
LINE
  5
966
330
1F
100
AcDbEntity
  8
0
  6
DASHED
 62
     4
 48
5.0
100
AcDbLine
 10
559.0816593922125
 20
524.9046931190104
 30
0.0
 11
559.0816593922125
 21
526.4046931190099
 31
0.0
  0
LINE
  5
967
330
1F
100
AcDbEntity
  8
0
  6
DASHED
 62
     4
 48
5.0
100
AcDbLine
 10
559.0816593922125
 20
526.4046931190099
 30
0.0
 11
560.5816593922126
 21
526.4046931190099
 31
0.0
  0
LINE
  5
968
330
1F
100
AcDbEntity
  8
0
  6
DASHED
 62
     4
 48
5.0
100
AcDbLine
 10
560.5816593922126
 20
526.4046931190099
 30
0.0
 11
560.5816593922126
 21
526.4046931190099
 31
0.0
  0
LINE
  5
969
330
1F
100
AcDbEntity
  8
0
  6
DASHED
 62
     4
 48
5.0
100
AcDbLine
 10
560.5816593922126
 20
527.4046931190102
 30
0.0
 11
559.0816593922125
 21
527.4046931190102
 31
0.0
  0
LINE
  5
96A
330
1F
100
AcDbEntity
  8
0
  6
DASHED
 62
     4
 48
5.0
100
AcDbLine
 10
559.0816593922125
 20
528.9046931190098
 30
0.0
 11
558.0816593922128
 21
528.9046931190098
 31
0.0
  0
LINE
  5
96B
330
1F
100
AcDbEntity
  8
0
  6
DASHED
 62
     4
 48
5.0
100
AcDbLine
 10
565.7016593922126
 20
528.9046931190098
 30
0.0
 11
565.7016593922126
 21
527.4046931190102
 31
0.0
  0
LINE
  5
96C
330
1F
100
AcDbEntity
  8
0
  6
DASHED
 62
     4
 48
5.0
100
AcDbLine
 10
564.2016593922123
 20
526.4046931190099
 30
0.0
 11
565.7016593922126
 21
526.4046931190099
 31
0.0
  0
LINE
  5
96D
330
1F
100
AcDbEntity
  8
0
  6
DASHED
 62
     4
 48
5.0
100
AcDbLine
 10
565.7016593922126
 20
527.4046931190102
 30
0.0
 11
564.2016593922123
 21
527.4046931190102
 31
0.0
  0
LINE
  5
96E
330
1F
100
AcDbEntity
  8
0
  6
DASHED
 62
     4
 48
5.0
100
AcDbLine
 10
564.2016593922123
 20
527.4046931190102
 30
0.0
 11
564.2016593922123
 21
526.4046931190099
 31
0.0
  0
LINE
  5
96F
330
1F
100
AcDbEntity
  8
0
  6
DASHED
 62
     4
 48
5.0
100
AcDbLine
 10
565.7016593922126
 20
526.4046931190099
 30
0.0
 11
565.7016593922126
 21
524.9046931190104
 31
0.0
  0
LINE
  5
970
330
1F
100
AcDbEntity
  8
0
  6
DASHED
 62
     4
 48
5.0
100
AcDbLine
 10
565.7016593922126
 20
524.9046931190104
 30
0.0
 11
566.7016593922126
 21
524.9046931190104
 31
0.0
  0
LINE
  5
971
330
1F
100
AcDbEntity
  8
0
  6
DASHED
 62
     4
 48
5.0
100
AcDbLine
 10
566.7016593922126
 20
528.9046931190098
 30
0.0
 11
565.7016593922126
 21
528.9046931190098
 31
0.0
  0
LINE
  5
972
330
1F
100
AcDbEntity
  8
0
  6
DASHED
 62
     4
 48
5.0
100
AcDbLine
 10
524.8350853922126
 20
518.6288791190102
 30
0.0
 11
523.8350853922129
 21
518.6288791190102
 31
0.0
  0
LINE
  5
973
330
1F
100
AcDbEntity
  8
0
  6
DASHED
 62
     4
 48
5.0
100
AcDbLine
 10
523.5964833922126
 20
522.1702171190104
 30
0.0
 11
523.5964833922126
 21
531.1702171190102
 31
0.0
  0
LINE
  5
974
330
1F
100
AcDbEntity
  8
0
  6
DASHED
 62
     4
 48
5.0
100
AcDbLine
 10
515.9764833922129
 20
522.1702171190104
 30
0.0
 11
515.9764833922129
 21
531.1702171190102
 31
0.0
  0
LINE
  5
975
330
1F
100
AcDbEntity
  8
0
  6
DASHED
 62
     4
 48
5.0
100
AcDbLine
 10
517.2150853922127
 20
518.6288791190102
 30
0.0
 11
516.2150853922134
 21
518.6288791190102
 31
0.0
  0
LINE
  5
976
330
1F
100
AcDbEntity
  8
0
  6
DASHED
 62
     4
 48
5.0
100
AcDbLine
 10
519.981659392213
 20
528.9046931190098
 30
0.0
 11
519.981659392213
 21
527.4046931190102
 31
0.0
  0
LINE
  5
977
330
1F
100
AcDbEntity
  8
0
  6
DASHED
 62
     4
 48
5.0
100
AcDbLine
 10
520.9816593922132
 20
527.4046931190102
 30
0.0
 11
520.9816593922132
 21
528.9046931190098
 31
0.0
  0
LINE
  5
978
330
1F
100
AcDbEntity
  8
0
  6
DASHED
 62
     4
 48
5.0
100
AcDbLine
 10
519.981659392213
 20
524.9046931190104
 30
0.0
 11
520.9816593922132
 21
524.9046931190104
 31
0.0
  0
LINE
  5
979
330
1F
100
AcDbEntity
  8
0
  6
DASHED
 62
     4
 48
5.0
100
AcDbLine
 10
519.981659392213
 20
526.4046931190099
 30
0.0
 11
519.981659392213
 21
524.9046931190104
 31
0.0
  0
LINE
  5
97A
330
1F
100
AcDbEntity
  8
0
  6
DASHED
 62
     4
 48
5.0
100
AcDbLine
 10
518.4816593922128
 20
527.4046931190102
 30
0.0
 11
518.4816593922128
 21
526.4046931190099
 31
0.0
  0
LINE
  5
97B
330
1F
100
AcDbEntity
  8
0
  6
DASHED
 62
     4
 48
5.0
100
AcDbLine
 10
518.4816593922128
 20
526.4046931190099
 30
0.0
 11
519.981659392213
 21
526.4046931190099
 31
0.0
  0
LINE
  5
97C
330
1F
100
AcDbEntity
  8
0
  6
DASHED
 62
     4
 48
5.0
100
AcDbLine
 10
519.981659392213
 20
527.4046931190102
 30
0.0
 11
518.4816593922128
 21
527.4046931190102
 31
0.0
  0
LINE
  5
97D
330
1F
100
AcDbEntity
  8
0
  6
DASHED
 62
     4
 48
5.0
100
AcDbLine
 10
522.4816593922132
 20
526.4046931190099
 30
0.0
 11
522.4816593922132
 21
527.4046931190102
 31
0.0
  0
LINE
  5
97E
330
1F
100
AcDbEntity
  8
0
  6
DASHED
 62
     4
 48
5.0
100
AcDbLine
 10
520.9816593922132
 20
524.9046931190104
 30
0.0
 11
520.9816593922132
 21
526.4046931190099
 31
0.0
  0
LINE
  5
97F
330
1F
100
AcDbEntity
  8
0
  6
DASHED
 62
     4
 48
5.0
100
AcDbLine
 10
520.9816593922132
 20
526.4046931190099
 30
0.0
 11
522.4816593922132
 21
526.4046931190099
 31
0.0
  0
LINE
  5
980
330
1F
100
AcDbEntity
  8
0
  6
DASHED
 62
     4
 48
5.0
100
AcDbLine
 10
522.4816593922132
 20
526.4046931190099
 30
0.0
 11
522.4816593922132
 21
526.4046931190099
 31
0.0
  0
LINE
  5
981
330
1F
100
AcDbEntity
  8
0
  6
DASHED
 62
     4
 48
5.0
100
AcDbLine
 10
522.4816593922132
 20
527.4046931190102
 30
0.0
 11
520.9816593922132
 21
527.4046931190102
 31
0.0
  0
LINE
  5
982
330
1F
100
AcDbEntity
  8
0
  6
DASHED
 62
     4
 48
5.0
100
AcDbLine
 10
520.9816593922132
 20
528.9046931190098
 30
0.0
 11
519.981659392213
 21
528.9046931190098
 31
0.0
  0
LINE
  5
983
330
1F
100
AcDbEntity
  8
0
  6
DASHED
 62
     4
 48
5.0
100
AcDbLine
 10
540.0750853922128
 20
518.6288791190102
 30
0.0
 11
539.0750853922128
 21
518.6288791190102
 31
0.0
  0
LINE
  5
984
330
1F
100
AcDbEntity
  8
0
  6
DASHED
 62
     4
 48
5.0
100
AcDbLine
 10
538.8364833922127
 20
522.1702171190104
 30
0.0
 11
538.8364833922127
 21
531.1702171190102
 31
0.0
  0
LINE
  5
985
330
1F
100
AcDbEntity
  8
0
  6
DASHED
 62
     4
 48
5.0
100
AcDbLine
 10
531.2164833922127
 20
522.1702171190104
 30
0.0
 11
531.2164833922127
 21
531.1702171190102
 31
0.0
  0
LINE
  5
986
330
1F
100
AcDbEntity
  8
0
  6
DASHED
 62
     4
 48
5.0
100
AcDbLine
 10
532.536483392213
 20
522.1702171190104
 30
0.0
 11
532.536483392213
 21
531.1702171190102
 31
0.0
  0
LINE
  5
987
330
1F
100
AcDbEntity
  8
0
  6
DASHED
 62
     4
 48
5.0
100
AcDbLine
 10
524.9164833922129
 20
522.1702171190104
 30
0.0
 11
524.9164833922129
 21
531.1702171190102
 31
0.0
  0
LINE
  5
988
330
1F
100
AcDbEntity
  8
0
  6
DASHED
 62
     4
 48
5.0
100
AcDbLine
 10
532.4550853922128
 20
518.6288791190102
 30
0.0
 11
531.4550853922129
 21
518.6288791190102
 31
0.0
  0
LINE
  5
989
330
1F
100
AcDbEntity
  8
0
  6
DASHED
 62
     4
 48
5.0
100
AcDbLine
 10
527.601659392213
 20
528.9046931190098
 30
0.0
 11
527.601659392213
 21
527.4046931190102
 31
0.0
  0
LINE
  5
98A
330
1F
100
AcDbEntity
  8
0
  6
DASHED
 62
     4
 48
5.0
100
AcDbLine
 10
528.601659392213
 20
527.4046931190102
 30
0.0
 11
528.601659392213
 21
528.9046931190098
 31
0.0
  0
LINE
  5
98B
330
1F
100
AcDbEntity
  8
0
  6
DASHED
 62
     4
 48
5.0
100
AcDbLine
 10
527.601659392213
 20
524.9046931190104
 30
0.0
 11
528.601659392213
 21
524.9046931190104
 31
0.0
  0
LINE
  5
98C
330
1F
100
AcDbEntity
  8
0
  6
DASHED
 62
     4
 48
5.0
100
AcDbLine
 10
527.601659392213
 20
526.4046931190099
 30
0.0
 11
527.601659392213
 21
524.9046931190104
 31
0.0
  0
LINE
  5
98D
330
1F
100
AcDbEntity
  8
0
  6
DASHED
 62
     4
 48
5.0
100
AcDbLine
 10
526.1016593922128
 20
527.4046931190102
 30
0.0
 11
526.1016593922128
 21
526.4046931190099
 31
0.0
  0
LINE
  5
98E
330
1F
100
AcDbEntity
  8
0
  6
DASHED
 62
     4
 48
5.0
100
AcDbLine
 10
526.1016593922128
 20
526.4046931190099
 30
0.0
 11
527.601659392213
 21
526.4046931190099
 31
0.0
  0
LINE
  5
98F
330
1F
100
AcDbEntity
  8
0
  6
DASHED
 62
     4
 48
5.0
100
AcDbLine
 10
527.601659392213
 20
527.4046931190102
 30
0.0
 11
526.1016593922128
 21
527.4046931190102
 31
0.0
  0
LINE
  5
990
330
1F
100
AcDbEntity
  8
0
  6
DASHED
 62
     4
 48
5.0
100
AcDbLine
 10
530.1016593922132
 20
526.4046931190099
 30
0.0
 11
530.1016593922132
 21
527.4046931190102
 31
0.0
  0
LINE
  5
991
330
1F
100
AcDbEntity
  8
0
  6
DASHED
 62
     4
 48
5.0
100
AcDbLine
 10
528.601659392213
 20
524.9046931190104
 30
0.0
 11
528.601659392213
 21
526.4046931190099
 31
0.0
  0
LINE
  5
992
330
1F
100
AcDbEntity
  8
0
  6
DASHED
 62
     4
 48
5.0
100
AcDbLine
 10
528.601659392213
 20
526.4046931190099
 30
0.0
 11
530.1016593922132
 21
526.4046931190099
 31
0.0
  0
LINE
  5
993
330
1F
100
AcDbEntity
  8
0
  6
DASHED
 62
     4
 48
5.0
100
AcDbLine
 10
530.1016593922132
 20
526.4046931190099
 30
0.0
 11
530.1016593922132
 21
526.4046931190099
 31
0.0
  0
LINE
  5
994
330
1F
100
AcDbEntity
  8
0
  6
DASHED
 62
     4
 48
5.0
100
AcDbLine
 10
530.1016593922132
 20
527.4046931190102
 30
0.0
 11
528.601659392213
 21
527.4046931190102
 31
0.0
  0
LINE
  5
995
330
1F
100
AcDbEntity
  8
0
  6
DASHED
 62
     4
 48
5.0
100
AcDbLine
 10
528.601659392213
 20
528.9046931190098
 30
0.0
 11
527.601659392213
 21
528.9046931190098
 31
0.0
  0
LINE
  5
996
330
1F
100
AcDbEntity
  8
0
  6
DASHED
 62
     4
 48
5.0
100
AcDbLine
 10
536.2216593922132
 20
527.4046931190102
 30
0.0
 11
536.2216593922132
 21
528.9046931190098
 31
0.0
  0
LINE
  5
997
330
1F
100
AcDbEntity
  8
0
  6
DASHED
 62
     4
 48
5.0
100
AcDbLine
 10
535.2216593922126
 20
528.9046931190098
 30
0.0
 11
535.2216593922126
 21
527.4046931190102
 31
0.0
  0
LINE
  5
998
330
1F
100
AcDbEntity
  8
0
  6
DASHED
 62
     4
 48
5.0
100
AcDbLine
 10
535.2216593922126
 20
524.9046931190104
 30
0.0
 11
536.2216593922132
 21
524.9046931190104
 31
0.0
  0
LINE
  5
999
330
1F
100
AcDbEntity
  8
0
  6
DASHED
 62
     4
 48
5.0
100
AcDbLine
 10
535.2216593922126
 20
526.4046931190099
 30
0.0
 11
535.2216593922126
 21
524.9046931190104
 31
0.0
  0
LINE
  5
99A
330
1F
100
AcDbEntity
  8
0
  6
DASHED
 62
     4
 48
5.0
100
AcDbLine
 10
533.7216593922128
 20
527.4046931190102
 30
0.0
 11
533.7216593922128
 21
526.4046931190099
 31
0.0
  0
LINE
  5
99B
330
1F
100
AcDbEntity
  8
0
  6
DASHED
 62
     4
 48
5.0
100
AcDbLine
 10
533.7216593922128
 20
526.4046931190099
 30
0.0
 11
535.2216593922126
 21
526.4046931190099
 31
0.0
  0
LINE
  5
99C
330
1F
100
AcDbEntity
  8
0
  6
DASHED
 62
     4
 48
5.0
100
AcDbLine
 10
535.2216593922126
 20
527.4046931190102
 30
0.0
 11
533.7216593922128
 21
527.4046931190102
 31
0.0
  0
LINE
  5
99D
330
1F
100
AcDbEntity
  8
0
  6
DASHED
 62
     4
 48
5.0
100
AcDbLine
 10
537.7216593922128
 20
526.4046931190099
 30
0.0
 11
537.7216593922128
 21
527.4046931190102
 31
0.0
  0
LINE
  5
99E
330
1F
100
AcDbEntity
  8
0
  6
DASHED
 62
     4
 48
5.0
100
AcDbLine
 10
536.2216593922132
 20
524.9046931190104
 30
0.0
 11
536.2216593922132
 21
526.4046931190099
 31
0.0
  0
LINE
  5
99F
330
1F
100
AcDbEntity
  8
0
  6
DASHED
 62
     4
 48
5.0
100
AcDbLine
 10
536.2216593922132
 20
526.4046931190099
 30
0.0
 11
537.7216593922128
 21
526.4046931190099
 31
0.0
  0
LINE
  5
9A0
330
1F
100
AcDbEntity
  8
0
  6
DASHED
 62
     4
 48
5.0
100
AcDbLine
 10
537.7216593922128
 20
526.4046931190099
 30
0.0
 11
537.7216593922128
 21
526.4046931190099
 31
0.0
  0
LINE
  5
9A1
330
1F
100
AcDbEntity
  8
0
  6
DASHED
 62
     4
 48
5.0
100
AcDbLine
 10
537.7216593922128
 20
527.4046931190102
 30
0.0
 11
536.2216593922132
 21
527.4046931190102
 31
0.0
  0
LINE
  5
9A2
330
1F
100
AcDbEntity
  8
0
  6
DASHED
 62
     4
 48
5.0
100
AcDbLine
 10
536.2216593922132
 20
528.9046931190098
 30
0.0
 11
535.2216593922126
 21
528.9046931190098
 31
0.0
  0
LINE
  5
9A3
330
1F
100
AcDbEntity
  8
0
  6
DASHED
 62
     4
 48
5.0
100
AcDbLine
 10
540.1564833922129
 20
522.1702171190104
 30
0.0
 11
540.1564833922129
 21
531.1702171190102
 31
0.0
  0
ARC
  5
9A4
330
1F
100
AcDbEntity
  8
0
  6
Continuous
 62
     7
100
AcDbCircle
 10
451.8864753922131
 20
565.4702141190101
 30
0.0
 40
4.500000000000006
100
AcDbArc
 50
0.0
 51
180.0
  0
LINE
  5
9A5
330
1F
100
AcDbEntity
  8
0
  6
Continuous
 62
     7
100
AcDbLine
 10
456.3864753922131
 20
565.4702141190101
 30
0.0
 11
456.3864753922131
 21
564.2644451190102
 31
0.0
  0
LINE
  5
9A6
330
1F
100
AcDbEntity
  8
0
  6
Continuous
 62
     7
100
AcDbLine
 10
447.3864753922131
 20
565.4702141190101
 30
0.0
 11
447.3864753922131
 21
564.2644451190102
 31
0.0
  0
LINE
  5
9A7
330
1F
100
AcDbEntity
  8
0
  6
DASHED
 62
     4
 48
5.0
100
AcDbLine
 10
627.7864833922121
 20
531.1702171190102
 30
0.0
 11
512.1664833922133
 21
531.1702171190102
 31
0.0
  0
LINE
  5
9A8
330
1F
100
AcDbEntity
  8
0
  6
DASHED
 62
     4
 48
5.0
100
AcDbLine
 10
627.7864833922121
 20
522.1702171190104
 30
0.0
 11
512.1664833922133
 21
522.1702171190104
 31
0.0
  0
LINE
  5
9AE
330
1F
100
AcDbEntity
  8
0
  6
DASHED
 62
     4
 48
5.0
100
AcDbLine
 10
617.7750853922121
 20
516.1288791190099
 30
0.0
 11
617.7750853922121
 21
517.1288791190106
 31
0.0
  0
LINE
  5
9AF
330
1F
100
AcDbEntity
  8
0
  6
DASHED
 62
     4
 48
5.0
100
AcDbLine
 10
617.7750853922121
 20
516.1288791190099
 30
0.0
 11
617.7750853922121
 21
516.1288791190099
 31
0.0
  0
LINE
  5
9B0
330
1F
100
AcDbEntity
  8
0
  6
DASHED
 62
     4
 48
5.0
100
AcDbLine
 10
622.8950853922119
 20
514.62887911901
 30
0.0
 11
623.8950853922111
 21
514.62887911901
 31
0.0
  0
LINE
  5
9B1
330
1F
100
AcDbEntity
  8
0
  6
DASHED
 62
     4
 48
5.0
100
AcDbLine
 10
622.8950853922119
 20
516.1288791190099
 30
0.0
 11
622.8950853922119
 21
514.62887911901
 31
0.0
  0
LINE
  5
9B2
330
1F
100
AcDbEntity
  8
0
  6
DASHED
 62
     4
 48
5.0
100
AcDbLine
 10
621.3950853922121
 20
517.1288791190106
 30
0.0
 11
621.3950853922121
 21
516.1288791190099
 31
0.0
  0
LINE
  5
9B3
330
1F
100
AcDbEntity
  8
0
  6
DASHED
 62
     4
 48
5.0
100
AcDbLine
 10
621.3950853922121
 20
516.1288791190099
 30
0.0
 11
622.8950853922119
 21
516.1288791190099
 31
0.0
  0
LINE
  5
9B4
330
1F
100
AcDbEntity
  8
0
  6
DASHED
 62
     4
 48
5.0
100
AcDbLine
 10
622.8950853922119
 20
517.1288791190106
 30
0.0
 11
621.3950853922121
 21
517.1288791190106
 31
0.0
  0
LINE
  5
9B5
330
1F
100
AcDbEntity
  8
0
  6
DASHED
 62
     4
 48
5.0
100
AcDbLine
 10
625.395085392212
 20
516.1288791190099
 30
0.0
 11
625.395085392212
 21
517.1288791190106
 31
0.0
  0
LINE
  5
9B6
330
1F
100
AcDbEntity
  8
0
  6
DASHED
 62
     4
 48
5.0
100
AcDbLine
 10
623.8950853922111
 20
514.62887911901
 30
0.0
 11
623.8950853922111
 21
516.1288791190099
 31
0.0
  0
LINE
  5
9B7
330
1F
100
AcDbEntity
  8
0
  6
DASHED
 62
     4
 48
5.0
100
AcDbLine
 10
623.8950853922111
 20
516.1288791190099
 30
0.0
 11
625.395085392212
 21
516.1288791190099
 31
0.0
  0
LINE
  5
9B8
330
1F
100
AcDbEntity
  8
0
  6
DASHED
 62
     4
 48
5.0
100
AcDbLine
 10
625.395085392212
 20
516.1288791190099
 30
0.0
 11
625.395085392212
 21
516.1288791190099
 31
0.0
  0
LINE
  5
9B9
330
1F
100
AcDbEntity
  8
0
  6
DASHED
 62
     4
 48
5.0
100
AcDbLine
 10
625.395085392212
 20
517.1288791190106
 30
0.0
 11
623.8950853922111
 21
517.1288791190106
 31
0.0
  0
LINE
  5
9BA
330
1F
100
AcDbEntity
  8
0
  6
DASHED
 62
     4
 48
5.0
100
AcDbLine
 10
594.9150853922121
 20
517.1288791190106
 30
0.0
 11
593.4150853922119
 21
517.1288791190106
 31
0.0
  0
LINE
  5
9BB
330
1F
100
AcDbEntity
  8
0
  6
DASHED
 62
     4
 48
5.0
100
AcDbLine
 10
593.4150853922119
 20
516.1288791190099
 30
0.0
 11
594.9150853922121
 21
516.1288791190099
 31
0.0
  0
LINE
  5
9BC
330
1F
100
AcDbEntity
  8
0
  6
DASHED
 62
     4
 48
5.0
100
AcDbLine
 10
593.4150853922119
 20
514.62887911901
 30
0.0
 11
593.4150853922119
 21
516.1288791190099
 31
0.0
  0
LINE
  5
9BD
330
1F
100
AcDbEntity
  8
0
  6
DASHED
 62
     4
 48
5.0
100
AcDbLine
 10
592.4150853922124
 20
516.1288791190099
 30
0.0
 11
592.4150853922124
 21
514.62887911901
 31
0.0
  0
LINE
  5
9BE
330
1F
100
AcDbEntity
  8
0
  6
DASHED
 62
     4
 48
5.0
100
AcDbLine
 10
592.4150853922124
 20
514.62887911901
 30
0.0
 11
593.4150853922119
 21
514.62887911901
 31
0.0
  0
LINE
  5
9BF
330
1F
100
AcDbEntity
  8
0
  6
DASHED
 62
     4
 48
5.0
100
AcDbLine
 10
594.9150853922121
 20
516.1288791190099
 30
0.0
 11
594.9150853922121
 21
517.1288791190106
 31
0.0
  0
LINE
  5
9C0
330
1F
100
AcDbEntity
  8
0
  6
DASHED
 62
     4
 48
5.0
100
AcDbLine
 10
594.9150853922121
 20
516.1288791190099
 30
0.0
 11
594.9150853922121
 21
516.1288791190099
 31
0.0
  0
LINE
  5
9C1
330
1F
100
AcDbEntity
  8
0
  6
DASHED
 62
     4
 48
5.0
100
AcDbLine
 10
601.0350853922119
 20
516.1288791190099
 30
0.0
 11
602.535085392212
 21
516.1288791190099
 31
0.0
  0
LINE
  5
9C2
330
1F
100
AcDbEntity
  8
0
  6
DASHED
 62
     4
 48
5.0
100
AcDbLine
 10
602.535085392212
 20
517.1288791190106
 30
0.0
 11
601.0350853922119
 21
517.1288791190106
 31
0.0
  0
LINE
  5
9C3
330
1F
100
AcDbEntity
  8
0
  6
DASHED
 62
     4
 48
5.0
100
AcDbLine
 10
601.0350853922119
 20
514.62887911901
 30
0.0
 11
601.0350853922119
 21
516.1288791190099
 31
0.0
  0
LINE
  5
9C4
330
1F
100
AcDbEntity
  8
0
  6
DASHED
 62
     4
 48
5.0
100
AcDbLine
 10
598.5350853922121
 20
517.1288791190106
 30
0.0
 11
598.5350853922121
 21
516.1288791190099
 31
0.0
  0
LINE
  5
9C5
330
1F
100
AcDbEntity
  8
0
  6
DASHED
 62
     4
 48
5.0
100
AcDbLine
 10
598.5350853922121
 20
516.1288791190099
 30
0.0
 11
600.0350853922121
 21
516.1288791190099
 31
0.0
  0
LINE
  5
9C6
330
1F
100
AcDbEntity
  8
0
  6
DASHED
 62
     4
 48
5.0
100
AcDbLine
 10
600.0350853922121
 20
516.1288791190099
 30
0.0
 11
600.0350853922121
 21
514.62887911901
 31
0.0
  0
LINE
  5
9C7
330
1F
100
AcDbEntity
  8
0
  6
DASHED
 62
     4
 48
5.0
100
AcDbLine
 10
600.0350853922121
 20
517.1288791190106
 30
0.0
 11
598.5350853922121
 21
517.1288791190106
 31
0.0
  0
LINE
  5
9C8
330
1F
100
AcDbEntity
  8
0
  6
DASHED
 62
     4
 48
5.0
100
AcDbLine
 10
600.0350853922121
 20
514.62887911901
 30
0.0
 11
601.0350853922119
 21
514.62887911901
 31
0.0
  0
LINE
  5
9C9
330
1F
100
AcDbEntity
  8
0
  6
DASHED
 62
     4
 48
5.0
100
AcDbLine
 10
602.535085392212
 20
516.1288791190099
 30
0.0
 11
602.535085392212
 21
517.1288791190106
 31
0.0
  0
LINE
  5
9CA
330
1F
100
AcDbEntity
  8
0
  6
DASHED
 62
     4
 48
5.0
100
AcDbLine
 10
602.535085392212
 20
516.1288791190099
 30
0.0
 11
602.535085392212
 21
516.1288791190099
 31
0.0
  0
LINE
  5
9CB
330
1F
100
AcDbEntity
  8
0
  6
DASHED
 62
     4
 48
5.0
100
AcDbLine
 10
608.6550853922117
 20
516.1288791190099
 30
0.0
 11
610.1550853922117
 21
516.1288791190099
 31
0.0
  0
LINE
  5
9CC
330
1F
100
AcDbEntity
  8
0
  6
DASHED
 62
     4
 48
5.0
100
AcDbLine
 10
610.1550853922117
 20
517.1288791190106
 30
0.0
 11
608.6550853922117
 21
517.1288791190106
 31
0.0
  0
LINE
  5
9CD
330
1F
100
AcDbEntity
  8
0
  6
DASHED
 62
     4
 48
5.0
100
AcDbLine
 10
607.6550853922118
 20
514.62887911901
 30
0.0
 11
608.6550853922117
 21
514.62887911901
 31
0.0
  0
LINE
  5
9CE
330
1F
100
AcDbEntity
  8
0
  6
DASHED
 62
     4
 48
5.0
100
AcDbLine
 10
607.6550853922118
 20
516.1288791190099
 30
0.0
 11
607.6550853922118
 21
514.62887911901
 31
0.0
  0
LINE
  5
9CF
330
1F
100
AcDbEntity
  8
0
  6
DASHED
 62
     4
 48
5.0
100
AcDbLine
 10
608.6550853922117
 20
514.62887911901
 30
0.0
 11
608.6550853922117
 21
516.1288791190099
 31
0.0
  0
LINE
  5
9D0
330
1F
100
AcDbEntity
  8
0
  6
DASHED
 62
     4
 48
5.0
100
AcDbLine
 10
606.1550853922117
 20
517.1288791190106
 30
0.0
 11
606.1550853922117
 21
516.1288791190099
 31
0.0
  0
LINE
  5
9D1
330
1F
100
AcDbEntity
  8
0
  6
DASHED
 62
     4
 48
5.0
100
AcDbLine
 10
606.1550853922117
 20
516.1288791190099
 30
0.0
 11
607.6550853922118
 21
516.1288791190099
 31
0.0
  0
LINE
  5
9D2
330
1F
100
AcDbEntity
  8
0
  6
DASHED
 62
     4
 48
5.0
100
AcDbLine
 10
607.6550853922118
 20
517.1288791190106
 30
0.0
 11
606.1550853922117
 21
517.1288791190106
 31
0.0
  0
LINE
  5
9D3
330
1F
100
AcDbEntity
  8
0
  6
DASHED
 62
     4
 48
5.0
100
AcDbLine
 10
610.1550853922117
 20
516.1288791190099
 30
0.0
 11
610.1550853922117
 21
517.1288791190106
 31
0.0
  0
LINE
  5
9D4
330
1F
100
AcDbEntity
  8
0
  6
DASHED
 62
     4
 48
5.0
100
AcDbLine
 10
610.1550853922117
 20
516.1288791190099
 30
0.0
 11
610.1550853922117
 21
516.1288791190099
 31
0.0
  0
LINE
  5
9D5
330
1F
100
AcDbEntity
  8
0
  6
DASHED
 62
     4
 48
5.0
100
AcDbLine
 10
615.2750853922117
 20
514.62887911901
 30
0.0
 11
616.2750853922112
 21
514.62887911901
 31
0.0
  0
LINE
  5
9D6
330
1F
100
AcDbEntity
  8
0
  6
DASHED
 62
     4
 48
5.0
100
AcDbLine
 10
615.2750853922117
 20
516.1288791190099
 30
0.0
 11
615.2750853922117
 21
514.62887911901
 31
0.0
  0
LINE
  5
9D7
330
1F
100
AcDbEntity
  8
0
  6
DASHED
 62
     4
 48
5.0
100
AcDbLine
 10
616.2750853922112
 20
514.62887911901
 30
0.0
 11
616.2750853922112
 21
516.1288791190099
 31
0.0
  0
LINE
  5
9D8
330
1F
100
AcDbEntity
  8
0
  6
DASHED
 62
     4
 48
5.0
100
AcDbLine
 10
613.7750853922121
 20
517.1288791190106
 30
0.0
 11
613.7750853922121
 21
516.1288791190099
 31
0.0
  0
LINE
  5
9D9
330
1F
100
AcDbEntity
  8
0
  6
DASHED
 62
     4
 48
5.0
100
AcDbLine
 10
613.7750853922121
 20
516.1288791190099
 30
0.0
 11
615.2750853922117
 21
516.1288791190099
 31
0.0
  0
LINE
  5
9DA
330
1F
100
AcDbEntity
  8
0
  6
DASHED
 62
     4
 48
5.0
100
AcDbLine
 10
615.2750853922117
 20
517.1288791190106
 30
0.0
 11
613.7750853922121
 21
517.1288791190106
 31
0.0
  0
LINE
  5
9DB
330
1F
100
AcDbEntity
  8
0
  6
DASHED
 62
     4
 48
5.0
100
AcDbLine
 10
616.2750853922112
 20
516.1288791190099
 30
0.0
 11
617.7750853922121
 21
516.1288791190099
 31
0.0
  0
LINE
  5
9DC
330
1F
100
AcDbEntity
  8
0
  6
DASHED
 62
     4
 48
5.0
100
AcDbLine
 10
617.7750853922121
 20
517.1288791190106
 30
0.0
 11
616.2750853922112
 21
517.1288791190106
 31
0.0
  0
LINE
  5
9E6
330
1F
100
AcDbEntity
  8
0
  6
DASHED
 62
     4
 48
5.0
100
AcDbLine
 10
568.0550853922121
 20
516.1288791190099
 30
0.0
 11
569.5550853922124
 21
516.1288791190099
 31
0.0
  0
LINE
  5
9E7
330
1F
100
AcDbEntity
  8
0
  6
DASHED
 62
     4
 48
5.0
100
AcDbLine
 10
569.5550853922124
 20
517.1288791190106
 30
0.0
 11
568.0550853922121
 21
517.1288791190106
 31
0.0
  0
LINE
  5
9E8
330
1F
100
AcDbEntity
  8
0
  6
DASHED
 62
     4
 48
5.0
100
AcDbLine
 10
568.0550853922121
 20
517.1288791190106
 30
0.0
 11
568.0550853922121
 21
516.1288791190099
 31
0.0
  0
LINE
  5
9E9
330
1F
100
AcDbEntity
  8
0
  6
DASHED
 62
     4
 48
5.0
100
AcDbLine
 10
575.6750853922121
 20
516.1288791190099
 30
0.0
 11
577.1750853922124
 21
516.1288791190099
 31
0.0
  0
LINE
  5
9EA
330
1F
100
AcDbEntity
  8
0
  6
DASHED
 62
     4
 48
5.0
100
AcDbLine
 10
577.1750853922124
 20
517.1288791190106
 30
0.0
 11
575.6750853922121
 21
517.1288791190106
 31
0.0
  0
LINE
  5
9EB
330
1F
100
AcDbEntity
  8
0
  6
DASHED
 62
     4
 48
5.0
100
AcDbLine
 10
572.0550853922121
 20
516.1288791190099
 30
0.0
 11
572.0550853922121
 21
517.1288791190106
 31
0.0
  0
LINE
  5
9EC
330
1F
100
AcDbEntity
  8
0
  6
DASHED
 62
     4
 48
5.0
100
AcDbLine
 10
572.0550853922121
 20
516.1288791190099
 30
0.0
 11
572.0550853922121
 21
516.1288791190099
 31
0.0
  0
LINE
  5
9ED
330
1F
100
AcDbEntity
  8
0
  6
DASHED
 62
     4
 48
5.0
100
AcDbLine
 10
569.5550853922124
 20
516.1288791190099
 30
0.0
 11
569.5550853922124
 21
514.62887911901
 31
0.0
  0
LINE
  5
9EE
330
1F
100
AcDbEntity
  8
0
  6
DASHED
 62
     4
 48
5.0
100
AcDbLine
 10
569.5550853922124
 20
514.62887911901
 30
0.0
 11
570.5550853922125
 21
514.62887911901
 31
0.0
  0
LINE
  5
9EF
330
1F
100
AcDbEntity
  8
0
  6
DASHED
 62
     4
 48
5.0
100
AcDbLine
 10
570.5550853922125
 20
514.62887911901
 30
0.0
 11
570.5550853922125
 21
516.1288791190099
 31
0.0
  0
LINE
  5
9F0
330
1F
100
AcDbEntity
  8
0
  6
DASHED
 62
     4
 48
5.0
100
AcDbLine
 10
570.5550853922125
 20
516.1288791190099
 30
0.0
 11
572.0550853922121
 21
516.1288791190099
 31
0.0
  0
LINE
  5
9F1
330
1F
100
AcDbEntity
  8
0
  6
DASHED
 62
     4
 48
5.0
100
AcDbLine
 10
572.0550853922121
 20
517.1288791190106
 30
0.0
 11
570.5550853922125
 21
517.1288791190106
 31
0.0
  0
LINE
  5
9F2
330
1F
100
AcDbEntity
  8
0
  6
DASHED
 62
     4
 48
5.0
100
AcDbLine
 10
575.6750853922121
 20
517.1288791190106
 30
0.0
 11
575.6750853922121
 21
516.1288791190099
 31
0.0
  0
LINE
  5
9F3
330
1F
100
AcDbEntity
  8
0
  6
DASHED
 62
     4
 48
5.0
100
AcDbLine
 10
579.6750853922124
 20
517.1288791190106
 30
0.0
 11
578.1750853922122
 21
517.1288791190106
 31
0.0
  0
LINE
  5
9F4
330
1F
100
AcDbEntity
  8
0
  6
DASHED
 62
     4
 48
5.0
100
AcDbLine
 10
578.1750853922122
 20
516.1288791190099
 30
0.0
 11
579.6750853922124
 21
516.1288791190099
 31
0.0
  0
LINE
  5
9F5
330
1F
100
AcDbEntity
  8
0
  6
DASHED
 62
     4
 48
5.0
100
AcDbLine
 10
578.1750853922122
 20
514.62887911901
 30
0.0
 11
578.1750853922122
 21
516.1288791190099
 31
0.0
  0
LINE
  5
9F6
330
1F
100
AcDbEntity
  8
0
  6
DASHED
 62
     4
 48
5.0
100
AcDbLine
 10
577.1750853922124
 20
516.1288791190099
 30
0.0
 11
577.1750853922124
 21
514.62887911901
 31
0.0
  0
LINE
  5
9F7
330
1F
100
AcDbEntity
  8
0
  6
DASHED
 62
     4
 48
5.0
100
AcDbLine
 10
577.1750853922124
 20
514.62887911901
 30
0.0
 11
578.1750853922122
 21
514.62887911901
 31
0.0
  0
LINE
  5
9F8
330
1F
100
AcDbEntity
  8
0
  6
DASHED
 62
     4
 48
5.0
100
AcDbLine
 10
579.6750853922124
 20
516.1288791190099
 30
0.0
 11
579.6750853922124
 21
517.1288791190106
 31
0.0
  0
LINE
  5
9F9
330
1F
100
AcDbEntity
  8
0
  6
DASHED
 62
     4
 48
5.0
100
AcDbLine
 10
579.6750853922124
 20
516.1288791190099
 30
0.0
 11
579.6750853922124
 21
516.1288791190099
 31
0.0
  0
LINE
  5
9FA
330
1F
100
AcDbEntity
  8
0
  6
DASHED
 62
     4
 48
5.0
100
AcDbLine
 10
585.7950853922122
 20
516.1288791190099
 30
0.0
 11
587.2950853922121
 21
516.1288791190099
 31
0.0
  0
LINE
  5
9FB
330
1F
100
AcDbEntity
  8
0
  6
DASHED
 62
     4
 48
5.0
100
AcDbLine
 10
587.2950853922121
 20
517.1288791190106
 30
0.0
 11
585.7950853922122
 21
517.1288791190106
 31
0.0
  0
LINE
  5
9FC
330
1F
100
AcDbEntity
  8
0
  6
DASHED
 62
     4
 48
5.0
100
AcDbLine
 10
585.7950853922122
 20
514.62887911901
 30
0.0
 11
585.7950853922122
 21
516.1288791190099
 31
0.0
  0
LINE
  5
9FD
330
1F
100
AcDbEntity
  8
0
  6
DASHED
 62
     4
 48
5.0
100
AcDbLine
 10
583.2950853922124
 20
517.1288791190106
 30
0.0
 11
583.2950853922124
 21
516.1288791190099
 31
0.0
  0
LINE
  5
9FE
330
1F
100
AcDbEntity
  8
0
  6
DASHED
 62
     4
 48
5.0
100
AcDbLine
 10
583.2950853922124
 20
516.1288791190099
 30
0.0
 11
584.7950853922121
 21
516.1288791190099
 31
0.0
  0
LINE
  5
9FF
330
1F
100
AcDbEntity
  8
0
  6
DASHED
 62
     4
 48
5.0
100
AcDbLine
 10
584.7950853922121
 20
516.1288791190099
 30
0.0
 11
584.7950853922121
 21
514.62887911901
 31
0.0
  0
LINE
  5
A00
330
1F
100
AcDbEntity
  8
0
  6
DASHED
 62
     4
 48
5.0
100
AcDbLine
 10
584.7950853922121
 20
517.1288791190106
 30
0.0
 11
583.2950853922124
 21
517.1288791190106
 31
0.0
  0
LINE
  5
A01
330
1F
100
AcDbEntity
  8
0
  6
DASHED
 62
     4
 48
5.0
100
AcDbLine
 10
584.7950853922121
 20
514.62887911901
 30
0.0
 11
585.7950853922122
 21
514.62887911901
 31
0.0
  0
LINE
  5
A02
330
1F
100
AcDbEntity
  8
0
  6
DASHED
 62
     4
 48
5.0
100
AcDbLine
 10
587.2950853922121
 20
516.1288791190099
 30
0.0
 11
587.2950853922121
 21
517.1288791190106
 31
0.0
  0
LINE
  5
A03
330
1F
100
AcDbEntity
  8
0
  6
DASHED
 62
     4
 48
5.0
100
AcDbLine
 10
587.2950853922121
 20
516.1288791190099
 30
0.0
 11
587.2950853922121
 21
516.1288791190099
 31
0.0
  0
LINE
  5
A04
330
1F
100
AcDbEntity
  8
0
  6
DASHED
 62
     4
 48
5.0
100
AcDbLine
 10
590.9150853922121
 20
517.1288791190106
 30
0.0
 11
590.9150853922121
 21
516.1288791190099
 31
0.0
  0
LINE
  5
A05
330
1F
100
AcDbEntity
  8
0
  6
DASHED
 62
     4
 48
5.0
100
AcDbLine
 10
552.8150853922122
 20
516.1288791190099
 30
0.0
 11
554.3150853922126
 21
516.1288791190099
 31
0.0
  0
LINE
  5
A06
330
1F
100
AcDbEntity
  8
0
  6
DASHED
 62
     4
 48
5.0
100
AcDbLine
 10
554.3150853922126
 20
517.1288791190106
 30
0.0
 11
552.8150853922122
 21
517.1288791190106
 31
0.0
  0
LINE
  5
A07
330
1F
100
AcDbEntity
  8
0
  6
DASHED
 62
     4
 48
5.0
100
AcDbLine
 10
545.1950853922125
 20
516.1288791190099
 30
0.0
 11
546.6950853922121
 21
516.1288791190099
 31
0.0
  0
LINE
  5
A08
330
1F
100
AcDbEntity
  8
0
  6
DASHED
 62
     4
 48
5.0
100
AcDbLine
 10
546.6950853922121
 20
517.1288791190106
 30
0.0
 11
545.1950853922125
 21
517.1288791190106
 31
0.0
  0
LINE
  5
A09
330
1F
100
AcDbEntity
  8
0
  6
DASHED
 62
     4
 48
5.0
100
AcDbLine
 10
541.5750853922129
 20
516.1288791190099
 30
0.0
 11
541.5750853922129
 21
517.1288791190106
 31
0.0
  0
LINE
  5
A0A
330
1F
100
AcDbEntity
  8
0
  6
DASHED
 62
     4
 48
5.0
100
AcDbLine
 10
541.5750853922129
 20
516.1288791190099
 30
0.0
 11
541.5750853922129
 21
516.1288791190099
 31
0.0
  0
LINE
  5
A0B
330
1F
100
AcDbEntity
  8
0
  6
DASHED
 62
     4
 48
5.0
100
AcDbLine
 10
545.1950853922125
 20
517.1288791190106
 30
0.0
 11
545.1950853922125
 21
516.1288791190099
 31
0.0
  0
LINE
  5
A0C
330
1F
100
AcDbEntity
  8
0
  6
DASHED
 62
     4
 48
5.0
100
AcDbLine
 10
549.1950853922124
 20
516.1288791190099
 30
0.0
 11
549.1950853922124
 21
517.1288791190106
 31
0.0
  0
LINE
  5
A0D
330
1F
100
AcDbEntity
  8
0
  6
DASHED
 62
     4
 48
5.0
100
AcDbLine
 10
549.1950853922124
 20
516.1288791190099
 30
0.0
 11
549.1950853922124
 21
516.1288791190099
 31
0.0
  0
LINE
  5
A0E
330
1F
100
AcDbEntity
  8
0
  6
DASHED
 62
     4
 48
5.0
100
AcDbLine
 10
547.6950853922128
 20
514.62887911901
 30
0.0
 11
547.6950853922128
 21
516.1288791190099
 31
0.0
  0
LINE
  5
A0F
330
1F
100
AcDbEntity
  8
0
  6
DASHED
 62
     4
 48
5.0
100
AcDbLine
 10
546.6950853922121
 20
516.1288791190099
 30
0.0
 11
546.6950853922121
 21
514.62887911901
 31
0.0
  0
LINE
  5
A10
330
1F
100
AcDbEntity
  8
0
  6
DASHED
 62
     4
 48
5.0
100
AcDbLine
 10
546.6950853922121
 20
514.62887911901
 30
0.0
 11
547.6950853922128
 21
514.62887911901
 31
0.0
  0
LINE
  5
A11
330
1F
100
AcDbEntity
  8
0
  6
DASHED
 62
     4
 48
5.0
100
AcDbLine
 10
547.6950853922128
 20
516.1288791190099
 30
0.0
 11
549.1950853922124
 21
516.1288791190099
 31
0.0
  0
LINE
  5
A12
330
1F
100
AcDbEntity
  8
0
  6
DASHED
 62
     4
 48
5.0
100
AcDbLine
 10
549.1950853922124
 20
517.1288791190106
 30
0.0
 11
547.6950853922128
 21
517.1288791190106
 31
0.0
  0
LINE
  5
A13
330
1F
100
AcDbEntity
  8
0
  6
DASHED
 62
     4
 48
5.0
100
AcDbLine
 10
552.8150853922122
 20
517.1288791190106
 30
0.0
 11
552.8150853922122
 21
516.1288791190099
 31
0.0
  0
LINE
  5
A14
330
1F
100
AcDbEntity
  8
0
  6
DASHED
 62
     4
 48
5.0
100
AcDbLine
 10
560.4350853922122
 20
516.1288791190099
 30
0.0
 11
561.9350853922123
 21
516.1288791190099
 31
0.0
  0
LINE
  5
A15
330
1F
100
AcDbEntity
  8
0
  6
DASHED
 62
     4
 48
5.0
100
AcDbLine
 10
561.9350853922123
 20
517.1288791190106
 30
0.0
 11
560.4350853922122
 21
517.1288791190106
 31
0.0
  0
LINE
  5
A16
330
1F
100
AcDbEntity
  8
0
  6
DASHED
 62
     4
 48
5.0
100
AcDbLine
 10
556.8150853922121
 20
516.1288791190099
 30
0.0
 11
556.8150853922121
 21
517.1288791190106
 31
0.0
  0
LINE
  5
A17
330
1F
100
AcDbEntity
  8
0
  6
DASHED
 62
     4
 48
5.0
100
AcDbLine
 10
556.8150853922121
 20
516.1288791190099
 30
0.0
 11
556.8150853922121
 21
516.1288791190099
 31
0.0
  0
LINE
  5
A18
330
1F
100
AcDbEntity
  8
0
  6
DASHED
 62
     4
 48
5.0
100
AcDbLine
 10
554.3150853922126
 20
516.1288791190099
 30
0.0
 11
554.3150853922126
 21
514.62887911901
 31
0.0
  0
LINE
  5
A19
330
1F
100
AcDbEntity
  8
0
  6
DASHED
 62
     4
 48
5.0
100
AcDbLine
 10
554.3150853922126
 20
514.62887911901
 30
0.0
 11
555.3150853922127
 21
514.62887911901
 31
0.0
  0
LINE
  5
A1A
330
1F
100
AcDbEntity
  8
0
  6
DASHED
 62
     4
 48
5.0
100
AcDbLine
 10
555.3150853922127
 20
514.62887911901
 30
0.0
 11
555.3150853922127
 21
516.1288791190099
 31
0.0
  0
LINE
  5
A1B
330
1F
100
AcDbEntity
  8
0
  6
DASHED
 62
     4
 48
5.0
100
AcDbLine
 10
555.3150853922127
 20
516.1288791190099
 30
0.0
 11
556.8150853922121
 21
516.1288791190099
 31
0.0
  0
LINE
  5
A1C
330
1F
100
AcDbEntity
  8
0
  6
DASHED
 62
     4
 48
5.0
100
AcDbLine
 10
556.8150853922121
 20
517.1288791190106
 30
0.0
 11
555.3150853922127
 21
517.1288791190106
 31
0.0
  0
LINE
  5
A1D
330
1F
100
AcDbEntity
  8
0
  6
DASHED
 62
     4
 48
5.0
100
AcDbLine
 10
560.4350853922122
 20
517.1288791190106
 30
0.0
 11
560.4350853922122
 21
516.1288791190099
 31
0.0
  0
LINE
  5
A1E
330
1F
100
AcDbEntity
  8
0
  6
DASHED
 62
     4
 48
5.0
100
AcDbLine
 10
564.4350853922121
 20
516.1288791190099
 30
0.0
 11
564.4350853922121
 21
517.1288791190106
 31
0.0
  0
LINE
  5
A1F
330
1F
100
AcDbEntity
  8
0
  6
DASHED
 62
     4
 48
5.0
100
AcDbLine
 10
564.4350853922121
 20
516.1288791190099
 30
0.0
 11
564.4350853922121
 21
516.1288791190099
 31
0.0
  0
LINE
  5
A20
330
1F
100
AcDbEntity
  8
0
  6
DASHED
 62
     4
 48
5.0
100
AcDbLine
 10
561.9350853922123
 20
516.1288791190099
 30
0.0
 11
561.9350853922123
 21
514.62887911901
 31
0.0
  0
LINE
  5
A21
330
1F
100
AcDbEntity
  8
0
  6
DASHED
 62
     4
 48
5.0
100
AcDbLine
 10
561.9350853922123
 20
514.62887911901
 30
0.0
 11
562.9350853922122
 21
514.62887911901
 31
0.0
  0
LINE
  5
A22
330
1F
100
AcDbEntity
  8
0
  6
DASHED
 62
     4
 48
5.0
100
AcDbLine
 10
562.9350853922122
 20
514.62887911901
 30
0.0
 11
562.9350853922122
 21
516.1288791190099
 31
0.0
  0
LINE
  5
A23
330
1F
100
AcDbEntity
  8
0
  6
DASHED
 62
     4
 48
5.0
100
AcDbLine
 10
564.4350853922121
 20
517.1288791190106
 30
0.0
 11
562.9350853922122
 21
517.1288791190106
 31
0.0
  0
LINE
  5
A24
330
1F
100
AcDbEntity
  8
0
  6
DASHED
 62
     4
 48
5.0
100
AcDbLine
 10
562.9350853922122
 20
516.1288791190099
 30
0.0
 11
564.4350853922121
 21
516.1288791190099
 31
0.0
  0
LINE
  5
A25
330
1F
100
AcDbEntity
  8
0
  6
DASHED
 62
     4
 48
5.0
100
AcDbLine
 10
590.9150853922121
 20
516.1288791190099
 30
0.0
 11
592.4150853922124
 21
516.1288791190099
 31
0.0
  0
LINE
  5
A26
330
1F
100
AcDbEntity
  8
0
  6
DASHED
 62
     4
 48
5.0
100
AcDbLine
 10
592.4150853922124
 20
517.1288791190106
 30
0.0
 11
590.9150853922121
 21
517.1288791190106
 31
0.0
  0
LINE
  5
A28
330
1F
100
AcDbEntity
  8
0
  6
DASHED
 62
     4
 48
5.0
100
AcDbLine
 10
523.8350853922129
 20
514.62887911901
 30
0.0
 11
524.8350853922126
 21
514.62887911901
 31
0.0
  0
LINE
  5
A29
330
1F
100
AcDbEntity
  8
0
  6
DASHED
 62
     4
 48
5.0
100
AcDbLine
 10
516.2150853922134
 20
514.62887911901
 30
0.0
 11
517.2150853922127
 21
514.62887911901
 31
0.0
  0
LINE
  5
A2A
330
1F
100
AcDbEntity
  8
0
  6
DASHED
 62
     4
 48
5.0
100
AcDbLine
 10
516.2150853922134
 20
516.1288791190099
 30
0.0
 11
516.2150853922134
 21
514.62887911901
 31
0.0
  0
LINE
  5
A2B
330
1F
100
AcDbEntity
  8
0
  6
DASHED
 62
     4
 48
5.0
100
AcDbLine
 10
518.7150853922132
 20
516.1288791190099
 30
0.0
 11
518.7150853922132
 21
517.1288791190106
 31
0.0
  0
LINE
  5
A2C
330
1F
100
AcDbEntity
  8
0
  6
DASHED
 62
     4
 48
5.0
100
AcDbLine
 10
517.2150853922127
 20
514.62887911901
 30
0.0
 11
517.2150853922127
 21
516.1288791190099
 31
0.0
  0
LINE
  5
A2D
330
1F
100
AcDbEntity
  8
0
  6
DASHED
 62
     4
 48
5.0
100
AcDbLine
 10
517.2150853922127
 20
516.1288791190099
 30
0.0
 11
518.7150853922132
 21
516.1288791190099
 31
0.0
  0
LINE
  5
A2E
330
1F
100
AcDbEntity
  8
0
  6
DASHED
 62
     4
 48
5.0
100
AcDbLine
 10
518.7150853922132
 20
516.1288791190099
 30
0.0
 11
518.7150853922132
 21
516.1288791190099
 31
0.0
  0
LINE
  5
A2F
330
1F
100
AcDbEntity
  8
0
  6
DASHED
 62
     4
 48
5.0
100
AcDbLine
 10
518.7150853922132
 20
517.1288791190106
 30
0.0
 11
517.2150853922127
 21
517.1288791190106
 31
0.0
  0
LINE
  5
A30
330
1F
100
AcDbEntity
  8
0
  6
DASHED
 62
     4
 48
5.0
100
AcDbLine
 10
522.3350853922129
 20
517.1288791190106
 30
0.0
 11
522.3350853922129
 21
516.1288791190099
 31
0.0
  0
LINE
  5
A31
330
1F
100
AcDbEntity
  8
0
  6
DASHED
 62
     4
 48
5.0
100
AcDbLine
 10
522.3350853922129
 20
516.1288791190099
 30
0.0
 11
523.8350853922129
 21
516.1288791190099
 31
0.0
  0
LINE
  5
A32
330
1F
100
AcDbEntity
  8
0
  6
DASHED
 62
     4
 48
5.0
100
AcDbLine
 10
523.8350853922129
 20
516.1288791190099
 30
0.0
 11
523.8350853922129
 21
514.62887911901
 31
0.0
  0
LINE
  5
A33
330
1F
100
AcDbEntity
  8
0
  6
DASHED
 62
     4
 48
5.0
100
AcDbLine
 10
523.8350853922129
 20
517.1288791190106
 30
0.0
 11
522.3350853922129
 21
517.1288791190106
 31
0.0
  0
LINE
  5
A34
330
1F
100
AcDbEntity
  8
0
  6
DASHED
 62
     4
 48
5.0
100
AcDbLine
 10
539.0750853922128
 20
514.62887911901
 30
0.0
 11
540.0750853922128
 21
514.62887911901
 31
0.0
  0
LINE
  5
A35
330
1F
100
AcDbEntity
  8
0
  6
DASHED
 62
     4
 48
5.0
100
AcDbLine
 10
531.4550853922129
 20
514.62887911901
 30
0.0
 11
532.4550853922128
 21
514.62887911901
 31
0.0
  0
LINE
  5
A36
330
1F
100
AcDbEntity
  8
0
  6
DASHED
 62
     4
 48
5.0
100
AcDbLine
 10
526.3350853922129
 20
516.1288791190099
 30
0.0
 11
526.3350853922129
 21
517.1288791190106
 31
0.0
  0
LINE
  5
A37
330
1F
100
AcDbEntity
  8
0
  6
DASHED
 62
     4
 48
5.0
100
AcDbLine
 10
524.8350853922126
 20
514.62887911901
 30
0.0
 11
524.8350853922126
 21
516.1288791190099
 31
0.0
  0
LINE
  5
A38
330
1F
100
AcDbEntity
  8
0
  6
DASHED
 62
     4
 48
5.0
100
AcDbLine
 10
524.8350853922126
 20
516.1288791190099
 30
0.0
 11
526.3350853922129
 21
516.1288791190099
 31
0.0
  0
LINE
  5
A39
330
1F
100
AcDbEntity
  8
0
  6
DASHED
 62
     4
 48
5.0
100
AcDbLine
 10
526.3350853922129
 20
516.1288791190099
 30
0.0
 11
526.3350853922129
 21
516.1288791190099
 31
0.0
  0
LINE
  5
A3A
330
1F
100
AcDbEntity
  8
0
  6
DASHED
 62
     4
 48
5.0
100
AcDbLine
 10
526.3350853922129
 20
517.1288791190106
 30
0.0
 11
524.8350853922126
 21
517.1288791190106
 31
0.0
  0
LINE
  5
A3B
330
1F
100
AcDbEntity
  8
0
  6
DASHED
 62
     4
 48
5.0
100
AcDbLine
 10
529.9550853922132
 20
517.1288791190106
 30
0.0
 11
529.9550853922132
 21
516.1288791190099
 31
0.0
  0
LINE
  5
A3C
330
1F
100
AcDbEntity
  8
0
  6
DASHED
 62
     4
 48
5.0
100
AcDbLine
 10
531.4550853922129
 20
516.1288791190099
 30
0.0
 11
531.4550853922129
 21
514.62887911901
 31
0.0
  0
LINE
  5
A3D
330
1F
100
AcDbEntity
  8
0
  6
DASHED
 62
     4
 48
5.0
100
AcDbLine
 10
529.9550853922132
 20
516.1288791190099
 30
0.0
 11
531.4550853922129
 21
516.1288791190099
 31
0.0
  0
LINE
  5
A3E
330
1F
100
AcDbEntity
  8
0
  6
DASHED
 62
     4
 48
5.0
100
AcDbLine
 10
531.4550853922129
 20
517.1288791190106
 30
0.0
 11
529.9550853922132
 21
517.1288791190106
 31
0.0
  0
LINE
  5
A3F
330
1F
100
AcDbEntity
  8
0
  6
DASHED
 62
     4
 48
5.0
100
AcDbLine
 10
533.9550853922132
 20
516.1288791190099
 30
0.0
 11
533.9550853922132
 21
517.1288791190106
 31
0.0
  0
LINE
  5
A40
330
1F
100
AcDbEntity
  8
0
  6
DASHED
 62
     4
 48
5.0
100
AcDbLine
 10
532.4550853922128
 20
514.62887911901
 30
0.0
 11
532.4550853922128
 21
516.1288791190099
 31
0.0
  0
LINE
  5
A41
330
1F
100
AcDbEntity
  8
0
  6
DASHED
 62
     4
 48
5.0
100
AcDbLine
 10
532.4550853922128
 20
516.1288791190099
 30
0.0
 11
533.9550853922132
 21
516.1288791190099
 31
0.0
  0
LINE
  5
A42
330
1F
100
AcDbEntity
  8
0
  6
DASHED
 62
     4
 48
5.0
100
AcDbLine
 10
533.9550853922132
 20
516.1288791190099
 30
0.0
 11
533.9550853922132
 21
516.1288791190099
 31
0.0
  0
LINE
  5
A43
330
1F
100
AcDbEntity
  8
0
  6
DASHED
 62
     4
 48
5.0
100
AcDbLine
 10
533.9550853922132
 20
517.1288791190106
 30
0.0
 11
532.4550853922128
 21
517.1288791190106
 31
0.0
  0
LINE
  5
A44
330
1F
100
AcDbEntity
  8
0
  6
DASHED
 62
     4
 48
5.0
100
AcDbLine
 10
537.5750853922129
 20
517.1288791190106
 30
0.0
 11
537.5750853922129
 21
516.1288791190099
 31
0.0
  0
LINE
  5
A45
330
1F
100
AcDbEntity
  8
0
  6
DASHED
 62
     4
 48
5.0
100
AcDbLine
 10
537.5750853922129
 20
516.1288791190099
 30
0.0
 11
539.0750853922128
 21
516.1288791190099
 31
0.0
  0
LINE
  5
A46
330
1F
100
AcDbEntity
  8
0
  6
DASHED
 62
     4
 48
5.0
100
AcDbLine
 10
539.0750853922128
 20
516.1288791190099
 30
0.0
 11
539.0750853922128
 21
514.62887911901
 31
0.0
  0
LINE
  5
A47
330
1F
100
AcDbEntity
  8
0
  6
DASHED
 62
     4
 48
5.0
100
AcDbLine
 10
539.0750853922128
 20
517.1288791190106
 30
0.0
 11
537.5750853922129
 21
517.1288791190106
 31
0.0
  0
LINE
  5
A48
330
1F
100
AcDbEntity
  8
0
  6
DASHED
 62
     4
 48
5.0
100
AcDbLine
 10
540.0750853922128
 20
514.62887911901
 30
0.0
 11
540.0750853922128
 21
516.1288791190099
 31
0.0
  0
LINE
  5
A49
330
1F
100
AcDbEntity
  8
0
  6
DASHED
 62
     4
 48
5.0
100
AcDbLine
 10
514.7150853922132
 20
517.1288791190106
 30
0.0
 11
514.7150853922132
 21
516.1288791190099
 31
0.0
  0
LINE
  5
A4A
330
1F
100
AcDbEntity
  8
0
  6
DASHED
 62
     4
 48
5.0
100
AcDbLine
 10
514.7150853922132
 20
516.1288791190099
 30
0.0
 11
516.2150853922134
 21
516.1288791190099
 31
0.0
  0
LINE
  5
A4B
330
1F
100
AcDbEntity
  8
0
  6
DASHED
 62
     4
 48
5.0
100
AcDbLine
 10
516.2150853922134
 20
517.1288791190106
 30
0.0
 11
514.7150853922132
 21
517.1288791190106
 31
0.0
  0
LINE
  5
A4C
330
1F
100
AcDbEntity
  8
0
  6
DASHED
 62
     4
 48
5.0
100
AcDbLine
 10
627.7864833922121
 20
512.1702171190102
 30
0.0
 11
512.1664833922133
 21
512.1702171190102
 31
0.0
  0
LINE
  5
A4D
330
1F
100
AcDbEntity
  8
0
  6
DASHED
 62
     4
 48
5.0
100
AcDbLine
 10
540.0750853922128
 20
516.1288791190099
 30
0.0
 11
541.5750853922129
 21
516.1288791190099
 31
0.0
  0
LINE
  5
A4E
330
1F
100
AcDbEntity
  8
0
  6
DASHED
 62
     4
 48
5.0
100
AcDbLine
 10
541.5750853922129
 20
517.1288791190106
 30
0.0
 11
540.0750853922128
 21
517.1288791190106
 31
0.0
  0
LINE
  5
A4F
330
1F
100
AcDbEntity
  8
0
  6
DASHED
 62
     4
 48
5.0
100
AcDbLine
 10
512.1664833922133
 20
512.1702171190102
 30
0.0
 11
512.1664833922133
 21
531.1702171190102
 31
0.0
  0
LINE
  5
A50
330
1F
100
AcDbEntity
  8
0
  6
DASHED
 62
     4
 48
5.0
100
AcDbLine
 10
519.7864833922133
 20
512.1702171190102
 30
0.0
 11
519.7864833922133
 21
522.1702171190104
 31
0.0
  0
LINE
  5
A51
330
1F
100
AcDbEntity
  8
0
  6
DASHED
 62
     4
 48
5.0
100
AcDbLine
 10
513.4864833922129
 20
512.1702171190102
 30
0.0
 11
513.4864833922129
 21
522.1702171190104
 31
0.0
  0
LINE
  5
A52
330
1F
100
AcDbEntity
  8
0
  6
DASHED
 62
     4
 48
5.0
100
AcDbLine
 10
521.1064833922127
 20
512.1702171190102
 30
0.0
 11
521.1064833922127
 21
522.1702171190104
 31
0.0
  0
LINE
  5
A53
330
1F
100
AcDbEntity
  8
0
  6
DASHED
 62
     4
 48
5.0
100
AcDbLine
 10
516.2150853922134
 20
518.6288791190102
 30
0.0
 11
516.2150853922134
 21
517.1288791190106
 31
0.0
  0
LINE
  5
A54
330
1F
100
AcDbEntity
  8
0
  6
DASHED
 62
     4
 48
5.0
100
AcDbLine
 10
523.8350853922129
 20
518.6288791190102
 30
0.0
 11
523.8350853922129
 21
517.1288791190106
 31
0.0
  0
LINE
  5
A55
330
1F
100
AcDbEntity
  8
0
  6
DASHED
 62
     4
 48
5.0
100
AcDbLine
 10
517.2150853922127
 20
517.1288791190106
 30
0.0
 11
517.2150853922127
 21
518.6288791190102
 31
0.0
  0
LINE
  5
A56
330
1F
100
AcDbEntity
  8
0
  6
DASHED
 62
     4
 48
5.0
100
AcDbLine
 10
542.6464833922128
 20
512.1702171190102
 30
0.0
 11
542.6464833922128
 21
522.1702171190104
 31
0.0
  0
LINE
  5
A57
330
1F
100
AcDbEntity
  8
0
  6
DASHED
 62
     4
 48
5.0
100
AcDbLine
 10
543.9664833922128
 20
512.1702171190102
 30
0.0
 11
543.9664833922128
 21
522.1702171190104
 31
0.0
  0
LINE
  5
A58
330
1F
100
AcDbEntity
  8
0
  6
DASHED
 62
     4
 48
5.0
100
AcDbLine
 10
550.2664833922125
 20
512.1702171190102
 30
0.0
 11
550.2664833922125
 21
522.1702171190104
 31
0.0
  0
LINE
  5
A59
330
1F
100
AcDbEntity
  8
0
  6
DASHED
 62
     4
 48
5.0
100
AcDbLine
 10
551.5864833922128
 20
512.1702171190102
 30
0.0
 11
551.5864833922128
 21
522.1702171190104
 31
0.0
  0
LINE
  5
A5A
330
1F
100
AcDbEntity
  8
0
  6
DASHED
 62
     4
 48
5.0
100
AcDbLine
 10
527.4064833922132
 20
512.1702171190102
 30
0.0
 11
527.4064833922132
 21
522.1702171190104
 31
0.0
  0
LINE
  5
A5B
330
1F
100
AcDbEntity
  8
0
  6
DASHED
 62
     4
 48
5.0
100
AcDbLine
 10
528.7264833922125
 20
512.1702171190102
 30
0.0
 11
528.7264833922125
 21
522.1702171190104
 31
0.0
  0
LINE
  5
A5C
330
1F
100
AcDbEntity
  8
0
  6
DASHED
 62
     4
 48
5.0
100
AcDbLine
 10
535.0264833922131
 20
512.1702171190102
 30
0.0
 11
535.0264833922131
 21
522.1702171190104
 31
0.0
  0
LINE
  5
A5D
330
1F
100
AcDbEntity
  8
0
  6
DASHED
 62
     4
 48
5.0
100
AcDbLine
 10
536.3464833922127
 20
512.1702171190102
 30
0.0
 11
536.3464833922127
 21
522.1702171190104
 31
0.0
  0
LINE
  5
A5E
330
1F
100
AcDbEntity
  8
0
  6
DASHED
 62
     4
 48
5.0
100
AcDbLine
 10
531.4550853922129
 20
518.6288791190102
 30
0.0
 11
531.4550853922129
 21
517.1288791190106
 31
0.0
  0
LINE
  5
A5F
330
1F
100
AcDbEntity
  8
0
  6
DASHED
 62
     4
 48
5.0
100
AcDbLine
 10
524.8350853922126
 20
517.1288791190106
 30
0.0
 11
524.8350853922126
 21
518.6288791190102
 31
0.0
  0
LINE
  5
A60
330
1F
100
AcDbEntity
  8
0
  6
DASHED
 62
     4
 48
5.0
100
AcDbLine
 10
539.0750853922128
 20
518.6288791190102
 30
0.0
 11
539.0750853922128
 21
517.1288791190106
 31
0.0
  0
LINE
  5
A61
330
1F
100
AcDbEntity
  8
0
  6
DASHED
 62
     4
 48
5.0
100
AcDbLine
 10
532.4550853922128
 20
517.1288791190106
 30
0.0
 11
532.4550853922128
 21
518.6288791190102
 31
0.0
  0
LINE
  5
A62
330
1F
100
AcDbEntity
  8
0
  6
DASHED
 62
     4
 48
5.0
100
AcDbLine
 10
540.0750853922128
 20
517.1288791190106
 30
0.0
 11
540.0750853922128
 21
518.6288791190102
 31
0.0
  0
LINE
  5
A63
330
1F
100
AcDbEntity
  8
0
  6
DASHED
 62
     4
 48
5.0
100
AcDbLine
 10
547.6950853922128
 20
517.1288791190106
 30
0.0
 11
547.6950853922128
 21
518.6288791190102
 31
0.0
  0
LINE
  5
A64
330
1F
100
AcDbEntity
  8
0
  6
DASHED
 62
     4
 48
5.0
100
AcDbLine
 10
546.6950853922121
 20
518.6288791190102
 30
0.0
 11
546.6950853922121
 21
517.1288791190106
 31
0.0
  0
LINE
  5
A65
330
1F
100
AcDbEntity
  8
0
  6
DASHED
 62
     4
 48
5.0
100
AcDbLine
 10
573.1264833922121
 20
512.1702171190102
 30
0.0
 11
573.1264833922121
 21
522.1702171190104
 31
0.0
  0
LINE
  5
A66
330
1F
100
AcDbEntity
  8
0
  6
DASHED
 62
     4
 48
5.0
100
AcDbLine
 10
574.4464833922124
 20
512.1702171190102
 30
0.0
 11
574.4464833922124
 21
522.1702171190104
 31
0.0
  0
LINE
  5
A67
330
1F
100
AcDbEntity
  8
0
  6
DASHED
 62
     4
 48
5.0
100
AcDbLine
 10
580.7464833922121
 20
512.1702171190102
 30
0.0
 11
580.7464833922121
 21
522.1702171190104
 31
0.0
  0
LINE
  5
A68
330
1F
100
AcDbEntity
  8
0
  6
DASHED
 62
     4
 48
5.0
100
AcDbLine
 10
557.8864833922123
 20
512.1702171190102
 30
0.0
 11
557.8864833922123
 21
522.1702171190104
 31
0.0
  0
LINE
  5
A69
330
1F
100
AcDbEntity
  8
0
  6
DASHED
 62
     4
 48
5.0
100
AcDbLine
 10
559.2064833922123
 20
512.1702171190102
 30
0.0
 11
559.2064833922123
 21
522.1702171190104
 31
0.0
  0
LINE
  5
A6A
330
1F
100
AcDbEntity
  8
0
  6
DASHED
 62
     4
 48
5.0
100
AcDbLine
 10
566.8264833922123
 20
512.1702171190102
 30
0.0
 11
566.8264833922123
 21
522.1702171190104
 31
0.0
  0
LINE
  5
A6B
330
1F
100
AcDbEntity
  8
0
  6
DASHED
 62
     4
 48
5.0
100
AcDbLine
 10
565.5064833922121
 20
512.1702171190102
 30
0.0
 11
565.5064833922121
 21
522.1702171190104
 31
0.0
  0
LINE
  5
A6C
330
1F
100
AcDbEntity
  8
0
  6
DASHED
 62
     4
 48
5.0
100
AcDbLine
 10
555.3150853922127
 20
517.1288791190106
 30
0.0
 11
555.3150853922127
 21
518.6288791190102
 31
0.0
  0
LINE
  5
A6D
330
1F
100
AcDbEntity
  8
0
  6
DASHED
 62
     4
 48
5.0
100
AcDbLine
 10
554.3150853922126
 20
518.6288791190102
 30
0.0
 11
554.3150853922126
 21
517.1288791190106
 31
0.0
  0
LINE
  5
A6E
330
1F
100
AcDbEntity
  8
0
  6
DASHED
 62
     4
 48
5.0
100
AcDbLine
 10
562.9350853922122
 20
517.1288791190106
 30
0.0
 11
562.9350853922122
 21
518.6288791190102
 31
0.0
  0
LINE
  5
A6F
330
1F
100
AcDbEntity
  8
0
  6
DASHED
 62
     4
 48
5.0
100
AcDbLine
 10
561.9350853922123
 20
518.6288791190102
 30
0.0
 11
561.9350853922123
 21
517.1288791190106
 31
0.0
  0
LINE
  5
A70
330
1F
100
AcDbEntity
  8
0
  6
DASHED
 62
     4
 48
5.0
100
AcDbLine
 10
570.5550853922125
 20
517.1288791190106
 30
0.0
 11
570.5550853922125
 21
518.6288791190102
 31
0.0
  0
LINE
  5
A71
330
1F
100
AcDbEntity
  8
0
  6
DASHED
 62
     4
 48
5.0
100
AcDbLine
 10
569.5550853922124
 20
518.6288791190102
 30
0.0
 11
569.5550853922124
 21
517.1288791190106
 31
0.0
  0
LINE
  5
A72
330
1F
100
AcDbEntity
  8
0
  6
DASHED
 62
     4
 48
5.0
100
AcDbLine
 10
578.1750853922122
 20
517.1288791190106
 30
0.0
 11
578.1750853922122
 21
518.6288791190102
 31
0.0
  0
LINE
  5
A73
330
1F
100
AcDbEntity
  8
0
  6
DASHED
 62
     4
 48
5.0
100
AcDbLine
 10
577.1750853922124
 20
518.6288791190102
 30
0.0
 11
577.1750853922124
 21
517.1288791190106
 31
0.0
  0
LINE
  5
A74
330
1F
100
AcDbEntity
  8
0
  6
DASHED
 62
     4
 48
5.0
100
AcDbLine
 10
603.606483392212
 20
512.1702171190102
 30
0.0
 11
603.606483392212
 21
522.1702171190104
 31
0.0
  0
LINE
  5
A75
330
1F
100
AcDbEntity
  8
0
  6
DASHED
 62
     4
 48
5.0
100
AcDbLine
 10
604.9264833922121
 20
512.1702171190102
 30
0.0
 11
604.9264833922121
 21
522.1702171190104
 31
0.0
  0
LINE
  5
A76
330
1F
100
AcDbEntity
  8
0
  6
DASHED
 62
     4
 48
5.0
100
AcDbLine
 10
611.2264833922117
 20
512.1702171190102
 30
0.0
 11
611.2264833922117
 21
522.1702171190104
 31
0.0
  0
LINE
  5
A77
330
1F
100
AcDbEntity
  8
0
  6
DASHED
 62
     4
 48
5.0
100
AcDbLine
 10
612.5464833922121
 20
512.1702171190102
 30
0.0
 11
612.5464833922121
 21
522.1702171190104
 31
0.0
  0
LINE
  5
A78
330
1F
100
AcDbEntity
  8
0
  6
DASHED
 62
     4
 48
5.0
100
AcDbLine
 10
588.3664833922125
 20
512.1702171190102
 30
0.0
 11
588.3664833922125
 21
522.1702171190104
 31
0.0
  0
LINE
  5
A79
330
1F
100
AcDbEntity
  8
0
  6
DASHED
 62
     4
 48
5.0
100
AcDbLine
 10
589.6864833922124
 20
512.1702171190102
 30
0.0
 11
589.6864833922124
 21
522.1702171190104
 31
0.0
  0
LINE
  5
A7A
330
1F
100
AcDbEntity
  8
0
  6
DASHED
 62
     4
 48
5.0
100
AcDbLine
 10
595.9864833922122
 20
512.1702171190102
 30
0.0
 11
595.9864833922122
 21
522.1702171190104
 31
0.0
  0
LINE
  5
A7B
330
1F
100
AcDbEntity
  8
0
  6
DASHED
 62
     4
 48
5.0
100
AcDbLine
 10
597.3064833922124
 20
512.1702171190102
 30
0.0
 11
597.3064833922124
 21
522.1702171190104
 31
0.0
  0
LINE
  5
A7C
330
1F
100
AcDbEntity
  8
0
  6
DASHED
 62
     4
 48
5.0
100
AcDbLine
 10
585.7950853922122
 20
517.1288791190106
 30
0.0
 11
585.7950853922122
 21
518.6288791190102
 31
0.0
  0
LINE
  5
A7D
330
1F
100
AcDbEntity
  8
0
  6
DASHED
 62
     4
 48
5.0
100
AcDbLine
 10
584.7950853922121
 20
518.6288791190102
 30
0.0
 11
584.7950853922121
 21
517.1288791190106
 31
0.0
  0
LINE
  5
A7E
330
1F
100
AcDbEntity
  8
0
  6
DASHED
 62
     4
 48
5.0
100
AcDbLine
 10
593.4150853922119
 20
517.1288791190106
 30
0.0
 11
593.4150853922119
 21
518.6288791190102
 31
0.0
  0
LINE
  5
A7F
330
1F
100
AcDbEntity
  8
0
  6
DASHED
 62
     4
 48
5.0
100
AcDbLine
 10
592.4150853922124
 20
518.6288791190102
 30
0.0
 11
592.4150853922124
 21
517.1288791190106
 31
0.0
  0
LINE
  5
A80
330
1F
100
AcDbEntity
  8
0
  6
DASHED
 62
     4
 48
5.0
100
AcDbLine
 10
601.0350853922119
 20
517.1288791190106
 30
0.0
 11
601.0350853922119
 21
518.6288791190102
 31
0.0
  0
LINE
  5
A81
330
1F
100
AcDbEntity
  8
0
  6
DASHED
 62
     4
 48
5.0
100
AcDbLine
 10
600.0350853922121
 20
518.6288791190102
 30
0.0
 11
600.0350853922121
 21
517.1288791190106
 31
0.0
  0
LINE
  5
A82
330
1F
100
AcDbEntity
  8
0
  6
DASHED
 62
     4
 48
5.0
100
AcDbLine
 10
607.6550853922118
 20
518.6288791190102
 30
0.0
 11
607.6550853922118
 21
517.1288791190106
 31
0.0
  0
LINE
  5
A83
330
1F
100
AcDbEntity
  8
0
  6
DASHED
 62
     4
 48
5.0
100
AcDbLine
 10
608.6550853922117
 20
517.1288791190106
 30
0.0
 11
608.6550853922117
 21
518.6288791190102
 31
0.0
  0
LINE
  5
A84
330
1F
100
AcDbEntity
  8
0
  6
DASHED
 62
     4
 48
5.0
100
AcDbLine
 10
618.846483392212
 20
512.1702171190102
 30
0.0
 11
618.846483392212
 21
522.1702171190104
 31
0.0
  0
LINE
  5
A85
330
1F
100
AcDbEntity
  8
0
  6
DASHED
 62
     4
 48
5.0
100
AcDbLine
 10
620.1664833922121
 20
512.1702171190102
 30
0.0
 11
620.1664833922121
 21
522.1702171190104
 31
0.0
  0
LINE
  5
A86
330
1F
100
AcDbEntity
  8
0
  6
DASHED
 62
     4
 48
5.0
100
AcDbLine
 10
626.466483392212
 20
512.1702171190102
 30
0.0
 11
626.466483392212
 21
522.1702171190104
 31
0.0
  0
LINE
  5
A87
330
1F
100
AcDbEntity
  8
0
  6
DASHED
 62
     4
 48
5.0
100
AcDbLine
 10
627.7864833922121
 20
512.1702171190102
 30
0.0
 11
627.7864833922121
 21
531.1702171190102
 31
0.0
  0
LINE
  5
A88
330
1F
100
AcDbEntity
  8
0
  6
DASHED
 62
     4
 48
5.0
100
AcDbLine
 10
615.2750853922117
 20
518.6288791190102
 30
0.0
 11
615.2750853922117
 21
517.1288791190106
 31
0.0
  0
LINE
  5
A89
330
1F
100
AcDbEntity
  8
0
  6
DASHED
 62
     4
 48
5.0
100
AcDbLine
 10
616.2750853922112
 20
517.1288791190106
 30
0.0
 11
616.2750853922112
 21
518.6288791190102
 31
0.0
  0
LINE
  5
A8A
330
1F
100
AcDbEntity
  8
0
  6
DASHED
 62
     4
 48
5.0
100
AcDbLine
 10
622.8950853922119
 20
518.6288791190102
 30
0.0
 11
622.8950853922119
 21
517.1288791190106
 31
0.0
  0
LINE
  5
A8B
330
1F
100
AcDbEntity
  8
0
  6
DASHED
 62
     4
 48
5.0
100
AcDbLine
 10
623.8950853922111
 20
517.1288791190106
 30
0.0
 11
623.8950853922111
 21
518.6288791190102
 31
0.0
  0
ARC
  5
A8C
330
1F
100
AcDbEntity
  8
0
  6
Continuous
 62
     7
100
AcDbCircle
 10
381.4864759156133
 20
569.4702205956124
 30
0.0
 40
7.999993523401338
100
AcDbArc
 50
89.9999464527554
 51
180.0000320613264
  0
LINE
  5
A8D
330
1F
100
AcDbEntity
  8
0
  6
Continuous
 62
     7
100
AcDbLine
 10
374.8464843922131
 20
547.4702171190101
 30
0.0
 11
384.9264813922132
 21
547.4702171190101
 31
0.0
  0
ARC
  5
A8E
330
1F
100
AcDbEntity
  8
0
  6
Continuous
 62
     7
100
AcDbCircle
 10
378.2064799578289
 20
549.4702195533943
 30
0.0
 40
1.919998565616106
100
AcDbArc
 50
89.99995719571119
 51
180.0000428042855
  0
ARC
  5
A8F
330
1F
100
AcDbEntity
  8
0
  6
Continuous
 62
     7
100
AcDbCircle
 10
381.5664828265976
 20
549.4702195533943
 30
0.0
 40
1.919998565616163
100
AcDbArc
 50
359.9999571957112
 51
90.00004280428878
  0
LINE
  5
A90
330
1F
100
AcDbEntity
  8
0
  6
Continuous
 62
     7
100
AcDbLine
 10
378.2064813922132
 20
551.3902181190092
 30
0.0
 11
381.5664813922132
 21
551.3902181190092
 31
0.0
  0
LINE
  5
A91
330
1F
100
AcDbEntity
  8
0
  6
Continuous
 62
     7
100
AcDbLine
 10
374.8464843922131
 20
548.4702161190097
 30
0.0
 11
384.9264813922132
 21
548.4702161190097
 31
0.0
  0
LINE
  5
A92
330
1F
100
AcDbEntity
  8
0
  6
Continuous
 62
     7
100
AcDbLine
 10
376.2864813922131
 20
549.4702181190098
 30
0.0
 11
376.2864813922131
 21
548.4702161190097
 31
0.0
  0
LINE
  5
A93
330
1F
100
AcDbEntity
  8
0
  6
Continuous
 62
     7
100
AcDbLine
 10
383.4864813922131
 20
549.4702181190098
 30
0.0
 11
383.4864813922131
 21
548.4702161190097
 31
0.0
  0
LINE
  5
A94
330
1F
100
AcDbEntity
  8
0
  6
Continuous
 62
     7
100
AcDbLine
 10
374.8464843922131
 20
548.4702161190097
 30
0.0
 11
374.8464843922131
 21
547.4702171190101
 31
0.0
  0
LINE
  5
A95
330
1F
100
AcDbEntity
  8
0
  6
Continuous
 62
     7
100
AcDbLine
 10
384.9264813922132
 20
548.4702161190097
 30
0.0
 11
384.9264813922132
 21
547.4702171190101
 31
0.0
  0
ARC
  5
A96
330
1F
100
AcDbEntity
  8
0
  6
Continuous
 62
     7
100
AcDbCircle
 10
369.8864839578289
 20
529.6502245533948
 30
0.0
 40
1.919998565616163
100
AcDbArc
 50
89.99995719571119
 51
180.0000428042855
  0
ARC
  5
A97
330
1F
100
AcDbEntity
  8
0
  6
Continuous
 62
     7
100
AcDbCircle
 10
369.8864839578289
 20
526.2902216846257
 30
0.0
 40
1.919998565616106
100
AcDbArc
 50
179.9999571957112
 51
270.0000428042887
  0
LINE
  5
A98
330
1F
100
AcDbEntity
  8
0
  6
Continuous
 62
     7
100
AcDbLine
 10
367.9664853922131
 20
529.6502231190101
 30
0.0
 11
367.9664853922131
 21
526.2902231190102
 31
0.0
  0
LINE
  5
A99
330
1F
100
AcDbEntity
  8
0
  6
Continuous
 62
     7
100
AcDbLine
 10
370.8864843922132
 20
533.0102201190101
 30
0.0
 11
370.8864843922132
 21
522.9302201190101
 31
0.0
  0
LINE
  5
A9A
330
1F
100
AcDbEntity
  8
0
  6
Continuous
 62
     7
100
AcDbLine
 10
369.8864853922132
 20
531.5702231190101
 30
0.0
 11
370.8864843922132
 21
531.5702231190101
 31
0.0
  0
LINE
  5
A9B
330
1F
100
AcDbEntity
  8
0
  6
Continuous
 62
     7
100
AcDbLine
 10
369.8864853922132
 20
524.3702231190101
 30
0.0
 11
370.8864843922132
 21
524.3702231190101
 31
0.0
  0
LINE
  5
A9C
330
1F
100
AcDbEntity
  8
0
  6
Continuous
 62
     7
100
AcDbLine
 10
370.8864843922132
 20
533.0102201190101
 30
0.0
 11
371.8864833922133
 21
533.0102201190101
 31
0.0
  0
LINE
  5
A9D
330
1F
100
AcDbEntity
  8
0
  6
Continuous
 62
     7
100
AcDbLine
 10
370.8864843922132
 20
522.9302201190101
 30
0.0
 11
371.8864833922133
 21
522.9302201190101
 31
0.0
  0
ARC
  5
A9E
330
1F
100
AcDbEntity
  8
0
  6
Continuous
 62
     7
100
AcDbCircle
 10
379.8864843922132
 20
538.4702197486801
 30
0.0
 40
4.999999870329792
100
AcDbArc
 50
296.7436846991601
 51
243.2563153008398
  0
ARC
  5
A9F
330
1F
100
AcDbEntity
  8
0
  6
Continuous
 62
     7
100
AcDbCircle
 10
373.8864828980621
 20
545.4702176131611
 30
0.0
 40
1.999999505849461
100
AcDbArc
 50
89.99995719571442
 51
180.0000428042855
  0
LINE
  5
AA0
330
1F
100
AcDbEntity
  8
0
  6
Continuous
 62
     7
100
AcDbLine
 10
373.4864823922131
 20
547.4702171190101
 30
0.0
 11
373.4864823922131
 21
569.4702161190101
 31
0.0
  0
ARC
  5
AA1
330
1F
100
AcDbEntity
  8
0
  6
Continuous
 62
     7
100
AcDbCircle
 10
369.8864839578289
 20
504.1502275533946
 30
0.0
 40
1.919998565616245
100
AcDbArc
 50
89.99995719571442
 51
180.0000428042855
  0
ARC
  5
AA2
330
1F
100
AcDbEntity
  8
0
  6
Continuous
 62
     7
100
AcDbCircle
 10
369.8864839578289
 20
500.7902246846255
 30
0.0
 40
1.919998565616106
100
AcDbArc
 50
179.9999571957112
 51
270.0000428042887
  0
LINE
  5
AA3
330
1F
100
AcDbEntity
  8
0
  6
Continuous
 62
     7
100
AcDbLine
 10
367.9664853922131
 20
504.1502261190101
 30
0.0
 11
367.9664853922131
 21
500.7902261190102
 31
0.0
  0
LINE
  5
AA4
330
1F
100
AcDbEntity
  8
0
  6
Continuous
 62
     7
100
AcDbLine
 10
370.8864843922132
 20
507.5102231190101
 30
0.0
 11
370.8864843922132
 21
497.4302231190101
 31
0.0
  0
LINE
  5
AA5
330
1F
100
AcDbEntity
  8
0
  6
Continuous
 62
     7
100
AcDbLine
 10
369.8864853922132
 20
506.0702261190104
 30
0.0
 11
370.8864843922132
 21
506.0702261190104
 31
0.0
  0
LINE
  5
AA6
330
1F
100
AcDbEntity
  8
0
  6
Continuous
 62
     7
100
AcDbLine
 10
369.8864853922132
 20
498.8702261190101
 30
0.0
 11
370.8864843922132
 21
498.8702261190101
 31
0.0
  0
LINE
  5
AA7
330
1F
100
AcDbEntity
  8
0
  6
Continuous
 62
     7
100
AcDbLine
 10
370.8864843922132
 20
507.5102231190101
 30
0.0
 11
371.8864833922133
 21
507.5102231190101
 31
0.0
  0
LINE
  5
AA8
330
1F
100
AcDbEntity
  8
0
  6
Continuous
 62
     7
100
AcDbLine
 10
370.8864843922132
 20
497.4302231190101
 30
0.0
 11
371.8864833922133
 21
497.4302231190101
 31
0.0
  0
LINE
  5
AA9
330
1F
100
AcDbEntity
  8
0
  6
Continuous
 62
     7
 48
6.0
100
AcDbLine
 10
382.2864873922132
 20
501.8702231190101
 30
0.0
 11
382.2864873922132
 21
503.0702201190098
 31
0.0
  0
LINE
  5
AAA
330
1F
100
AcDbEntity
  8
0
  6
Continuous
 62
     7
 48
6.0
100
AcDbLine
 10
382.2864873922132
 20
503.0702201190098
 30
0.0
 11
380.4864873922133
 21
503.0702201190098
 31
0.0
  0
LINE
  5
AAB
330
1F
100
AcDbEntity
  8
0
  6
Continuous
 62
     7
 48
6.0
100
AcDbLine
 10
380.4864873922133
 20
503.0702201190098
 30
0.0
 11
380.4864873922133
 21
504.8702201190102
 31
0.0
  0
LINE
  5
AAC
330
1F
100
AcDbEntity
  8
0
  6
Continuous
 62
     7
 48
6.0
100
AcDbLine
 10
380.4864873922133
 20
504.8702201190102
 30
0.0
 11
379.2864873922131
 21
504.8702201190102
 31
0.0
  0
LINE
  5
AAD
330
1F
100
AcDbEntity
  8
0
  6
Continuous
 62
     7
 48
6.0
100
AcDbLine
 10
379.2864873922131
 20
504.8702201190102
 30
0.0
 11
379.2864873922131
 21
503.0702201190098
 31
0.0
  0
LINE
  5
AAE
330
1F
100
AcDbEntity
  8
0
  6
Continuous
 62
     7
 48
6.0
100
AcDbLine
 10
379.2864873922131
 20
503.0702201190098
 30
0.0
 11
377.4864873922132
 21
503.0702201190098
 31
0.0
  0
LINE
  5
AAF
330
1F
100
AcDbEntity
  8
0
  6
Continuous
 62
     7
 48
6.0
100
AcDbLine
 10
377.4864873922132
 20
503.0702201190098
 30
0.0
 11
377.4864873922132
 21
501.8702231190101
 31
0.0
  0
LINE
  5
AB0
330
1F
100
AcDbEntity
  8
0
  6
Continuous
 62
     7
 48
6.0
100
AcDbLine
 10
377.4864873922132
 20
501.8702231190101
 30
0.0
 11
379.2864873922131
 21
501.8702231190101
 31
0.0
  0
LINE
  5
AB1
330
1F
100
AcDbEntity
  8
0
  6
Continuous
 62
     7
 48
6.0
100
AcDbLine
 10
379.2864873922131
 20
501.8702231190101
 30
0.0
 11
379.2864873922131
 21
500.0702231190096
 31
0.0
  0
LINE
  5
AB2
330
1F
100
AcDbEntity
  8
0
  6
Continuous
 62
     7
 48
6.0
100
AcDbLine
 10
379.2864873922131
 20
500.0702231190096
 30
0.0
 11
380.4864873922133
 21
500.0702231190096
 31
0.0
  0
LINE
  5
AB3
330
1F
100
AcDbEntity
  8
0
  6
Continuous
 62
     7
 48
6.0
100
AcDbLine
 10
380.4864873922133
 20
500.0702231190096
 30
0.0
 11
380.4864873922133
 21
501.8702231190101
 31
0.0
  0
LINE
  5
AB4
330
1F
100
AcDbEntity
  8
0
  6
Continuous
 62
     7
 48
6.0
100
AcDbLine
 10
380.4864873922133
 20
501.8702231190101
 30
0.0
 11
382.2864873922132
 21
501.8702231190101
 31
0.0
  0
LINE
  5
AB5
330
1F
100
AcDbEntity
  8
0
  6
Continuous
 62
     7
 48
6.0
100
AcDbLine
 10
382.2864873922132
 20
501.8702231190101
 30
0.0
 11
382.2864873922132
 21
501.8702231190101
 31
0.0
  0
CIRCLE
  5
AB6
330
1F
100
AcDbEntity
  8
0
  6
Continuous
 62
     7
370
     0
100
AcDbCircle
 10
379.8864839307726
 20
502.4702196575698
 30
0.0
 40
3.60000046144054
  0
ARC
  5
AB7
330
1F
100
AcDbEntity
  8
0
  6
Continuous
 62
     7
100
AcDbCircle
 10
379.8864843922132
 20
451.4702261190094
 30
0.0
 40
2.25
100
AcDbArc
 50
180.0
 51
0.0
  0
LINE
  5
AB8
330
1F
100
AcDbEntity
  8
0
  6
Continuous
 62
     7
100
AcDbLine
 10
377.6364843922132
 20
451.4702261190094
 30
0.0
 11
377.6364843922132
 21
499.6599731190094
 31
0.0
  0
LINE
  5
AB9
330
1F
100
AcDbEntity
  8
0
  6
Continuous
 62
     7
100
AcDbLine
 10
382.1364843922133
 20
451.4702261190094
 30
0.0
 11
382.1364843922133
 21
499.6599701190096
 31
0.0
  0
ARC
  5
ABA
330
1F
100
AcDbEntity
  8
0
  6
Continuous
 62
     7
100
AcDbCircle
 10
369.8864839578289
 20
409.650236553394
 30
0.0
 40
1.919998565616078
100
AcDbArc
 50
89.99995719571119
 51
180.0000428042823
  0
LINE
  5
ABB
330
1F
100
AcDbEntity
  8
0
  6
Continuous
 62
     7
100
AcDbLine
 10
367.9664853922131
 20
409.6502351190101
 30
0.0
 11
367.9664853922131
 21
406.2902351190102
 31
0.0
  0
LINE
  5
ABC
330
1F
100
AcDbEntity
  8
0
  6
Continuous
 62
     7
100
AcDbLine
 10
369.8864853922132
 20
411.5702351190101
 30
0.0
 11
370.8864843922132
 21
411.5702351190101
 31
0.0
  0
LINE
  5
ABD
330
1F
100
AcDbEntity
  8
0
  6
Continuous
 62
     7
100
AcDbLine
 10
370.8864843922132
 20
413.0102321190101
 30
0.0
 11
371.8864833922133
 21
413.0102321190101
 31
0.0
  0
LINE
  5
ABE
330
1F
100
AcDbEntity
  8
0
  6
Continuous
 62
     7
100
AcDbLine
 10
369.8864853922132
 20
404.3702351190101
 30
0.0
 11
370.8864843922132
 21
404.3702351190101
 31
0.0
  0
LINE
  5
ABF
330
1F
100
AcDbEntity
  8
0
  6
Continuous
 62
     7
100
AcDbLine
 10
370.8864843922132
 20
402.9302321190101
 30
0.0
 11
371.8864833922133
 21
402.9302321190101
 31
0.0
  0
ARC
  5
AC0
330
1F
100
AcDbEntity
  8
0
  6
Continuous
 62
     7
100
AcDbCircle
 10
369.8864839578289
 20
406.290233684625
 30
0.0
 40
1.919998565616106
100
AcDbArc
 50
179.9999571957175
 51
270.0000428042887
  0
LINE
  5
AC1
330
1F
100
AcDbEntity
  8
0
  6
Continuous
 62
     7
100
AcDbLine
 10
370.8864843922132
 20
413.0102321190101
 30
0.0
 11
370.8864843922132
 21
402.9302321190101
 31
0.0
  0
LINE
  5
AC2
330
1F
100
AcDbEntity
  8
0
  6
Continuous
 62
     7
100
AcDbLine
 10
377.6364843922132
 20
505.2804701190101
 30
0.0
 11
377.6364843922132
 21
534.0050771190101
 31
0.0
  0
LINE
  5
AC3
330
1F
100
AcDbEntity
  8
0
  6
Continuous
 62
     7
100
AcDbLine
 10
382.1364843922133
 20
505.2804701190101
 30
0.0
 11
382.1364843922133
 21
534.0050771190101
 31
0.0
  0
ARC
  5
AC4
330
1F
100
AcDbEntity
  8
0
  6
Continuous
 62
     7
100
AcDbCircle
 10
451.8864753922131
 20
556.4702160208939
 30
0.0
 40
9.000000401884271
100
AcDbArc
 50
119.9999985228639
 51
60.00000147713606
  0
LINE
  5
AC5
330
1F
100
AcDbEntity
  8
0
  6
DASHED
 62
     4
 48
6.0
100
AcDbLine
 10
627.3864573922129
 20
283.4702441190103
 30
0.0
 11
629.3864583922132
 21
285.4702421190097
 31
0.0
  0
LINE
  5
AC6
330
1F
100
AcDbEntity
  8
0
  6
DASHED
 62
     4
 48
6.0
100
AcDbLine
 10
604.3864593922132
 20
285.4702421190097
 30
0.0
 11
606.3864603922134
 21
283.4702441190103
 31
0.0
  0
LINE
  5
AC7
330
1F
100
AcDbEntity
  8
0
  6
DASHED
 62
     4
 48
6.0
100
AcDbLine
 10
606.3864603922134
 20
283.4702441190103
 30
0.0
 11
627.3864573922129
 21
283.4702441190103
 31
0.0
  0
CIRCLE
  5
AC8
330
1F
100
AcDbEntity
  8
0
  6
DASHED
 62
     4
370
     0
100
AcDbCircle
 10
581.8864647665852
 20
288.4702444933821
 30
0.0
 40
3.178221625628712
  0
LINE
  5
AC9
330
1F
100
AcDbEntity
  8
0
  6
DASHED
 62
     4
 48
6.0
100
AcDbLine
 10
557.3864643922131
 20
283.4702441190103
 30
0.0
 11
559.3864653922132
 21
285.4702421190097
 31
0.0
  0
LINE
  5
ACA
330
1F
100
AcDbEntity
  8
0
  6
DASHED
 62
     4
 48
6.0
100
AcDbLine
 10
604.3864593922132
 20
310.4702411190098
 30
0.0
 11
604.3864593922132
 21
285.4702421190097
 31
0.0
  0
LINE
  5
ACB
330
1F
100
AcDbEntity
  8
0
  6
DASHED
 62
     4
 48
6.0
100
AcDbLine
 10
629.3864583922132
 20
285.4702421190097
 30
0.0
 11
629.3864583922132
 21
316.3623191190101
 31
0.0
  0
LINE
  5
ACC
330
1F
100
AcDbEntity
  8
0
  6
DASHED
 62
     4
 48
6.0
100
AcDbLine
 10
559.3864653922132
 20
285.4702421190097
 30
0.0
 11
559.3864653922132
 21
312.4702421190098
 31
0.0
  0
CIRCLE
  5
ACD
330
1F
100
AcDbEntity
  8
0
  6
DASHED
 62
     4
370
     0
100
AcDbCircle
 10
616.886464314358
 20
295.4702450411545
 30
0.0
 40
5.249996077856676
  0
LINE
  5
ACE
330
1F
100
AcDbEntity
  8
0
  6
DASHED
 62
     4
 48
6.0
100
AcDbLine
 10
534.3864663922132
 20
285.4702421190097
 30
0.0
 11
536.3864673922135
 21
283.4702441190103
 31
0.0
  0
LINE
  5
ACF
330
1F
100
AcDbEntity
  8
0
  6
DASHED
 62
     4
 48
6.0
100
AcDbLine
 10
469.3864743922132
 20
283.4702441190103
 30
0.0
 11
490.3864713922131
 21
283.4702441190103
 31
0.0
  0
LINE
  5
AD0
330
1F
100
AcDbEntity
  8
0
  6
DASHED
 62
     4
 48
6.0
100
AcDbLine
 10
490.3864713922131
 20
283.4702441190103
 30
0.0
 11
492.3864723922132
 21
285.4702421190097
 31
0.0
  0
ARC
  5
AD1
330
1F
100
AcDbEntity
  8
0
  6
Continuous
 62
     7
100
AcDbCircle
 10
451.8864753922131
 20
265.4702441190098
 30
0.0
 40
4.500000000000006
100
AcDbArc
 50
0.0
 51
180.0
  0
LINE
  5
AD2
330
1F
100
AcDbEntity
  8
0
  6
DASHED
 62
     4
 48
6.0
100
AcDbLine
 10
467.3864733922131
 20
285.4702421190097
 30
0.0
 11
469.3864743922132
 21
283.4702441190103
 31
0.0
  0
ARC
  5
AD3
330
1F
100
AcDbEntity
  8
0
  6
Continuous
 62
     7
100
AcDbCircle
 10
458.3864733980645
 20
254.4702461248586
 30
0.0
 40
1.999998005851158
100
AcDbArc
 50
180.0000001675571
 51
270.0000857761314
  0
ARC
  5
AD4
330
1F
100
AcDbEntity
  8
0
  6
Continuous
 62
     7
100
AcDbCircle
 10
445.386478886362
 20
254.4702446248606
 30
0.0
 40
1.999996505851686
100
AcDbArc
 50
269.9999571957144
 51
0.0000428042888088
  0
LINE
  5
AD5
330
1F
100
AcDbEntity
  8
0
  6
Continuous
 62
     7
100
AcDbLine
 10
456.3864753922131
 20
265.4702441190098
 30
0.0
 11
456.3864753922131
 21
254.4702461190103
 31
0.0
  0
LINE
  5
AD6
330
1F
100
AcDbEntity
  8
0
  6
Continuous
 62
     7
100
AcDbLine
 10
447.3864753922131
 20
265.4702441190098
 30
0.0
 11
447.3864753922131
 21
254.4702461190103
 31
0.0
  0
LINE
  5
AD7
330
1F
100
AcDbEntity
  8
0
  6
DASHED
 62
     4
 48
6.0
100
AcDbLine
 10
467.3864733922131
 20
310.4702411190098
 30
0.0
 11
467.3864733922131
 21
285.4702421190097
 31
0.0
  0
LINE
  5
AD8
330
1F
100
AcDbEntity
  8
0
  6
DASHED
 62
     4
 48
6.0
100
AcDbLine
 10
492.3864723922132
 20
285.4702421190097
 30
0.0
 11
492.3864723922132
 21
316.3623191190101
 31
0.0
  0
LINE
  5
AD9
330
1F
100
AcDbEntity
  8
0
  6
DASHED
 62
     4
 48
6.0
100
AcDbLine
 10
534.3864663922132
 20
311.9480261190101
 30
0.0
 11
534.3864663922132
 21
285.4702421190097
 31
0.0
  0
CIRCLE
  5
ADA
330
1F
100
AcDbEntity
  8
0
  6
DASHED
 62
     4
370
     0
100
AcDbCircle
 10
479.8864768143579
 20
295.4702465411521
 30
0.0
 40
5.249994577857997
  0
LINE
  5
ADB
330
1F
100
AcDbEntity
  8
0
  6
DASHED
 62
     4
 48
6.0
100
AcDbLine
 10
536.3864673922135
 20
283.4702441190103
 30
0.0
 11
557.3864643922131
 21
283.4702441190103
 31
0.0
  0
CIRCLE
  5
ADC
330
1F
100
AcDbEntity
  8
0
  6
DASHED
 62
     4
370
     0
100
AcDbCircle
 10
546.8864713143581
 20
295.4702450411545
 30
0.0
 40
5.249996077856653
  0
ARC
  5
ADD
330
1F
100
AcDbEntity
  8
0
  6
DASHED
 62
     4
 48
6.0
100
AcDbCircle
 10
409.8864838143581
 20
295.4702465411521
 30
0.0
 40
5.249994577857993
100
AcDbArc
 50
359.9999408254847
 51
90.00002643405919
  0
LINE
  5
ADE
330
1F
100
AcDbEntity
  8
0
  6
DASHED
 62
     4
 48
6.0
100
AcDbLine
 10
415.1364783922132
 20
295.4702411190102
 30
0.0
 11
415.1364783922132
 21
295.4702411190102
 31
0.0
  0
ARC
  5
ADF
330
1F
100
AcDbEntity
  8
0
  6
Continuous
 62
     7
100
AcDbCircle
 10
369.8864839578289
 20
324.1502425533943
 30
0.0
 40
1.919998565616163
100
AcDbArc
 50
89.99995719571119
 51
180.0000428042855
  0
ARC
  5
AE0
330
1F
100
AcDbEntity
  8
0
  6
Continuous
 62
     7
100
AcDbCircle
 10
369.8864839578289
 20
320.7902426846255
 30
0.0
 40
1.919998565616193
100
AcDbArc
 50
179.9999571957144
 51
270.0000428042887
  0
LINE
  5
AE1
330
1F
100
AcDbEntity
  8
0
  6
Continuous
 62
     7
100
AcDbLine
 10
367.9664853922131
 20
324.1502411190101
 30
0.0
 11
367.9664853922131
 21
320.7902441190103
 31
0.0
  0
LINE
  5
AE2
330
1F
100
AcDbEntity
  8
0
  6
Continuous
 62
     7
100
AcDbLine
 10
370.8864843922132
 20
327.5102411190101
 30
0.0
 11
370.8864843922132
 21
317.4302411190103
 31
0.0
  0
LINE
  5
AE3
330
1F
100
AcDbEntity
  8
0
  6
Continuous
 62
     7
100
AcDbLine
 10
369.8864853922132
 20
326.0702411190101
 30
0.0
 11
370.8864843922132
 21
326.0702411190101
 31
0.0
  0
LINE
  5
AE4
330
1F
100
AcDbEntity
  8
0
  6
Continuous
 62
     7
100
AcDbLine
 10
369.8864853922132
 20
318.8702441190101
 30
0.0
 11
370.8864843922132
 21
318.8702441190101
 31
0.0
  0
LINE
  5
AE5
330
1F
100
AcDbEntity
  8
0
  6
Continuous
 62
     7
100
AcDbLine
 10
370.8864843922132
 20
327.5102411190101
 30
0.0
 11
371.8864833922133
 21
327.5102411190101
 31
0.0
  0
LINE
  5
AE6
330
1F
100
AcDbEntity
  8
0
  6
Continuous
 62
     7
100
AcDbLine
 10
370.8864843922132
 20
317.4302411190103
 30
0.0
 11
371.8864833922133
 21
317.4302411190103
 31
0.0
  0
LINE
  5
AE7
330
1F
100
AcDbEntity
  8
0
  6
Continuous
 62
     7
100
AcDbLine
 10
370.8864843922132
 20
302.5102541190103
 30
0.0
 11
371.8864833922133
 21
302.5102541190103
 31
0.0
  0
LINE
  5
AE8
330
1F
100
AcDbEntity
  8
0
  6
Continuous
 62
     7
100
AcDbLine
 10
369.8864853922132
 20
293.8702571190103
 30
0.0
 11
370.8864843922132
 21
293.8702571190103
 31
0.0
  0
LINE
  5
AE9
330
1F
100
AcDbEntity
  8
0
  6
Continuous
 62
     7
100
AcDbLine
 10
369.8864853922132
 20
301.0702571190102
 30
0.0
 11
370.8864843922132
 21
301.0702571190102
 31
0.0
  0
LINE
  5
AEA
330
1F
100
AcDbEntity
  8
0
  6
Continuous
 62
     7
100
AcDbLine
 10
367.9664853922131
 20
299.1502571190101
 30
0.0
 11
367.9664853922131
 21
295.7902571190103
 31
0.0
  0
ARC
  5
AEB
330
1F
100
AcDbEntity
  8
0
  6
Continuous
 62
     7
100
AcDbCircle
 10
369.8864839578289
 20
299.1502585533945
 30
0.0
 40
1.919998565616163
100
AcDbArc
 50
89.99995719571119
 51
180.0000428042855
  0
ARC
  5
AEC
330
1F
100
AcDbEntity
  8
0
  6
Continuous
 62
     7
100
AcDbCircle
 10
379.8864824014946
 20
316.4702412800018
 30
0.0
 40
4.999997363354085
100
AcDbArc
 50
126.8062340127905
 51
53.19388074907037
  0
LINE
  5
AED
330
1F
100
AcDbEntity
  8
0
  6
Continuous
 62
     7
 48
6.0
100
AcDbLine
 10
382.2864783922132
 20
321.8702441190103
 30
0.0
 11
382.2864783922132
 21
323.0702411190101
 31
0.0
  0
LINE
  5
AEE
330
1F
100
AcDbEntity
  8
0
  6
Continuous
 62
     7
 48
6.0
100
AcDbLine
 10
382.2864783922132
 20
323.0702411190101
 30
0.0
 11
380.4864783922131
 21
323.0702411190101
 31
0.0
  0
LINE
  5
AEF
330
1F
100
AcDbEntity
  8
0
  6
Continuous
 62
     7
 48
6.0
100
AcDbLine
 10
380.4864783922131
 20
323.0702411190101
 30
0.0
 11
380.4864783922131
 21
324.8702411190098
 31
0.0
  0
LINE
  5
AF0
330
1F
100
AcDbEntity
  8
0
  6
Continuous
 62
     7
 48
6.0
100
AcDbLine
 10
380.4864783922131
 20
324.8702411190098
 30
0.0
 11
379.2864783922132
 21
324.8702411190098
 31
0.0
  0
LINE
  5
AF1
330
1F
100
AcDbEntity
  8
0
  6
Continuous
 62
     7
 48
6.0
100
AcDbLine
 10
379.2864783922132
 20
324.8702411190098
 30
0.0
 11
379.2864783922132
 21
323.0702411190101
 31
0.0
  0
LINE
  5
AF2
330
1F
100
AcDbEntity
  8
0
  6
Continuous
 62
     7
 48
6.0
100
AcDbLine
 10
379.2864783922132
 20
323.0702411190101
 30
0.0
 11
377.4864783922129
 21
323.0702411190101
 31
0.0
  0
LINE
  5
AF3
330
1F
100
AcDbEntity
  8
0
  6
Continuous
 62
     7
 48
6.0
100
AcDbLine
 10
377.4864783922129
 20
323.0702411190101
 30
0.0
 11
377.4864783922129
 21
321.8702441190103
 31
0.0
  0
LINE
  5
AF4
330
1F
100
AcDbEntity
  8
0
  6
Continuous
 62
     7
 48
6.0
100
AcDbLine
 10
377.4864783922129
 20
321.8702441190103
 30
0.0
 11
379.2864783922132
 21
321.8702441190103
 31
0.0
  0
LINE
  5
AF5
330
1F
100
AcDbEntity
  8
0
  6
Continuous
 62
     7
 48
6.0
100
AcDbLine
 10
379.2864783922132
 20
321.8702441190103
 30
0.0
 11
379.2864783922132
 21
320.0702441190104
 31
0.0
  0
LINE
  5
AF6
330
1F
100
AcDbEntity
  8
0
  6
Continuous
 62
     7
 48
6.0
100
AcDbLine
 10
379.2864783922132
 20
320.0702441190104
 30
0.0
 11
380.4864783922131
 21
320.0702441190104
 31
0.0
  0
LINE
  5
AF7
330
1F
100
AcDbEntity
  8
0
  6
Continuous
 62
     7
 48
6.0
100
AcDbLine
 10
380.4864783922131
 20
320.0702441190104
 30
0.0
 11
380.4864783922131
 21
321.8702441190103
 31
0.0
  0
LINE
  5
AF8
330
1F
100
AcDbEntity
  8
0
  6
Continuous
 62
     7
 48
6.0
100
AcDbLine
 10
380.4864783922131
 20
321.8702441190103
 30
0.0
 11
382.2864783922132
 21
321.8702441190103
 31
0.0
  0
LINE
  5
AF9
330
1F
100
AcDbEntity
  8
0
  6
Continuous
 62
     7
 48
6.0
100
AcDbLine
 10
382.2864783922132
 20
321.8702441190103
 30
0.0
 11
382.2864783922132
 21
321.8702441190103
 31
0.0
  0
CIRCLE
  5
AFA
330
1F
100
AcDbEntity
  8
0
  6
Continuous
 62
     7
370
     0
100
AcDbCircle
 10
379.8864780816838
 20
322.4702438084805
 30
0.0
 40
3.599997310530312
  0
LINE
  5
AFB
330
1F
100
AcDbEntity
  8
0
  6
DASHED
 62
     4
 48
6.0
100
AcDbLine
 10
420.3864783922132
 20
283.4702441190103
 30
0.0
 11
422.3864793922132
 21
285.4702421190097
 31
0.0
  0
LINE
  5
AFC
330
1F
100
AcDbEntity
  8
0
  6
DASHED
 62
     4
 48
6.0
100
AcDbLine
 10
397.3864803922133
 20
285.4702421190097
 30
0.0
 11
399.3864813922133
 21
283.4702441190103
 31
0.0
  0
LINE
  5
AFD
330
1F
100
AcDbEntity
  8
0
  6
DASHED
 62
     4
 48
6.0
100
AcDbLine
 10
399.3864813922133
 20
283.4702441190103
 30
0.0
 11
420.3864783922132
 21
283.4702441190103
 31
0.0
  0
LINE
  5
AFE
330
1F
100
AcDbEntity
  8
0
  6
Continuous
 62
     7
100
AcDbLine
 10
370.8864843922132
 20
292.4302571190103
 30
0.0
 11
371.8864833922133
 21
292.4302571190103
 31
0.0
  0
LINE
  5
AFF
330
1F
100
AcDbEntity
  8
0
  6
Continuous
 62
     7
100
AcDbLine
 10
373.4864823922131
 20
260.4702461190103
 30
0.0
 11
373.4864823922131
 21
277.4702441190098
 31
0.0
  0
LINE
  5
B00
330
1F
100
AcDbEntity
  8
0
  6
Continuous
 62
     7
100
AcDbLine
 10
373.8864843922133
 20
277.4702441190098
 30
0.0
 11
377.3864823922132
 21
277.4702441190098
 31
0.0
  0
LINE
  5
B01
330
1F
100
AcDbEntity
  8
0
  6
Continuous
 62
     7
100
AcDbLine
 10
385.8864813922132
 20
277.4702441190098
 30
0.0
 11
385.8864813922132
 21
278.6702441190099
 31
0.0
  0
LINE
  5
B02
330
1F
100
AcDbEntity
  8
0
  6
Continuous
 62
     7
100
AcDbLine
 10
383.8864833922132
 20
277.4702441190098
 30
0.0
 11
383.8864833922132
 21
278.6702441190099
 31
0.0
  0
LINE
  5
B03
330
1F
100
AcDbEntity
  8
0
  6
Continuous
 62
     7
100
AcDbLine
 10
382.3864833922133
 20
277.4702441190098
 30
0.0
 11
383.8864833922132
 21
277.4702441190098
 31
0.0
  0
LINE
  5
B04
330
1F
100
AcDbEntity
  8
0
  6
Continuous
 62
     7
100
AcDbLine
 10
383.8864833922132
 20
278.6702441190099
 30
0.0
 11
385.8864813922132
 21
278.6702441190099
 31
0.0
  0
ARC
  5
B05
330
1F
100
AcDbEntity
  8
0
  6
Continuous
 62
     7
100
AcDbCircle
 10
373.8864828980621
 20
279.4702436248588
 30
0.0
 40
1.999999505849426
100
AcDbArc
 50
179.9999571957144
 51
270.0000428042887
  0
ARC
  5
B06
330
1F
100
AcDbEntity
  8
0
  6
Continuous
 62
     7
100
AcDbCircle
 10
379.8864828922132
 20
277.4702441190098
 30
0.0
 40
2.500000499999999
100
AcDbArc
 50
0.0
 51
180.0
  0
ARC
  5
B07
330
1F
100
AcDbEntity
  8
0
  6
Continuous
 62
     7
100
AcDbCircle
 10
381.4864759156133
 20
260.4702416424078
 30
0.0
 40
7.999993523401303
100
AcDbArc
 50
179.9999679386702
 51
270.0000535472446
  0
LINE
  5
B08
330
1F
100
AcDbEntity
  8
0
  6
Continuous
 62
     7
100
AcDbLine
 10
370.8864843922132
 20
302.5102541190103
 30
0.0
 11
370.8864843922132
 21
292.4302571190103
 31
0.0
  0
ARC
  5
B09
330
1F
100
AcDbEntity
  8
0
  6
Continuous
 62
     7
100
AcDbCircle
 10
369.8864839578289
 20
295.7902556846261
 30
0.0
 40
1.919998565616193
100
AcDbArc
 50
179.9999571957144
 51
270.0000428042887
  0
LINE
  5
B0A
330
1F
100
AcDbEntity
  8
0
  6
DASHED
 62
     4
 48
6.0
100
AcDbLine
 10
397.3864803922133
 20
311.9480261190101
 30
0.0
 11
397.3864803922133
 21
285.4702421190097
 31
0.0
  0
LINE
  5
B0B
330
1F
100
AcDbEntity
  8
0
  6
DASHED
 62
     4
 48
6.0
100
AcDbLine
 10
422.3864793922132
 20
285.4702421190097
 30
0.0
 11
422.3864793922132
 21
312.4702421190098
 31
0.0
  0
CIRCLE
  5
B0C
330
1F
100
AcDbEntity
  8
0
  6
DASHED
 62
     4
370
     0
100
AcDbCircle
 10
409.8864838143581
 20
295.4702465411521
 30
0.0
 40
5.249994577857997
  0
LINE
  5
B0D
330
1F
100
AcDbEntity
  8
0
  6
Continuous
 62
     7
100
AcDbLine
 10
445.3864773922131
 20
252.47024811901
 30
0.0
 11
381.4864833922131
 21
252.47024811901
 31
0.0
  0
LINE
  5
B0E
330
1F
100
AcDbEntity
  8
0
  6
Continuous
 62
     7
100
AcDbLine
 10
371.8864833922133
 20
547.4702171190101
 30
0.0
 11
371.8864833922133
 21
277.4702441190098
 31
0.0
  0
LINE
  5
B0F
330
1F
100
AcDbEntity
  8
0
  6
Continuous
 62
     7
100
AcDbLine
 10
371.8864833922133
 20
545.4702161190101
 30
0.0
 11
371.8864833922133
 21
279.4702451190099
 31
0.0
  0
LINE
  5
B10
330
1F
100
AcDbEntity
  8
0
  6
Continuous
 62
     7
100
AcDbLine
 10
371.8864833922133
 20
547.4702171190101
 30
0.0
 11
791.8864413922133
 21
547.4702171190101
 31
0.0
  0
LINE
  5
B11
330
1F
100
AcDbEntity
  8
0
  6
Continuous
 62
     7
100
AcDbLine
 10
791.8864413922133
 20
277.4702441190098
 30
0.0
 11
371.8864833922133
 21
277.4702441190098
 31
0.0
  0
LINE
  5
B12
330
1F
100
AcDbEntity
  8
0
  6
Continuous
 62
     7
100
AcDbLine
 10
458.3864763922131
 20
252.47024811901
 30
0.0
 11
705.3864513922133
 21
252.47024811901
 31
0.0
  0
LINE
  5
B13
330
1F
100
AcDbEntity
  8
0
  6
Continuous
 62
     7
100
AcDbLine
 10
381.4864833922131
 20
577.4702141190101
 30
0.0
 11
782.286444392212
 21
577.4702141190101
 31
0.0
  0
LINE
  5
B14
330
1F
100
AcDbEntity
  8
0
  6
Continuous
 62
     7
100
AcDbLine
 10
789.8864433922136
 20
547.4702171190101
 30
0.0
 11
373.8864843922133
 21
547.4702171190101
 31
0.0
  0
LINE
  5
B15
330
1F
100
AcDbEntity
  8
0
  6
Continuous
 62
     7
100
AcDbLine
 10
385.8864813922132
 20
277.4702441190098
 30
0.0
 11
777.8864433922134
 21
277.4702441190098
 31
0.0
  0
LINE
  5
B1B
330
1F
100
AcDbEntity
  8
0
  6
Continuous
 62
     7
100
AcDbLine
 10
1193.386401392211
 20
547.3702181190096
 30
0.0
 11
1018.386420392211
 21
547.3702181190096
 31
0.0
  0
LINE
  5
B1C
330
1F
100
AcDbEntity
  8
0
  6
Continuous
 62
     7
100
AcDbLine
 10
1057.386414392212
 20
278.7702431190101
 30
0.0
 11
1021.386420392212
 21
278.7702431190101
 31
0.0
  0
LINE
  5
B1D
330
1F
100
AcDbEntity
  8
0
  6
Continuous
 62
     7
100
AcDbLine
 10
1057.386414392212
 20
546.1702181190097
 30
0.0
 11
1021.386420392212
 21
546.1702181190097
 31
0.0
  0
LINE
  5
11E8
330
1F
100
AcDbEntity
  8
0
  6
Continuous
 62
     7
100
AcDbLine
 10
634.3864811509866
 20
462.4702341014589
 30
0.0
 11
656.3864811509867
 21
462.4702341014589
 31
0.0
  0
LINE
  5
11E9
330
1F
100
AcDbEntity
  8
0
  6
Continuous
 62
     7
100
AcDbLine
 10
634.3864811509866
 20
442.4702341014592
 30
0.0
 11
656.3864811509867
 21
442.4702341014592
 31
0.0
  0
LINE
  5
11EA
330
1F
100
AcDbEntity
  8
0
  6
Continuous
 62
     7
100
AcDbLine
 10
634.3864811509866
 20
450.4702341014587
 30
0.0
 11
656.3864811509867
 21
450.4702341014587
 31
0.0
  0
LINE
  5
11EB
330
1F
100
AcDbEntity
  8
0
  6
Continuous
 62
     7
100
AcDbLine
 10
634.3864811509866
 20
454.4702341014591
 30
0.0
 11
656.3864811509867
 21
454.4702341014591
 31
0.0
  0
CIRCLE
  5
11EC
330
1F
100
AcDbEntity
  8
0
  6
Continuous
 62
     7
100
AcDbCircle
 10
645.3864833922117
 20
434.4702318602333
 30
0.0
 40
2.999997758775232
  0
CIRCLE
  5
11ED
330
1F
100
AcDbEntity
  8
0
  6
Continuous
 62
     7
100
AcDbCircle
 10
650.3864833922122
 20
469.4702318602331
 30
0.0
 40
2.999997758775121
  0
CIRCLE
  5
11EE
330
1F
100
AcDbEntity
  8
0
  6
Continuous
 62
     7
100
AcDbCircle
 10
650.3864833922122
 20
482.4702318602328
 30
0.0
 40
2.999997758775232
  0
CIRCLE
  5
11EF
330
1F
100
AcDbEntity
  8
0
  6
Continuous
 62
     7
100
AcDbCircle
 10
650.3864833922122
 20
495.4702318602334
 30
0.0
 40
2.999997758775232
  0
CIRCLE
  5
11F0
330
1F
100
AcDbEntity
  8
0
  6
Continuous
 62
     7
100
AcDbCircle
 10
640.3864833922122
 20
469.4702318602331
 30
0.0
 40
2.999997758775121
  0
CIRCLE
  5
11F1
330
1F
100
AcDbEntity
  8
0
  6
Continuous
 62
     7
100
AcDbCircle
 10
628.8632706451363
 20
469.9702326073087
 30
0.0
 40
1.999998505850155
  0
LINE
  5
11F2
330
1F
100
AcDbEntity
  8
0
  6
Continuous
 62
     7
100
AcDbLine
 10
634.3864811509866
 20
450.4702341014587
 30
0.0
 11
634.3864811509866
 21
442.4702341014592
 31
0.0
  0
CIRCLE
  5
11F3
330
1F
100
AcDbEntity
  8
0
  6
Continuous
 62
     7
100
AcDbCircle
 10
633.3864833922119
 20
434.4702318602333
 30
0.0
 40
2.999997758775347
  0
CIRCLE
  5
11F4
330
1F
100
AcDbEntity
  8
0
  6
Continuous
 62
     7
100
AcDbCircle
 10
628.8633666451371
 20
457.3502326073083
 30
0.0
 40
1.999998505850155
  0
LINE
  5
11F5
330
1F
100
AcDbEntity
  8
0
  6
Continuous
 62
     7
100
AcDbLine
 10
634.3864811509866
 20
462.4702341014589
 30
0.0
 11
634.3864811509866
 21
454.4702341014591
 31
0.0
  0
CIRCLE
  5
11F6
330
1F
100
AcDbEntity
  8
0
  6
Continuous
 62
     7
100
AcDbCircle
 10
628.8634146451372
 20
452.2502326073083
 30
0.0
 40
1.999998505850155
  0
CIRCLE
  5
11F7
330
1F
100
AcDbEntity
  8
0
  6
Continuous
 62
     7
100
AcDbCircle
 10
628.8633186451362
 20
462.4502326073093
 30
0.0
 40
1.999998505850385
  0
CIRCLE
  5
11F8
330
1F
100
AcDbEntity
  8
0
  6
Continuous
 62
     7
100
AcDbCircle
 10
640.3864833922122
 20
495.4702318602334
 30
0.0
 40
2.999997758775232
  0
CIRCLE
  5
11F9
330
1F
100
AcDbEntity
  8
0
  6
Continuous
 62
     7
100
AcDbCircle
 10
628.8632966451367
 20
480.1702326073086
 30
0.0
 40
1.999998505850385
  0
CIRCLE
  5
11FA
330
1F
100
AcDbEntity
  8
0
  6
Continuous
 62
     7
100
AcDbCircle
 10
640.3864833922122
 20
482.4702318602328
 30
0.0
 40
2.999997758775232
  0
CIRCLE
  5
11FB
330
1F
100
AcDbEntity
  8
0
  6
Continuous
 62
     7
100
AcDbCircle
 10
628.8632846451372
 20
475.070232607309
 30
0.0
 40
1.99999850585027
  0
CIRCLE
  5
11FC
330
1F
100
AcDbEntity
  8
0
  6
Continuous
 62
     7
100
AcDbCircle
 10
628.8633246451369
 20
490.3702326073086
 30
0.0
 40
1.999998505850155
  0
CIRCLE
  5
11FD
330
1F
100
AcDbEntity
  8
0
  6
Continuous
 62
     7
100
AcDbCircle
 10
628.8633106451367
 20
485.2702326073086
 30
0.0
 40
1.99999850585027
  0
CIRCLE
  5
11FE
330
1F
100
AcDbEntity
  8
0
  6
Continuous
 62
     7
100
AcDbCircle
 10
628.8633366451367
 20
495.4702326073094
 30
0.0
 40
1.999998505850385
  0
LINE
  5
11FF
330
1F
100
AcDbEntity
  8
0
  6
Continuous
 62
     7
100
AcDbLine
 10
656.3864811509867
 20
450.4702341014587
 30
0.0
 11
656.3864811509867
 21
442.4702341014592
 31
0.0
  0
CIRCLE
  5
1200
330
1F
100
AcDbEntity
  8
0
  6
Continuous
 62
     7
100
AcDbCircle
 10
657.3864833922117
 20
434.4702318602333
 30
0.0
 40
2.999997758775232
  0
LINE
  5
1201
330
1F
100
AcDbEntity
  8
0
  6
Continuous
 62
     7
100
AcDbLine
 10
656.3864811509867
 20
462.4702341014589
 30
0.0
 11
656.3864811509867
 21
454.4702341014591
 31
0.0
  0
ENDSEC
  0
SECTION
  2
OBJECTS
  0
DICTIONARY
  5
C
330
0
100
AcDbDictionary
281
     1
  3
ACAD_GROUP
350
D
  3
ACAD_LAYOUT
350
1A
  3
ACAD_MLINESTYLE
350
17
  3
ACAD_PLOTSETTINGS
350
19
  3
ACAD_PLOTSTYLENAME
350
E
  0
DICTIONARY
  5
D
102
{ACAD_REACTORS
330
C
102
}
330
C
100
AcDbDictionary
281
     1
  0
DICTIONARY
  5
1A
102
{ACAD_REACTORS
330
C
102
}
330
C
100
AcDbDictionary
281
     1
  3
Model
350
22
  3
ﾚｲｱｳﾄ1
350
51
  0
DICTIONARY
  5
17
102
{ACAD_REACTORS
330
C
102
}
330
C
100
AcDbDictionary
281
     1
  3
Standard
350
18
  0
DICTIONARY
  5
19
102
{ACAD_REACTORS
330
C
102
}
330
C
100
AcDbDictionary
281
     1
  0
ACDBDICTIONARYWDFLT
  5
E
102
{ACAD_REACTORS
330
C
102
}
330
C
100
AcDbDictionary
281
     1
  3
Normal
350
F
100
AcDbDictionaryWithDefault
340
F
  0
LAYOUT
  5
22
102
{ACAD_REACTORS
330
1A
102
}
330
1A
100
AcDbPlotSettings
  1

  2
none_device
  4
ANSI_A_(8.50_x_11.00_Inches)
  6

 40
6.349999904632567
 41
19.04999923706053
 42
6.350006103515625
 43
19.04998779296875
 44
215.8999938964841
 45
279.3999938964843
 46
0.0
 47
0.0
 48
0.0
 49
0.0
140
0.0
141
0.0
142
1.0
143
78.436453180766
 70
 11952
 72
     0
 73
     1
 74
     0
  7

 75
     0
147
0.0127491741332998
148
0.0
149
0.0
100
AcDbLayout
  1
Model
 70
     1
 71
     0
 10
0.0
 20
0.0
 11
12.0
 21
9.0
 12
0.0
 22
0.0
 32
0.0
 14
0.0
 24
0.0
 34
0.0
 15
0.0
 25
0.0
 35
0.0
146
0.0
 13
0.0
 23
0.0
 33
0.0
 16
1.0
 26
0.0
 36
0.0
 17
0.0
 27
1.0
 37
0.0
 76
     0
330
1F
  0
LAYOUT
  5
51
102
{ACAD_REACTORS
330
1A
102
}
330
1A
100
AcDbPlotSettings
  1

  2
None
  4

  6

 40
0.0
 41
0.0
 42
0.0
 43
0.0
 44
0.0
 45
0.0
 46
0.0
 47
0.0
 48
0.0
 49
0.0
140
0.0
141
0.0
142
1.0
143
1.0
 70
   688
 72
     0
 73
     0
 74
     5
  7

 75
    16
147
1.0
148
0.0
149
0.0
100
AcDbLayout
  1
ﾚｲｱｳﾄ1
 70
     1
 71
     1
 10
0.0
 20
0.0
 11
12.0
 21
9.0
 12
0.0
 22
0.0
 32
0.0
 14
0.0
 24
0.0
 34
0.0
 15
0.0
 25
0.0
 35
0.0
146
0.0
 13
0.0
 23
0.0
 33
0.0
 16
1.0
 26
0.0
 36
0.0
 17
0.0
 27
1.0
 37
0.0
 76
     0
330
50
  0
MLINESTYLE
  5
18
102
{ACAD_REACTORS
330
17
102
}
330
17
100
AcDbMlineStyle
  2
STANDARD
 70
     0
  3

 62
   256
 51
90.0
 52
90.0
 71
     2
 49
0.5
 62
   256
  6
BYLAYER
 49
-0.5
 62
   256
  6
BYLAYER
  0
ACDBPLACEHOLDER
  5
F
102
{ACAD_REACTORS
330
E
102
}
330
E
  0
ENDSEC
  0
EOF
