  0
SECTION
  2
HEADER
  9
$ACADVER
  1
AC1015
  9
$ACADMAINTVER
 70
    10
  9
$DWGCODEPAGE
  3
ANSI_932
  9
$INSBASE
 10
0.0
 20
0.0
 30
0.0
  9
$EXTMIN
 10
482.379428793732
 20
259.8379805269355
 30
0.0
  9
$EXTMAX
 10
599.835064193732
 20
360.2931579269354
 30
0.0
  9
$LIMMIN
 10
0.0
 20
0.0
  9
$LIMMAX
 10
420.0
 20
297.0
  9
$ORTHOMODE
 70
     0
  9
$REGENMODE
 70
     1
  9
$FILLMODE
 70
     1
  9
$QTEXTMODE
 70
     0
  9
$MIRRTEXT
 70
     1
  9
$LTSCALE
 40
1.0
  9
$ATTMODE
 70
     1
  9
$TEXTSIZE
 40
2.5
  9
$TRACEWID
 40
1.0
  9
$TEXTSTYLE
  7
Standard
  9
$CLAYER
  8
0
  9
$CELTYPE
  6
ByLayer
  9
$CECOLOR
 62
   256
  9
$CELTSCALE
 40
1.0
  9
$DISPSILH
 70
     0
  9
$DIMSCALE
 40
1.0
  9
$DIMASZ
 40
2.5
  9
$DIMEXO
 40
0.625
  9
$DIMDLI
 40
3.75
  9
$DIMRND
 40
0.0
  9
$DIMDLE
 40
0.0
  9
$DIMEXE
 40
1.25
  9
$DIMTP
 40
0.0
  9
$DIMTM
 40
0.0
  9
$DIMTXT
 40
2.5
  9
$DIMCEN
 40
2.5
  9
$DIMTSZ
 40
0.0
  9
$DIMTOL
 70
     0
  9
$DIMLIM
 70
     0
  9
$DIMTIH
 70
     0
  9
$DIMTOH
 70
     0
  9
$DIMSE1
 70
     0
  9
$DIMSE2
 70
     0
  9
$DIMTAD
 70
     1
  9
$DIMZIN
 70
     8
  9
$DIMBLK
  1

  9
$DIMASO
 70
     1
  9
$DIMSHO
 70
     1
  9
$DIMPOST
  1

  9
$DIMAPOST
  1

  9
$DIMALT
 70
     0
  9
$DIMALTD
 70
     3
  9
$DIMALTF
 40
0.03937007874016
  9
$DIMLFAC
 40
1.0
  9
$DIMTOFL
 70
     1
  9
$DIMTVP
 40
0.0
  9
$DIMTIX
 70
     0
  9
$DIMSOXD
 70
     0
  9
$DIMSAH
 70
     0
  9
$DIMBLK1
  1

  9
$DIMBLK2
  1

  9
$DIMSTYLE
  2
ISO-25
  9
$DIMCLRD
 70
     0
  9
$DIMCLRE
 70
     0
  9
$DIMCLRT
 70
     0
  9
$DIMTFAC
 40
1.0
  9
$DIMGAP
 40
0.625
  9
$DIMJUST
 70
     0
  9
$DIMSD1
 70
     0
  9
$DIMSD2
 70
     0
  9
$DIMTOLJ
 70
     0
  9
$DIMTZIN
 70
     8
  9
$DIMALTZ
 70
     0
  9
$DIMALTTZ
 70
     0
  9
$DIMUPT
 70
     0
  9
$DIMDEC
 70
     2
  9
$DIMTDEC
 70
     2
  9
$DIMALTU
 70
     2
  9
$DIMALTTD
 70
     3
  9
$DIMTXSTY
  7
Standard
  9
$DIMAUNIT
 70
     0
  9
$DIMADEC
 70
     0
  9
$DIMALTRND
 40
0.0
  9
$DIMAZIN
 70
     0
  9
$DIMDSEP
 70
    44
  9
$DIMATFIT
 70
     3
  9
$DIMFRAC
 70
     0
  9
$DIMLDRBLK
  1

  9
$DIMLUNIT
 70
     2
  9
$DIMLWD
 70
    -2
  9
$DIMLWE
 70
    -2
  9
$DIMTMOVE
 70
     0
  9
$LUNITS
 70
     2
  9
$LUPREC
 70
     4
  9
$SKETCHINC
 40
1.0
  9
$FILLETRAD
 40
10.0
  9
$AUNITS
 70
     0
  9
$AUPREC
 70
     0
  9
$MENU
  1
.
  9
$ELEVATION
 40
0.0
  9
$PELEVATION
 40
0.0
  9
$THICKNESS
 40
0.0
  9
$LIMCHECK
 70
     0
  9
$CHAMFERA
 40
10.0
  9
$CHAMFERB
 40
10.0
  9
$CHAMFERC
 40
20.0
  9
$CHAMFERD
 40
0.0
  9
$SKPOLY
 70
     0
  9
$TDCREATE
 40
2456499.776857766
  9
$TDUCREATE
 40
2456499.401857766
  9
$TDUPDATE
 40
2456500.620598205
  9
$TDUUPDATE
 40
2456500.245598205
  9
$TDINDWG
 40
0.0013785185
  9
$TDUSRTIMER
 40
0.0013783449
  9
$USRTIMER
 70
     1
  9
$ANGBASE
 50
0.0
  9
$ANGDIR
 70
     0
  9
$PDMODE
 70
     0
  9
$PDSIZE
 40
0.0
  9
$PLINEWID
 40
0.0
  9
$SPLFRAME
 70
     0
  9
$SPLINETYPE
 70
     6
  9
$SPLINESEGS
 70
     8
  9
$HANDSEED
  5
38D
  9
$SURFTAB1
 70
     6
  9
$SURFTAB2
 70
     6
  9
$SURFTYPE
 70
     6
  9
$SURFU
 70
     6
  9
$SURFV
 70
     6
  9
$UCSBASE
  2

  9
$UCSNAME
  2

  9
$UCSORG
 10
0.0
 20
0.0
 30
0.0
  9
$UCSXDIR
 10
1.0
 20
0.0
 30
0.0
  9
$UCSYDIR
 10
0.0
 20
1.0
 30
0.0
  9
$UCSORTHOREF
  2

  9
$UCSORTHOVIEW
 70
     0
  9
$UCSORGTOP
 10
0.0
 20
0.0
 30
0.0
  9
$UCSORGBOTTOM
 10
0.0
 20
0.0
 30
0.0
  9
$UCSORGLEFT
 10
0.0
 20
0.0
 30
0.0
  9
$UCSORGRIGHT
 10
0.0
 20
0.0
 30
0.0
  9
$UCSORGFRONT
 10
0.0
 20
0.0
 30
0.0
  9
$UCSORGBACK
 10
0.0
 20
0.0
 30
0.0
  9
$PUCSBASE
  2

  9
$PUCSNAME
  2

  9
$PUCSORG
 10
0.0
 20
0.0
 30
0.0
  9
$PUCSXDIR
 10
1.0
 20
0.0
 30
0.0
  9
$PUCSYDIR
 10
0.0
 20
1.0
 30
0.0
  9
$PUCSORTHOREF
  2

  9
$PUCSORTHOVIEW
 70
     0
  9
$PUCSORGTOP
 10
0.0
 20
0.0
 30
0.0
  9
$PUCSORGBOTTOM
 10
0.0
 20
0.0
 30
0.0
  9
$PUCSORGLEFT
 10
0.0
 20
0.0
 30
0.0
  9
$PUCSORGRIGHT
 10
0.0
 20
0.0
 30
0.0
  9
$PUCSORGFRONT
 10
0.0
 20
0.0
 30
0.0
  9
$PUCSORGBACK
 10
0.0
 20
0.0
 30
0.0
  9
$USERI1
 70
     0
  9
$USERI2
 70
     0
  9
$USERI3
 70
     0
  9
$USERI4
 70
     0
  9
$USERI5
 70
     0
  9
$USERR1
 40
0.0
  9
$USERR2
 40
0.0
  9
$USERR3
 40
0.0
  9
$USERR4
 40
0.0
  9
$USERR5
 40
0.0
  9
$WORLDVIEW
 70
     1
  9
$SHADEDGE
 70
     3
  9
$SHADEDIF
 70
    70
  9
$TILEMODE
 70
     1
  9
$MAXACTVP
 70
    64
  9
$PINSBASE
 10
0.0
 20
0.0
 30
0.0
  9
$PLIMCHECK
 70
     0
  9
$PEXTMIN
 10
0.0
 20
0.0
 30
0.0
  9
$PEXTMAX
 10
0.0
 20
0.0
 30
0.0
  9
$PLIMMIN
 10
0.0
 20
0.0
  9
$PLIMMAX
 10
12.0
 20
9.0
  9
$UNITMODE
 70
     0
  9
$VISRETAIN
 70
     1
  9
$PLINEGEN
 70
     0
  9
$PSLTSCALE
 70
     1
  9
$TREEDEPTH
 70
  3020
  9
$CMLSTYLE
  2
Standard
  9
$CMLJUST
 70
     0
  9
$CMLSCALE
 40
20.0
  9
$PROXYGRAPHICS
 70
     1
  9
$MEASUREMENT
 70
     1
  9
$CELWEIGHT
370
    -1
  9
$ENDCAPS
280
     0
  9
$JOINSTYLE
280
     0
  9
$LWDISPLAY
290
     0
  9
$INSUNITS
 70
     4
  9
$HYPERLINKBASE
  1

  9
$STYLESHEET
  1

  9
$XEDIT
290
     1
  9
$CEPSNTYPE
380
     0
  9
$PSTYLEMODE
290
     1
  9
$FINGERPRINTGUID
  2
{FDEAD578-A652-11D2-9A35-0060089B3A3F}
  9
$VERSIONGUID
  2
{D621BF6D-B6BC-4522-BAB1-BE6BE15341CC}
  9
$EXTNAMES
290
     1
  9
$PSVPSCALE
 40
0.0
  9
$OLESTARTUP
290
     0
  0
ENDSEC
  0
SECTION
  2
CLASSES
  0
CLASS
  1
ACDBDICTIONARYWDFLT
  2
AcDbDictionaryWithDefault
  3
AutoCAD 2000
 90
        0
280
     0
281
     0
  0
CLASS
  1
ACDBPLACEHOLDER
  2
AcDbPlaceHolder
  3
AutoCAD 2000
 90
        0
280
     0
281
     0
  0
CLASS
  1
LAYOUT
  2
AcDbLayout
  3
AutoCAD 2000
 90
        0
280
     0
281
     0
  0
ENDSEC
  0
SECTION
  2
TABLES
  0
TABLE
  2
VPORT
  5
8
330
0
100
AcDbSymbolTable
 70
     2
  0
VPORT
  5
38C
330
8
100
AcDbSymbolTableRecord
100
AcDbViewportTableRecord
  2
*Active
 70
     0
 10
0.0
 20
0.0
 11
1.0
 21
1.0
 12
544.0423952425397
 22
312.2102349410367
 13
0.0
 23
0.0
 14
10.0
 24
10.0
 15
10.0
 25
10.0
 16
0.0
 26
0.0
 36
1.0
 17
0.0
 27
0.0
 37
0.0
 40
114.4144837887696
 41
1.90204081632653
 42
50.0
 43
0.0
 44
0.0
 50
0.0
 51
0.0
 71
     0
 72
   100
 73
     1
 74
     3
 75
     0
 76
     0
 77
     0
 78
     0
281
     0
 65
     1
110
0.0
120
0.0
130
0.0
111
1.0
121
0.0
131
0.0
112
0.0
122
1.0
132
0.0
 79
     0
146
0.0
  0
ENDTAB
  0
TABLE
  2
LTYPE
  5
5
330
0
100
AcDbSymbolTable
 70
     2
  0
LTYPE
  5
14
330
5
100
AcDbSymbolTableRecord
100
AcDbLinetypeTableRecord
  2
ByBlock
 70
     0
  3

 72
    65
 73
     0
 40
0.0
  0
LTYPE
  5
15
330
5
100
AcDbSymbolTableRecord
100
AcDbLinetypeTableRecord
  2
ByLayer
 70
     0
  3

 72
    65
 73
     0
 40
0.0
  0
LTYPE
  5
16
330
5
100
AcDbSymbolTableRecord
100
AcDbLinetypeTableRecord
  2
Continuous
 70
     0
  3
Solid line
 72
    65
 73
     0
 40
0.0
  0
LTYPE
  5
61
330
5
100
AcDbSymbolTableRecord
100
AcDbLinetypeTableRecord
  2
DASHED
 70
     0
  3
DASHED
 72
    65
 73
     2
 40
0.75
 49
0.5
 74
     0
 49
-0.25
 74
     0
  0
ENDTAB
  0
TABLE
  2
LAYER
  5
2
330
0
100
AcDbSymbolTable
 70
     1
  0
LAYER
  5
10
330
2
100
AcDbSymbolTableRecord
100
AcDbLayerTableRecord
  2
0
 70
     0
 62
     7
  6
Continuous
370
    -3
390
F
  0
ENDTAB
  0
TABLE
  2
STYLE
  5
3
330
0
100
AcDbSymbolTable
 70
     1
  0
STYLE
  5
11
330
3
100
AcDbSymbolTableRecord
100
AcDbTextStyleTableRecord
  2
Standard
 70
     0
 40
0.0
 41
1.0
 50
0.0
 71
     0
 42
2.5
  3
txt
  4

  0
ENDTAB
  0
TABLE
  2
VIEW
  5
6
330
0
100
AcDbSymbolTable
 70
     0
  0
ENDTAB
  0
TABLE
  2
UCS
  5
7
330
0
100
AcDbSymbolTable
 70
     0
  0
ENDTAB
  0
TABLE
  2
APPID
  5
9
330
0
100
AcDbSymbolTable
 70
     1
  0
APPID
  5
12
330
9
100
AcDbSymbolTableRecord
100
AcDbRegAppTableRecord
  2
ACAD
 70
     0
  0
ENDTAB
  0
TABLE
  2
DIMSTYLE
  5
A
330
0
100
AcDbSymbolTable
 70
     1
100
AcDbDimStyleTable
 71
     1
340
27
  0
DIMSTYLE
105
27
330
A
100
AcDbSymbolTableRecord
100
AcDbDimStyleTableRecord
  2
ISO-25
 70
     0
 41
2.5
 42
0.625
 43
3.75
 44
1.25
 73
     0
 74
     0
 77
     1
 78
     8
140
2.5
141
2.5
143
0.03937007874016
147
0.625
171
     3
172
     1
271
     2
272
     2
274
     3
278
    44
283
     0
284
     8
340
11
  0
ENDTAB
  0
TABLE
  2
BLOCK_RECORD
  5
1
330
0
100
AcDbSymbolTable
 70
     1
  0
BLOCK_RECORD
  5
1F
330
1
100
AcDbSymbolTableRecord
100
AcDbBlockTableRecord
  2
*Model_Space
340
22
  0
BLOCK_RECORD
  5
50
330
1
100
AcDbSymbolTableRecord
100
AcDbBlockTableRecord
  2
*Paper_Space
340
51
  0
BLOCK_RECORD
  5
55
330
1
100
AcDbSymbolTableRecord
100
AcDbBlockTableRecord
  2
*Paper_Space0
340
56
  0
ENDTAB
  0
ENDSEC
  0
SECTION
  2
BLOCKS
  0
BLOCK
  5
20
330
1F
100
AcDbEntity
  8
0
100
AcDbBlockBegin
  2
*Model_Space
 70
     0
 10
0.0
 20
0.0
 30
0.0
  3
*Model_Space
  1

  0
ENDBLK
  5
21
330
1F
100
AcDbEntity
  8
0
100
AcDbBlockEnd
  0
BLOCK
  5
52
330
50
100
AcDbEntity
 67
     1
  8
0
100
AcDbBlockBegin
  2
*Paper_Space
 70
     0
 10
0.0
 20
0.0
 30
0.0
  3
*Paper_Space
  1

  0
ENDBLK
  5
53
330
50
100
AcDbEntity
 67
     1
  8
0
100
AcDbBlockEnd
  0
BLOCK
  5
57
330
55
100
AcDbEntity
  8
0
100
AcDbBlockBegin
  2
*Paper_Space0
 70
     0
 10
0.0
 20
0.0
 30
0.0
  3
*Paper_Space0
  1

  0
ENDBLK
  5
58
330
55
100
AcDbEntity
  8
0
100
AcDbBlockEnd
  0
ENDSEC
  0
SECTION
  2
ENTITIES
  0
LINE
  5
1F6
330
1F
100
AcDbEntity
  8
0
  6
Continuous
 62
     7
100
AcDbLine
 10
564.9413491937316
 20
340.6995515269357
 30
0.0
 11
565.2928151937316
 21
342.7204815269356
 31
0.0
  0
LINE
  5
1F7
330
1F
100
AcDbEntity
  8
0
  6
Continuous
 62
     7
100
AcDbLine
 10
569.8300921937317
 20
326.8375225269356
 30
0.0
 11
569.8300921937317
 21
349.8375225269356
 31
0.0
  0
LINE
  5
1F8
330
1F
100
AcDbEntity
  8
0
  6
Continuous
 62
     7
100
AcDbLine
 10
569.8300921937317
 20
321.7875225269356
 30
0.0
 11
569.8300921937317
 21
349.8375225269356
 31
0.0
  0
LINE
  5
1F9
330
1F
100
AcDbEntity
  8
0
  6
Continuous
 62
     7
100
AcDbLine
 10
569.8300921937317
 20
326.8375225269356
 30
0.0
 11
569.8300921937317
 21
349.8375225269356
 31
0.0
  0
LINE
  5
1FA
330
1F
100
AcDbEntity
  8
0
100
AcDbLine
 10
569.8300921937317
 20
349.8375225269356
 30
0.0
 11
569.8300921937317
 21
269.8375225269356
 31
0.0
  0
LINE
  5
1FB
330
1F
100
AcDbEntity
  8
0
  6
Continuous
 62
     7
100
AcDbLine
 10
562.8794291937317
 20
327.0926195269356
 30
0.0
 11
566.4027211937317
 21
347.3515455269356
 31
0.0
  0
LINE
  5
1FC
330
1F
100
AcDbEntity
  8
0
  6
Continuous
 62
     7
 48
2.0
100
AcDbLine
 10
506.4127446168686
 20
341.4183797189274
 30
0.0
 11
506.4127446168686
 21
342.7683797189274
 31
0.0
  0
LINE
  5
1FD
330
1F
100
AcDbEntity
  8
0
  6
Continuous
 62
     7
 48
2.0
100
AcDbLine
 10
505.3127446168688
 20
341.4183797189274
 30
0.0
 11
505.3127446168688
 21
342.7683797189274
 31
0.0
  0
LINE
  5
1FE
330
1F
100
AcDbEntity
  8
0
  6
DASHED
 62
     4
 48
2.0
100
AcDbLine
 10
501.2627446168688
 20
339.2183797189275
 30
0.0
 11
501.2627446168688
 21
347.4183797189275
 31
0.0
  0
LINE
  5
1FF
330
1F
100
AcDbEntity
  8
0
  6
DASHED
 62
     4
 48
2.0
100
AcDbLine
 10
510.462744616869
 20
347.4183797189275
 30
0.0
 11
510.462744616869
 21
339.2183797189275
 31
0.0
  0
CIRCLE
  5
200
330
1F
100
AcDbEntity
  8
0
100
AcDbCircle
 10
505.8350695216304
 20
343.3375288548343
 30
0.0
 40
3.749997198469111
  0
CIRCLE
  5
201
330
1F
100
AcDbEntity
  8
0
100
AcDbCircle
 10
505.8627441842683
 20
343.3183792863268
 30
0.0
 40
3.375000432600613
  0
CIRCLE
  5
202
330
1F
100
AcDbEntity
  8
0
100
AcDbCircle
 10
489.8350665676511
 20
343.3375259008546
 30
0.0
 40
3.375000432600613
  0
CIRCLE
  5
203
330
1F
100
AcDbEntity
  8
0
100
AcDbCircle
 10
489.8073919050133
 20
343.3566754693623
 30
0.0
 40
3.749997198469111
  0
LINE
  5
204
330
1F
100
AcDbEntity
  8
0
  6
Continuous
 62
     7
 48
2.0
100
AcDbLine
 10
489.2850670002518
 20
341.4375263334552
 30
0.0
 11
489.2850670002518
 21
342.7875263334553
 31
0.0
  0
LINE
  5
205
330
1F
100
AcDbEntity
  8
0
  6
Continuous
 62
     7
 48
2.0
100
AcDbLine
 10
490.3850670002516
 20
341.4375263334552
 30
0.0
 11
490.3850670002516
 21
342.7875263334553
 31
0.0
  0
LINE
  5
206
330
1F
100
AcDbEntity
  8
0
  6
DASHED
 62
     4
 48
2.0
100
AcDbLine
 10
494.4350670002518
 20
347.4375263334552
 30
0.0
 11
494.4350670002518
 21
339.2375263334556
 31
0.0
  0
LINE
  5
207
330
1F
100
AcDbEntity
  8
0
  6
DASHED
 62
     4
 48
2.0
100
AcDbLine
 10
485.2350670002518
 20
339.2375263334556
 30
0.0
 11
485.2350670002518
 21
347.4375263334552
 31
0.0
  0
LINE
  5
208
330
1F
100
AcDbEntity
  8
0
  6
DASHED
 62
     4
100
AcDbLine
 10
591.8350641937317
 20
349.8375225269356
 30
0.0
 11
591.8350641937317
 21
264.8375225269357
 31
0.0
  0
LINE
  5
209
330
1F
100
AcDbEntity
  8
0
  6
DASHED
 62
     4
100
AcDbLine
 10
599.835064193732
 20
325.3375225269357
 30
0.0
 11
599.835064193732
 21
359.8375225269356
 31
0.0
  0
LINE
  5
20A
330
1F
100
AcDbEntity
  8
0
  6
Continuous
 62
     7
100
AcDbLine
 10
483.8350641937319
 20
349.5695735269356
 30
0.0
 11
483.8350641937319
 21
321.8375225269356
 31
0.0
  0
LINE
  5
20B
330
1F
100
AcDbEntity
  8
0
  6
Continuous
 62
     7
100
AcDbLine
 10
511.8350641937319
 20
321.8375225269356
 30
0.0
 11
511.8350641937319
 21
349.5695735269356
 31
0.0
  0
LINE
  5
20C
330
1F
100
AcDbEntity
  8
0
  6
Continuous
 62
     7
100
AcDbLine
 10
512.835064193732
 20
321.8375225269356
 30
0.0
 11
512.835064193732
 21
347.8375225269355
 31
0.0
  0
LINE
  5
20D
330
1F
100
AcDbEntity
  8
0
  6
Continuous
 62
     7
100
AcDbLine
 10
482.8350641937319
 20
347.8375225269355
 30
0.0
 11
482.8350641937319
 21
321.8375225269356
 31
0.0
  0
LINE
  5
20E
330
1F
100
AcDbEntity
  8
0
  6
Continuous
 62
     7
100
AcDbLine
 10
590.8350641937317
 20
345.8375225269355
 30
0.0
 11
590.8350641937317
 21
273.8375225269355
 31
0.0
  0
LINE
  5
20F
330
1F
100
AcDbEntity
  8
0
  6
DASHED
 62
     4
100
AcDbLine
 10
512.835064193732
 20
267.0375225269355
 30
0.0
 11
512.835064193732
 21
357.6375225269355
 31
0.0
  0
LINE
  5
210
330
1F
100
AcDbEntity
  8
0
  6
DASHED
 62
     4
100
AcDbLine
 10
482.8350641937319
 20
357.6375225269355
 30
0.0
 11
482.8350641937319
 21
267.0375225269355
 31
0.0
  0
LINE
  5
211
330
1F
100
AcDbEntity
  8
0
  6
Continuous
 62
     7
100
AcDbLine
 10
591.8350641937317
 20
348.7375225269356
 30
0.0
 11
591.8350641937317
 21
270.9375225269357
 31
0.0
  0
LINE
  5
212
330
1F
100
AcDbEntity
  8
0
  6
DASHED
 62
     4
100
AcDbLine
 10
495.5850654759313
 20
287.0875258091349
 30
0.0
 11
495.5850654759313
 21
284.087525809135
 31
0.0
  0
LINE
  5
213
330
1F
100
AcDbEntity
  8
0
  6
DASHED
 62
     4
100
AcDbLine
 10
500.0850654759313
 20
287.0875258091349
 30
0.0
 11
500.0850654759313
 21
284.087525809135
 31
0.0
  0
LINE
  5
214
330
1F
100
AcDbEntity
  8
0
  6
Continuous
 62
     7
100
AcDbLine
 10
511.8350641937319
 20
270.1054715269355
 30
0.0
 11
511.8350641937319
 21
297.8375225269356
 31
0.0
  0
LINE
  5
215
330
1F
100
AcDbEntity
  8
0
  6
Continuous
 62
     7
100
AcDbLine
 10
483.8350641937319
 20
297.8375225269356
 30
0.0
 11
483.8350641937319
 21
270.1054715269355
 31
0.0
  0
LINE
  5
216
330
1F
100
AcDbEntity
  8
0
  6
Continuous
 62
     7
100
AcDbLine
 10
482.8350641937319
 20
297.8375225269356
 30
0.0
 11
482.8350641937319
 21
271.8375225269355
 31
0.0
  0
LINE
  5
217
330
1F
100
AcDbEntity
  8
0
  6
Continuous
 62
     7
100
AcDbLine
 10
512.835064193732
 20
271.8375225269355
 30
0.0
 11
512.835064193732
 21
297.8375225269356
 31
0.0
  0
LINE
  5
218
330
1F
100
AcDbEntity
  8
0
  6
Continuous
 62
     7
100
AcDbLine
 10
512.835064193732
 20
271.8375225269355
 30
0.0
 11
512.835064193732
 21
297.8375225269356
 31
0.0
  0
LINE
  5
219
330
1F
100
AcDbEntity
  8
0
  6
Continuous
 62
     7
100
AcDbLine
 10
482.8350641937319
 20
297.8375225269356
 30
0.0
 11
482.8350641937319
 21
271.8375225269355
 31
0.0
  0
ARC
  5
21A
330
1F
100
AcDbEntity
  8
0
  6
DASHED
 62
     4
100
AcDbCircle
 10
497.8350654759311
 20
284.087525809135
 30
0.0
 40
2.25
100
AcDbArc
 50
180.0
 51
0.0
  0
LINE
  5
21B
330
1F
100
AcDbEntity
  8
0
  6
Continuous
 62
     7
100
AcDbLine
 10
484.835064193732
 20
269.8375225269355
 30
0.0
 11
510.8350641937319
 21
269.8375225269355
 31
0.0
  0
LINE
  5
21C
330
1F
100
AcDbEntity
  8
0
  6
Continuous
 62
     7
100
AcDbLine
 10
484.835064193732
 20
269.8375225269355
 30
0.0
 11
510.8350641937319
 21
269.8375225269355
 31
0.0
  0
LINE
  5
21D
330
1F
100
AcDbEntity
  8
0
  6
DASHED
 62
     4
100
AcDbLine
 10
501.835064193732
 20
259.8379805269355
 30
0.0
 11
493.8350641937318
 21
259.8379805269355
 31
0.0
  0
ARC
  5
21E
330
1F
100
AcDbEntity
  8
0
  6
DASHED
 62
     4
100
AcDbCircle
 10
497.8350630172167
 20
264.8379730540542
 30
0.0
 40
2.250003553067025
100
AcDbArc
 50
26.38782536726995
 51
77.16040148695114
  0
ARC
  5
21F
330
1F
100
AcDbEntity
  8
0
  6
DASHED
 62
     4
100
AcDbCircle
 10
497.835065693732
 20
264.8379743715988
 30
0.0
 40
2.249999542886154
100
AcDbArc
 50
206.3877728940759
 51
333.6122271059238
  0
LINE
  5
220
330
1F
100
AcDbEntity
  8
0
  6
DASHED
 62
     4
100
AcDbLine
 10
500.5850631937319
 20
267.8379805269355
 30
0.0
 11
498.3350631937319
 21
267.8379805269355
 31
0.0
  0
ARC
  5
221
330
1F
100
AcDbEntity
  8
0
  6
Continuous
 62
     7
100
AcDbCircle
 10
484.8350626995816
 20
271.8375210327852
 30
0.0
 40
1.999998505850186
100
AcDbArc
 50
179.9999571957112
 51
270.0000428042855
  0
ARC
  5
222
330
1F
100
AcDbEntity
  8
0
  6
Continuous
 62
     7
100
AcDbCircle
 10
484.8350626995816
 20
271.8375210327852
 30
0.0
 40
1.999998505850186
100
AcDbArc
 50
179.9999571957112
 51
270.0000428042855
  0
LINE
  5
223
330
1F
100
AcDbEntity
  8
0
  6
DASHED
 62
     4
100
AcDbLine
 10
491.8350641937319
 20
267.0375225269355
 30
0.0
 11
489.635064193732
 21
264.8375225269357
 31
0.0
  0
LINE
  5
224
330
1F
100
AcDbEntity
  8
0
  6
DASHED
 62
     4
100
AcDbLine
 10
485.8850641937318
 20
264.8379805269355
 30
0.0
 11
491.8350641937319
 21
264.8379805269355
 31
0.0
  0
LINE
  5
225
330
1F
100
AcDbEntity
  8
0
  6
DASHED
 62
     4
100
AcDbLine
 10
485.0350641937318
 20
264.8375225269357
 30
0.0
 11
489.635064193732
 21
264.8375225269357
 31
0.0
  0
LINE
  5
226
330
1F
100
AcDbEntity
  8
0
  6
DASHED
 62
     4
100
AcDbLine
 10
489.635064193732
 20
264.8379805269355
 30
0.0
 11
485.0350641937318
 21
264.8379805269355
 31
0.0
  0
ARC
  5
227
330
1F
100
AcDbEntity
  8
0
  6
DASHED
 62
     4
100
AcDbCircle
 10
485.0350625501666
 20
267.0375208833703
 30
0.0
 40
2.199998356435207
100
AcDbArc
 50
179.9999571957112
 51
270.0000428042855
  0
LINE
  5
228
330
1F
100
AcDbEntity
  8
0
  6
DASHED
 62
     4
100
AcDbLine
 10
491.8350641937319
 20
261.8379805269355
 30
0.0
 11
491.8350641937319
 21
264.8379805269355
 31
0.0
  0
LINE
  5
229
330
1F
100
AcDbEntity
  8
0
  6
DASHED
 62
     4
100
AcDbLine
 10
491.8350641937319
 20
261.8379805269355
 30
0.0
 11
493.8350641937318
 21
259.8379805269355
 31
0.0
  0
LINE
  5
22A
330
1F
100
AcDbEntity
  8
0
  6
DASHED
 62
     4
100
AcDbLine
 10
493.8350641937318
 20
263.8379755269355
 30
0.0
 11
495.8195011937319
 21
263.8379755269355
 31
0.0
  0
LINE
  5
22B
330
1F
100
AcDbEntity
  8
0
  6
DASHED
 62
     4
100
AcDbLine
 10
493.8350651937319
 20
265.8379755269355
 30
0.0
 11
495.8195011937319
 21
265.8379755269355
 31
0.0
  0
ARC
  5
22C
330
1F
100
AcDbEntity
  8
0
  6
DASHED
 62
     4
100
AcDbCircle
 10
495.0850628201944
 20
268.337980153398
 30
0.0
 40
0.4999996264625512
100
AcDbArc
 50
179.9999571957144
 51
270.0000428042855
  0
LINE
  5
22D
330
1F
100
AcDbEntity
  8
0
  6
DASHED
 62
     4
100
AcDbLine
 10
492.0850631937319
 20
267.8379805269355
 30
0.0
 11
495.085063193732
 21
267.8379805269355
 31
0.0
  0
LINE
  5
22E
330
1F
100
AcDbEntity
  8
0
  6
DASHED
 62
     4
100
AcDbLine
 10
492.0850631937319
 20
267.8379805269355
 30
0.0
 11
491.8350641937319
 21
267.8379805269355
 31
0.0
  0
LINE
  5
22F
330
1F
100
AcDbEntity
  8
0
  6
DASHED
 62
     4
100
AcDbLine
 10
491.8350641937319
 20
267.0375225269355
 30
0.0
 11
491.8350641937319
 21
269.8375225269355
 31
0.0
  0
LINE
  5
230
330
1F
100
AcDbEntity
  8
0
  6
DASHED
 62
     4
100
AcDbLine
 10
493.0850641937319
 20
269.8379805269355
 30
0.0
 11
493.0850641937319
 21
268.8379805269355
 31
0.0
  0
LINE
  5
231
330
1F
100
AcDbEntity
  8
0
  6
DASHED
 62
     4
100
AcDbLine
 10
493.8350651937319
 20
265.8379755269355
 30
0.0
 11
493.8350641937318
 21
263.8379755269355
 31
0.0
  0
ARC
  5
232
330
1F
100
AcDbEntity
  8
0
  6
DASHED
 62
     4
100
AcDbCircle
 10
492.0850639408071
 20
268.8379797798605
 30
0.0
 40
0.9999992529250951
100
AcDbArc
 50
269.9999571957144
 51
0.0000428042888088
  0
LINE
  5
233
330
1F
100
AcDbEntity
  8
0
  6
DASHED
 62
     4
100
AcDbLine
 10
491.8350641937319
 20
267.8379805269355
 30
0.0
 11
491.8350641937319
 21
269.8379805269355
 31
0.0
  0
LINE
  5
234
330
1F
100
AcDbEntity
  8
0
  6
DASHED
 62
     4
100
AcDbLine
 10
494.5850641937319
 20
268.3379805269356
 30
0.0
 11
494.5850641937319
 21
269.8375225269355
 31
0.0
  0
ARC
  5
235
330
1F
100
AcDbEntity
  8
0
  6
DASHED
 62
     4
100
AcDbCircle
 10
497.8350658165989
 20
264.837975714999
 30
0.0
 40
2.250000082850204
100
AcDbArc
 50
102.8396303118259
 51
153.6122064315071
  0
LINE
  5
236
330
1F
100
AcDbEntity
  8
0
  6
DASHED
 62
     4
100
AcDbLine
 10
497.335064193732
 20
267.8379805269355
 30
0.0
 11
497.335064193732
 21
267.0317165269356
 31
0.0
  0
LINE
  5
237
330
1F
100
AcDbEntity
  8
0
  6
DASHED
 62
     4
100
AcDbLine
 10
498.3350641937319
 20
267.8379805269355
 30
0.0
 11
498.3350641937319
 21
267.0317175269356
 31
0.0
  0
LINE
  5
238
330
1F
100
AcDbEntity
  8
0
  6
DASHED
 62
     4
100
AcDbLine
 10
497.335063193732
 20
267.8379805269355
 30
0.0
 11
495.085063193732
 21
267.8379805269355
 31
0.0
  0
LINE
  5
239
330
1F
100
AcDbEntity
  8
0
  6
Continuous
 62
     7
 48
2.0
100
AcDbLine
 10
489.5663144155198
 20
276.0687727487237
 30
0.0
 11
492.0381894155198
 21
276.0687727487237
 31
0.0
  0
LINE
  5
23A
330
1F
100
AcDbEntity
  8
0
  6
Continuous
 62
     7
 48
2.0
100
AcDbLine
 10
489.5663144155198
 20
275.1062727487235
 30
0.0
 11
492.0381894155198
 21
275.1062727487235
 31
0.0
  0
LINE
  5
23B
330
1F
100
AcDbEntity
  8
0
  6
DASHED
 62
     4
 48
2.0
100
AcDbLine
 10
492.6725644155198
 20
271.5625227487236
 30
0.0
 11
485.4975644155198
 21
271.5625227487236
 31
0.0
  0
LINE
  5
23C
330
1F
100
AcDbEntity
  8
0
  6
DASHED
 62
     4
 48
2.0
100
AcDbLine
 10
485.4975644155198
 20
279.6125227487236
 30
0.0
 11
492.6725644155198
 21
279.6125227487236
 31
0.0
  0
CIRCLE
  5
23D
330
1F
100
AcDbEntity
  8
0
100
AcDbCircle
 10
489.0850666217263
 20
275.5875249549299
 30
0.0
 40
2.953122793794419
  0
CIRCLE
  5
23E
330
1F
100
AcDbEntity
  8
0
100
AcDbCircle
 10
489.0850648435142
 20
275.5875291767179
 30
0.0
 40
3.249997572006547
  0
LINE
  5
23F
330
1F
100
AcDbEntity
  8
0
  6
DASHED
 62
     4
 48
2.0
100
AcDbLine
 10
485.0600644155199
 20
272.0000227487236
 30
0.0
 11
485.0600644155199
 21
279.1750227487237
 31
0.0
  0
LINE
  5
240
330
1F
100
AcDbEntity
  8
0
  6
Continuous
 62
     7
 48
2.0
100
AcDbLine
 10
486.1319394155199
 20
276.0687727487237
 30
0.0
 11
488.6038144155198
 21
276.0687727487237
 31
0.0
  0
LINE
  5
241
330
1F
100
AcDbEntity
  8
0
  6
Continuous
 62
     7
 48
2.0
100
AcDbLine
 10
486.1319394155199
 20
275.1062727487235
 30
0.0
 11
488.6038144155198
 21
275.1062727487235
 31
0.0
  0
LINE
  5
242
330
1F
100
AcDbEntity
  8
0
100
AcDbLine
 10
485.8932990303868
 20
276.2000227487236
 30
0.0
 11
486.1961554155199
 21
276.2000227487236
 31
0.0
  0
LINE
  5
243
330
1F
100
AcDbEntity
  8
0
100
AcDbLine
 10
485.8933004057059
 20
274.9750227487235
 30
0.0
 11
486.1961554155199
 21
274.9750227487235
 31
0.0
  0
LINE
  5
244
330
1F
100
AcDbEntity
  8
0
  6
DASHED
 62
     4
 48
2.0
100
AcDbLine
 10
485.0600644155199
 20
274.9750227487235
 30
0.0
 11
485.0600644155199
 21
276.2000227487236
 31
0.0
  0
ARC
  5
245
330
1F
100
AcDbEntity
  8
0
  6
DASHED
 62
     4
 48
2.0
100
AcDbCircle
 10
485.4975640886744
 20
272.0000224218783
 30
0.0
 40
0.4374996731547269
100
AcDbArc
 50
179.9999571957112
 51
270.0000428042855
  0
LINE
  5
246
330
1F
100
AcDbEntity
  8
0
  6
DASHED
 62
     4
 48
2.0
100
AcDbLine
 10
485.0600644155199
 20
276.2000227487236
 30
0.0
 11
485.8932990303868
 21
276.2000227487236
 31
0.0
  0
LINE
  5
247
330
1F
100
AcDbEntity
  8
0
  6
DASHED
 62
     4
 48
2.0
100
AcDbLine
 10
485.8933004057059
 20
274.9750227487235
 30
0.0
 11
485.0600644155199
 21
274.9750227487235
 31
0.0
  0
LINE
  5
248
330
1F
100
AcDbEntity
  8
0
100
AcDbLine
 10
489.6975644155198
 20
272.3957645149908
 30
0.0
 11
489.6975644155198
 21
272.6986147487236
 31
0.0
  0
LINE
  5
249
330
1F
100
AcDbEntity
  8
0
  6
DASHED
 62
     4
 48
2.0
100
AcDbLine
 10
489.6975644155198
 20
272.3957645149908
 30
0.0
 11
489.6975644155198
 21
271.5625227487236
 31
0.0
  0
LINE
  5
24A
330
1F
100
AcDbEntity
  8
0
  6
Continuous
 62
     7
 48
2.0
100
AcDbLine
 10
489.5663144155198
 20
273.9250227487236
 30
0.0
 11
489.5663144155198
 21
275.1062727487235
 31
0.0
  0
LINE
  5
24B
330
1F
100
AcDbEntity
  8
0
  6
Continuous
 62
     7
 48
2.0
100
AcDbLine
 10
489.5663144155198
 20
276.0687727487237
 30
0.0
 11
489.5663144155198
 21
277.2500227487236
 31
0.0
  0
LINE
  5
24C
330
1F
100
AcDbEntity
  8
0
100
AcDbLine
 10
488.4725644155198
 20
272.3957635875068
 30
0.0
 11
488.4725644155198
 21
272.6986147487236
 31
0.0
  0
LINE
  5
24D
330
1F
100
AcDbEntity
  8
0
  6
DASHED
 62
     4
 48
2.0
100
AcDbLine
 10
488.4725644155198
 20
271.5625227487236
 30
0.0
 11
488.4725644155198
 21
272.3957635875068
 31
0.0
  0
LINE
  5
24E
330
1F
100
AcDbEntity
  8
0
  6
Continuous
 62
     7
 48
2.0
100
AcDbLine
 10
488.6038144155198
 20
273.9250227487236
 30
0.0
 11
488.6038144155198
 21
275.1062727487235
 31
0.0
  0
LINE
  5
24F
330
1F
100
AcDbEntity
  8
0
  6
Continuous
 62
     7
 48
2.0
100
AcDbLine
 10
488.6038144155198
 20
276.0687727487237
 30
0.0
 11
488.6038144155198
 21
277.2500227487236
 31
0.0
  0
LINE
  5
250
330
1F
100
AcDbEntity
  8
0
  6
DASHED
 62
     4
 48
2.0
100
AcDbLine
 10
489.6975644155198
 20
271.5625227487236
 30
0.0
 11
488.4725644155198
 21
271.5625227487236
 31
0.0
  0
LINE
  5
251
330
1F
100
AcDbEntity
  8
0
  6
Continuous
 62
     7
 48
2.0
100
AcDbLine
 10
488.6038144155198
 20
273.9250227487236
 30
0.0
 11
489.5663144155198
 21
273.9250227487236
 31
0.0
  0
LINE
  5
252
330
1F
100
AcDbEntity
  8
0
  6
Continuous
 62
     7
 48
2.0
100
AcDbLine
 10
488.6038144155198
 20
277.2500227487236
 30
0.0
 11
489.5663144155198
 21
277.2500227487236
 31
0.0
  0
ARC
  5
253
330
1F
100
AcDbEntity
  8
0
  6
DASHED
 62
     4
 48
2.0
100
AcDbCircle
 10
485.4975640886744
 20
279.175023075569
 30
0.0
 40
0.4374996731547269
100
AcDbArc
 50
89.99995719571119
 51
180.0000428042855
  0
LINE
  5
254
330
1F
100
AcDbEntity
  8
0
100
AcDbLine
 10
489.6975644155198
 20
278.7792886432727
 30
0.0
 11
489.6975644155198
 21
278.4764317487236
 31
0.0
  0
LINE
  5
255
330
1F
100
AcDbEntity
  8
0
  6
DASHED
 62
     4
 48
2.0
100
AcDbLine
 10
489.6975644155198
 20
279.6125227487236
 30
0.0
 11
489.6975644155198
 21
278.7792886432727
 31
0.0
  0
LINE
  5
256
330
1F
100
AcDbEntity
  8
0
100
AcDbLine
 10
488.4725644155198
 20
278.7792890767838
 30
0.0
 11
488.4725644155198
 21
278.4764317487236
 31
0.0
  0
LINE
  5
257
330
1F
100
AcDbEntity
  8
0
  6
DASHED
 62
     4
 48
2.0
100
AcDbLine
 10
488.4725644155198
 20
278.7792890767838
 30
0.0
 11
488.4725644155198
 21
279.6125227487236
 31
0.0
  0
LINE
  5
258
330
1F
100
AcDbEntity
  8
0
  6
DASHED
 62
     4
 48
2.0
100
AcDbLine
 10
488.4725644155198
 20
279.6125227487236
 30
0.0
 11
489.6975644155198
 21
279.6125227487236
 31
0.0
  0
LINE
  5
259
330
1F
100
AcDbEntity
  8
0
  6
DASHED
 62
     4
 48
2.0
100
AcDbLine
 10
493.11006441552
 20
279.1750227487237
 30
0.0
 11
493.11006441552
 21
272.0000227487236
 31
0.0
  0
ARC
  5
25A
330
1F
100
AcDbEntity
  8
0
  6
DASHED
 62
     4
 48
2.0
100
AcDbCircle
 10
492.6725647423653
 20
272.0000224218783
 30
0.0
 40
0.4374996731547269
100
AcDbArc
 50
269.9999571957111
 51
0.0000428042888088
  0
LINE
  5
25B
330
1F
100
AcDbEntity
  8
0
  6
DASHED
 62
     4
 48
2.0
100
AcDbLine
 10
493.11006441552
 20
276.2000227487236
 30
0.0
 11
493.11006441552
 21
274.9750227487235
 31
0.0
  0
LINE
  5
25C
330
1F
100
AcDbEntity
  8
0
100
AcDbLine
 10
491.9739724155198
 20
276.2000227487236
 30
0.0
 11
492.2768254614648
 21
276.2000227487236
 31
0.0
  0
LINE
  5
25D
330
1F
100
AcDbEntity
  8
0
100
AcDbLine
 10
491.9739724155198
 20
274.9750227487235
 30
0.0
 11
492.2768235921774
 21
274.9750227487235
 31
0.0
  0
LINE
  5
25E
330
1F
100
AcDbEntity
  8
0
  6
DASHED
 62
     4
 48
2.0
100
AcDbLine
 10
492.2768254614648
 20
276.2000227487236
 30
0.0
 11
493.11006441552
 21
276.2000227487236
 31
0.0
  0
LINE
  5
25F
330
1F
100
AcDbEntity
  8
0
  6
DASHED
 62
     4
 48
2.0
100
AcDbLine
 10
493.11006441552
 20
274.9750227487235
 30
0.0
 11
492.2768235921774
 21
274.9750227487235
 31
0.0
  0
LINE
  5
260
330
1F
100
AcDbEntity
  8
0
  6
Continuous
 62
     7
100
AcDbLine
 10
492.3350660002518
 20
275.5875293334555
 30
0.0
 11
492.3350660002518
 21
275.5875293334555
 31
0.0
  0
LINE
  5
261
330
1F
100
AcDbEntity
  8
0
  6
Continuous
 62
     7
100
AcDbLine
 10
492.3350641937319
 20
275.5875225269357
 30
0.0
 11
492.3350641937319
 21
275.5875225269357
 31
0.0
  0
ARC
  5
262
330
1F
100
AcDbEntity
  8
0
  6
DASHED
 62
     4
 48
2.0
100
AcDbCircle
 10
492.6725647423653
 20
279.175023075569
 30
0.0
 40
0.4374996731547269
100
AcDbArc
 50
359.9999571957112
 51
90.00004280428553
  0
ARC
  5
263
330
1F
100
AcDbEntity
  8
0
  6
Continuous
 62
     7
100
AcDbCircle
 10
510.8350656878823
 20
271.8375210327852
 30
0.0
 40
1.999998505850189
100
AcDbArc
 50
269.9999571957144
 51
0.0000428042888088
  0
ARC
  5
264
330
1F
100
AcDbEntity
  8
0
  6
Continuous
 62
     7
100
AcDbCircle
 10
510.8350656878823
 20
271.8375210327852
 30
0.0
 40
1.999998505850189
100
AcDbArc
 50
269.9999571957144
 51
0.0000428042888088
  0
LINE
  5
265
330
1F
100
AcDbEntity
  8
0
  6
DASHED
 62
     4
100
AcDbLine
 10
506.0350641937318
 20
264.8375225269357
 30
0.0
 11
510.635064193732
 21
264.8375225269357
 31
0.0
  0
LINE
  5
266
330
1F
100
AcDbEntity
  8
0
  6
DASHED
 62
     4
100
AcDbLine
 10
503.8350641937319
 20
264.8379805269355
 30
0.0
 11
509.785064193732
 21
264.8379805269355
 31
0.0
  0
LINE
  5
267
330
1F
100
AcDbEntity
  8
0
  6
DASHED
 62
     4
100
AcDbLine
 10
510.635064193732
 20
264.8379805269355
 30
0.0
 11
506.0350641937318
 21
264.8379805269355
 31
0.0
  0
LINE
  5
268
330
1F
100
AcDbEntity
  8
0
  6
DASHED
 62
     4
100
AcDbLine
 10
503.8350641937319
 20
264.8379805269355
 30
0.0
 11
503.8350641937319
 21
261.8379805269355
 31
0.0
  0
LINE
  5
269
330
1F
100
AcDbEntity
  8
0
  6
DASHED
 62
     4
100
AcDbLine
 10
503.8350641937319
 20
261.8379805269355
 30
0.0
 11
501.835064193732
 21
259.8379805269355
 31
0.0
  0
ARC
  5
26A
330
1F
100
AcDbEntity
  8
0
  6
DASHED
 62
     4
100
AcDbCircle
 10
503.5850624466568
 20
268.8379797798605
 30
0.0
 40
0.9999992529250951
100
AcDbArc
 50
179.9999571957112
 51
270.0000428042855
  0
LINE
  5
26B
330
1F
100
AcDbEntity
  8
0
  6
DASHED
 62
     4
100
AcDbLine
 10
500.5850631937319
 20
267.8379805269355
 30
0.0
 11
503.585063193732
 21
267.8379805269355
 31
0.0
  0
LINE
  5
26C
330
1F
100
AcDbEntity
  8
0
  6
DASHED
 62
     4
100
AcDbLine
 10
501.0850641937319
 20
269.8375225269355
 30
0.0
 11
501.0850641937319
 21
268.5189335269356
 31
0.0
  0
LINE
  5
26D
330
1F
100
AcDbEntity
  8
0
  6
DASHED
 62
     4
100
AcDbLine
 10
502.5850641937319
 20
268.8379805269355
 30
0.0
 11
502.5850641937319
 21
269.8375225269355
 31
0.0
  0
LINE
  5
26E
330
1F
100
AcDbEntity
  8
0
  6
DASHED
 62
     4
100
AcDbLine
 10
501.835064193732
 20
265.8379755269355
 30
0.0
 11
501.835064193732
 21
263.8379755269355
 31
0.0
  0
LINE
  5
26F
330
1F
100
AcDbEntity
  8
0
  6
DASHED
 62
     4
100
AcDbLine
 10
499.850630193732
 20
263.8379755269355
 30
0.0
 11
501.835064193732
 21
263.8379755269355
 31
0.0
  0
LINE
  5
270
330
1F
100
AcDbEntity
  8
0
  6
DASHED
 62
     4
100
AcDbLine
 10
499.850630193732
 20
265.8379755269355
 30
0.0
 11
501.835064193732
 21
265.8379755269355
 31
0.0
  0
ARC
  5
271
330
1F
100
AcDbEntity
  8
0
  6
DASHED
 62
     4
100
AcDbCircle
 10
500.5850635672695
 20
268.337980153398
 30
0.0
 40
0.4999996264625512
100
AcDbArc
 50
269.9999571957144
 51
0.0000428042855519
  0
LINE
  5
272
330
1F
100
AcDbEntity
  8
0
  6
DASHED
 62
     4
100
AcDbLine
 10
503.8350641937319
 20
267.8379805269355
 30
0.0
 11
503.585063193732
 21
267.8379805269355
 31
0.0
  0
LINE
  5
273
330
1F
100
AcDbEntity
  8
0
  6
DASHED
 62
     4
100
AcDbLine
 10
503.8350641937319
 20
267.0375225269355
 30
0.0
 11
506.0350641937318
 21
264.8375225269357
 31
0.0
  0
LINE
  5
274
330
1F
100
AcDbEntity
  8
0
  6
DASHED
 62
     4
100
AcDbLine
 10
503.8350641937319
 20
267.0375225269355
 30
0.0
 11
503.8350641937319
 21
269.8375225269355
 31
0.0
  0
LINE
  5
275
330
1F
100
AcDbEntity
  8
0
  6
DASHED
 62
     4
100
AcDbLine
 10
503.8350641937319
 20
267.8379805269355
 30
0.0
 11
503.8350641937319
 21
269.8379805269355
 31
0.0
  0
ARC
  5
276
330
1F
100
AcDbEntity
  8
0
  6
DASHED
 62
     4
100
AcDbCircle
 10
510.6350658372972
 20
267.0375208833703
 30
0.0
 40
2.199998356435211
100
AcDbArc
 50
269.9999571957144
 51
0.0000428042888088
  0
CIRCLE
  5
277
330
1F
100
AcDbEntity
  8
0
100
AcDbCircle
 10
506.5850684282461
 20
275.58753176145
 30
0.0
 40
3.249997572006547
  0
CIRCLE
  5
278
330
1F
100
AcDbEntity
  8
0
100
AcDbCircle
 10
506.5850702064582
 20
275.587527539662
 30
0.0
 40
2.953122793794419
  0
LINE
  5
279
330
1F
100
AcDbEntity
  8
0
  6
DASHED
 62
     4
 48
2.0
100
AcDbLine
 10
505.9725680002518
 20
279.6125253334555
 30
0.0
 11
507.1975680002518
 21
279.6125253334555
 31
0.0
  0
LINE
  5
27A
330
1F
100
AcDbEntity
  8
0
  6
Continuous
 62
     7
 48
2.0
100
AcDbLine
 10
506.1038180002518
 20
277.2500253334557
 30
0.0
 11
507.0663180002518
 21
277.2500253334557
 31
0.0
  0
ARC
  5
27B
330
1F
100
AcDbEntity
  8
0
  6
Continuous
 62
     7
100
AcDbCircle
 10
506.5850684282461
 20
275.58753176145
 30
0.0
 40
3.249997572006547
100
AcDbArc
 50
359.9999571957143
 51
90.00004280428553
  0
LINE
  5
27C
330
1F
100
AcDbEntity
  8
0
  6
DASHED
 62
     4
 48
2.0
100
AcDbLine
 10
507.1975680002518
 20
271.5625253334557
 30
0.0
 11
505.9725680002518
 21
271.5625253334557
 31
0.0
  0
LINE
  5
27D
330
1F
100
AcDbEntity
  8
0
  6
Continuous
 62
     7
 48
2.0
100
AcDbLine
 10
506.1038180002518
 20
273.9250253334556
 30
0.0
 11
507.0663180002518
 21
273.9250253334556
 31
0.0
  0
LINE
  5
27E
330
1F
100
AcDbEntity
  8
0
  6
DASHED
 62
     4
 48
2.0
100
AcDbLine
 10
502.9975680002518
 20
279.6125253334555
 30
0.0
 11
510.1725680002518
 21
279.6125253334555
 31
0.0
  0
LINE
  5
27F
330
1F
100
AcDbEntity
  8
0
  6
DASHED
 62
     4
 48
2.0
100
AcDbLine
 10
510.1725680002518
 20
271.5625253334557
 30
0.0
 11
502.9975680002518
 21
271.5625253334557
 31
0.0
  0
LINE
  5
280
330
1F
100
AcDbEntity
  8
0
  6
DASHED
 62
     4
 48
2.0
100
AcDbLine
 10
502.5600680002519
 20
272.0000253334557
 30
0.0
 11
502.5600680002519
 21
279.1750253334557
 31
0.0
  0
LINE
  5
281
330
1F
100
AcDbEntity
  8
0
  6
DASHED
 62
     4
 48
2.0
100
AcDbLine
 10
503.3933039904376
 20
274.9750253334557
 30
0.0
 11
502.5600680002519
 21
274.9750253334557
 31
0.0
  0
LINE
  5
282
330
1F
100
AcDbEntity
  8
0
  6
DASHED
 62
     4
 48
2.0
100
AcDbLine
 10
502.5600680002519
 20
276.2000253334556
 30
0.0
 11
503.3933026151187
 21
276.2000253334556
 31
0.0
  0
ARC
  5
283
330
1F
100
AcDbEntity
  8
0
  6
DASHED
 62
     4
 48
2.0
100
AcDbCircle
 10
502.9975676734062
 20
272.0000250066103
 30
0.0
 40
0.4374996731547269
100
AcDbArc
 50
179.9999571957112
 51
270.0000428042855
  0
LINE
  5
284
330
1F
100
AcDbEntity
  8
0
  6
DASHED
 62
     4
 48
2.0
100
AcDbLine
 10
502.5600680002519
 20
274.9750253334557
 30
0.0
 11
502.5600680002519
 21
276.2000253334556
 31
0.0
  0
LINE
  5
285
330
1F
100
AcDbEntity
  8
0
100
AcDbLine
 10
503.3933039904376
 20
274.9750253334557
 30
0.0
 11
503.6961590002516
 21
274.9750253334557
 31
0.0
  0
LINE
  5
286
330
1F
100
AcDbEntity
  8
0
100
AcDbLine
 10
503.3933026151187
 20
276.2000253334556
 30
0.0
 11
503.6961590002516
 21
276.2000253334556
 31
0.0
  0
LINE
  5
287
330
1F
100
AcDbEntity
  8
0
100
AcDbLine
 10
505.9725680002518
 20
272.3957661722387
 30
0.0
 11
505.9725680002518
 21
272.6986173334555
 31
0.0
  0
LINE
  5
288
330
1F
100
AcDbEntity
  8
0
  6
Continuous
 62
     7
 48
2.0
100
AcDbLine
 10
506.1038180002518
 20
276.0687753334556
 30
0.0
 11
506.1038180002518
 21
277.2500253334557
 31
0.0
  0
LINE
  5
289
330
1F
100
AcDbEntity
  8
0
  6
DASHED
 62
     4
 48
2.0
100
AcDbLine
 10
505.9725680002518
 20
271.5625253334557
 30
0.0
 11
505.9725680002518
 21
272.3957661722387
 31
0.0
  0
LINE
  5
28A
330
1F
100
AcDbEntity
  8
0
  6
Continuous
 62
     7
 48
2.0
100
AcDbLine
 10
506.1038180002518
 20
273.9250253334556
 30
0.0
 11
506.1038180002518
 21
275.1062753334555
 31
0.0
  0
LINE
  5
28B
330
1F
100
AcDbEntity
  8
0
  6
Continuous
 62
     7
 48
2.0
100
AcDbLine
 10
503.6319430002518
 20
275.1062753334555
 30
0.0
 11
506.1038180002518
 21
275.1062753334555
 31
0.0
  0
LINE
  5
28C
330
1F
100
AcDbEntity
  8
0
  6
Continuous
 62
     7
 48
2.0
100
AcDbLine
 10
503.6319430002518
 20
276.0687753334556
 30
0.0
 11
506.1038180002518
 21
276.0687753334556
 31
0.0
  0
ARC
  5
28D
330
1F
100
AcDbEntity
  8
0
  6
DASHED
 62
     4
 48
2.0
100
AcDbCircle
 10
502.9975676734062
 20
279.1750256603009
 30
0.0
 40
0.4374996731547269
100
AcDbArc
 50
89.99995719571119
 51
180.0000428042855
  0
LINE
  5
28E
330
1F
100
AcDbEntity
  8
0
100
AcDbLine
 10
505.9725680002518
 20
278.7792916615156
 30
0.0
 11
505.9725680002518
 21
278.4764343334555
 31
0.0
  0
LINE
  5
28F
330
1F
100
AcDbEntity
  8
0
  6
DASHED
 62
     4
 48
2.0
100
AcDbLine
 10
505.9725680002518
 20
278.7792916615156
 30
0.0
 11
505.9725680002518
 21
279.6125253334555
 31
0.0
  0
LINE
  5
290
330
1F
100
AcDbEntity
  8
0
  6
DASHED
 62
     4
 48
2.0
100
AcDbLine
 10
510.6100680002518
 20
279.1750253334557
 30
0.0
 11
510.6100680002518
 21
272.0000253334557
 31
0.0
  0
LINE
  5
291
330
1F
100
AcDbEntity
  8
0
100
AcDbLine
 10
507.1975680002518
 20
272.3957670997228
 30
0.0
 11
507.1975680002518
 21
272.6986173334555
 31
0.0
  0
LINE
  5
292
330
1F
100
AcDbEntity
  8
0
100
AcDbLine
 10
509.4739760002518
 20
274.9750253334557
 30
0.0
 11
509.7768271769092
 21
274.9750253334557
 31
0.0
  0
LINE
  5
293
330
1F
100
AcDbEntity
  8
0
100
AcDbLine
 10
509.4739760002518
 20
276.2000253334556
 30
0.0
 11
509.7768290461966
 21
276.2000253334556
 31
0.0
  0
LINE
  5
294
330
1F
100
AcDbEntity
  8
0
  6
DASHED
 62
     4
 48
2.0
100
AcDbLine
 10
510.6100680002518
 20
276.2000253334556
 30
0.0
 11
510.6100680002518
 21
274.9750253334557
 31
0.0
  0
LINE
  5
295
330
1F
100
AcDbEntity
  8
0
  6
Continuous
 62
     7
 48
2.0
100
AcDbLine
 10
507.0663180002518
 20
276.0687753334556
 30
0.0
 11
507.0663180002518
 21
277.2500253334557
 31
0.0
  0
LINE
  5
296
330
1F
100
AcDbEntity
  8
0
  6
DASHED
 62
     4
 48
2.0
100
AcDbLine
 10
509.7768290461966
 20
276.2000253334556
 30
0.0
 11
510.6100680002518
 21
276.2000253334556
 31
0.0
  0
LINE
  5
297
330
1F
100
AcDbEntity
  8
0
  6
DASHED
 62
     4
 48
2.0
100
AcDbLine
 10
510.6100680002518
 20
274.9750253334557
 30
0.0
 11
509.7768271769092
 21
274.9750253334557
 31
0.0
  0
LINE
  5
298
330
1F
100
AcDbEntity
  8
0
  6
Continuous
 62
     7
 48
2.0
100
AcDbLine
 10
507.0663180002518
 20
275.1062753334555
 30
0.0
 11
509.5381930002518
 21
275.1062753334555
 31
0.0
  0
LINE
  5
299
330
1F
100
AcDbEntity
  8
0
  6
Continuous
 62
     7
 48
2.0
100
AcDbLine
 10
507.0663180002518
 20
276.0687753334556
 30
0.0
 11
509.5381930002518
 21
276.0687753334556
 31
0.0
  0
ARC
  5
29A
330
1F
100
AcDbEntity
  8
0
  6
DASHED
 62
     4
 48
2.0
100
AcDbCircle
 10
510.1725683270973
 20
272.0000250066103
 30
0.0
 40
0.4374996731547269
100
AcDbArc
 50
269.9999571957111
 51
0.0000428042888088
  0
LINE
  5
29B
330
1F
100
AcDbEntity
  8
0
  6
DASHED
 62
     4
 48
2.0
100
AcDbLine
 10
507.1975680002518
 20
272.3957670997228
 30
0.0
 11
507.1975680002518
 21
271.5625253334557
 31
0.0
  0
LINE
  5
29C
330
1F
100
AcDbEntity
  8
0
  6
Continuous
 62
     7
 48
2.0
100
AcDbLine
 10
507.0663180002518
 20
273.9250253334556
 30
0.0
 11
507.0663180002518
 21
275.1062753334555
 31
0.0
  0
LINE
  5
29D
330
1F
100
AcDbEntity
  8
0
100
AcDbLine
 10
507.1975680002518
 20
278.7792912280047
 30
0.0
 11
507.1975680002518
 21
278.4764343334555
 31
0.0
  0
ARC
  5
29E
330
1F
100
AcDbEntity
  8
0
  6
DASHED
 62
     4
 48
2.0
100
AcDbCircle
 10
510.1725683270973
 20
279.1750256603009
 30
0.0
 40
0.4374996731547269
100
AcDbArc
 50
359.9999571957112
 51
90.00004280428553
  0
LINE
  5
29F
330
1F
100
AcDbEntity
  8
0
  6
DASHED
 62
     4
 48
2.0
100
AcDbLine
 10
507.1975680002518
 20
279.6125253334555
 30
0.0
 11
507.1975680002518
 21
278.7792912280047
 31
0.0
  0
ARC
  5
2A0
330
1F
100
AcDbEntity
  8
0
  6
DASHED
 62
     4
100
AcDbCircle
 10
497.8350654759311
 20
287.0875258091349
 30
0.0
 40
2.25
100
AcDbArc
 50
0.0
 51
180.0
  0
CIRCLE
  5
2A1
330
1F
100
AcDbEntity
  8
0
  6
DASHED
 62
     4
100
AcDbCircle
 10
497.8350671875308
 20
333.5875255207344
 30
0.0
 40
2.250000288400419
  0
LINE
  5
2A2
330
1F
100
AcDbEntity
  8
0
  6
Continuous
 62
     7
100
AcDbLine
 10
485.7356161937319
 20
291.3375225269356
 30
0.0
 11
509.935618193732
 21
291.3375225269356
 31
0.0
  0
LINE
  5
2A3
330
1F
100
AcDbEntity
  8
0
  6
Continuous
 62
     7
100
AcDbLine
 10
509.9350631937319
 20
292.8375225269356
 30
0.0
 11
485.735065193732
 21
292.8375225269356
 31
0.0
  0
LINE
  5
2A4
330
1F
100
AcDbEntity
  8
0
  6
Continuous
 62
     7
100
AcDbLine
 10
506.835067193732
 20
321.8375175269357
 30
0.0
 11
488.8350671937318
 21
321.8375175269357
 31
0.0
  0
LINE
  5
2A5
330
1F
100
AcDbEntity
  8
0
  6
Continuous
 62
     7
100
AcDbLine
 10
488.8350671937318
 20
318.8375175269356
 30
0.0
 11
506.835067193732
 21
318.8375175269356
 31
0.0
  0
LINE
  5
2A6
330
1F
100
AcDbEntity
  8
0
  6
Continuous
 62
     7
100
AcDbLine
 10
490.335067193732
 20
300.3375275269356
 30
0.0
 11
505.335067193732
 21
300.3375275269356
 31
0.0
  0
LINE
  5
2A7
330
1F
100
AcDbEntity
  8
0
  6
Continuous
 62
     7
100
AcDbLine
 10
490.335067193732
 20
298.3375275269356
 30
0.0
 11
505.335067193732
 21
298.3375275269356
 31
0.0
  0
LINE
  5
2A8
330
1F
100
AcDbEntity
  8
0
  6
Continuous
 62
     7
100
AcDbLine
 10
506.835067193732
 20
297.8375275269356
 30
0.0
 11
488.8350671937318
 21
297.8375275269356
 31
0.0
  0
LINE
  5
2A9
330
1F
100
AcDbEntity
  8
0
  6
Continuous
 62
     7
100
AcDbLine
 10
488.8350671937318
 20
300.8375275269356
 30
0.0
 11
506.835067193732
 21
300.8375275269356
 31
0.0
  0
LINE
  5
2AA
330
1F
100
AcDbEntity
  8
0
  6
Continuous
 62
     7
100
AcDbLine
 10
509.934512193732
 20
328.3375225269355
 30
0.0
 11
485.7345111937319
 21
328.3375225269355
 31
0.0
  0
LINE
  5
2AB
330
1F
100
AcDbEntity
  8
0
  6
Continuous
 62
     7
100
AcDbLine
 10
485.735065193732
 20
326.8375225269356
 30
0.0
 11
509.9350631937319
 21
326.8375225269356
 31
0.0
  0
LINE
  5
2AC
330
1F
100
AcDbEntity
  8
0
  6
Continuous
 62
     7
100
AcDbLine
 10
510.735064193732
 20
292.8375225269356
 30
0.0
 11
484.9350641937319
 21
292.8375225269356
 31
0.0
  0
LINE
  5
2AD
330
1F
100
AcDbEntity
  8
0
  6
Continuous
 62
     7
100
AcDbLine
 10
484.9350641937319
 20
326.8375225269356
 30
0.0
 11
510.735064193732
 21
326.8375225269356
 31
0.0
  0
LINE
  5
2AE
330
1F
100
AcDbEntity
  8
0
  6
Continuous
 62
     7
100
AcDbLine
 10
483.8350641937319
 20
299.8375225269356
 30
0.0
 11
483.8350641937319
 21
319.8375225269356
 31
0.0
  0
LINE
  5
2AF
330
1F
100
AcDbEntity
  8
0
  6
Continuous
 62
     7
100
AcDbLine
 10
482.8350641937319
 20
297.8875225269356
 30
0.0
 11
482.8350641937319
 21
321.7875225269356
 31
0.0
  0
LINE
  5
2B0
330
1F
100
AcDbEntity
  8
0
  6
Continuous
 62
     7
100
AcDbLine
 10
488.8350671937318
 20
297.8375275269356
 30
0.0
 11
488.8350671937318
 21
300.8375275269356
 31
0.0
  0
LINE
  5
2B1
330
1F
100
AcDbEntity
  8
0
  6
Continuous
 62
     7
100
AcDbLine
 10
490.335067193732
 20
298.3375275269356
 30
0.0
 11
490.335067193732
 21
300.3375275269356
 31
0.0
  0
LINE
  5
2B2
330
1F
100
AcDbEntity
  8
0
  6
Continuous
 62
     7
 48
2.0
100
AcDbLine
 10
484.9350641937319
 20
299.8375225269356
 30
0.0
 11
484.9350641937319
 21
292.8375225269356
 31
0.0
  0
LINE
  5
2B3
330
1F
100
AcDbEntity
  8
0
  6
Continuous
 62
     7
100
AcDbLine
 10
484.7350641937318
 20
297.8375225269356
 30
0.0
 11
484.7350641937318
 21
288.3328815269356
 31
0.0
  0
LINE
  5
2B4
330
1F
100
AcDbEntity
  8
0
  6
Continuous
 62
     7
100
AcDbLine
 10
485.7367381937319
 20
288.2901915269357
 30
0.0
 11
485.735065193732
 21
292.8330655269356
 31
0.0
  0
ARC
  5
2B5
330
1F
100
AcDbEntity
  8
0
  6
Continuous
 62
     7
100
AcDbCircle
 10
485.2350645102784
 20
288.3328818097426
 30
0.0
 40
0.500000316546613
100
AcDbArc
 50
180.0000324072764
 51
270.0210485604484
  0
ARC
  5
2B6
330
1F
100
AcDbEntity
  8
0
  6
Continuous
 62
     7
100
AcDbCircle
 10
485.238564567407
 20
288.3328821535354
 30
0.0
 40
0.4999996603185175
100
AcDbArc
 50
270.0210420416206
 51
0.0211276501975281
  0
LINE
  5
2B7
330
1F
100
AcDbEntity
  8
0
  6
Continuous
 62
     7
100
AcDbLine
 10
484.7350641937318
 20
297.8375225269356
 30
0.0
 11
482.8350641937319
 21
297.8375225269356
 31
0.0
  0
LINE
  5
2B8
330
1F
100
AcDbEntity
  8
0
  6
Continuous
 62
     7
100
AcDbLine
 10
484.7350641937318
 20
297.8375225269356
 30
0.0
 11
482.8350641937319
 21
297.8375225269356
 31
0.0
  0
LINE
  5
2B9
330
1F
100
AcDbEntity
  8
0
  6
Continuous
 62
     7
100
AcDbLine
 10
482.8350641937319
 20
299.8375225269356
 30
0.0
 11
484.9350641937319
 21
299.8375225269356
 31
0.0
  0
LINE
  5
2BA
330
1F
100
AcDbEntity
  8
0
  6
Continuous
 62
     7
100
AcDbLine
 10
484.7350641937318
 20
321.8375225269356
 30
0.0
 11
484.7350641937318
 21
331.3421635269355
 31
0.0
  0
LINE
  5
2BB
330
1F
100
AcDbEntity
  8
0
  6
Continuous
 62
     7
100
AcDbLine
 10
485.736722193732
 20
331.3419785269356
 30
0.0
 11
485.735065193732
 21
326.8419795269356
 31
0.0
  0
LINE
  5
2BC
330
1F
100
AcDbEntity
  8
0
  6
Continuous
 62
     7
100
AcDbLine
 10
488.8350671937318
 20
321.8375175269357
 30
0.0
 11
488.8350671937318
 21
318.8375175269356
 31
0.0
  0
LINE
  5
2BD
330
1F
100
AcDbEntity
  8
0
  6
Continuous
 62
     7
 48
2.0
100
AcDbLine
 10
484.9350641937319
 20
326.8375225269356
 30
0.0
 11
484.9350641937319
 21
319.8375225269356
 31
0.0
  0
LINE
  5
2BE
330
1F
100
AcDbEntity
  8
0
  6
Continuous
 62
     7
100
AcDbLine
 10
484.835064193732
 20
319.8375225269356
 30
0.0
 11
484.9350641937319
 21
319.8375225269356
 31
0.0
  0
LINE
  5
2BF
330
1F
100
AcDbEntity
  8
0
  6
Continuous
 62
     7
100
AcDbLine
 10
482.8350641937319
 20
319.8375225269356
 30
0.0
 11
484.835064193732
 21
319.8375225269356
 31
0.0
  0
LINE
  5
2C0
330
1F
100
AcDbEntity
  8
0
  6
Continuous
 62
     7
100
AcDbLine
 10
482.8350641937319
 20
321.8375225269356
 30
0.0
 11
484.7350641937318
 21
321.8375225269356
 31
0.0
  0
LINE
  5
2C1
330
1F
100
AcDbEntity
  8
0
  6
Continuous
 62
     7
100
AcDbLine
 10
482.835065193732
 20
321.7875225269356
 30
0.0
 11
484.935065193732
 21
321.7875225269356
 31
0.0
  0
LINE
  5
2C2
330
1F
100
AcDbEntity
  8
0
  6
DASHED
 62
     4
 48
2.0
100
AcDbLine
 10
490.5350670002516
 20
338.7375263334553
 30
0.0
 11
489.1350670002518
 21
338.7375263334553
 31
0.0
  0
LINE
  5
2C3
330
1F
100
AcDbEntity
  8
0
  6
DASHED
 62
     4
 48
2.0
100
AcDbLine
 10
493.9350670002518
 20
338.7375263334553
 30
0.0
 11
485.7350670002518
 21
338.7375263334553
 31
0.0
  0
ARC
  5
2C4
330
1F
100
AcDbEntity
  8
0
  6
Continuous
 62
     7
100
AcDbCircle
 10
485.2350645102784
 20
331.3421632441284
 30
0.0
 40
0.5000003165466131
100
AcDbArc
 50
89.97895143955153
 51
179.9999675927234
  0
ARC
  5
2C5
330
1F
100
AcDbEntity
  8
0
  6
Continuous
 62
     7
100
AcDbCircle
 10
485.238564567407
 20
331.3421629003356
 30
0.0
 40
0.4999996603185249
100
AcDbArc
 50
359.9788723498023
 51
89.97895795837612
  0
ARC
  5
2C6
330
1F
100
AcDbEntity
  8
0
  6
DASHED
 62
     4
 48
2.0
100
AcDbCircle
 10
485.7350666267143
 20
339.2375259599181
 30
0.0
 40
0.4999996264625655
100
AcDbArc
 50
179.9999571957144
 51
270.0000428042887
  0
LINE
  5
2C7
330
1F
100
AcDbEntity
  8
0
100
AcDbLine
 10
489.1350670002518
 20
339.6674339983194
 30
0.0
 11
489.1350670002518
 21
340.0359163334552
 31
0.0
  0
LINE
  5
2C8
330
1F
100
AcDbEntity
  8
0
  6
DASHED
 62
     4
 48
2.0
100
AcDbLine
 10
489.1350670002518
 20
338.7375263334553
 30
0.0
 11
489.1350670002518
 21
339.6674339983194
 31
0.0
  0
LINE
  5
2C9
330
1F
100
AcDbEntity
  8
0
  6
Continuous
 62
     7
 48
2.0
100
AcDbLine
 10
489.2850670002518
 20
341.4375263334552
 30
0.0
 11
490.3850670002516
 21
341.4375263334552
 31
0.0
  0
LINE
  5
2CA
330
1F
100
AcDbEntity
  8
0
100
AcDbLine
 10
490.5350670002516
 20
340.0359163334552
 30
0.0
 11
490.5350670002516
 21
339.6779499446563
 31
0.0
  0
ARC
  5
2CB
330
1F
100
AcDbEntity
  8
0
  6
DASHED
 62
     4
 48
2.0
100
AcDbCircle
 10
493.9350673737894
 20
339.2375259599181
 30
0.0
 40
0.4999996264625369
100
AcDbArc
 50
269.9999571957111
 51
0.0000428042855519
  0
LINE
  5
2CC
330
1F
100
AcDbEntity
  8
0
  6
DASHED
 62
     4
 48
2.0
100
AcDbLine
 10
490.5350670002516
 20
339.6779499446563
 30
0.0
 11
490.5350670002516
 21
338.7375263334553
 31
0.0
  0
LINE
  5
2CD
330
1F
100
AcDbEntity
  8
0
  6
Continuous
 62
     7
100
AcDbLine
 10
511.8350641937319
 20
319.8375225269356
 30
0.0
 11
511.8350641937319
 21
299.8375225269356
 31
0.0
  0
LINE
  5
2CE
330
1F
100
AcDbEntity
  8
0
  6
Continuous
 62
     7
100
AcDbLine
 10
512.835064193732
 20
321.7875225269356
 30
0.0
 11
512.835064193732
 21
297.8875225269356
 31
0.0
  0
LINE
  5
2CF
330
1F
100
AcDbEntity
  8
0
  6
Continuous
 62
     7
100
AcDbLine
 10
506.835067193732
 20
300.8375275269356
 30
0.0
 11
506.835067193732
 21
297.8375275269356
 31
0.0
  0
LINE
  5
2D0
330
1F
100
AcDbEntity
  8
0
  6
Continuous
 62
     7
100
AcDbLine
 10
505.335067193732
 20
300.3375275269356
 30
0.0
 11
505.335067193732
 21
298.3375275269356
 31
0.0
  0
LINE
  5
2D1
330
1F
100
AcDbEntity
  8
0
  6
Continuous
 62
     7
 48
2.0
100
AcDbLine
 10
510.735064193732
 20
299.8375225269356
 30
0.0
 11
510.735064193732
 21
292.8375225269356
 31
0.0
  0
LINE
  5
2D2
330
1F
100
AcDbEntity
  8
0
  6
Continuous
 62
     7
100
AcDbLine
 10
510.939758193732
 20
297.8302835269357
 30
0.0
 11
510.9345071937319
 21
288.3256435269355
 31
0.0
  0
LINE
  5
2D3
330
1F
100
AcDbEntity
  8
0
  6
Continuous
 62
     7
100
AcDbLine
 10
509.9328101937319
 20
288.2835065269357
 30
0.0
 11
509.936993193732
 21
292.8263795269356
 31
0.0
  0
ARC
  5
2D4
330
1F
100
AcDbEntity
  8
0
  6
Continuous
 62
     7
100
AcDbCircle
 10
510.4345073263927
 20
288.3259202591334
 30
0.0
 40
0.4999999439198798
100
AcDbArc
 50
269.9472726676793
 51
359.9682888208501
  0
ARC
  5
2D5
330
1F
100
AcDbEntity
  8
0
  6
Continuous
 62
     7
100
AcDbCircle
 10
510.4310068198508
 20
288.3259231537417
 30
0.0
 40
0.499999838062348
100
AcDbArc
 50
179.9472450934306
 51
269.9473307020054
  0
LINE
  5
2D6
330
1F
100
AcDbEntity
  8
0
  6
Continuous
 62
     7
100
AcDbLine
 10
512.835064193732
 20
297.8375225269356
 30
0.0
 11
510.935064193732
 21
297.8375225269356
 31
0.0
  0
LINE
  5
2D7
330
1F
100
AcDbEntity
  8
0
  6
Continuous
 62
     7
100
AcDbLine
 10
512.835064193732
 20
297.8375225269356
 30
0.0
 11
510.935064193732
 21
297.8375225269356
 31
0.0
  0
LINE
  5
2D8
330
1F
100
AcDbEntity
  8
0
  6
Continuous
 62
     7
100
AcDbLine
 10
512.835065193732
 20
297.8875225269356
 30
0.0
 11
510.735065193732
 21
297.8875225269356
 31
0.0
  0
LINE
  5
2D9
330
1F
100
AcDbEntity
  8
0
  6
Continuous
 62
     7
100
AcDbLine
 10
512.835064193732
 20
299.8375225269356
 30
0.0
 11
510.735064193732
 21
299.8375225269356
 31
0.0
  0
LINE
  5
2DA
330
1F
100
AcDbEntity
  8
0
  6
Continuous
 62
     7
100
AcDbLine
 10
510.935064193732
 20
321.8375225269356
 30
0.0
 11
510.935064193732
 21
331.3421635269355
 31
0.0
  0
LINE
  5
2DB
330
1F
100
AcDbEntity
  8
0
  6
Continuous
 62
     7
100
AcDbLine
 10
509.9334061937319
 20
331.3419785269356
 30
0.0
 11
509.9350631937319
 21
326.8419795269356
 31
0.0
  0
LINE
  5
2DC
330
1F
100
AcDbEntity
  8
0
  6
Continuous
 62
     7
100
AcDbLine
 10
506.835067193732
 20
318.8375175269356
 30
0.0
 11
506.835067193732
 21
321.8375175269357
 31
0.0
  0
LINE
  5
2DD
330
1F
100
AcDbEntity
  8
0
  6
Continuous
 62
     7
 48
2.0
100
AcDbLine
 10
510.735064193732
 20
326.8375225269356
 30
0.0
 11
510.735064193732
 21
319.8375225269356
 31
0.0
  0
LINE
  5
2DE
330
1F
100
AcDbEntity
  8
0
  6
Continuous
 62
     7
100
AcDbLine
 10
510.735064193732
 20
319.8375225269356
 30
0.0
 11
512.835064193732
 21
319.8375225269356
 31
0.0
  0
LINE
  5
2DF
330
1F
100
AcDbEntity
  8
0
  6
Continuous
 62
     7
100
AcDbLine
 10
510.935064193732
 20
321.8375225269356
 30
0.0
 11
512.835064193732
 21
321.8375225269356
 31
0.0
  0
LINE
  5
2E0
330
1F
100
AcDbEntity
  8
0
  6
Continuous
 62
     7
100
AcDbLine
 10
510.735065193732
 20
321.7875225269356
 30
0.0
 11
512.835065193732
 21
321.7875225269356
 31
0.0
  0
LINE
  5
2E1
330
1F
100
AcDbEntity
  8
0
  6
DASHED
 62
     4
 48
2.0
100
AcDbLine
 10
509.9627446168689
 20
338.7183797189273
 30
0.0
 11
501.7627446168688
 21
338.7183797189273
 31
0.0
  0
ARC
  5
2E2
330
1F
100
AcDbEntity
  8
0
  6
DASHED
 62
     4
 48
2.0
100
AcDbCircle
 10
501.7627442433314
 20
339.2183793453898
 30
0.0
 40
0.4999996264625655
100
AcDbArc
 50
179.9999571957144
 51
270.0000428042887
  0
LINE
  5
2E3
330
1F
100
AcDbEntity
  8
0
  6
Continuous
 62
     7
 48
2.0
100
AcDbLine
 10
505.3127446168688
 20
341.4183797189274
 30
0.0
 11
506.4127446168686
 21
341.4183797189274
 31
0.0
  0
LINE
  5
2E4
330
1F
100
AcDbEntity
  8
0
100
AcDbLine
 10
506.5627446168688
 20
340.0167697189274
 30
0.0
 11
506.5627446168688
 21
339.6588033301283
 31
0.0
  0
LINE
  5
2E5
330
1F
100
AcDbEntity
  8
0
  6
DASHED
 62
     4
 48
2.0
100
AcDbLine
 10
506.5627446168688
 20
339.6588033301283
 30
0.0
 11
506.5627446168688
 21
338.7183797189273
 31
0.0
  0
LINE
  5
2E6
330
1F
100
AcDbEntity
  8
0
100
AcDbLine
 10
505.1627446168689
 20
339.6482873837914
 30
0.0
 11
505.1627446168689
 21
340.0167697189274
 31
0.0
  0
LINE
  5
2E7
330
1F
100
AcDbEntity
  8
0
  6
DASHED
 62
     4
 48
2.0
100
AcDbLine
 10
505.1627446168689
 20
338.7183797189273
 30
0.0
 11
505.1627446168689
 21
339.6482873837914
 31
0.0
  0
LINE
  5
2E8
330
1F
100
AcDbEntity
  8
0
  6
DASHED
 62
     4
 48
2.0
100
AcDbLine
 10
506.5627446168688
 20
338.7183797189273
 30
0.0
 11
505.1627446168689
 21
338.7183797189273
 31
0.0
  0
ARC
  5
2E9
330
1F
100
AcDbEntity
  8
0
  6
Continuous
 62
     7
100
AcDbCircle
 10
510.4350638771855
 20
331.3421632441284
 30
0.0
 40
0.5000003165466131
100
AcDbArc
 50
0.0000324072764128
 51
90.02104856044848
  0
ARC
  5
2EA
330
1F
100
AcDbEntity
  8
0
  6
Continuous
 62
     7
100
AcDbCircle
 10
510.4315638200569
 20
331.3421629003356
 30
0.0
 40
0.4999996603185391
100
AcDbArc
 50
90.02104204162387
 51
180.0211276501974
  0
ARC
  5
2EB
330
1F
100
AcDbEntity
  8
0
  6
DASHED
 62
     4
 48
2.0
100
AcDbCircle
 10
509.9627449904065
 20
339.2183793453898
 30
0.0
 40
0.4999996264625369
100
AcDbArc
 50
269.9999571957111
 51
0.0000428042855519
  0
LINE
  5
2EC
330
1F
100
AcDbEntity
  8
0
  6
DASHED
 62
     4
100
AcDbLine
 10
599.835064193732
 20
265.0375225269355
 30
0.0
 11
595.835064193732
 21
265.0375225269355
 31
0.0
  0
LINE
  5
2ED
330
1F
100
AcDbEntity
  8
0
  6
DASHED
 62
     4
100
AcDbLine
 10
599.835064193732
 20
262.0375225269355
 30
0.0
 11
595.835064193732
 21
262.0375225269355
 31
0.0
  0
LINE
  5
2EE
330
1F
100
AcDbEntity
  8
0
  6
DASHED
 62
     4
100
AcDbLine
 10
599.835064193732
 20
260.0375225269355
 30
0.0
 11
595.835064193732
 21
260.0375225269355
 31
0.0
  0
LINE
  5
2EF
330
1F
100
AcDbEntity
  8
0
  6
DASHED
 62
     4
100
AcDbLine
 10
596.8350641937318
 20
294.0375225269356
 30
0.0
 11
597.835064193732
 21
294.0375225269356
 31
0.0
  0
LINE
  5
2F0
330
1F
100
AcDbEntity
  8
0
  6
DASHED
 62
     4
100
AcDbLine
 10
596.8350641937318
 20
327.3375225269355
 30
0.0
 11
597.335064193732
 21
325.3375225269357
 31
0.0
  0
LINE
  5
2F1
330
1F
100
AcDbEntity
  8
0
  6
DASHED
 62
     4
100
AcDbLine
 10
595.835064193732
 20
327.3375225269355
 30
0.0
 11
599.835064193732
 21
327.3375225269355
 31
0.0
  0
LINE
  5
2F2
330
1F
100
AcDbEntity
  8
0
  6
DASHED
 62
     4
100
AcDbLine
 10
599.835064193732
 20
270.0375225269355
 30
0.0
 11
595.835064193732
 21
270.0375225269355
 31
0.0
  0
LINE
  5
2F3
330
1F
100
AcDbEntity
  8
0
  6
DASHED
 62
     4
100
AcDbLine
 10
595.835064193732
 20
292.0375225269356
 30
0.0
 11
599.835064193732
 21
292.0375225269356
 31
0.0
  0
LINE
  5
2F4
330
1F
100
AcDbEntity
  8
0
  6
Continuous
 62
     7
100
AcDbLine
 10
569.8300921937317
 20
292.8375225269356
 30
0.0
 11
569.8300921937317
 21
269.8375225269356
 31
0.0
  0
LINE
  5
2F5
330
1F
100
AcDbEntity
  8
0
  6
Continuous
 62
     7
100
AcDbLine
 10
569.8300921937317
 20
297.8875225269356
 30
0.0
 11
569.8300921937317
 21
269.8375225269356
 31
0.0
  0
LINE
  5
2F6
330
1F
100
AcDbEntity
  8
0
  6
Continuous
 62
     7
100
AcDbLine
 10
562.8794291937317
 20
292.5824255269355
 30
0.0
 11
566.4027211937317
 21
272.3234985269356
 31
0.0
  0
LINE
  5
2F7
330
1F
100
AcDbEntity
  8
0
  6
DASHED
 62
     4
100
AcDbLine
 10
595.835064193732
 20
260.0375225269355
 30
0.0
 11
595.835064193732
 21
292.0375225269356
 31
0.0
  0
LINE
  5
2F8
330
1F
100
AcDbEntity
  8
0
  6
Continuous
 62
     7
100
AcDbLine
 10
569.8297231937317
 20
271.8375225269355
 30
0.0
 11
591.335064193732
 21
271.8375225269355
 31
0.0
  0
LINE
  5
2F9
330
1F
100
AcDbEntity
  8
0
  6
Continuous
 62
     7
100
AcDbLine
 10
591.335064193732
 20
269.8375225269355
 30
0.0
 11
569.8300921937317
 21
269.8375225269355
 31
0.0
  0
ARC
  5
2FA
330
1F
100
AcDbEntity
  8
0
  6
Continuous
 62
     7
100
AcDbCircle
 10
569.3583585361464
 20
272.8375250958352
 30
0.0
 40
3.000002568900517
100
AcDbArc
 50
189.8658574317317
 51
269.999955263217
  0
LINE
  5
2FB
330
1F
100
AcDbEntity
  8
0
  6
Continuous
 62
     7
100
AcDbLine
 10
569.8300921937317
 20
269.8375225269356
 30
0.0
 11
569.3583561937317
 21
269.8375225269356
 31
0.0
  0
LINE
  5
2FC
330
1F
100
AcDbEntity
  8
0
  6
Continuous
 62
     7
100
AcDbLine
 10
565.3655881937318
 20
276.5361205269357
 30
0.0
 11
565.7170541937317
 21
274.5151895269356
 31
0.0
  0
LINE
  5
2FD
330
1F
100
AcDbEntity
  8
0
  6
Continuous
 62
     7
100
AcDbLine
 10
565.6611521937317
 20
276.5875225269356
 30
0.0
 11
565.3655881937318
 21
276.5361205269357
 31
0.0
  0
LINE
  5
2FE
330
1F
100
AcDbEntity
  8
0
  6
Continuous
 62
     7
100
AcDbLine
 10
566.0126181937317
 20
274.5665915269356
 30
0.0
 11
565.7170541937317
 21
274.5151895269356
 31
0.0
  0
LINE
  5
2FF
330
1F
100
AcDbEntity
  8
0
  6
Continuous
 62
     7
100
AcDbLine
 10
591.335064193732
 20
273.8375225269355
 30
0.0
 11
591.335064193732
 21
269.8375225269355
 31
0.0
  0
LINE
  5
300
330
1F
100
AcDbEntity
  8
0
  6
DASHED
 62
     4
100
AcDbLine
 10
595.835064193732
 20
267.0375225269355
 30
0.0
 11
591.8350641937317
 21
267.0375225269355
 31
0.0
  0
LINE
  5
301
330
1F
100
AcDbEntity
  8
0
  6
DASHED
 62
     4
100
AcDbLine
 10
591.8350641937317
 20
264.8375225269357
 30
0.0
 11
595.835064193732
 21
264.8375225269357
 31
0.0
  0
LINE
  5
302
330
1F
100
AcDbEntity
  8
0
  6
DASHED
 62
     4
100
AcDbLine
 10
595.835064193732
 20
270.0375225269355
 30
0.0
 11
595.835064193732
 21
264.8375225269357
 31
0.0
  0
LINE
  5
303
330
1F
100
AcDbEntity
  8
0
  6
Continuous
 62
     7
100
AcDbLine
 10
591.335064193732
 20
273.8375225269355
 30
0.0
 11
590.8350641937317
 21
273.8375225269355
 31
0.0
  0
LINE
  5
304
330
1F
100
AcDbEntity
  8
0
  6
Continuous
 62
     7
100
AcDbLine
 10
591.8350641937317
 20
270.9375225269357
 30
0.0
 11
591.335064193732
 21
270.9375225269357
 31
0.0
  0
LINE
  5
305
330
1F
100
AcDbEntity
  8
0
  6
Continuous
 62
     7
100
AcDbLine
 10
563.1350651937317
 20
321.8375225269356
 30
0.0
 11
565.3350651937318
 21
321.8375225269356
 31
0.0
  0
LINE
  5
306
330
1F
100
AcDbEntity
  8
0
  6
Continuous
 62
     7
100
AcDbLine
 10
567.8350651937318
 20
321.7875225269356
 30
0.0
 11
562.8350651937316
 21
319.8375225269356
 31
0.0
  0
LINE
  5
307
330
1F
100
AcDbEntity
  8
0
  6
Continuous
 62
     7
100
AcDbLine
 10
563.1350651937317
 20
297.8375225269356
 30
0.0
 11
565.3350651937318
 21
297.8375225269356
 31
0.0
  0
LINE
  5
308
330
1F
100
AcDbEntity
  8
0
  6
Continuous
 62
     7
100
AcDbLine
 10
567.8350651937318
 20
297.8875225269356
 30
0.0
 11
562.8350651937316
 21
299.8375225269356
 31
0.0
  0
LINE
  5
309
330
1F
100
AcDbEntity
  8
0
  6
Continuous
 62
     7
100
AcDbLine
 10
562.8350651937316
 20
297.3400975269356
 30
0.0
 11
562.8350651937316
 21
322.3349475269357
 31
0.0
  0
ARC
  5
30A
330
1F
100
AcDbEntity
  8
0
  6
Continuous
 62
     7
100
AcDbCircle
 10
563.1350649696091
 20
297.5375227510582
 30
0.0
 40
0.2999997758775221
100
AcDbArc
 50
89.99995719572096
 51
180.0000428042953
  0
LINE
  5
30B
330
1F
100
AcDbEntity
  8
0
  6
Continuous
 62
     7
100
AcDbLine
 10
562.8350651937316
 20
293.0964485269358
 30
0.0
 11
562.8350651937316
 21
297.5375225269356
 31
0.0
  0
ARC
  5
30C
330
1F
100
AcDbEntity
  8
0
  6
Continuous
 62
     7
100
AcDbCircle
 10
565.8350835765604
 20
293.0964464083987
 30
0.0
 40
3.000018382829418
100
AcDbArc
 50
179.9999595391691
 51
189.8656946541195
  0
LINE
  5
30D
330
1F
100
AcDbEntity
  8
0
  6
Continuous
 62
     7
100
AcDbLine
 10
562.8350651937316
 20
326.5785965269357
 30
0.0
 11
562.8350651937316
 21
322.1375225269357
 31
0.0
  0
ARC
  5
30E
330
1F
100
AcDbEntity
  8
0
  6
Continuous
 62
     7
100
AcDbCircle
 10
563.1350649696091
 20
322.1375223028131
 30
0.0
 40
0.2999997758775221
100
AcDbArc
 50
179.9999571957079
 51
270.0000428042789
  0
LINE
  5
30F
330
1F
100
AcDbEntity
  8
0
  6
Continuous
 62
     7
100
AcDbLine
 10
562.8350651937316
 20
322.8378215269356
 30
0.0
 11
562.8350651937316
 21
322.8375225269356
 31
0.0
  0
ARC
  5
310
330
1F
100
AcDbEntity
  8
0
  6
Continuous
 62
     7
100
AcDbCircle
 10
565.8350835765602
 20
326.5785986454726
 30
0.0
 40
3.000018382829248
100
AcDbArc
 50
170.1343053458804
 51
180.0000404608276
  0
LINE
  5
311
330
1F
100
AcDbEntity
  8
0
  6
Continuous
 62
     7
100
AcDbLine
 10
574.4300921937317
 20
299.8375225269356
 30
0.0
 11
574.4300921937317
 21
319.8375225269356
 31
0.0
  0
LINE
  5
312
330
1F
100
AcDbEntity
  8
0
  6
Continuous
 62
     7
100
AcDbLine
 10
569.8300921937317
 20
297.8875225269356
 30
0.0
 11
569.8300921937317
 21
321.7875225269356
 31
0.0
  0
LINE
  5
313
330
1F
100
AcDbEntity
  8
0
  6
DASHED
 62
     4
100
AcDbLine
 10
595.835064193732
 20
327.3375225269355
 30
0.0
 11
595.835064193732
 21
292.0375225269356
 31
0.0
  0
LINE
  5
314
330
1F
100
AcDbEntity
  8
0
  6
Continuous
 62
     7
100
AcDbLine
 10
576.335074193732
 20
292.8375225269356
 30
0.0
 11
576.335074193732
 21
326.8375225269356
 31
0.0
  0
LINE
  5
315
330
1F
100
AcDbEntity
  8
0
  6
Continuous
 62
     7
100
AcDbLine
 10
589.335074193732
 20
326.8375225269356
 30
0.0
 11
589.335074193732
 21
292.8375225269356
 31
0.0
  0
LINE
  5
316
330
1F
100
AcDbEntity
  8
0
  6
Continuous
 62
     7
100
AcDbLine
 10
575.8350741937317
 20
328.3190545269353
 30
0.0
 11
575.8350741937317
 21
291.3190545269356
 31
0.0
  0
LINE
  5
317
330
1F
100
AcDbEntity
  8
0
  6
Continuous
 62
     7
100
AcDbLine
 10
587.3350741937318
 20
290.8375225269356
 30
0.0
 11
578.335074193732
 21
290.8375225269356
 31
0.0
  0
LINE
  5
318
330
1F
100
AcDbEntity
  8
0
  6
Continuous
 62
     7
100
AcDbLine
 10
576.8350741937317
 20
290.3190545269357
 30
0.0
 11
590.8350731937317
 21
290.3190545269357
 31
0.0
  0
LINE
  5
319
330
1F
100
AcDbEntity
  8
0
  6
Continuous
 62
     7
100
AcDbLine
 10
567.8350651937318
 20
292.8375225269356
 30
0.0
 11
569.8300921937317
 21
292.8375215290543
 31
0.0
  0
LINE
  5
31A
330
1F
100
AcDbEntity
  8
0
  6
Continuous
 62
     7
100
AcDbLine
 10
567.8350651937318
 20
292.8375225269356
 30
0.0
 11
569.8300921937317
 21
292.8375215290543
 31
0.0
  0
LINE
  5
31B
330
1F
100
AcDbEntity
  8
0
  6
Continuous
 62
     7
100
AcDbLine
 10
569.8300921937317
 20
297.8875225269356
 30
0.0
 11
567.8350651937318
 21
297.8875225269356
 31
0.0
  0
LINE
  5
31C
330
1F
100
AcDbEntity
  8
0
  6
Continuous
 62
     7
100
AcDbLine
 10
568.7300921937316
 20
296.0375225269356
 30
0.0
 11
567.8350651937318
 21
294.3469159713801
 31
0.0
  0
LINE
  5
31D
330
1F
100
AcDbEntity
  8
0
  6
Continuous
 62
     7
100
AcDbLine
 10
568.7300921937316
 20
296.3375225269357
 30
0.0
 11
568.0527421937315
 21
296.7890895269357
 31
0.0
  0
LINE
  5
31E
330
1F
100
AcDbEntity
  8
0
  6
Continuous
 62
     7
100
AcDbLine
 10
567.6364661937316
 20
296.3375225269357
 30
0.0
 11
568.7300921937316
 21
296.3375225269357
 31
0.0
  0
LINE
  5
31F
330
1F
100
AcDbEntity
  8
0
  6
Continuous
 62
     7
100
AcDbLine
 10
567.8350651937318
 20
297.1347706738088
 30
0.0
 11
567.8350651937318
 21
297.8875225269356
 31
0.0
  0
ARC
  5
320
330
1F
100
AcDbEntity
  8
0
  6
Continuous
 62
     7
100
AcDbCircle
 10
568.3300919135582
 20
297.2051145895686
 30
0.0
 40
0.4999997198266057
100
AcDbArc
 50
188.0876545989167
 51
236.3099631686306
  0
LINE
  5
321
330
1F
100
AcDbEntity
  8
0
  6
Continuous
 62
     7
100
AcDbLine
 10
567.8350651937318
 20
292.8375225269356
 30
0.0
 11
567.8350651937318
 21
294.3469159713801
 31
0.0
  0
LINE
  5
322
330
1F
100
AcDbEntity
  8
0
  6
Continuous
 62
     7
100
AcDbLine
 10
567.8350651937318
 20
295.3375225269356
 30
0.0
 11
567.8350651937318
 21
292.8375225269356
 31
0.0
  0
ARC
  5
323
330
1F
100
AcDbEntity
  8
0
  6
Continuous
 62
     7
100
AcDbCircle
 10
565.3350670614197
 20
295.3375243946236
 30
0.0
 40
2.49999813231274
100
AcDbArc
 50
359.9999571957112
 51
90.00004280428553
  0
LINE
  5
324
330
1F
100
AcDbEntity
  8
0
  6
Continuous
 62
     7
100
AcDbLine
 10
568.7300921937316
 20
296.0375225269356
 30
0.0
 11
568.7300921937316
 21
296.3375225269357
 31
0.0
  0
ARC
  5
325
330
1F
100
AcDbEntity
  8
0
  6
Continuous
 62
     7
100
AcDbCircle
 10
578.3350726995815
 20
292.8375210327852
 30
0.0
 40
1.999998505850189
100
AcDbArc
 50
179.9999571957112
 51
270.0000428042855
  0
ARC
  5
326
330
1F
100
AcDbEntity
  8
0
  6
Continuous
 62
     7
100
AcDbCircle
 10
576.8350734466566
 20
291.3190537798604
 30
0.0
 40
0.9999992529251022
100
AcDbArc
 50
179.9999571957112
 51
270.0000428042855
  0
LINE
  5
327
330
1F
100
AcDbEntity
  8
0
  6
Continuous
 62
     7
100
AcDbLine
 10
574.4300921937317
 20
299.8375225269356
 30
0.0
 11
569.8300921937317
 21
299.8375225269356
 31
0.0
  0
ARC
  5
328
330
1F
100
AcDbEntity
  8
0
  6
Continuous
 62
     7
100
AcDbCircle
 10
587.3350756878822
 20
292.8375210327852
 30
0.0
 40
1.999998505850204
100
AcDbArc
 50
269.9999571957144
 51
0.0000428042888088
  0
LINE
  5
329
330
1F
100
AcDbEntity
  8
0
  6
DASHED
 62
     4
100
AcDbLine
 10
596.8350641937318
 20
292.0375225269356
 30
0.0
 11
596.8350641937318
 21
294.0375225269356
 31
0.0
  0
LINE
  5
32A
330
1F
100
AcDbEntity
  8
0
  6
Continuous
 62
     7
100
AcDbLine
 10
578.335074193732
 20
328.8375225269356
 30
0.0
 11
587.3350741937318
 21
328.8375225269356
 31
0.0
  0
LINE
  5
32B
330
1F
100
AcDbEntity
  8
0
  6
Continuous
 62
     7
100
AcDbLine
 10
590.8350751937316
 20
329.3190545269354
 30
0.0
 11
576.8350741937317
 21
329.3190545269354
 31
0.0
  0
ARC
  5
32C
330
1F
100
AcDbEntity
  8
0
  6
Continuous
 62
     7
100
AcDbCircle
 10
578.3350726995815
 20
326.8375240210861
 30
0.0
 40
1.999998505850189
100
AcDbArc
 50
89.99995719571442
 51
180.0000428042855
  0
LINE
  5
32D
330
1F
100
AcDbEntity
  8
0
  6
Continuous
 62
     7
100
AcDbLine
 10
574.4300921937317
 20
319.8375225269356
 30
0.0
 11
569.8300921937317
 21
319.8375225269356
 31
0.0
  0
LINE
  5
32E
330
1F
100
AcDbEntity
  8
0
  6
Continuous
 62
     7
100
AcDbLine
 10
567.8350651937318
 20
326.8375225269356
 30
0.0
 11
569.8300921937317
 21
326.8375225269356
 31
0.0
  0
LINE
  5
32F
330
1F
100
AcDbEntity
  8
0
  6
Continuous
 62
     7
100
AcDbLine
 10
567.8350651937318
 20
326.8375225269356
 30
0.0
 11
569.8258561937317
 21
326.8375235269356
 31
0.0
  0
LINE
  5
330
330
1F
100
AcDbEntity
  8
0
  6
Continuous
 62
     7
100
AcDbLine
 10
569.8300921937317
 20
321.7875225269356
 30
0.0
 11
567.8350651937318
 21
321.7875225269356
 31
0.0
  0
LINE
  5
331
330
1F
100
AcDbEntity
  8
0
  6
Continuous
 62
     7
100
AcDbLine
 10
567.6263536862093
 20
323.3375225269357
 30
0.0
 11
568.7300921937316
 21
323.3375225269357
 31
0.0
  0
LINE
  5
332
330
1F
100
AcDbEntity
  8
0
  6
Continuous
 62
     7
100
AcDbLine
 10
568.7300921937316
 20
323.3375225269357
 30
0.0
 11
568.0527421937315
 21
322.8859555269356
 31
0.0
  0
LINE
  5
333
330
1F
100
AcDbEntity
  8
0
  6
Continuous
 62
     7
100
AcDbLine
 10
568.7300921937316
 20
323.6375225269357
 30
0.0
 11
567.8350651937318
 21
325.3281290824912
 31
0.0
  0
LINE
  5
334
330
1F
100
AcDbEntity
  8
0
  6
Continuous
 62
     7
100
AcDbLine
 10
567.8350651937318
 20
321.7875225269356
 30
0.0
 11
567.8350651937318
 21
322.5402743800624
 31
0.0
  0
ARC
  5
335
330
1F
100
AcDbEntity
  8
0
  6
Continuous
 62
     7
100
AcDbCircle
 10
568.3300919135582
 20
322.4699304643026
 30
0.0
 40
0.4999997198266292
100
AcDbArc
 50
123.6900368313692
 51
171.912345401067
  0
LINE
  5
336
330
1F
100
AcDbEntity
  8
0
  6
Continuous
 62
     7
100
AcDbLine
 10
567.8350651937318
 20
326.8375225269356
 30
0.0
 11
567.8350651937318
 21
325.3281290824912
 31
0.0
  0
LINE
  5
337
330
1F
100
AcDbEntity
  8
0
  6
Continuous
 62
     7
100
AcDbLine
 10
567.8350651937318
 20
324.3375225269356
 30
0.0
 11
567.8350651937318
 21
326.8375225269356
 31
0.0
  0
ARC
  5
338
330
1F
100
AcDbEntity
  8
0
  6
Continuous
 62
     7
100
AcDbCircle
 10
565.3350670614197
 20
324.3375206592478
 30
0.0
 40
2.49999813231274
100
AcDbArc
 50
269.9999571957111
 51
0.0000428042888088
  0
LINE
  5
339
330
1F
100
AcDbEntity
  8
0
  6
Continuous
 62
     7
100
AcDbLine
 10
568.7300921937316
 20
323.6375225269357
 30
0.0
 11
568.7300921937316
 21
323.3375225269357
 31
0.0
  0
LINE
  5
33A
330
1F
100
AcDbEntity
  8
0
  6
Continuous
 62
     7
100
AcDbLine
 10
565.2369131937316
 20
340.6481485269356
 30
0.0
 11
564.9413491937316
 21
340.6995515269357
 31
0.0
  0
ARC
  5
33B
330
1F
100
AcDbEntity
  8
0
  6
Continuous
 62
     7
100
AcDbCircle
 10
576.8350734466566
 20
328.3190552740108
 30
0.0
 40
0.999999252925088
100
AcDbArc
 50
89.99995719571442
 51
180.0000428042855
  0
ARC
  5
33C
330
1F
100
AcDbEntity
  8
0
  6
Continuous
 62
     7
100
AcDbCircle
 10
587.3350756878822
 20
326.8375240210861
 30
0.0
 40
1.999998505850189
100
AcDbArc
 50
359.9999571957112
 51
90.00004280428553
  0
LINE
  5
33D
330
1F
100
AcDbEntity
  8
0
  6
DASHED
 62
     4
100
AcDbLine
 10
599.835064193732
 20
292.0375225269356
 30
0.0
 11
599.835064193732
 21
260.0375225269355
 31
0.0
  0
LINE
  5
33E
330
1F
100
AcDbEntity
  8
0
  6
DASHED
 62
     4
100
AcDbLine
 10
597.835064193732
 20
294.0375225269356
 30
0.0
 11
599.1683971937317
 21
292.0375225269356
 31
0.0
  0
LINE
  5
33F
330
1F
100
AcDbEntity
  8
0
  6
DASHED
 62
     4
100
AcDbLine
 10
597.335064193732
 20
325.3375225269357
 30
0.0
 11
599.835064193732
 21
325.3375225269357
 31
0.0
  0
CIRCLE
  5
340
330
1F
100
AcDbEntity
  8
0
  6
DASHED
 62
     4
100
AcDbCircle
 10
497.6031883748603
 20
357.087517815336
 30
0.0
 40
2.250000288400501
  0
LINE
  5
341
330
1F
100
AcDbEntity
  8
0
  6
Continuous
 62
     7
100
AcDbLine
 10
510.8350641937319
 20
349.8375225269356
 30
0.0
 11
484.835064193732
 21
349.8375225269356
 31
0.0
  0
LINE
  5
342
330
1F
100
AcDbEntity
  8
0
  6
DASHED
 62
     4
100
AcDbLine
 10
510.635064193732
 20
359.8375225269356
 30
0.0
 11
485.0350641937318
 21
359.8375225269356
 31
0.0
  0
LINE
  5
343
330
1F
100
AcDbEntity
  8
0
  6
DASHED
 62
     4
 48
2.0
100
AcDbLine
 10
512.835064193732
 20
349.8375225269356
 30
0.0
 11
482.8350641937319
 21
349.8375225269356
 31
0.0
  0
LINE
  5
344
330
1F
100
AcDbEntity
  8
0
  6
DASHED
 62
     4
 48
2.0
100
AcDbLine
 10
489.1350670002518
 20
347.9375263334552
 30
0.0
 11
490.5350670002516
 21
347.9375263334552
 31
0.0
  0
LINE
  5
345
330
1F
100
AcDbEntity
  8
0
  6
Continuous
 62
     7
 48
2.0
100
AcDbLine
 10
490.3850670002516
 20
342.7875263334553
 30
0.0
 11
493.2100670002518
 21
342.7875263334553
 31
0.0
  0
LINE
  5
346
330
1F
100
AcDbEntity
  8
0
  6
Continuous
 62
     7
 48
2.0
100
AcDbLine
 10
490.3850670002516
 20
343.8875263334556
 30
0.0
 11
493.2100670002518
 21
343.8875263334556
 31
0.0
  0
LINE
  5
347
330
1F
100
AcDbEntity
  8
0
  6
DASHED
 62
     4
 48
2.0
100
AcDbLine
 10
485.7350670002518
 20
347.9375263334552
 30
0.0
 11
493.9350670002518
 21
347.9375263334552
 31
0.0
  0
ARC
  5
348
330
1F
100
AcDbEntity
  8
0
  6
Continuous
 62
     7
100
AcDbCircle
 10
484.8350626995816
 20
347.8375240210858
 30
0.0
 40
1.999998505850189
100
AcDbArc
 50
89.99995719571442
 51
180.0000428042855
  0
LINE
  5
349
330
1F
100
AcDbEntity
  8
0
100
AcDbLine
 10
486.1269967242606
 20
342.6375263334554
 30
0.0
 11
486.5334580002516
 21
342.6375263334554
 31
0.0
  0
LINE
  5
34A
330
1F
100
AcDbEntity
  8
0
100
AcDbLine
 10
486.1197204053554
 20
344.0375263334556
 30
0.0
 11
486.5334580002516
 21
344.0375263334556
 31
0.0
  0
ARC
  5
34B
330
1F
100
AcDbEntity
  8
0
  6
DASHED
 62
     4
 48
2.0
100
AcDbCircle
 10
485.7350666267143
 20
347.4375267069928
 30
0.0
 40
0.4999996264625369
100
AcDbArc
 50
89.99995719571119
 51
180.0000428042888
  0
LINE
  5
34C
330
1F
100
AcDbEntity
  8
0
  6
DASHED
 62
     4
 48
2.0
100
AcDbLine
 10
485.2350670002518
 20
344.0375263334556
 30
0.0
 11
486.1197204053554
 21
344.0375263334556
 31
0.0
  0
LINE
  5
34D
330
1F
100
AcDbEntity
  8
0
  6
DASHED
 62
     4
 48
2.0
100
AcDbLine
 10
486.1269967242606
 20
342.6375263334554
 30
0.0
 11
485.2350670002518
 21
342.6375263334554
 31
0.0
  0
LINE
  5
34E
330
1F
100
AcDbEntity
  8
0
  6
DASHED
 62
     4
 48
2.0
100
AcDbLine
 10
485.2350670002518
 20
342.6375263334554
 30
0.0
 11
485.2350670002518
 21
344.0375263334556
 31
0.0
  0
LINE
  5
34F
330
1F
100
AcDbEntity
  8
0
100
AcDbLine
 10
489.1350670002518
 20
347.0459109200978
 30
0.0
 11
489.1350670002518
 21
346.6391353334553
 31
0.0
  0
LINE
  5
350
330
1F
100
AcDbEntity
  8
0
  6
DASHED
 62
     4
 48
2.0
100
AcDbLine
 10
489.1350670002518
 20
347.0459109200978
 30
0.0
 11
489.1350670002518
 21
347.9375263334552
 31
0.0
  0
LINE
  5
351
330
1F
100
AcDbEntity
  8
0
  6
Continuous
 62
     7
 48
2.0
100
AcDbLine
 10
489.2850670002518
 20
345.2375263334556
 30
0.0
 11
490.3850670002516
 21
345.2375263334556
 31
0.0
  0
LINE
  5
352
330
1F
100
AcDbEntity
  8
0
  6
Continuous
 62
     7
 48
2.0
100
AcDbLine
 10
489.2850670002518
 20
343.8875263334556
 30
0.0
 11
489.2850670002518
 21
345.2375263334556
 31
0.0
  0
LINE
  5
353
330
1F
100
AcDbEntity
  8
0
  6
Continuous
 62
     7
 48
2.0
100
AcDbLine
 10
490.3850670002516
 20
343.8875263334556
 30
0.0
 11
490.3850670002516
 21
345.2375263334556
 31
0.0
  0
LINE
  5
354
330
1F
100
AcDbEntity
  8
0
  6
Continuous
 62
     7
 48
2.0
100
AcDbLine
 10
486.4600670002518
 20
342.7875263334553
 30
0.0
 11
489.2850670002518
 21
342.7875263334553
 31
0.0
  0
LINE
  5
355
330
1F
100
AcDbEntity
  8
0
  6
Continuous
 62
     7
 48
2.0
100
AcDbLine
 10
486.4600670002518
 20
343.8875263334556
 30
0.0
 11
489.2850670002518
 21
343.8875263334556
 31
0.0
  0
LINE
  5
356
330
1F
100
AcDbEntity
  8
0
100
AcDbLine
 10
490.5350670002516
 20
347.0353944296697
 30
0.0
 11
490.5350670002516
 21
346.6391362679937
 31
0.0
  0
LINE
  5
357
330
1F
100
AcDbEntity
  8
0
100
AcDbLine
 10
493.4950694185517
 20
344.0375263334556
 30
0.0
 11
493.1366770002518
 21
344.0375263334556
 31
0.0
  0
LINE
  5
358
330
1F
100
AcDbEntity
  8
0
100
AcDbLine
 10
493.1366770002518
 20
342.6375263334554
 30
0.0
 11
493.4877936501647
 21
342.6375263334554
 31
0.0
  0
ARC
  5
359
330
1F
100
AcDbEntity
  8
0
  6
DASHED
 62
     4
 48
2.0
100
AcDbCircle
 10
493.9350673737894
 20
347.4375267069928
 30
0.0
 40
0.4999996264625369
100
AcDbArc
 50
359.9999571957112
 51
90.00004280428878
  0
LINE
  5
35A
330
1F
100
AcDbEntity
  8
0
  6
DASHED
 62
     4
 48
2.0
100
AcDbLine
 10
490.5350670002516
 20
347.9375263334552
 30
0.0
 11
490.5350670002516
 21
347.0353944296697
 31
0.0
  0
LINE
  5
35B
330
1F
100
AcDbEntity
  8
0
  6
DASHED
 62
     4
 48
2.0
100
AcDbLine
 10
493.4950694185517
 20
344.0375263334556
 30
0.0
 11
494.4350670002518
 21
344.0375263334556
 31
0.0
  0
LINE
  5
35C
330
1F
100
AcDbEntity
  8
0
  6
DASHED
 62
     4
 48
2.0
100
AcDbLine
 10
494.4350670002518
 20
344.0375263334556
 30
0.0
 11
494.4350670002518
 21
342.6375263334554
 31
0.0
  0
LINE
  5
35D
330
1F
100
AcDbEntity
  8
0
  6
DASHED
 62
     4
 48
2.0
100
AcDbLine
 10
494.4350670002518
 20
342.6375263334554
 30
0.0
 11
493.4877936501647
 21
342.6375263334554
 31
0.0
  0
ARC
  5
35E
330
1F
100
AcDbEntity
  8
0
  6
DASHED
 62
     4
100
AcDbCircle
 10
485.0350625501666
 20
357.6375241705008
 30
0.0
 40
2.199998356435219
100
AcDbArc
 50
89.99995719571119
 51
180.0000428042855
  0
LINE
  5
35F
330
1F
100
AcDbEntity
  8
0
  6
DASHED
 62
     4
 48
2.0
100
AcDbLine
 10
501.7627446168688
 20
347.9183797189275
 30
0.0
 11
509.9627446168689
 21
347.9183797189275
 31
0.0
  0
LINE
  5
360
330
1F
100
AcDbEntity
  8
0
  6
Continuous
 62
     7
 48
2.0
100
AcDbLine
 10
506.4127446168686
 20
343.8683797189273
 30
0.0
 11
509.2377446168689
 21
343.8683797189273
 31
0.0
  0
LINE
  5
361
330
1F
100
AcDbEntity
  8
0
  6
Continuous
 62
     7
 48
2.0
100
AcDbLine
 10
506.4127446168686
 20
342.7683797189274
 30
0.0
 11
509.2377446168689
 21
342.7683797189274
 31
0.0
  0
LINE
  5
362
330
1F
100
AcDbEntity
  8
0
  6
Continuous
 62
     7
 48
2.0
100
AcDbLine
 10
502.4877446168688
 20
343.8683797189273
 30
0.0
 11
505.3127446168688
 21
343.8683797189273
 31
0.0
  0
LINE
  5
363
330
1F
100
AcDbEntity
  8
0
  6
Continuous
 62
     7
 48
2.0
100
AcDbLine
 10
502.4877446168688
 20
342.7683797189274
 30
0.0
 11
505.3127446168688
 21
342.7683797189274
 31
0.0
  0
ARC
  5
364
330
1F
100
AcDbEntity
  8
0
  6
DASHED
 62
     4
 48
2.0
100
AcDbCircle
 10
501.7627442433314
 20
347.4183800924651
 30
0.0
 40
0.4999996264625369
100
AcDbArc
 50
89.99995719571119
 51
180.0000428042888
  0
LINE
  5
365
330
1F
100
AcDbEntity
  8
0
  6
DASHED
 62
     4
 48
2.0
100
AcDbLine
 10
501.2627446168688
 20
342.6183797189275
 30
0.0
 11
501.2627446168688
 21
344.0183797189273
 31
0.0
  0
LINE
  5
366
330
1F
100
AcDbEntity
  8
0
  6
DASHED
 62
     4
 48
2.0
100
AcDbLine
 10
501.2627446168688
 20
344.0183797189273
 30
0.0
 11
502.1473980219725
 21
344.0183797189273
 31
0.0
  0
LINE
  5
367
330
1F
100
AcDbEntity
  8
0
  6
DASHED
 62
     4
 48
2.0
100
AcDbLine
 10
502.1546743408777
 20
342.6183797189275
 30
0.0
 11
501.2627446168688
 21
342.6183797189275
 31
0.0
  0
LINE
  5
368
330
1F
100
AcDbEntity
  8
0
100
AcDbLine
 10
502.1473980219725
 20
344.0183797189273
 30
0.0
 11
502.5611356168687
 21
344.0183797189273
 31
0.0
  0
LINE
  5
369
330
1F
100
AcDbEntity
  8
0
100
AcDbLine
 10
502.1546743408777
 20
342.6183797189275
 30
0.0
 11
502.5611356168687
 21
342.6183797189275
 31
0.0
  0
LINE
  5
36A
330
1F
100
AcDbEntity
  8
0
  6
DASHED
 62
     4
 48
2.0
100
AcDbLine
 10
506.5627446168688
 20
347.9183797189275
 30
0.0
 11
506.5627446168688
 21
347.0162478151418
 31
0.0
  0
LINE
  5
36B
330
1F
100
AcDbEntity
  8
0
100
AcDbLine
 10
506.5627446168688
 20
347.0162478151418
 30
0.0
 11
506.5627446168688
 21
346.6199896534656
 31
0.0
  0
LINE
  5
36C
330
1F
100
AcDbEntity
  8
0
  6
DASHED
 62
     4
 48
2.0
100
AcDbLine
 10
505.1627446168689
 20
347.0267643055698
 30
0.0
 11
505.1627446168689
 21
347.9183797189275
 31
0.0
  0
LINE
  5
36D
330
1F
100
AcDbEntity
  8
0
  6
Continuous
 62
     7
 48
2.0
100
AcDbLine
 10
506.4127446168686
 20
343.8683797189273
 30
0.0
 11
506.4127446168686
 21
345.2183797189275
 31
0.0
  0
LINE
  5
36E
330
1F
100
AcDbEntity
  8
0
  6
Continuous
 62
     7
 48
2.0
100
AcDbLine
 10
505.3127446168688
 20
343.8683797189273
 30
0.0
 11
505.3127446168688
 21
345.2183797189275
 31
0.0
  0
LINE
  5
36F
330
1F
100
AcDbEntity
  8
0
  6
Continuous
 62
     7
 48
2.0
100
AcDbLine
 10
505.3127446168688
 20
345.2183797189275
 30
0.0
 11
506.4127446168686
 21
345.2183797189275
 31
0.0
  0
LINE
  5
370
330
1F
100
AcDbEntity
  8
0
100
AcDbLine
 10
505.1627446168689
 20
347.0267643055698
 30
0.0
 11
505.1627446168689
 21
346.6199887189274
 31
0.0
  0
LINE
  5
371
330
1F
100
AcDbEntity
  8
0
  6
DASHED
 62
     4
 48
2.0
100
AcDbLine
 10
505.1627446168689
 20
347.9183797189275
 30
0.0
 11
506.5627446168688
 21
347.9183797189275
 31
0.0
  0
ARC
  5
372
330
1F
100
AcDbEntity
  8
0
  6
Continuous
 62
     7
100
AcDbCircle
 10
510.8350656878823
 20
347.8375240210858
 30
0.0
 40
1.999998505850189
100
AcDbArc
 50
359.9999571957112
 51
90.00004280428553
  0
ARC
  5
373
330
1F
100
AcDbEntity
  8
0
  6
DASHED
 62
     4
 48
2.0
100
AcDbCircle
 10
509.9627449904065
 20
347.4183800924651
 30
0.0
 40
0.4999996264625369
100
AcDbArc
 50
359.9999571957112
 51
90.00004280428878
  0
LINE
  5
374
330
1F
100
AcDbEntity
  8
0
  6
DASHED
 62
     4
 48
2.0
100
AcDbLine
 10
510.462744616869
 20
344.0183797189273
 30
0.0
 11
510.462744616869
 21
342.6183797189275
 31
0.0
  0
LINE
  5
375
330
1F
100
AcDbEntity
  8
0
100
AcDbLine
 10
509.164354616869
 20
342.6183797189275
 30
0.0
 11
509.5154712667818
 21
342.6183797189273
 31
0.0
  0
LINE
  5
376
330
1F
100
AcDbEntity
  8
0
100
AcDbLine
 10
509.5227470351688
 20
344.0183797189273
 30
0.0
 11
509.164354616869
 21
344.0183797189273
 31
0.0
  0
LINE
  5
377
330
1F
100
AcDbEntity
  8
0
  6
DASHED
 62
     4
 48
2.0
100
AcDbLine
 10
509.5227470351688
 20
344.0183797189273
 30
0.0
 11
510.462744616869
 21
344.0183797189273
 31
0.0
  0
LINE
  5
378
330
1F
100
AcDbEntity
  8
0
  6
DASHED
 62
     4
 48
2.0
100
AcDbLine
 10
510.462744616869
 20
342.6183797189275
 30
0.0
 11
509.5154712667818
 21
342.6183797189273
 31
0.0
  0
ARC
  5
379
330
1F
100
AcDbEntity
  8
0
  6
DASHED
 62
     4
100
AcDbCircle
 10
510.6350658372973
 20
357.6375241705008
 30
0.0
 40
2.199998356435204
100
AcDbArc
 50
359.9999571957143
 51
90.00004280428553
  0
LINE
  5
37A
330
1F
100
AcDbEntity
  8
0
  6
DASHED
 62
     4
100
AcDbLine
 10
599.835064193732
 20
357.6375225269355
 30
0.0
 11
595.835064193732
 21
357.6375225269355
 31
0.0
  0
LINE
  5
37B
330
1F
100
AcDbEntity
  8
0
  6
DASHED
 62
     4
100
AcDbLine
 10
599.835064193732
 20
359.8375225269356
 30
0.0
 11
595.835064193732
 21
359.8375225269356
 31
0.0
  0
LINE
  5
37C
330
1F
100
AcDbEntity
  8
0
  6
Continuous
 62
     7
100
AcDbLine
 10
569.8297231937317
 20
347.8375225269355
 30
0.0
 11
591.335064193732
 21
347.8375225269355
 31
0.0
  0
LINE
  5
37D
330
1F
100
AcDbEntity
  8
0
  6
Continuous
 62
     7
100
AcDbLine
 10
569.8300921937317
 20
349.8375225269356
 30
0.0
 11
591.335064193732
 21
349.8375225269356
 31
0.0
  0
ARC
  5
37E
330
1F
100
AcDbEntity
  8
0
  6
Continuous
 62
     7
100
AcDbCircle
 10
569.3583591306087
 20
346.8375194580359
 30
0.0
 40
3.000003068901082
100
AcDbArc
 50
90.0000560901641
 51
170.1341539216521
  0
LINE
  5
37F
330
1F
100
AcDbEntity
  8
0
  6
Continuous
 62
     7
100
AcDbLine
 10
565.5883791937317
 20
342.6690795269355
 30
0.0
 11
565.2928151937316
 21
342.7204815269356
 31
0.0
  0
LINE
  5
380
330
1F
100
AcDbEntity
  8
0
  6
Continuous
 62
     7
100
AcDbLine
 10
569.8300921937317
 20
349.8375225269356
 30
0.0
 11
569.3583561937317
 21
349.8375225269356
 31
0.0
  0
LINE
  5
381
330
1F
100
AcDbEntity
  8
0
  6
DASHED
 62
     4
100
AcDbLine
 10
595.835064193732
 20
359.8375225269356
 30
0.0
 11
595.835064193732
 21
349.8375225269356
 31
0.0
  0
LINE
  5
382
330
1F
100
AcDbEntity
  8
0
  6
Continuous
 62
     7
100
AcDbLine
 10
591.335064193732
 20
349.8375225269356
 30
0.0
 11
591.335064193732
 21
345.8375225269355
 31
0.0
  0
LINE
  5
383
330
1F
100
AcDbEntity
  8
0
  6
Continuous
 62
     7
100
AcDbLine
 10
590.8350641937317
 20
345.8375225269355
 30
0.0
 11
591.335064193732
 21
345.8375225269355
 31
0.0
  0
LINE
  5
384
330
1F
100
AcDbEntity
  8
0
  6
Continuous
 62
     7
100
AcDbLine
 10
591.335064193732
 20
348.7375225269356
 30
0.0
 11
591.8350641937317
 21
348.7375225269356
 31
0.0
  0
LINE
  5
385
330
1F
100
AcDbEntity
  8
0
  6
DASHED
 62
     4
100
AcDbLine
 10
595.835064193732
 20
349.8375225269356
 30
0.0
 11
591.8350641937317
 21
349.8375225269356
 31
0.0
  0
ENDSEC
  0
SECTION
  2
OBJECTS
  0
DICTIONARY
  5
C
330
0
100
AcDbDictionary
281
     1
  3
ACAD_GROUP
350
D
  3
ACAD_LAYOUT
350
1A
  3
ACAD_MLINESTYLE
350
17
  3
ACAD_PLOTSETTINGS
350
19
  3
ACAD_PLOTSTYLENAME
350
E
  3
DWGPROPS
350
386
  0
DICTIONARY
  5
D
102
{ACAD_REACTORS
330
C
102
}
330
C
100
AcDbDictionary
281
     1
  0
DICTIONARY
  5
1A
102
{ACAD_REACTORS
330
C
102
}
330
C
100
AcDbDictionary
281
     1
  3
Model
350
22
  3
ﾚｲｱｳﾄ1
350
51
  3
ﾚｲｱｳﾄ2
350
56
  0
DICTIONARY
  5
17
102
{ACAD_REACTORS
330
C
102
}
330
C
100
AcDbDictionary
281
     1
  3
Standard
350
18
  0
DICTIONARY
  5
19
102
{ACAD_REACTORS
330
C
102
}
330
C
100
AcDbDictionary
281
     1
  0
ACDBDICTIONARYWDFLT
  5
E
102
{ACAD_REACTORS
330
C
102
}
330
C
100
AcDbDictionary
281
     1
  3
Normal
350
F
100
AcDbDictionaryWithDefault
340
F
  0
XRECORD
  5
386
102
{ACAD_REACTORS
330
C
102
}
330
C
100
AcDbXrecord
280
     1
  1
DWGPROPS COOKIE
  2

  3

  4

  6

  7

  8

  9

300
=
301
=
302
=
303
=
304
=
305
=
306
=
307
=
308
=
309
=
 40
0.0011209722222222
 41
2456499.776857766
 42
2456499.777978564
  1

 90
        0
  0
LAYOUT
  5
22
102
{ACAD_REACTORS
330
1A
102
}
330
1A
100
AcDbPlotSettings
  1

  2
none_device
  4
ANSI_A_(8.50_x_11.00_Inches)
  6

 40
6.349999904632567
 41
19.04999923706053
 42
6.350006103515625
 43
19.04998779296875
 44
215.8999938964842
 45
279.3999938964843
 46
0.0
 47
0.0
 48
0.0
 49
0.0
140
0.0
141
0.0
142
1.0
143
78.436453180766
 70
 11952
 72
     0
 73
     1
 74
     0
  7

 75
     0
147
0.0127491741332998
148
0.0
149
0.0
100
AcDbLayout
  1
Model
 70
     1
 71
     0
 10
0.0
 20
0.0
 11
12.0
 21
9.0
 12
0.0
 22
0.0
 32
0.0
 14
0.0
 24
0.0
 34
0.0
 15
0.0
 25
0.0
 35
0.0
146
0.0
 13
0.0
 23
0.0
 33
0.0
 16
1.0
 26
0.0
 36
0.0
 17
0.0
 27
1.0
 37
0.0
 76
     0
330
1F
  0
LAYOUT
  5
51
102
{ACAD_REACTORS
330
1A
102
}
330
1A
100
AcDbPlotSettings
  1

  2
None
  4

  6

 40
0.0
 41
0.0
 42
0.0
 43
0.0
 44
0.0
 45
0.0
 46
0.0
 47
0.0
 48
0.0
 49
0.0
140
0.0
141
0.0
142
1.0
143
1.0
 70
   688
 72
     0
 73
     0
 74
     5
  7

 75
    16
147
1.0
148
0.0
149
0.0
100
AcDbLayout
  1
ﾚｲｱｳﾄ1
 70
     1
 71
     1
 10
0.0
 20
0.0
 11
12.0
 21
9.0
 12
0.0
 22
0.0
 32
0.0
 14
0.0
 24
0.0
 34
0.0
 15
0.0
 25
0.0
 35
0.0
146
0.0
 13
0.0
 23
0.0
 33
0.0
 16
1.0
 26
0.0
 36
0.0
 17
0.0
 27
1.0
 37
0.0
 76
     0
330
50
  0
LAYOUT
  5
56
102
{ACAD_REACTORS
330
1A
102
}
330
1A
100
AcDbPlotSettings
  1

  2
None
  4

  6

 40
0.0
 41
0.0
 42
0.0
 43
0.0
 44
0.0
 45
0.0
 46
0.0
 47
0.0
 48
0.0
 49
0.0
140
0.0
141
0.0
142
1.0
143
1.0
 70
   688
 72
     0
 73
     0
 74
     5
  7

 75
    16
147
1.0
148
0.0
149
0.0
100
AcDbLayout
  1
ﾚｲｱｳﾄ2
 70
     1
 71
     2
 10
0.0
 20
0.0
 11
12.0
 21
9.0
 12
0.0
 22
0.0
 32
0.0
 14
0.0
 24
0.0
 34
0.0
 15
0.0
 25
0.0
 35
0.0
146
0.0
 13
0.0
 23
0.0
 33
0.0
 16
1.0
 26
0.0
 36
0.0
 17
0.0
 27
1.0
 37
0.0
 76
     0
330
55
  0
MLINESTYLE
  5
18
102
{ACAD_REACTORS
330
17
102
}
330
17
100
AcDbMlineStyle
  2
STANDARD
 70
     0
  3

 62
   256
 51
90.0
 52
90.0
 71
     2
 49
0.5
 62
   256
  6
BYLAYER
 49
-0.5
 62
   256
  6
BYLAYER
  0
ACDBPLACEHOLDER
  5
F
102
{ACAD_REACTORS
330
E
102
}
330
E
  0
ENDSEC
  0
EOF
