  0
SECTION
  2
HEADER
  9
$ACADVER
  1
AC1015
  9
$ACADMAINTVER
 70
    10
  9
$DWGCODEPAGE
  3
ANSI_932
  9
$INSBASE
 10
0.0
 20
0.0
 30
0.0
  9
$EXTMIN
 10
469.0953624971079
 20
287.178808023661
 30
0.0
  9
$EXTMAX
 10
639.5509978971078
 20
387.6339854236612
 30
0.0
  9
$LIMMIN
 10
0.0
 20
0.0
  9
$LIMMAX
 10
420.0
 20
297.0
  9
$ORTHOMODE
 70
     0
  9
$REGENMODE
 70
     1
  9
$FILLMODE
 70
     1
  9
$QTEXTMODE
 70
     0
  9
$MIRRTEXT
 70
     1
  9
$LTSCALE
 40
1.0
  9
$ATTMODE
 70
     1
  9
$TEXTSIZE
 40
2.5
  9
$TRACEWID
 40
1.0
  9
$TEXTSTYLE
  7
Standard
  9
$CLAYER
  8
0
  9
$CELTYPE
  6
ByLayer
  9
$CECOLOR
 62
   256
  9
$CELTSCALE
 40
1.0
  9
$DISPSILH
 70
     0
  9
$DIMSCALE
 40
1.0
  9
$DIMASZ
 40
2.5
  9
$DIMEXO
 40
0.625
  9
$DIMDLI
 40
3.75
  9
$DIMRND
 40
0.0
  9
$DIMDLE
 40
0.0
  9
$DIMEXE
 40
1.25
  9
$DIMTP
 40
0.0
  9
$DIMTM
 40
0.0
  9
$DIMTXT
 40
2.5
  9
$DIMCEN
 40
2.5
  9
$DIMTSZ
 40
0.0
  9
$DIMTOL
 70
     0
  9
$DIMLIM
 70
     0
  9
$DIMTIH
 70
     0
  9
$DIMTOH
 70
     0
  9
$DIMSE1
 70
     0
  9
$DIMSE2
 70
     0
  9
$DIMTAD
 70
     1
  9
$DIMZIN
 70
     8
  9
$DIMBLK
  1

  9
$DIMASO
 70
     1
  9
$DIMSHO
 70
     1
  9
$DIMPOST
  1

  9
$DIMAPOST
  1

  9
$DIMALT
 70
     0
  9
$DIMALTD
 70
     3
  9
$DIMALTF
 40
0.03937007874016
  9
$DIMLFAC
 40
1.0
  9
$DIMTOFL
 70
     1
  9
$DIMTVP
 40
0.0
  9
$DIMTIX
 70
     0
  9
$DIMSOXD
 70
     0
  9
$DIMSAH
 70
     0
  9
$DIMBLK1
  1

  9
$DIMBLK2
  1

  9
$DIMSTYLE
  2
ISO-25
  9
$DIMCLRD
 70
     0
  9
$DIMCLRE
 70
     0
  9
$DIMCLRT
 70
     0
  9
$DIMTFAC
 40
1.0
  9
$DIMGAP
 40
0.625
  9
$DIMJUST
 70
     0
  9
$DIMSD1
 70
     0
  9
$DIMSD2
 70
     0
  9
$DIMTOLJ
 70
     0
  9
$DIMTZIN
 70
     8
  9
$DIMALTZ
 70
     0
  9
$DIMALTTZ
 70
     0
  9
$DIMUPT
 70
     0
  9
$DIMDEC
 70
     2
  9
$DIMTDEC
 70
     2
  9
$DIMALTU
 70
     2
  9
$DIMALTTD
 70
     3
  9
$DIMTXSTY
  7
Standard
  9
$DIMAUNIT
 70
     0
  9
$DIMADEC
 70
     0
  9
$DIMALTRND
 40
0.0
  9
$DIMAZIN
 70
     0
  9
$DIMDSEP
 70
    44
  9
$DIMATFIT
 70
     3
  9
$DIMFRAC
 70
     0
  9
$DIMLDRBLK
  1

  9
$DIMLUNIT
 70
     2
  9
$DIMLWD
 70
    -2
  9
$DIMLWE
 70
    -2
  9
$DIMTMOVE
 70
     0
  9
$LUNITS
 70
     2
  9
$LUPREC
 70
     4
  9
$SKETCHINC
 40
1.0
  9
$FILLETRAD
 40
10.0
  9
$AUNITS
 70
     0
  9
$AUPREC
 70
     0
  9
$MENU
  1
.
  9
$ELEVATION
 40
0.0
  9
$PELEVATION
 40
0.0
  9
$THICKNESS
 40
0.0
  9
$LIMCHECK
 70
     0
  9
$CHAMFERA
 40
10.0
  9
$CHAMFERB
 40
10.0
  9
$CHAMFERC
 40
20.0
  9
$CHAMFERD
 40
0.0
  9
$SKPOLY
 70
     0
  9
$TDCREATE
 40
2456499.778171655
  9
$TDUCREATE
 40
2456499.403171655
  9
$TDUPDATE
 40
2456500.620862789
  9
$TDUUPDATE
 40
2456500.245862789
  9
$TDINDWG
 40
0.0009398148
  9
$TDUSRTIMER
 40
0.0009398148
  9
$USRTIMER
 70
     1
  9
$ANGBASE
 50
0.0
  9
$ANGDIR
 70
     0
  9
$PDMODE
 70
     0
  9
$PDSIZE
 40
0.0
  9
$PLINEWID
 40
0.0
  9
$SPLFRAME
 70
     0
  9
$SPLINETYPE
 70
     6
  9
$SPLINESEGS
 70
     8
  9
$HANDSEED
  5
3B9
  9
$SURFTAB1
 70
     6
  9
$SURFTAB2
 70
     6
  9
$SURFTYPE
 70
     6
  9
$SURFU
 70
     6
  9
$SURFV
 70
     6
  9
$UCSBASE
  2

  9
$UCSNAME
  2

  9
$UCSORG
 10
0.0
 20
0.0
 30
0.0
  9
$UCSXDIR
 10
1.0
 20
0.0
 30
0.0
  9
$UCSYDIR
 10
0.0
 20
1.0
 30
0.0
  9
$UCSORTHOREF
  2

  9
$UCSORTHOVIEW
 70
     0
  9
$UCSORGTOP
 10
0.0
 20
0.0
 30
0.0
  9
$UCSORGBOTTOM
 10
0.0
 20
0.0
 30
0.0
  9
$UCSORGLEFT
 10
0.0
 20
0.0
 30
0.0
  9
$UCSORGRIGHT
 10
0.0
 20
0.0
 30
0.0
  9
$UCSORGFRONT
 10
0.0
 20
0.0
 30
0.0
  9
$UCSORGBACK
 10
0.0
 20
0.0
 30
0.0
  9
$PUCSBASE
  2

  9
$PUCSNAME
  2

  9
$PUCSORG
 10
0.0
 20
0.0
 30
0.0
  9
$PUCSXDIR
 10
1.0
 20
0.0
 30
0.0
  9
$PUCSYDIR
 10
0.0
 20
1.0
 30
0.0
  9
$PUCSORTHOREF
  2

  9
$PUCSORTHOVIEW
 70
     0
  9
$PUCSORGTOP
 10
0.0
 20
0.0
 30
0.0
  9
$PUCSORGBOTTOM
 10
0.0
 20
0.0
 30
0.0
  9
$PUCSORGLEFT
 10
0.0
 20
0.0
 30
0.0
  9
$PUCSORGRIGHT
 10
0.0
 20
0.0
 30
0.0
  9
$PUCSORGFRONT
 10
0.0
 20
0.0
 30
0.0
  9
$PUCSORGBACK
 10
0.0
 20
0.0
 30
0.0
  9
$USERI1
 70
     0
  9
$USERI2
 70
     0
  9
$USERI3
 70
     0
  9
$USERI4
 70
     0
  9
$USERI5
 70
     0
  9
$USERR1
 40
0.0
  9
$USERR2
 40
0.0
  9
$USERR3
 40
0.0
  9
$USERR4
 40
0.0
  9
$USERR5
 40
0.0
  9
$WORLDVIEW
 70
     1
  9
$SHADEDGE
 70
     3
  9
$SHADEDIF
 70
    70
  9
$TILEMODE
 70
     1
  9
$MAXACTVP
 70
    64
  9
$PINSBASE
 10
0.0
 20
0.0
 30
0.0
  9
$PLIMCHECK
 70
     0
  9
$PEXTMIN
 10
0.0
 20
0.0
 30
0.0
  9
$PEXTMAX
 10
0.0
 20
0.0
 30
0.0
  9
$PLIMMIN
 10
0.0
 20
0.0
  9
$PLIMMAX
 10
12.0
 20
9.0
  9
$UNITMODE
 70
     0
  9
$VISRETAIN
 70
     1
  9
$PLINEGEN
 70
     0
  9
$PSLTSCALE
 70
     1
  9
$TREEDEPTH
 70
  3020
  9
$CMLSTYLE
  2
Standard
  9
$CMLJUST
 70
     0
  9
$CMLSCALE
 40
20.0
  9
$PROXYGRAPHICS
 70
     1
  9
$MEASUREMENT
 70
     1
  9
$CELWEIGHT
370
    -1
  9
$ENDCAPS
280
     0
  9
$JOINSTYLE
280
     0
  9
$LWDISPLAY
290
     0
  9
$INSUNITS
 70
     4
  9
$HYPERLINKBASE
  1

  9
$STYLESHEET
  1

  9
$XEDIT
290
     1
  9
$CEPSNTYPE
380
     0
  9
$PSTYLEMODE
290
     1
  9
$FINGERPRINTGUID
  2
{FDEAD578-A652-11D2-9A35-0060089B3A3F}
  9
$VERSIONGUID
  2
{F65DDEAC-200D-4BA2-BD8B-72DA7EC37162}
  9
$EXTNAMES
290
     1
  9
$PSVPSCALE
 40
0.0
  9
$OLESTARTUP
290
     0
  0
ENDSEC
  0
SECTION
  2
CLASSES
  0
CLASS
  1
ACDBDICTIONARYWDFLT
  2
AcDbDictionaryWithDefault
  3
AutoCAD 2000
 90
        0
280
     0
281
     0
  0
CLASS
  1
ACDBPLACEHOLDER
  2
AcDbPlaceHolder
  3
AutoCAD 2000
 90
        0
280
     0
281
     0
  0
CLASS
  1
LAYOUT
  2
AcDbLayout
  3
AutoCAD 2000
 90
        0
280
     0
281
     0
  0
ENDSEC
  0
SECTION
  2
TABLES
  0
TABLE
  2
VPORT
  5
8
330
0
100
AcDbSymbolTable
 70
     2
  0
VPORT
  5
3B8
330
8
100
AcDbSymbolTableRecord
100
AcDbViewportTableRecord
  2
*Active
 70
     0
 10
0.0
 20
0.0
 11
1.0
 21
1.0
 12
553.6888510400931
 22
336.0396104293672
 13
0.0
 23
0.0
 14
10.0
 24
10.0
 15
10.0
 25
10.0
 16
0.0
 26
0.0
 36
1.0
 17
0.0
 27
0.0
 37
0.0
 40
139.9835290685309
 41
1.781954887218045
 42
50.0
 43
0.0
 44
0.0
 50
0.0
 51
0.0
 71
     0
 72
   100
 73
     1
 74
     3
 75
     0
 76
     0
 77
     0
 78
     0
281
     0
 65
     1
110
0.0
120
0.0
130
0.0
111
1.0
121
0.0
131
0.0
112
0.0
122
1.0
132
0.0
 79
     0
146
0.0
  0
ENDTAB
  0
TABLE
  2
LTYPE
  5
5
330
0
100
AcDbSymbolTable
 70
     2
  0
LTYPE
  5
14
330
5
100
AcDbSymbolTableRecord
100
AcDbLinetypeTableRecord
  2
ByBlock
 70
     0
  3

 72
    65
 73
     0
 40
0.0
  0
LTYPE
  5
15
330
5
100
AcDbSymbolTableRecord
100
AcDbLinetypeTableRecord
  2
ByLayer
 70
     0
  3

 72
    65
 73
     0
 40
0.0
  0
LTYPE
  5
16
330
5
100
AcDbSymbolTableRecord
100
AcDbLinetypeTableRecord
  2
Continuous
 70
     0
  3
Solid line
 72
    65
 73
     0
 40
0.0
  0
LTYPE
  5
61
330
5
100
AcDbSymbolTableRecord
100
AcDbLinetypeTableRecord
  2
DASHED
 70
     0
  3
DASHED
 72
    65
 73
     2
 40
0.75
 49
0.5
 74
     0
 49
-0.25
 74
     0
  0
ENDTAB
  0
TABLE
  2
LAYER
  5
2
330
0
100
AcDbSymbolTable
 70
     1
  0
LAYER
  5
10
330
2
100
AcDbSymbolTableRecord
100
AcDbLayerTableRecord
  2
0
 70
     0
 62
     7
  6
Continuous
370
    -3
390
F
  0
ENDTAB
  0
TABLE
  2
STYLE
  5
3
330
0
100
AcDbSymbolTable
 70
     1
  0
STYLE
  5
11
330
3
100
AcDbSymbolTableRecord
100
AcDbTextStyleTableRecord
  2
Standard
 70
     0
 40
0.0
 41
1.0
 50
0.0
 71
     0
 42
2.5
  3
txt
  4

  0
ENDTAB
  0
TABLE
  2
VIEW
  5
6
330
0
100
AcDbSymbolTable
 70
     0
  0
ENDTAB
  0
TABLE
  2
UCS
  5
7
330
0
100
AcDbSymbolTable
 70
     0
  0
ENDTAB
  0
TABLE
  2
APPID
  5
9
330
0
100
AcDbSymbolTable
 70
     1
  0
APPID
  5
12
330
9
100
AcDbSymbolTableRecord
100
AcDbRegAppTableRecord
  2
ACAD
 70
     0
  0
ENDTAB
  0
TABLE
  2
DIMSTYLE
  5
A
330
0
100
AcDbSymbolTable
 70
     1
100
AcDbDimStyleTable
 71
     1
340
27
  0
DIMSTYLE
105
27
330
A
100
AcDbSymbolTableRecord
100
AcDbDimStyleTableRecord
  2
ISO-25
 70
     0
 41
2.5
 42
0.625
 43
3.75
 44
1.25
 73
     0
 74
     0
 77
     1
 78
     8
140
2.5
141
2.5
143
0.03937007874016
147
0.625
171
     3
172
     1
271
     2
272
     2
274
     3
278
    44
283
     0
284
     8
340
11
  0
ENDTAB
  0
TABLE
  2
BLOCK_RECORD
  5
1
330
0
100
AcDbSymbolTable
 70
     1
  0
BLOCK_RECORD
  5
1F
330
1
100
AcDbSymbolTableRecord
100
AcDbBlockTableRecord
  2
*Model_Space
340
22
  0
BLOCK_RECORD
  5
50
330
1
100
AcDbSymbolTableRecord
100
AcDbBlockTableRecord
  2
*Paper_Space
340
51
  0
BLOCK_RECORD
  5
55
330
1
100
AcDbSymbolTableRecord
100
AcDbBlockTableRecord
  2
*Paper_Space0
340
56
  0
ENDTAB
  0
ENDSEC
  0
SECTION
  2
BLOCKS
  0
BLOCK
  5
20
330
1F
100
AcDbEntity
  8
0
100
AcDbBlockBegin
  2
*Model_Space
 70
     0
 10
0.0
 20
0.0
 30
0.0
  3
*Model_Space
  1

  0
ENDBLK
  5
21
330
1F
100
AcDbEntity
  8
0
100
AcDbBlockEnd
  0
BLOCK
  5
52
330
50
100
AcDbEntity
 67
     1
  8
0
100
AcDbBlockBegin
  2
*Paper_Space
 70
     0
 10
0.0
 20
0.0
 30
0.0
  3
*Paper_Space
  1

  0
ENDBLK
  5
53
330
50
100
AcDbEntity
 67
     1
  8
0
100
AcDbBlockEnd
  0
BLOCK
  5
57
330
55
100
AcDbEntity
  8
0
100
AcDbBlockBegin
  2
*Paper_Space0
 70
     0
 10
0.0
 20
0.0
 30
0.0
  3
*Paper_Space0
  1

  0
ENDBLK
  5
58
330
55
100
AcDbEntity
  8
0
100
AcDbBlockEnd
  0
ENDSEC
  0
SECTION
  2
ENTITIES
  0
LINE
  5
20C
330
1F
100
AcDbEntity
  8
0
  6
DASHED
 62
     4
100
AcDbLine
 10
568.5509978971074
 20
297.1783500236608
 30
0.0
 11
631.5509978971078
 21
297.1783500236608
 31
0.0
  0
LINE
  5
20D
330
1F
100
AcDbEntity
  8
0
  6
DASHED
 62
     4
100
AcDbLine
 10
635.5509978971078
 20
377.1783500236612
 30
0.0
 11
568.5509978971074
 21
377.1783500236612
 31
0.0
  0
LINE
  5
20E
330
1F
100
AcDbEntity
  8
0
100
AcDbLine
 10
478.6899025341639
 20
302.3158476607172
 30
0.0
 11
478.9927537108213
 21
302.3158476607172
 31
0.0
  0
LINE
  5
20F
330
1F
100
AcDbEntity
  8
0
100
AcDbLine
 10
478.6899025341639
 20
303.5408476607173
 30
0.0
 11
478.9927555801088
 21
303.5408476607173
 31
0.0
  0
CIRCLE
  5
210
330
1F
100
AcDbEntity
  8
0
100
AcDbCircle
 10
475.8009949621581
 20
302.9283540887115
 30
0.0
 40
3.249997572006547
  0
LINE
  5
211
330
1F
100
AcDbEntity
  8
0
  6
DASHED
 62
     4
 48
2.0
100
AcDbLine
 10
472.2134945341639
 20
306.953347660717
 30
0.0
 11
479.3884945341639
 21
306.953347660717
 31
0.0
  0
LINE
  5
212
330
1F
100
AcDbEntity
  8
0
  6
DASHED
 62
     4
 48
2.0
100
AcDbLine
 10
479.3884945341639
 20
298.9033476607172
 30
0.0
 11
472.2134945341639
 21
298.9033476607172
 31
0.0
  0
LINE
  5
213
330
1F
100
AcDbEntity
  8
0
  6
Continuous
 62
     7
100
AcDbLine
 10
472.4515498971078
 20
318.6783500236612
 30
0.0
 11
496.6515508971077
 21
318.6783500236612
 31
0.0
  0
LINE
  5
214
330
1F
100
AcDbEntity
  8
0
  6
Continuous
 62
     7
100
AcDbLine
 10
496.6509968971078
 20
320.1783500236613
 30
0.0
 11
472.4509988971078
 21
320.1783500236613
 31
0.0
  0
LINE
  5
215
330
1F
100
AcDbEntity
  8
0
  6
Continuous
 62
     7
100
AcDbLine
 10
471.550997897108
 20
297.1783500236608
 30
0.0
 11
497.5509978971078
 21
297.1783500236608
 31
0.0
  0
LINE
  5
216
330
1F
100
AcDbEntity
  8
0
  6
Continuous
 62
     7
100
AcDbLine
 10
493.5509998971078
 20
349.1783450236609
 30
0.0
 11
475.550999897108
 21
349.1783450236609
 31
0.0
  0
LINE
  5
217
330
1F
100
AcDbEntity
  8
0
  6
Continuous
 62
     7
100
AcDbLine
 10
475.550999897108
 20
346.1783450236608
 30
0.0
 11
493.5509998971078
 21
346.1783450236608
 31
0.0
  0
LINE
  5
218
330
1F
100
AcDbEntity
  8
0
  6
Continuous
 62
     7
100
AcDbLine
 10
477.0509998971077
 20
327.6783550236611
 30
0.0
 11
492.0509998971078
 21
327.6783550236611
 31
0.0
  0
LINE
  5
219
330
1F
100
AcDbEntity
  8
0
  6
Continuous
 62
     7
100
AcDbLine
 10
477.0509998971077
 20
325.6783550236612
 30
0.0
 11
492.0509998971078
 21
325.6783550236612
 31
0.0
  0
LINE
  5
21A
330
1F
100
AcDbEntity
  8
0
  6
Continuous
 62
     7
100
AcDbLine
 10
493.5509998971078
 20
325.1783550236611
 30
0.0
 11
475.550999897108
 21
325.1783550236611
 31
0.0
  0
LINE
  5
21B
330
1F
100
AcDbEntity
  8
0
  6
Continuous
 62
     7
100
AcDbLine
 10
475.550999897108
 20
328.1783550236611
 30
0.0
 11
493.5509998971078
 21
328.1783550236611
 31
0.0
  0
ARC
  5
21C
330
1F
100
AcDbEntity
  8
0
  6
Continuous
 62
     7
100
AcDbCircle
 10
476.5233270840688
 20
370.6974928773687
 30
0.0
 40
3.750000480667326
100
AcDbArc
 50
179.9999926559455
 51
90.00000734405444
  0
LINE
  5
21D
330
1F
100
AcDbEntity
  8
0
  6
Continuous
 62
     7
100
AcDbLine
 10
496.6504458971078
 20
355.6783510236612
 30
0.0
 11
472.4504448971078
 21
355.6783510236612
 31
0.0
  0
LINE
  5
21E
330
1F
100
AcDbEntity
  8
0
  6
Continuous
 62
     7
100
AcDbLine
 10
472.4509988971078
 20
354.1783500236612
 30
0.0
 11
496.6509968971078
 21
354.1783500236612
 31
0.0
  0
LINE
  5
21F
330
1F
100
AcDbEntity
  8
0
  6
Continuous
 62
     7
100
AcDbLine
 10
497.5509978971078
 20
377.1783500236612
 30
0.0
 11
471.550997897108
 21
377.1783500236612
 31
0.0
  0
LINE
  5
220
330
1F
100
AcDbEntity
  8
0
  6
DASHED
 62
     4
 48
2.0
100
AcDbLine
 10
477.1009988971076
 20
371.2283470236611
 30
0.0
 11
479.9259988971078
 21
371.2283470236611
 31
0.0
  0
LINE
  5
221
330
1F
100
AcDbEntity
  8
0
  6
DASHED
 62
     4
 48
2.0
100
AcDbLine
 10
477.1009988971076
 20
370.1283470236611
 30
0.0
 11
479.9259988971078
 21
370.1283470236611
 31
0.0
  0
ARC
  5
222
330
1F
100
AcDbEntity
  8
0
  6
DASHED
 62
     4
 48
2.0
100
AcDbCircle
 10
476.5509984645073
 20
370.6783465910604
 30
0.0
 40
3.375000432600613
100
AcDbArc
 50
89.99999265594556
 51
0.0000073440544439
  0
ARC
  5
223
330
1F
100
AcDbEntity
  8
0
  6
DASHED
 62
     4
 48
2.0
100
AcDbCircle
 10
476.5510014184863
 20
370.6783495450399
 30
0.0
 40
3.374997478622193
100
AcDbArc
 50
359.9999571957112
 51
90.00004280428553
  0
LINE
  5
224
330
1F
100
AcDbEntity
  8
0
  6
DASHED
 62
     4
 48
2.0
100
AcDbLine
 10
480.6509988971078
 20
366.0783470236609
 30
0.0
 11
472.4509988971078
 21
366.0783470236609
 31
0.0
  0
LINE
  5
225
330
1F
100
AcDbEntity
  8
0
  6
DASHED
 62
     4
 48
2.0
100
AcDbLine
 10
472.4509988971078
 20
375.2783470236611
 30
0.0
 11
480.6509988971078
 21
375.2783470236611
 31
0.0
  0
LINE
  5
226
330
1F
100
AcDbEntity
  8
0
  6
Continuous
 62
     7
100
AcDbLine
 10
471.550997897108
 20
297.1783500236608
 30
0.0
 11
497.5509978971078
 21
297.1783500236608
 31
0.0
  0
LINE
  5
227
330
1F
100
AcDbEntity
  8
0
  6
Continuous
 62
     7
100
AcDbLine
 10
497.4509978971078
 20
320.1783500236613
 30
0.0
 11
471.6509978971078
 21
320.1783500236613
 31
0.0
  0
LINE
  5
228
330
1F
100
AcDbEntity
  8
0
  6
Continuous
 62
     7
100
AcDbLine
 10
471.6509978971078
 20
354.1783500236612
 30
0.0
 11
497.4509978971078
 21
354.1783500236612
 31
0.0
  0
LINE
  5
229
330
1F
100
AcDbEntity
  8
0
  6
DASHED
 62
     4
100
AcDbLine
 10
497.3509978971078
 20
387.178350023661
 30
0.0
 11
471.7509978971078
 21
387.178350023661
 31
0.0
  0
LINE
  5
22A
330
1F
100
AcDbEntity
  8
0
  6
DASHED
 62
     4
100
AcDbLine
 10
478.5509978971078
 20
289.178808023661
 30
0.0
 11
480.550997897108
 21
287.178808023661
 31
0.0
  0
ARC
  5
22B
330
1F
100
AcDbEntity
  8
0
  6
DASHED
 62
     4
100
AcDbCircle
 10
478.800997644183
 20
296.1788072765859
 30
0.0
 40
0.9999992529251022
100
AcDbArc
 50
269.9999571957144
 51
0.0000428042888088
  0
LINE
  5
22C
330
1F
100
AcDbEntity
  8
0
  6
DASHED
 62
     4
100
AcDbLine
 10
478.8009968971078
 20
295.178808023661
 30
0.0
 11
481.8009968971078
 21
295.178808023661
 31
0.0
  0
LINE
  5
22D
330
1F
100
AcDbEntity
  8
0
  6
Continuous
 62
     7
100
AcDbLine
 10
470.550997897108
 20
376.9104010236609
 30
0.0
 11
470.550997897108
 21
349.1783500236607
 31
0.0
  0
LINE
  5
22E
330
1F
100
AcDbEntity
  8
0
  6
Continuous
 62
     7
100
AcDbLine
 10
469.550997897108
 20
375.1783500236612
 30
0.0
 11
469.550997897108
 21
349.1783500236607
 31
0.0
  0
LINE
  5
22F
330
1F
100
AcDbEntity
  8
0
  6
DASHED
 62
     4
100
AcDbLine
 10
469.550997897108
 20
384.9783500236611
 30
0.0
 11
469.550997897108
 21
294.3783500236611
 31
0.0
  0
LINE
  5
230
330
1F
100
AcDbEntity
  8
0
  6
Continuous
 62
     7
100
AcDbLine
 10
471.4509978971078
 20
325.1783500236612
 30
0.0
 11
471.4509978971078
 21
315.6737090236613
 31
0.0
  0
LINE
  5
231
330
1F
100
AcDbEntity
  8
0
  6
Continuous
 62
     7
100
AcDbLine
 10
472.4526718971078
 20
315.6310190236611
 30
0.0
 11
472.4509988971078
 21
320.1738930236613
 31
0.0
  0
LINE
  5
232
330
1F
100
AcDbEntity
  8
0
  6
Continuous
 62
     7
100
AcDbLine
 10
470.550997897108
 20
325.1783500236612
 30
0.0
 11
470.550997897108
 21
297.4462990236612
 31
0.0
  0
LINE
  5
233
330
1F
100
AcDbEntity
  8
0
  6
Continuous
 62
     7
100
AcDbLine
 10
469.550997897108
 20
325.1783500236612
 30
0.0
 11
469.550997897108
 21
299.1783500236608
 31
0.0
  0
LINE
  5
234
330
1F
100
AcDbEntity
  8
0
  6
Continuous
 62
     7
100
AcDbLine
 10
469.550997897108
 20
325.1783500236612
 30
0.0
 11
469.550997897108
 21
299.1783500236608
 31
0.0
  0
LINE
  5
235
330
1F
100
AcDbEntity
  8
0
  6
DASHED
 62
     4
100
AcDbLine
 10
478.5509978971078
 20
294.3783500236611
 30
0.0
 11
478.5509978971078
 21
297.1783500236608
 31
0.0
  0
ARC
  5
236
330
1F
100
AcDbEntity
  8
0
  6
DASHED
 62
     4
100
AcDbCircle
 10
471.7509962535425
 20
294.3783483800958
 30
0.0
 40
2.199998356435162
100
AcDbArc
 50
179.9999571957112
 51
270.0000428042855
  0
LINE
  5
237
330
1F
100
AcDbEntity
  8
0
  6
DASHED
 62
     4
100
AcDbLine
 10
471.7509978971078
 20
292.1783500236613
 30
0.0
 11
476.3509978971078
 21
292.1783500236613
 31
0.0
  0
LINE
  5
238
330
1F
100
AcDbEntity
  8
0
  6
DASHED
 62
     4
100
AcDbLine
 10
472.6009978971078
 20
292.1788080236609
 30
0.0
 11
478.5509978971078
 21
292.1788080236609
 31
0.0
  0
LINE
  5
239
330
1F
100
AcDbEntity
  8
0
  6
DASHED
 62
     4
100
AcDbLine
 10
476.3509978971078
 20
292.1788080236609
 30
0.0
 11
471.7509978971078
 21
292.1788080236609
 31
0.0
  0
LINE
  5
23A
330
1F
100
AcDbEntity
  8
0
  6
DASHED
 62
     4
100
AcDbLine
 10
478.5509978971078
 20
294.3783500236611
 30
0.0
 11
476.3509978971078
 21
292.1783500236613
 31
0.0
  0
LINE
  5
23B
330
1F
100
AcDbEntity
  8
0
  6
DASHED
 62
     4
100
AcDbLine
 10
478.5509978971078
 20
289.178808023661
 30
0.0
 11
478.5509978971078
 21
292.1788080236609
 31
0.0
  0
ARC
  5
23C
330
1F
100
AcDbEntity
  8
0
  6
Continuous
 62
     7
100
AcDbCircle
 10
471.5509964029575
 20
299.1783485295107
 30
0.0
 40
1.999998505850204
100
AcDbArc
 50
179.9999571957112
 51
270.0000428042855
  0
ARC
  5
23D
330
1F
100
AcDbEntity
  8
0
  6
Continuous
 62
     7
100
AcDbCircle
 10
471.5509964029575
 20
299.1783485295107
 30
0.0
 40
1.999998505850204
100
AcDbArc
 50
179.9999571957112
 51
270.0000428042855
  0
LINE
  5
23E
330
1F
100
AcDbEntity
  8
0
  6
DASHED
 62
     4
 48
2.0
100
AcDbLine
 10
471.7759945341638
 20
299.3408476607172
 30
0.0
 11
471.7759945341638
 21
306.5158476607172
 31
0.0
  0
CIRCLE
  5
23F
330
1F
100
AcDbEntity
  8
0
100
AcDbCircle
 10
475.8009967403703
 20
302.9283498669236
 30
0.0
 40
2.953122793794419
  0
LINE
  5
240
330
1F
100
AcDbEntity
  8
0
  6
Continuous
 62
     7
 48
2.0
100
AcDbLine
 10
472.847869534164
 20
302.4470976607174
 30
0.0
 11
475.319744534164
 21
302.4470976607174
 31
0.0
  0
LINE
  5
241
330
1F
100
AcDbEntity
  8
0
  6
Continuous
 62
     7
 48
2.0
100
AcDbLine
 10
472.847869534164
 20
303.4095976607172
 30
0.0
 11
475.319744534164
 21
303.4095976607172
 31
0.0
  0
LINE
  5
242
330
1F
100
AcDbEntity
  8
0
  6
DASHED
 62
     4
 48
2.0
100
AcDbLine
 10
472.6092305243498
 20
302.3158476607172
 30
0.0
 11
471.7759945341638
 21
302.3158476607172
 31
0.0
  0
LINE
  5
243
330
1F
100
AcDbEntity
  8
0
  6
DASHED
 62
     4
 48
2.0
100
AcDbLine
 10
471.7759945341638
 20
303.5408476607173
 30
0.0
 11
472.6092291490306
 21
303.5408476607173
 31
0.0
  0
ARC
  5
244
330
1F
100
AcDbEntity
  8
0
  6
DASHED
 62
     4
 48
2.0
100
AcDbCircle
 10
472.2134942073185
 20
299.3408473338721
 30
0.0
 40
0.4374996731547269
100
AcDbArc
 50
179.9999571957112
 51
270.0000428042855
  0
LINE
  5
245
330
1F
100
AcDbEntity
  8
0
  6
DASHED
 62
     4
 48
2.0
100
AcDbLine
 10
471.7759945341638
 20
302.3158476607172
 30
0.0
 11
471.7759945341638
 21
303.5408476607173
 31
0.0
  0
LINE
  5
246
330
1F
100
AcDbEntity
  8
0
100
AcDbLine
 10
472.6092305243498
 20
302.3158476607172
 30
0.0
 11
472.9120855341638
 21
302.3158476607172
 31
0.0
  0
LINE
  5
247
330
1F
100
AcDbEntity
  8
0
100
AcDbLine
 10
472.6092291490306
 20
303.5408476607173
 30
0.0
 11
472.9120855341638
 21
303.5408476607173
 31
0.0
  0
LINE
  5
248
330
1F
100
AcDbEntity
  8
0
  6
Continuous
 62
     7
 48
2.0
100
AcDbLine
 10
475.319744534164
 20
304.5908476607172
 30
0.0
 11
476.2822445341639
 21
304.5908476607172
 31
0.0
  0
LINE
  5
249
330
1F
100
AcDbEntity
  8
0
  6
Continuous
 62
     7
 48
2.0
100
AcDbLine
 10
475.319744534164
 20
301.2658476607171
 30
0.0
 11
476.2822445341639
 21
301.2658476607171
 31
0.0
  0
LINE
  5
24A
330
1F
100
AcDbEntity
  8
0
  6
DASHED
 62
     4
 48
2.0
100
AcDbLine
 10
476.4134945341639
 20
298.9033476607172
 30
0.0
 11
475.188494534164
 21
298.9033476607172
 31
0.0
  0
LINE
  5
24B
330
1F
100
AcDbEntity
  8
0
  6
Continuous
 62
     7
 48
2.0
100
AcDbLine
 10
475.319744534164
 20
301.2658476607171
 30
0.0
 11
475.319744534164
 21
302.4470976607174
 31
0.0
  0
LINE
  5
24C
330
1F
100
AcDbEntity
  8
0
  6
DASHED
 62
     4
 48
2.0
100
AcDbLine
 10
475.188494534164
 20
298.9033476607172
 30
0.0
 11
475.188494534164
 21
299.7365884995003
 31
0.0
  0
LINE
  5
24D
330
1F
100
AcDbEntity
  8
0
100
AcDbLine
 10
475.188494534164
 20
299.7365884995003
 30
0.0
 11
475.188494534164
 21
300.0394396607173
 31
0.0
  0
LINE
  5
24E
330
1F
100
AcDbEntity
  8
0
  6
Continuous
 62
     7
 48
2.0
100
AcDbLine
 10
476.2822445341639
 20
301.2658476607171
 30
0.0
 11
476.2822445341639
 21
302.4470976607174
 31
0.0
  0
LINE
  5
24F
330
1F
100
AcDbEntity
  8
0
  6
DASHED
 62
     4
 48
2.0
100
AcDbLine
 10
476.4134945341639
 20
299.7365894269843
 30
0.0
 11
476.4134945341639
 21
298.9033476607172
 31
0.0
  0
LINE
  5
250
330
1F
100
AcDbEntity
  8
0
100
AcDbLine
 10
476.4134945341639
 20
299.7365894269843
 30
0.0
 11
476.4134945341639
 21
300.0394396607173
 31
0.0
  0
LINE
  5
251
330
1F
100
AcDbEntity
  8
0
  6
Continuous
 62
     7
 48
2.0
100
AcDbLine
 10
475.319744534164
 20
303.4095976607172
 30
0.0
 11
475.319744534164
 21
304.5908476607172
 31
0.0
  0
LINE
  5
252
330
1F
100
AcDbEntity
  8
0
  6
Continuous
 62
     7
 48
2.0
100
AcDbLine
 10
476.2822445341639
 20
303.4095976607172
 30
0.0
 11
476.2822445341639
 21
304.5908476607172
 31
0.0
  0
LINE
  5
253
330
1F
100
AcDbEntity
  8
0
  6
Continuous
 62
     7
 48
2.0
100
AcDbLine
 10
476.2822445341639
 20
302.4470976607174
 30
0.0
 11
478.7541195341638
 21
302.4470976607174
 31
0.0
  0
LINE
  5
254
330
1F
100
AcDbEntity
  8
0
  6
Continuous
 62
     7
 48
2.0
100
AcDbLine
 10
476.2822445341639
 20
303.4095976607172
 30
0.0
 11
478.7541195341638
 21
303.4095976607172
 31
0.0
  0
LINE
  5
255
330
1F
100
AcDbEntity
  8
0
  6
DASHED
 62
     4
100
AcDbLine
 10
478.8009968971078
 20
295.178808023661
 30
0.0
 11
478.5509978971078
 21
295.178808023661
 31
0.0
  0
LINE
  5
256
330
1F
100
AcDbEntity
  8
0
  6
DASHED
 62
     4
100
AcDbLine
 10
478.5509978971078
 20
295.178808023661
 30
0.0
 11
478.5509978971078
 21
297.1788080236611
 31
0.0
  0
ARC
  5
257
330
1F
100
AcDbEntity
  8
0
  6
DASHED
 62
     4
 48
2.0
100
AcDbCircle
 10
472.2134942073185
 20
306.5158479875626
 30
0.0
 40
0.4374996731547269
100
AcDbArc
 50
89.99995719571119
 51
180.0000428042855
  0
ARC
  5
258
330
1F
100
AcDbEntity
  8
0
  6
Continuous
 62
     7
100
AcDbCircle
 10
471.9509982136544
 20
315.673709306468
 30
0.0
 40
0.500000316546613
100
AcDbArc
 50
180.0000324072764
 51
270.0210485604484
  0
ARC
  5
259
330
1F
100
AcDbEntity
  8
0
  6
Continuous
 62
     7
100
AcDbCircle
 10
471.9544977707837
 20
315.6737101502609
 30
0.0
 40
0.5000001605023654
100
AcDbArc
 50
270.0210993162504
 51
0.0211849248273142
  0
LINE
  5
25A
330
1F
100
AcDbEntity
  8
0
  6
DASHED
 62
     4
 48
2.0
100
AcDbLine
 10
475.188494534164
 20
306.953347660717
 30
0.0
 11
476.4134945341639
 21
306.953347660717
 31
0.0
  0
LINE
  5
25B
330
1F
100
AcDbEntity
  8
0
  6
DASHED
 62
     4
 48
2.0
100
AcDbLine
 10
475.188494534164
 20
306.1201139887772
 30
0.0
 11
475.188494534164
 21
306.953347660717
 31
0.0
  0
LINE
  5
25C
330
1F
100
AcDbEntity
  8
0
100
AcDbLine
 10
475.188494534164
 20
306.1201139887772
 30
0.0
 11
475.188494534164
 21
305.8172566607174
 31
0.0
  0
LINE
  5
25D
330
1F
100
AcDbEntity
  8
0
  6
DASHED
 62
     4
 48
2.0
100
AcDbLine
 10
476.4134945341639
 20
306.953347660717
 30
0.0
 11
476.4134945341639
 21
306.1201135552662
 31
0.0
  0
LINE
  5
25E
330
1F
100
AcDbEntity
  8
0
100
AcDbLine
 10
476.4134945341639
 20
306.1201135552662
 30
0.0
 11
476.4134945341639
 21
305.8172566607174
 31
0.0
  0
LINE
  5
25F
330
1F
100
AcDbEntity
  8
0
  6
Continuous
 62
     7
100
AcDbLine
 10
470.550997897108
 20
327.1783500236608
 30
0.0
 11
470.550997897108
 21
347.1783500236609
 31
0.0
  0
LINE
  5
260
330
1F
100
AcDbEntity
  8
0
  6
Continuous
 62
     7
100
AcDbLine
 10
469.550997897108
 20
325.2283500236612
 30
0.0
 11
469.550997897108
 21
349.1283500236609
 31
0.0
  0
LINE
  5
261
330
1F
100
AcDbEntity
  8
0
  6
Continuous
 62
     7
100
AcDbLine
 10
471.4509978971078
 20
325.1783500236612
 30
0.0
 11
469.550997897108
 21
325.1783500236612
 31
0.0
  0
LINE
  5
262
330
1F
100
AcDbEntity
  8
0
  6
Continuous
 62
     7
100
AcDbLine
 10
469.550997897108
 20
327.1783500236608
 30
0.0
 11
471.6509978971078
 21
327.1783500236608
 31
0.0
  0
LINE
  5
263
330
1F
100
AcDbEntity
  8
0
  6
Continuous
 62
     7
100
AcDbLine
 10
471.4509978971078
 20
325.1783500236612
 30
0.0
 11
469.550997897108
 21
325.1783500236612
 31
0.0
  0
LINE
  5
264
330
1F
100
AcDbEntity
  8
0
  6
Continuous
 62
     7
100
AcDbLine
 10
475.550999897108
 20
325.1783550236611
 30
0.0
 11
475.550999897108
 21
328.1783550236611
 31
0.0
  0
LINE
  5
265
330
1F
100
AcDbEntity
  8
0
  6
Continuous
 62
     7
 48
2.0
100
AcDbLine
 10
471.6509978971078
 20
327.1783500236608
 30
0.0
 11
471.6509978971078
 21
320.1783500236613
 31
0.0
  0
LINE
  5
266
330
1F
100
AcDbEntity
  8
0
  6
Continuous
 62
     7
100
AcDbLine
 10
477.0509998971077
 20
325.6783550236612
 30
0.0
 11
477.0509998971077
 21
327.6783550236611
 31
0.0
  0
LINE
  5
267
330
1F
100
AcDbEntity
  8
0
  6
Continuous
 62
     7
100
AcDbLine
 10
469.550997897108
 20
349.1783500236607
 30
0.0
 11
471.4509978971078
 21
349.1783500236607
 31
0.0
  0
LINE
  5
268
330
1F
100
AcDbEntity
  8
0
  6
Continuous
 62
     7
100
AcDbLine
 10
469.550997897108
 20
349.1283500236609
 30
0.0
 11
471.6509978971078
 21
349.1283500236609
 31
0.0
  0
LINE
  5
269
330
1F
100
AcDbEntity
  8
0
  6
Continuous
 62
     7
100
AcDbLine
 10
469.550997897108
 20
347.1783500236609
 30
0.0
 11
471.550997897108
 21
347.1783500236609
 31
0.0
  0
LINE
  5
26A
330
1F
100
AcDbEntity
  8
0
  6
Continuous
 62
     7
100
AcDbLine
 10
471.4509978971078
 20
349.1783500236607
 30
0.0
 11
471.4509978971078
 21
358.6829910236612
 31
0.0
  0
LINE
  5
26B
330
1F
100
AcDbEntity
  8
0
  6
Continuous
 62
     7
 48
2.0
100
AcDbLine
 10
471.6509978971078
 20
354.1783500236612
 30
0.0
 11
471.6509978971078
 21
347.1783500236609
 31
0.0
  0
LINE
  5
26C
330
1F
100
AcDbEntity
  8
0
  6
Continuous
 62
     7
100
AcDbLine
 10
471.550997897108
 20
347.1783500236609
 30
0.0
 11
471.6509978971078
 21
347.1783500236609
 31
0.0
  0
LINE
  5
26D
330
1F
100
AcDbEntity
  8
0
  6
Continuous
 62
     7
100
AcDbLine
 10
475.550999897108
 20
349.1783450236609
 30
0.0
 11
475.550999897108
 21
346.1783450236608
 31
0.0
  0
ARC
  5
26E
330
1F
100
AcDbEntity
  8
0
  6
Continuous
 62
     7
100
AcDbCircle
 10
471.9509982136544
 20
358.682990740854
 30
0.0
 40
0.5000003165465989
100
AcDbArc
 50
89.97895143955153
 51
179.9999675927234
  0
ARC
  5
26F
330
1F
100
AcDbEntity
  8
0
  6
Continuous
 62
     7
100
AcDbCircle
 10
471.9544982707828
 20
358.6829903970613
 30
0.0
 40
0.4999996603184966
100
AcDbArc
 50
359.9788723498023
 51
89.97895795837939
  0
LINE
  5
270
330
1F
100
AcDbEntity
  8
0
  6
Continuous
 62
     7
100
AcDbLine
 10
472.4526558971078
 20
358.6828060236612
 30
0.0
 11
472.4509988971078
 21
354.1828070236612
 31
0.0
  0
ARC
  5
271
330
1F
100
AcDbEntity
  8
0
  6
Continuous
 62
     7
100
AcDbCircle
 10
471.5509964029575
 20
375.1783515178113
 30
0.0
 40
1.999998505850174
100
AcDbArc
 50
89.99995719571442
 51
180.0000428042855
  0
ARC
  5
272
330
1F
100
AcDbEntity
  8
0
  6
Continuous
 62
     7
100
AcDbCircle
 10
476.5233238018694
 20
370.697496159568
 30
0.0
 40
3.749997198469111
100
AcDbArc
 50
89.99995719571442
 51
180.0000428042855
  0
LINE
  5
273
330
1F
100
AcDbEntity
  8
0
  6
DASHED
 62
     4
 48
2.0
100
AcDbLine
 10
477.1009988971076
 20
371.2283470236611
 30
0.0
 11
477.1009988971076
 21
372.5783470236612
 31
0.0
  0
LINE
  5
274
330
1F
100
AcDbEntity
  8
0
  6
DASHED
 62
     4
 48
2.0
100
AcDbLine
 10
476.0009988971078
 20
371.2283470236611
 30
0.0
 11
476.0009988971078
 21
372.5783470236612
 31
0.0
  0
LINE
  5
275
330
1F
100
AcDbEntity
  8
0
  6
DASHED
 62
     4
 48
2.0
100
AcDbLine
 10
471.9509988971078
 20
366.5783470236612
 30
0.0
 11
471.9509988971078
 21
374.7783470236611
 31
0.0
  0
LINE
  5
276
330
1F
100
AcDbEntity
  8
0
  6
DASHED
 62
     4
 48
2.0
100
AcDbLine
 10
473.1759988971078
 20
371.2283470236611
 30
0.0
 11
476.0009988971078
 21
371.2283470236611
 31
0.0
  0
LINE
  5
277
330
1F
100
AcDbEntity
  8
0
  6
DASHED
 62
     4
 48
2.0
100
AcDbLine
 10
473.1759988971078
 20
370.1283470236611
 30
0.0
 11
476.0009988971078
 21
370.1283470236611
 31
0.0
  0
LINE
  5
278
330
1F
100
AcDbEntity
  8
0
  6
DASHED
 62
     4
 48
2.0
100
AcDbLine
 10
471.9509988971078
 20
371.3783470236612
 30
0.0
 11
473.2493898971078
 21
371.3783470236612
 31
0.0
  0
LINE
  5
279
330
1F
100
AcDbEntity
  8
0
  6
DASHED
 62
     4
 48
2.0
100
AcDbLine
 10
471.9509988971078
 20
369.9783470236609
 30
0.0
 11
471.9509988971078
 21
371.3783470236612
 31
0.0
  0
LINE
  5
27A
330
1F
100
AcDbEntity
  8
0
  6
DASHED
 62
     4
 48
2.0
100
AcDbLine
 10
473.2493898971078
 20
369.9783470236609
 30
0.0
 11
471.9509988971078
 21
369.9783470236609
 31
0.0
  0
ARC
  5
27B
330
1F
100
AcDbEntity
  8
0
  6
DASHED
 62
     4
 48
2.0
100
AcDbCircle
 10
472.4509985235703
 20
366.5783466501236
 30
0.0
 40
0.4999996264625655
100
AcDbArc
 50
179.9999571957144
 51
270.0000428042887
  0
LINE
  5
27C
330
1F
100
AcDbEntity
  8
0
  6
DASHED
 62
     4
 48
2.0
100
AcDbLine
 10
477.1009988971076
 20
368.7783470236609
 30
0.0
 11
477.1009988971076
 21
370.1283470236611
 31
0.0
  0
LINE
  5
27D
330
1F
100
AcDbEntity
  8
0
  6
DASHED
 62
     4
 48
2.0
100
AcDbLine
 10
476.0009988971078
 20
368.7783470236609
 30
0.0
 11
476.0009988971078
 21
370.1283470236611
 31
0.0
  0
LINE
  5
27E
330
1F
100
AcDbEntity
  8
0
  6
DASHED
 62
     4
 48
2.0
100
AcDbLine
 10
476.0009988971078
 20
368.7783470236609
 30
0.0
 11
477.1009988971076
 21
368.7783470236609
 31
0.0
  0
LINE
  5
27F
330
1F
100
AcDbEntity
  8
0
  6
DASHED
 62
     4
 48
2.0
100
AcDbLine
 10
475.8509988971078
 20
366.0783470236609
 30
0.0
 11
475.8509988971078
 21
367.3767370236611
 31
0.0
  0
LINE
  5
280
330
1F
100
AcDbEntity
  8
0
  6
DASHED
 62
     4
 48
2.0
100
AcDbLine
 10
477.2509988971078
 20
366.0783470236609
 30
0.0
 11
475.8509988971078
 21
366.0783470236609
 31
0.0
  0
LINE
  5
281
330
1F
100
AcDbEntity
  8
0
  6
DASHED
 62
     4
 48
2.0
100
AcDbLine
 10
477.2509988971078
 20
367.3767370236611
 30
0.0
 11
477.2509988971078
 21
366.0783470236609
 31
0.0
  0
ARC
  5
282
330
1F
100
AcDbEntity
  8
0
  6
DASHED
 62
     4
 48
2.0
100
AcDbCircle
 10
472.4509985235703
 20
374.7783473971986
 30
0.0
 40
0.4999996264625369
100
AcDbArc
 50
89.99995719571119
 51
180.0000428042888
  0
LINE
  5
283
330
1F
100
AcDbEntity
  8
0
  6
DASHED
 62
     4
 48
2.0
100
AcDbLine
 10
476.0009988971078
 20
372.5783470236612
 30
0.0
 11
477.1009988971076
 21
372.5783470236612
 31
0.0
  0
LINE
  5
284
330
1F
100
AcDbEntity
  8
0
  6
DASHED
 62
     4
 48
2.0
100
AcDbLine
 10
477.2509988971078
 20
375.2783470236611
 30
0.0
 11
477.2509988971078
 21
373.9799560236608
 31
0.0
  0
LINE
  5
285
330
1F
100
AcDbEntity
  8
0
  6
DASHED
 62
     4
 48
2.0
100
AcDbLine
 10
475.8509988971078
 20
375.2783470236611
 30
0.0
 11
477.2509988971078
 21
375.2783470236611
 31
0.0
  0
LINE
  5
286
330
1F
100
AcDbEntity
  8
0
  6
DASHED
 62
     4
 48
2.0
100
AcDbLine
 10
475.8509988971078
 20
373.9799560236608
 30
0.0
 11
475.8509988971078
 21
375.2783470236611
 31
0.0
  0
ARC
  5
287
330
1F
100
AcDbEntity
  8
0
  6
DASHED
 62
     4
100
AcDbCircle
 10
471.7509962535425
 20
384.9783516672266
 30
0.0
 40
2.199998356435187
100
AcDbArc
 50
89.99995719571119
 51
180.0000428042855
  0
LINE
  5
288
330
1F
100
AcDbEntity
  8
0
  6
Continuous
 62
     7
100
AcDbLine
 10
546.5456568971078
 20
299.1783500236608
 30
0.0
 11
568.0509978971078
 21
299.1783500236608
 31
0.0
  0
LINE
  5
289
330
1F
100
AcDbEntity
  8
0
  6
Continuous
 62
     7
100
AcDbLine
 10
546.5456568971078
 20
375.1783500236612
 30
0.0
 11
568.0509978971078
 21
375.1783500236612
 31
0.0
  0
LINE
  5
28A
330
1F
100
AcDbEntity
  8
0
  6
Continuous
 62
     7
100
AcDbLine
 10
568.0509978971078
 20
297.1783500236608
 30
0.0
 11
546.5460248971078
 21
297.1783500236608
 31
0.0
  0
LINE
  5
28B
330
1F
100
AcDbEntity
  8
0
  6
Continuous
 62
     7
100
AcDbLine
 10
546.5460248971078
 20
377.1783500236612
 30
0.0
 11
568.0509978971078
 21
377.1783500236612
 31
0.0
  0
LINE
  5
28C
330
1F
100
AcDbEntity
  8
0
  6
Continuous
 62
     7
100
AcDbLine
 10
546.5460248971075
 20
349.1283500236612
 30
0.0
 11
546.5460248971075
 21
377.1783500236612
 31
0.0
  0
LINE
  5
28D
330
1F
100
AcDbEntity
  8
0
  6
Continuous
 62
     7
100
AcDbLine
 10
546.5460248971075
 20
354.1783500236612
 30
0.0
 11
546.5460248971075
 21
377.1783500236612
 31
0.0
  0
LINE
  5
28E
330
1F
100
AcDbEntity
  8
0
  6
Continuous
 62
     7
100
AcDbLine
 10
546.5460248971075
 20
354.1783500236612
 30
0.0
 11
546.5460248971075
 21
377.1783500236612
 31
0.0
  0
LINE
  5
28F
330
1F
100
AcDbEntity
  8
0
  6
Continuous
 62
     7
100
AcDbLine
 10
539.5953618971078
 20
354.4334470236611
 30
0.0
 11
543.1186538971076
 21
374.6923730236612
 31
0.0
  0
LINE
  5
290
330
1F
100
AcDbEntity
  8
0
100
AcDbLine
 10
546.5460248971075
 20
377.1783500236612
 30
0.0
 11
546.5460248971075
 21
297.1783500236613
 31
0.0
  0
CIRCLE
  5
291
330
1F
100
AcDbEntity
  8
0
  6
DASHED
 62
     4
100
AcDbCircle
 10
484.5510039316181
 20
360.9283520581714
 30
0.0
 40
2.250000288400419
  0
LINE
  5
292
330
1F
100
AcDbEntity
  8
0
  6
Continuous
 62
     7
100
AcDbLine
 10
498.5509978971078
 20
349.1783500236607
 30
0.0
 11
498.5509978971078
 21
376.9104010236609
 31
0.0
  0
LINE
  5
293
330
1F
100
AcDbEntity
  8
0
  6
Continuous
 62
     7
100
AcDbLine
 10
499.550997897108
 20
349.1783500236607
 30
0.0
 11
499.550997897108
 21
375.1783500236612
 31
0.0
  0
LINE
  5
294
330
1F
100
AcDbEntity
  8
0
  6
DASHED
 62
     4
100
AcDbLine
 10
499.550997897108
 20
294.3783500236611
 30
0.0
 11
499.550997897108
 21
384.9783500236611
 31
0.0
  0
LINE
  5
295
330
1F
100
AcDbEntity
  8
0
  6
Continuous
 62
     7
100
AcDbLine
 10
497.6556918971078
 20
325.1711110236612
 30
0.0
 11
497.6504408971078
 21
315.6664720236611
 31
0.0
  0
LINE
  5
296
330
1F
100
AcDbEntity
  8
0
  6
Continuous
 62
     7
100
AcDbLine
 10
496.6487428971078
 20
315.6243350236613
 30
0.0
 11
496.6529268971078
 21
320.1672070236611
 31
0.0
  0
LINE
  5
297
330
1F
100
AcDbEntity
  8
0
  6
Continuous
 62
     7
100
AcDbLine
 10
498.5509978971078
 20
297.4462990236612
 30
0.0
 11
498.5509978971078
 21
325.1783500236612
 31
0.0
  0
LINE
  5
298
330
1F
100
AcDbEntity
  8
0
  6
Continuous
 62
     7
100
AcDbLine
 10
499.550997897108
 20
299.1783500236608
 30
0.0
 11
499.550997897108
 21
325.1783500236612
 31
0.0
  0
LINE
  5
299
330
1F
100
AcDbEntity
  8
0
  6
Continuous
 62
     7
100
AcDbLine
 10
499.550997897108
 20
299.1783500236608
 30
0.0
 11
499.550997897108
 21
325.1783500236612
 31
0.0
  0
ARC
  5
29A
330
1F
100
AcDbEntity
  8
0
  6
DASHED
 62
     4
 48
2.0
100
AcDbCircle
 10
496.8884984457412
 20
306.5158505722946
 30
0.0
 40
0.4374996731547269
100
AcDbArc
 50
359.9999571957112
 51
90.00004280428553
  0
ARC
  5
29B
330
1F
100
AcDbEntity
  8
0
  6
DASHED
 62
     4
 48
2.0
100
AcDbCircle
 10
496.8884984457412
 20
299.3408499186038
 30
0.0
 40
0.4374996731547269
100
AcDbArc
 50
269.9999571957111
 51
0.0000428042888088
  0
LINE
  5
29C
330
1F
100
AcDbEntity
  8
0
  6
DASHED
 62
     4
 48
2.0
100
AcDbLine
 10
496.4927591648407
 20
303.5408502454493
 30
0.0
 11
497.3259981188959
 21
303.5408502454493
 31
0.0
  0
LINE
  5
29D
330
1F
100
AcDbEntity
  8
0
  6
DASHED
 62
     4
 48
2.0
100
AcDbLine
 10
497.3259981188959
 20
302.3158502454491
 30
0.0
 11
496.4927572955533
 21
302.3158502454491
 31
0.0
  0
ARC
  5
29E
330
1F
100
AcDbEntity
  8
0
  6
Continuous
 62
     7
100
AcDbCircle
 10
497.1469405232264
 20
315.6667506504672
 30
0.0
 40
0.4999998380623549
100
AcDbArc
 50
179.9472450934338
 51
269.947330702002
  0
LINE
  5
29F
330
1F
100
AcDbEntity
  8
0
  6
DASHED
 62
     4
100
AcDbLine
 10
492.7509978971078
 20
292.1783500236613
 30
0.0
 11
497.3509978971078
 21
292.1783500236613
 31
0.0
  0
LINE
  5
2A0
330
1F
100
AcDbEntity
  8
0
  6
DASHED
 62
     4
100
AcDbLine
 10
497.3509978971078
 20
292.1788080236609
 30
0.0
 11
492.7509978971078
 21
292.1788080236609
 31
0.0
  0
LINE
  5
2A1
330
1F
100
AcDbEntity
  8
0
  6
DASHED
 62
     4
100
AcDbLine
 10
490.550997897108
 20
294.3783500236611
 30
0.0
 11
490.550997897108
 21
297.1783500236608
 31
0.0
  0
LINE
  5
2A2
330
1F
100
AcDbEntity
  8
0
  6
DASHED
 62
     4
100
AcDbLine
 10
484.0509978971078
 20
295.178808023661
 30
0.0
 11
484.0509978971078
 21
294.3725440236611
 31
0.0
  0
LINE
  5
2A3
330
1F
100
AcDbEntity
  8
0
  6
DASHED
 62
     4
100
AcDbLine
 10
485.0509978971078
 20
295.178808023661
 30
0.0
 11
485.0509978971078
 21
294.3725450236612
 31
0.0
  0
LINE
  5
2A4
330
1F
100
AcDbEntity
  8
0
  6
DASHED
 62
     4
100
AcDbLine
 10
488.5509978971078
 20
287.178808023661
 30
0.0
 11
480.550997897108
 21
287.178808023661
 31
0.0
  0
LINE
  5
2A5
330
1F
100
AcDbEntity
  8
0
  6
DASHED
 62
     4
100
AcDbLine
 10
486.5665638971078
 20
291.1788030236611
 30
0.0
 11
488.5509978971078
 21
291.1788030236611
 31
0.0
  0
LINE
  5
2A6
330
1F
100
AcDbEntity
  8
0
  6
DASHED
 62
     4
100
AcDbLine
 10
486.5665638971078
 20
293.178803023661
 30
0.0
 11
488.5509978971078
 21
293.178803023661
 31
0.0
  0
ARC
  5
2A7
330
1F
100
AcDbEntity
  8
0
  6
DASHED
 62
     4
100
AcDbCircle
 10
484.5509995199749
 20
292.1788032117245
 30
0.0
 40
2.250000082850212
100
AcDbArc
 50
102.8396303118259
 51
153.6122064315071
  0
ARC
  5
2A8
330
1F
100
AcDbEntity
  8
0
  6
DASHED
 62
     4
100
AcDbCircle
 10
484.5509993971078
 20
292.1788018683242
 30
0.0
 40
2.249999542886154
100
AcDbArc
 50
206.3877728940759
 51
333.6122271059238
  0
LINE
  5
2A9
330
1F
100
AcDbEntity
  8
0
  6
DASHED
 62
     4
100
AcDbLine
 10
480.5509988971078
 20
293.178803023661
 30
0.0
 11
480.550997897108
 21
291.1788030236611
 31
0.0
  0
LINE
  5
2AA
330
1F
100
AcDbEntity
  8
0
  6
DASHED
 62
     4
100
AcDbLine
 10
480.550997897108
 20
291.1788030236611
 30
0.0
 11
482.5354348971078
 21
291.1788030236611
 31
0.0
  0
LINE
  5
2AB
330
1F
100
AcDbEntity
  8
0
  6
DASHED
 62
     4
100
AcDbLine
 10
480.5509988971078
 20
293.178803023661
 30
0.0
 11
482.5354348971078
 21
293.178803023661
 31
0.0
  0
ARC
  5
2AC
330
1F
100
AcDbEntity
  8
0
  6
DASHED
 62
     4
100
AcDbCircle
 10
484.5509967205926
 20
292.1788005507798
 30
0.0
 40
2.250003553067041
100
AcDbArc
 50
26.38782536726995
 51
77.16040148695114
  0
LINE
  5
2AD
330
1F
100
AcDbEntity
  8
0
  6
DASHED
 62
     4
100
AcDbLine
 10
490.550997897108
 20
294.3783500236611
 30
0.0
 11
492.7509978971078
 21
292.1783500236613
 31
0.0
  0
LINE
  5
2AE
330
1F
100
AcDbEntity
  8
0
  6
DASHED
 62
     4
100
AcDbLine
 10
490.550997897108
 20
292.1788080236609
 30
0.0
 11
496.5009978971078
 21
292.1788080236609
 31
0.0
  0
LINE
  5
2AF
330
1F
100
AcDbEntity
  8
0
  6
DASHED
 62
     4
100
AcDbLine
 10
490.550997897108
 20
292.1788080236609
 30
0.0
 11
490.550997897108
 21
289.178808023661
 31
0.0
  0
LINE
  5
2B0
330
1F
100
AcDbEntity
  8
0
  6
DASHED
 62
     4
100
AcDbLine
 10
490.550997897108
 20
289.178808023661
 30
0.0
 11
488.5509978971078
 21
287.178808023661
 31
0.0
  0
LINE
  5
2B1
330
1F
100
AcDbEntity
  8
0
  6
DASHED
 62
     4
100
AcDbLine
 10
488.5509978971078
 20
293.178803023661
 30
0.0
 11
488.5509978971078
 21
291.1788030236611
 31
0.0
  0
LINE
  5
2B2
330
1F
100
AcDbEntity
  8
0
  6
DASHED
 62
     4
100
AcDbLine
 10
487.3009968971078
 20
295.178808023661
 30
0.0
 11
490.3009968971078
 21
295.178808023661
 31
0.0
  0
LINE
  5
2B3
330
1F
100
AcDbEntity
  8
0
  6
DASHED
 62
     4
 48
2.0
100
AcDbLine
 10
479.8259945341639
 20
306.5158476607172
 30
0.0
 11
479.8259945341639
 21
299.3408476607172
 31
0.0
  0
LINE
  5
2B4
330
1F
100
AcDbEntity
  8
0
  6
DASHED
 62
     4
100
AcDbLine
 10
484.0509968971078
 20
295.178808023661
 30
0.0
 11
481.8009968971078
 21
295.178808023661
 31
0.0
  0
LINE
  5
2B5
330
1F
100
AcDbEntity
  8
0
  6
Continuous
 62
     7
100
AcDbLine
 10
479.050994312376
 20
302.9283474389291
 30
0.0
 11
479.050994312376
 21
302.9283474389291
 31
0.0
  0
LINE
  5
2B6
330
1F
100
AcDbEntity
  8
0
  6
Continuous
 62
     7
100
AcDbLine
 10
479.0509961188957
 20
302.9283542454492
 30
0.0
 11
479.0509961188957
 21
302.9283542454492
 31
0.0
  0
LINE
  5
2B7
330
1F
100
AcDbEntity
  8
0
  6
DASHED
 62
     4
 48
2.0
100
AcDbLine
 10
479.8259945341639
 20
302.3158476607172
 30
0.0
 11
478.9927537108213
 21
302.3158476607172
 31
0.0
  0
LINE
  5
2B8
330
1F
100
AcDbEntity
  8
0
  6
DASHED
 62
     4
 48
2.0
100
AcDbLine
 10
478.9927555801088
 20
303.5408476607173
 30
0.0
 11
479.8259945341639
 21
303.5408476607173
 31
0.0
  0
LINE
  5
2B9
330
1F
100
AcDbEntity
  8
0
  6
DASHED
 62
     4
 48
2.0
100
AcDbLine
 10
479.8259945341639
 20
303.5408476607173
 30
0.0
 11
479.8259945341639
 21
302.3158476607172
 31
0.0
  0
ARC
  5
2BA
330
1F
100
AcDbEntity
  8
0
  6
DASHED
 62
     4
 48
2.0
100
AcDbCircle
 10
479.3884948610092
 20
299.3408473338721
 30
0.0
 40
0.4374996731547269
100
AcDbArc
 50
269.9999571957111
 51
0.0000428042888088
  0
LINE
  5
2BB
330
1F
100
AcDbEntity
  8
0
  6
DASHED
 62
     4
100
AcDbLine
 10
481.300997897108
 20
295.6788080236611
 30
0.0
 11
481.300997897108
 21
297.1783500236608
 31
0.0
  0
LINE
  5
2BC
330
1F
100
AcDbEntity
  8
0
  6
DASHED
 62
     4
100
AcDbLine
 10
479.8009978971078
 20
297.1788080236611
 30
0.0
 11
479.8009978971078
 21
296.178808023661
 31
0.0
  0
ARC
  5
2BD
330
1F
100
AcDbEntity
  8
0
  6
DASHED
 62
     4
100
AcDbCircle
 10
481.8009965235703
 20
295.6788076501238
 30
0.0
 40
0.4999996264625369
100
AcDbArc
 50
179.9999571957144
 51
270.0000428042887
  0
LINE
  5
2BE
330
1F
100
AcDbEntity
  8
0
  6
DASHED
 62
     4
100
AcDbLine
 10
487.8009978971078
 20
297.1783500236608
 30
0.0
 11
487.8009978971078
 21
295.8597610236612
 31
0.0
  0
LINE
  5
2BF
330
1F
100
AcDbEntity
  8
0
  6
DASHED
 62
     4
100
AcDbLine
 10
487.3009968971078
 20
295.178808023661
 30
0.0
 11
485.0509968971078
 21
295.178808023661
 31
0.0
  0
ARC
  5
2C0
330
1F
100
AcDbEntity
  8
0
  6
DASHED
 62
     4
100
AcDbCircle
 10
487.3009972706454
 20
295.6788076501238
 30
0.0
 40
0.4999996264625655
100
AcDbArc
 50
269.9999571957111
 51
0.0000428042855519
  0
ARC
  5
2C1
330
1F
100
AcDbEntity
  8
0
  6
DASHED
 62
     4
100
AcDbCircle
 10
484.5510022200184
 20
314.428352346572
 30
0.0
 40
2.25
100
AcDbArc
 50
0.0
 51
180.0
  0
ARC
  5
2C2
330
1F
100
AcDbEntity
  8
0
  6
DASHED
 62
     4
100
AcDbCircle
 10
484.5510022200184
 20
311.428352346572
 30
0.0
 40
2.25
100
AcDbArc
 50
180.0
 51
0.0
  0
ARC
  5
2C3
330
1F
100
AcDbEntity
  8
0
  6
DASHED
 62
     4
 48
2.0
100
AcDbCircle
 10
479.3884948610092
 20
306.5158479875626
 30
0.0
 40
0.4374996731547269
100
AcDbArc
 50
359.9999571957112
 51
90.00004280428553
  0
LINE
  5
2C4
330
1F
100
AcDbEntity
  8
0
  6
DASHED
 62
     4
100
AcDbLine
 10
482.3010022200184
 20
314.428352346572
 30
0.0
 11
482.3010022200184
 21
311.428352346572
 31
0.0
  0
LINE
  5
2C5
330
1F
100
AcDbEntity
  8
0
  6
DASHED
 62
     4
100
AcDbLine
 10
486.8010022200184
 20
314.428352346572
 30
0.0
 11
486.8010022200184
 21
311.428352346572
 31
0.0
  0
LINE
  5
2C6
330
1F
100
AcDbEntity
  8
0
  6
DASHED
 62
     4
 48
2.0
100
AcDbLine
 10
489.2759981188958
 20
299.3408502454493
 30
0.0
 11
489.2759981188958
 21
306.5158502454493
 31
0.0
  0
CIRCLE
  5
2C7
330
1F
100
AcDbEntity
  8
0
100
AcDbCircle
 10
493.3010003251022
 20
302.9283524516555
 30
0.0
 40
2.953122793794419
  0
CIRCLE
  5
2C8
330
1F
100
AcDbEntity
  8
0
100
AcDbCircle
 10
493.3009985468902
 20
302.9283566734436
 30
0.0
 40
3.249997572006547
  0
LINE
  5
2C9
330
1F
100
AcDbEntity
  8
0
  6
Continuous
 62
     7
 48
2.0
100
AcDbLine
 10
490.3478731188958
 20
303.4096002454492
 30
0.0
 11
492.8197481188957
 21
303.4096002454492
 31
0.0
  0
LINE
  5
2CA
330
1F
100
AcDbEntity
  8
0
  6
Continuous
 62
     7
 48
2.0
100
AcDbLine
 10
490.3478731188958
 20
302.4471002454491
 30
0.0
 11
492.8197481188957
 21
302.4471002454491
 31
0.0
  0
LINE
  5
2CB
330
1F
100
AcDbEntity
  8
0
  6
DASHED
 62
     4
 48
2.0
100
AcDbLine
 10
496.8884981188958
 20
298.9033502454493
 30
0.0
 11
489.7134981188957
 21
298.9033502454493
 31
0.0
  0
LINE
  5
2CC
330
1F
100
AcDbEntity
  8
0
100
AcDbLine
 10
490.1092327337626
 20
303.5408502454493
 30
0.0
 11
490.4120891188957
 21
303.5408502454493
 31
0.0
  0
LINE
  5
2CD
330
1F
100
AcDbEntity
  8
0
100
AcDbLine
 10
490.1092341090816
 20
302.3158502454491
 30
0.0
 11
490.4120891188957
 21
302.3158502454491
 31
0.0
  0
LINE
  5
2CE
330
1F
100
AcDbEntity
  8
0
  6
DASHED
 62
     4
 48
2.0
100
AcDbLine
 10
489.2759981188958
 20
302.3158502454491
 30
0.0
 11
489.2759981188958
 21
303.5408502454493
 31
0.0
  0
ARC
  5
2CF
330
1F
100
AcDbEntity
  8
0
  6
DASHED
 62
     4
 48
2.0
100
AcDbCircle
 10
489.7134977920504
 20
299.3408499186038
 30
0.0
 40
0.4374996731547269
100
AcDbArc
 50
179.9999571957112
 51
270.0000428042855
  0
LINE
  5
2D0
330
1F
100
AcDbEntity
  8
0
  6
DASHED
 62
     4
 48
2.0
100
AcDbLine
 10
489.2759981188958
 20
303.5408502454493
 30
0.0
 11
490.1092327337626
 21
303.5408502454493
 31
0.0
  0
LINE
  5
2D1
330
1F
100
AcDbEntity
  8
0
  6
DASHED
 62
     4
 48
2.0
100
AcDbLine
 10
490.1092341090816
 20
302.3158502454491
 30
0.0
 11
489.2759981188958
 21
302.3158502454491
 31
0.0
  0
LINE
  5
2D2
330
1F
100
AcDbEntity
  8
0
  6
DASHED
 62
     4
100
AcDbLine
 10
490.550997897108
 20
295.178808023661
 30
0.0
 11
490.3009968971078
 21
295.178808023661
 31
0.0
  0
LINE
  5
2D3
330
1F
100
AcDbEntity
  8
0
  6
DASHED
 62
     4
100
AcDbLine
 10
489.300997897108
 20
296.178808023661
 30
0.0
 11
489.300997897108
 21
297.1783500236608
 31
0.0
  0
ARC
  5
2D4
330
1F
100
AcDbEntity
  8
0
  6
DASHED
 62
     4
100
AcDbCircle
 10
490.3009961500326
 20
296.1788072765859
 30
0.0
 40
0.9999992529251022
100
AcDbArc
 50
179.9999571957112
 51
270.0000428042855
  0
LINE
  5
2D5
330
1F
100
AcDbEntity
  8
0
  6
DASHED
 62
     4
100
AcDbLine
 10
490.550997897108
 20
295.178808023661
 30
0.0
 11
490.550997897108
 21
297.1788080236611
 31
0.0
  0
LINE
  5
2D6
330
1F
100
AcDbEntity
  8
0
100
AcDbLine
 10
496.1899061188957
 20
303.5408502454493
 30
0.0
 11
496.4927591648407
 21
303.5408502454493
 31
0.0
  0
LINE
  5
2D7
330
1F
100
AcDbEntity
  8
0
100
AcDbLine
 10
496.1899061188957
 20
302.3158502454491
 30
0.0
 11
496.4927572955533
 21
302.3158502454491
 31
0.0
  0
LINE
  5
2D8
330
1F
100
AcDbEntity
  8
0
100
AcDbLine
 10
493.9134981188958
 20
299.7365920117163
 30
0.0
 11
493.9134981188958
 21
300.039442245449
 31
0.0
  0
LINE
  5
2D9
330
1F
100
AcDbEntity
  8
0
  6
DASHED
 62
     4
 48
2.0
100
AcDbLine
 10
493.9134981188958
 20
299.7365920117163
 30
0.0
 11
493.9134981188958
 21
298.9033502454493
 31
0.0
  0
LINE
  5
2DA
330
1F
100
AcDbEntity
  8
0
  6
Continuous
 62
     7
 48
2.0
100
AcDbLine
 10
493.7822481188957
 20
301.2658502454489
 30
0.0
 11
493.7822481188957
 21
302.4471002454491
 31
0.0
  0
LINE
  5
2DB
330
1F
100
AcDbEntity
  8
0
  6
Continuous
 62
     7
 48
2.0
100
AcDbLine
 10
493.7822481188957
 20
303.4096002454492
 30
0.0
 11
496.2541231188958
 21
303.4096002454492
 31
0.0
  0
LINE
  5
2DC
330
1F
100
AcDbEntity
  8
0
  6
Continuous
 62
     7
 48
2.0
100
AcDbLine
 10
493.7822481188957
 20
302.4471002454491
 30
0.0
 11
496.2541231188958
 21
302.4471002454491
 31
0.0
  0
LINE
  5
2DD
330
1F
100
AcDbEntity
  8
0
  6
Continuous
 62
     7
 48
2.0
100
AcDbLine
 10
493.7822481188957
 20
303.4096002454492
 30
0.0
 11
493.7822481188957
 21
304.5908502454492
 31
0.0
  0
LINE
  5
2DE
330
1F
100
AcDbEntity
  8
0
100
AcDbLine
 10
492.6884981188957
 20
299.7365910842326
 30
0.0
 11
492.6884981188957
 21
300.039442245449
 31
0.0
  0
LINE
  5
2DF
330
1F
100
AcDbEntity
  8
0
  6
DASHED
 62
     4
 48
2.0
100
AcDbLine
 10
492.6884981188957
 20
298.9033502454493
 30
0.0
 11
492.6884981188957
 21
299.7365910842326
 31
0.0
  0
LINE
  5
2E0
330
1F
100
AcDbEntity
  8
0
  6
Continuous
 62
     7
 48
2.0
100
AcDbLine
 10
492.8197481188957
 20
301.2658502454489
 30
0.0
 11
492.8197481188957
 21
302.4471002454491
 31
0.0
  0
LINE
  5
2E1
330
1F
100
AcDbEntity
  8
0
  6
Continuous
 62
     7
 48
2.0
100
AcDbLine
 10
492.8197481188957
 20
303.4096002454492
 30
0.0
 11
492.8197481188957
 21
304.5908502454492
 31
0.0
  0
LINE
  5
2E2
330
1F
100
AcDbEntity
  8
0
  6
DASHED
 62
     4
 48
2.0
100
AcDbLine
 10
493.9134981188958
 20
298.9033502454493
 30
0.0
 11
492.6884981188957
 21
298.9033502454493
 31
0.0
  0
LINE
  5
2E3
330
1F
100
AcDbEntity
  8
0
  6
Continuous
 62
     7
 48
2.0
100
AcDbLine
 10
492.8197481188957
 20
301.2658502454489
 30
0.0
 11
493.7822481188957
 21
301.2658502454489
 31
0.0
  0
LINE
  5
2E4
330
1F
100
AcDbEntity
  8
0
  6
Continuous
 62
     7
 48
2.0
100
AcDbLine
 10
492.8197481188957
 20
304.5908502454492
 30
0.0
 11
493.7822481188957
 21
304.5908502454492
 31
0.0
  0
LINE
  5
2E5
330
1F
100
AcDbEntity
  8
0
  6
Continuous
 62
     7
100
AcDbLine
 10
496.550997897108
 20
302.9283500236613
 30
0.0
 11
496.550997897108
 21
302.9283500236613
 31
0.0
  0
LINE
  5
2E6
330
1F
100
AcDbEntity
  8
0
  6
DASHED
 62
     7
 48
2.0
100
AcDbLine
 10
496.2541248971078
 20
302.928346023661
 30
0.0
 11
496.2541248971078
 21
302.928346023661
 31
0.0
  0
LINE
  5
2E7
330
1F
100
AcDbEntity
  8
0
  6
DASHED
 62
     4
 48
2.0
100
AcDbLine
 10
489.7134981188957
 20
306.9533502454489
 30
0.0
 11
496.8884981188958
 21
306.9533502454489
 31
0.0
  0
ARC
  5
2E8
330
1F
100
AcDbEntity
  8
0
  6
DASHED
 62
     4
 48
2.0
100
AcDbCircle
 10
489.7134977920504
 20
306.5158505722946
 30
0.0
 40
0.4374996731547269
100
AcDbArc
 50
89.99995719571119
 51
180.0000428042855
  0
LINE
  5
2E9
330
1F
100
AcDbEntity
  8
0
100
AcDbLine
 10
493.9134981188958
 20
306.1201161399983
 30
0.0
 11
493.9134981188958
 21
305.8172592454491
 31
0.0
  0
LINE
  5
2EA
330
1F
100
AcDbEntity
  8
0
  6
DASHED
 62
     4
 48
2.0
100
AcDbLine
 10
493.9134981188958
 20
306.9533502454489
 30
0.0
 11
493.9134981188958
 21
306.1201161399983
 31
0.0
  0
LINE
  5
2EB
330
1F
100
AcDbEntity
  8
0
100
AcDbLine
 10
492.6884981188957
 20
306.1201165735093
 30
0.0
 11
492.6884981188957
 21
305.8172592454491
 31
0.0
  0
LINE
  5
2EC
330
1F
100
AcDbEntity
  8
0
  6
DASHED
 62
     4
 48
2.0
100
AcDbLine
 10
492.6884981188957
 20
306.1201165735093
 30
0.0
 11
492.6884981188957
 21
306.9533502454489
 31
0.0
  0
LINE
  5
2ED
330
1F
100
AcDbEntity
  8
0
  6
DASHED
 62
     4
 48
2.0
100
AcDbLine
 10
492.6884981188957
 20
306.9533502454489
 30
0.0
 11
493.9134981188958
 21
306.9533502454489
 31
0.0
  0
ARC
  5
2EE
330
1F
100
AcDbEntity
  8
0
  6
DASHED
 62
     4
100
AcDbCircle
 10
497.3509995406732
 20
294.3783483800958
 30
0.0
 40
2.199998356435219
100
AcDbArc
 50
269.9999571957111
 51
0.0000428042888088
  0
LINE
  5
2EF
330
1F
100
AcDbEntity
  8
0
  6
DASHED
 62
     4
 48
2.0
100
AcDbLine
 10
497.3259981188959
 20
306.5158502454493
 30
0.0
 11
497.3259981188959
 21
299.3408502454493
 31
0.0
  0
LINE
  5
2F0
330
1F
100
AcDbEntity
  8
0
  6
DASHED
 62
     4
 48
2.0
100
AcDbLine
 10
497.3259981188959
 20
303.5408502454493
 30
0.0
 11
497.3259981188959
 21
302.3158502454491
 31
0.0
  0
ARC
  5
2F1
330
1F
100
AcDbEntity
  8
0
  6
Continuous
 62
     7
100
AcDbCircle
 10
497.5509993912582
 20
299.1783485295107
 30
0.0
 40
1.999998505850204
100
AcDbArc
 50
269.9999571957144
 51
0.0000428042888088
  0
ARC
  5
2F2
330
1F
100
AcDbEntity
  8
0
  6
Continuous
 62
     7
100
AcDbCircle
 10
497.5509993912582
 20
299.1783485295107
 30
0.0
 40
1.999998505850204
100
AcDbArc
 50
269.9999571957144
 51
0.0000428042888088
  0
ARC
  5
2F3
330
1F
100
AcDbEntity
  8
0
  6
Continuous
 62
     7
100
AcDbCircle
 10
497.1504405299518
 20
315.6667482558588
 30
0.0
 40
0.5000004434599857
100
AcDbArc
 50
269.9473299951008
 51
359.9683461482724
  0
ARC
  5
2F4
330
1F
100
AcDbEntity
  8
0
  6
Continuous
 62
     7
100
AcDbCircle
 10
497.1474975234327
 20
358.6829903970613
 30
0.0
 40
0.4999996603185533
100
AcDbArc
 50
90.02104204162062
 51
180.0211276501942
  0
LINE
  5
2F5
330
1F
100
AcDbEntity
  8
0
  6
Continuous
 62
     7
100
AcDbLine
 10
493.5509998971078
 20
328.1783550236611
 30
0.0
 11
493.5509998971078
 21
325.1783550236611
 31
0.0
  0
LINE
  5
2F6
330
1F
100
AcDbEntity
  8
0
  6
Continuous
 62
     7
100
AcDbLine
 10
492.0509998971078
 20
327.6783550236611
 30
0.0
 11
492.0509998971078
 21
325.6783550236612
 31
0.0
  0
LINE
  5
2F7
330
1F
100
AcDbEntity
  8
0
  6
Continuous
 62
     7
100
AcDbLine
 10
493.5509998971078
 20
346.1783450236608
 30
0.0
 11
493.5509998971078
 21
349.1783450236609
 31
0.0
  0
LINE
  5
2F8
330
1F
100
AcDbEntity
  8
0
  6
Continuous
 62
     7
100
AcDbLine
 10
496.6493398971078
 20
358.6828060236612
 30
0.0
 11
496.6509968971078
 21
354.1828070236612
 31
0.0
  0
LINE
  5
2F9
330
1F
100
AcDbEntity
  8
0
  6
Continuous
 62
     7
100
AcDbLine
 10
498.5509978971078
 20
347.1783500236609
 30
0.0
 11
498.5509978971078
 21
327.1783500236608
 31
0.0
  0
LINE
  5
2FA
330
1F
100
AcDbEntity
  8
0
  6
Continuous
 62
     7
100
AcDbLine
 10
499.550997897108
 20
349.1283500236609
 30
0.0
 11
499.550997897108
 21
325.2283500236612
 31
0.0
  0
LINE
  5
2FB
330
1F
100
AcDbEntity
  8
0
  6
Continuous
 62
     7
100
AcDbLine
 10
499.550997897108
 20
325.1783500236612
 30
0.0
 11
497.6509978971078
 21
325.1783500236612
 31
0.0
  0
LINE
  5
2FC
330
1F
100
AcDbEntity
  8
0
  6
Continuous
 62
     7
100
AcDbLine
 10
499.550997897108
 20
325.2283500236612
 30
0.0
 11
497.4509978971078
 21
325.2283500236612
 31
0.0
  0
LINE
  5
2FD
330
1F
100
AcDbEntity
  8
0
  6
Continuous
 62
     7
 48
2.0
100
AcDbLine
 10
497.4509978971078
 20
327.1783500236608
 30
0.0
 11
497.4509978971078
 21
320.1783500236613
 31
0.0
  0
LINE
  5
2FE
330
1F
100
AcDbEntity
  8
0
  6
Continuous
 62
     7
100
AcDbLine
 10
499.550997897108
 20
327.1783500236608
 30
0.0
 11
497.4509978971078
 21
327.1783500236608
 31
0.0
  0
LINE
  5
2FF
330
1F
100
AcDbEntity
  8
0
  6
Continuous
 62
     7
100
AcDbLine
 10
497.6509978971078
 20
349.1783500236607
 30
0.0
 11
497.6509978971078
 21
358.6829910236612
 31
0.0
  0
LINE
  5
300
330
1F
100
AcDbEntity
  8
0
  6
Continuous
 62
     7
 48
2.0
100
AcDbLine
 10
497.4509978971078
 20
354.1783500236612
 30
0.0
 11
497.4509978971078
 21
347.1783500236609
 31
0.0
  0
LINE
  5
301
330
1F
100
AcDbEntity
  8
0
  6
Continuous
 62
     7
100
AcDbLine
 10
497.6509978971078
 20
349.1783500236607
 30
0.0
 11
499.550997897108
 21
349.1783500236607
 31
0.0
  0
LINE
  5
302
330
1F
100
AcDbEntity
  8
0
  6
Continuous
 62
     7
100
AcDbLine
 10
497.4509978971078
 20
349.1283500236609
 30
0.0
 11
499.550997897108
 21
349.1283500236609
 31
0.0
  0
LINE
  5
303
330
1F
100
AcDbEntity
  8
0
  6
Continuous
 62
     7
100
AcDbLine
 10
497.4509978971078
 20
347.1783500236609
 30
0.0
 11
499.550997897108
 21
347.1783500236609
 31
0.0
  0
ARC
  5
304
330
1F
100
AcDbEntity
  8
0
  6
Continuous
 62
     7
100
AcDbCircle
 10
497.1509975805615
 20
358.682990740854
 30
0.0
 40
0.5000003165465988
100
AcDbArc
 50
0.0000324072731559
 51
90.02104856044523
  0
LINE
  5
305
330
1F
100
AcDbEntity
  8
0
  6
Continuous
 62
     7
100
AcDbLine
 10
546.5460248971075
 20
325.2283500236612
 30
0.0
 11
546.5460248971075
 21
297.1783500236613
 31
0.0
  0
LINE
  5
306
330
1F
100
AcDbEntity
  8
0
  6
Continuous
 62
     7
100
AcDbLine
 10
546.5460248971075
 20
320.1783500236611
 30
0.0
 11
546.5460248971075
 21
297.1783500236613
 31
0.0
  0
LINE
  5
307
330
1F
100
AcDbEntity
  8
0
  6
Continuous
 62
     7
100
AcDbLine
 10
539.5953618971078
 20
319.9232530236611
 30
0.0
 11
543.1186538971076
 21
299.6643260236613
 31
0.0
  0
LINE
  5
308
330
1F
100
AcDbEntity
  8
0
  6
Continuous
 62
     7
100
AcDbLine
 10
542.7285508971078
 20
301.9074190236612
 30
0.0
 11
542.4329868971077
 21
301.8560170236613
 31
0.0
  0
ARC
  5
309
330
1F
100
AcDbEntity
  8
0
  6
Continuous
 62
     7
100
AcDbCircle
 10
546.0742912395224
 20
300.1783525925608
 30
0.0
 40
3.000002568900517
100
AcDbArc
 50
189.8658574317317
 51
269.999955263217
  0
LINE
  5
30A
330
1F
100
AcDbEntity
  8
0
  6
Continuous
 62
     7
100
AcDbLine
 10
542.3770848971074
 20
303.9283500236613
 30
0.0
 11
542.0815208971077
 21
303.8769480236613
 31
0.0
  0
LINE
  5
30B
330
1F
100
AcDbEntity
  8
0
  6
Continuous
 62
     7
100
AcDbLine
 10
542.0815208971077
 20
303.8769480236613
 30
0.0
 11
542.4329868971077
 21
301.8560170236613
 31
0.0
  0
LINE
  5
30C
330
1F
100
AcDbEntity
  8
0
  6
Continuous
 62
     7
100
AcDbLine
 10
546.5460248971075
 20
297.1783500236613
 30
0.0
 11
546.0742888971077
 21
297.1783500236613
 31
0.0
  0
LINE
  5
30D
330
1F
100
AcDbEntity
  8
0
  6
Continuous
 62
     7
100
AcDbLine
 10
546.5460248971075
 20
325.2283500236612
 30
0.0
 11
546.5460248971075
 21
349.1283500236612
 31
0.0
  0
LINE
  5
30E
330
1F
100
AcDbEntity
  8
0
  6
Continuous
 62
     7
100
AcDbLine
 10
539.5509978971078
 20
324.6809250236612
 30
0.0
 11
539.5509978971078
 21
349.6757750236611
 31
0.0
  0
LINE
  5
30F
330
1F
100
AcDbEntity
  8
0
  6
Continuous
 62
     7
100
AcDbLine
 10
551.1460248971077
 20
327.1783500236612
 30
0.0
 11
551.1460248971077
 21
347.1783500236611
 31
0.0
  0
ARC
  5
310
330
1F
100
AcDbEntity
  8
0
  6
Continuous
 62
     7
100
AcDbCircle
 10
542.0509997647957
 20
322.6783518913491
 30
0.0
 40
2.49999813231274
100
AcDbArc
 50
359.9999571957112
 51
90.00004280428553
  0
LINE
  5
311
330
1F
100
AcDbEntity
  8
0
  6
Continuous
 62
     7
100
AcDbLine
 10
544.5509978971078
 20
325.2283500236612
 30
0.0
 11
539.5509978971078
 21
327.1783500236612
 31
0.0
  0
ARC
  5
312
330
1F
100
AcDbEntity
  8
0
  6
Continuous
 62
     7
100
AcDbCircle
 10
542.5510162799366
 20
320.4372739051243
 30
0.0
 40
3.000018382829418
100
AcDbArc
 50
179.9999595391691
 51
189.8656946541195
  0
ARC
  5
313
330
1F
100
AcDbEntity
  8
0
  6
Continuous
 62
     7
100
AcDbCircle
 10
539.8509976729851
 20
324.8783502477838
 30
0.0
 40
0.2999997758775221
100
AcDbArc
 50
89.99995719572096
 51
180.0000428042953
  0
LINE
  5
314
330
1F
100
AcDbEntity
  8
0
  6
Continuous
 62
     7
100
AcDbLine
 10
539.5509978971078
 20
320.4372760236612
 30
0.0
 11
539.5509978971078
 21
324.8783500236612
 31
0.0
  0
LINE
  5
315
330
1F
100
AcDbEntity
  8
0
  6
Continuous
 62
     7
100
AcDbLine
 10
539.8509978971077
 20
325.1783500236612
 30
0.0
 11
542.0509978971076
 21
325.1783500236612
 31
0.0
  0
LINE
  5
316
330
1F
100
AcDbEntity
  8
0
  6
Continuous
 62
     7
100
AcDbLine
 10
551.1460248971077
 20
327.1783500236612
 30
0.0
 11
546.5460248971075
 21
327.1783500236612
 31
0.0
  0
LINE
  5
317
330
1F
100
AcDbEntity
  8
0
  6
Continuous
 62
     7
100
AcDbLine
 10
545.4460248971075
 20
323.3783500236613
 30
0.0
 11
545.4460248971075
 21
323.6783500236612
 31
0.0
  0
LINE
  5
318
330
1F
100
AcDbEntity
  8
0
  6
Continuous
 62
     7
100
AcDbLine
 10
544.5509978971078
 20
322.6783500236612
 30
0.0
 11
544.5509978971078
 21
320.1783500236611
 31
0.0
  0
LINE
  5
319
330
1F
100
AcDbEntity
  8
0
  6
Continuous
 62
     7
100
AcDbLine
 10
544.5509978971078
 20
320.1783500236611
 30
0.0
 11
544.5509978971078
 21
321.6877434681056
 31
0.0
  0
ARC
  5
31A
330
1F
100
AcDbEntity
  8
0
  6
Continuous
 62
     7
100
AcDbCircle
 10
545.0460246169342
 20
324.5459420862943
 30
0.0
 40
0.4999997198266057
100
AcDbArc
 50
188.0876545989162
 51
236.3099631686306
  0
LINE
  5
31B
330
1F
100
AcDbEntity
  8
0
  6
Continuous
 62
     7
100
AcDbLine
 10
544.5509978971078
 20
324.4755981705345
 30
0.0
 11
544.5509978971078
 21
325.2283500236612
 31
0.0
  0
LINE
  5
31C
330
1F
100
AcDbEntity
  8
0
  6
Continuous
 62
     7
100
AcDbLine
 10
544.3523988971076
 20
323.6783500236612
 30
0.0
 11
545.4460248971075
 21
323.6783500236612
 31
0.0
  0
LINE
  5
31D
330
1F
100
AcDbEntity
  8
0
  6
Continuous
 62
     7
100
AcDbLine
 10
545.4460248971075
 20
323.6783500236612
 30
0.0
 11
544.7686748971076
 21
324.1299170236612
 31
0.0
  0
LINE
  5
31E
330
1F
100
AcDbEntity
  8
0
  6
Continuous
 62
     7
100
AcDbLine
 10
545.4460248971075
 20
323.3783500236613
 30
0.0
 11
544.5509978971078
 21
321.6877434681056
 31
0.0
  0
LINE
  5
31F
330
1F
100
AcDbEntity
  8
0
  6
Continuous
 62
     7
100
AcDbLine
 10
546.5460248971075
 20
325.2283500236612
 30
0.0
 11
544.5509978971078
 21
325.2283500236612
 31
0.0
  0
LINE
  5
320
330
1F
100
AcDbEntity
  8
0
  6
Continuous
 62
     7
100
AcDbLine
 10
544.5509978971078
 20
320.1783500236611
 30
0.0
 11
546.5460248971075
 21
320.1783490257799
 31
0.0
  0
LINE
  5
321
330
1F
100
AcDbEntity
  8
0
  6
Continuous
 62
     7
100
AcDbLine
 10
544.5509978971078
 20
320.1783500236611
 30
0.0
 11
546.5460248971075
 21
320.1783490257799
 31
0.0
  0
ARC
  5
322
330
1F
100
AcDbEntity
  8
0
  6
Continuous
 62
     7
100
AcDbCircle
 10
542.0509997647957
 20
351.6783481559732
 30
0.0
 40
2.49999813231274
100
AcDbArc
 50
269.9999571957111
 51
0.0000428042888088
  0
LINE
  5
323
330
1F
100
AcDbEntity
  8
0
  6
Continuous
 62
     7
100
AcDbLine
 10
544.5509978971078
 20
349.1283500236612
 30
0.0
 11
539.5509978971078
 21
347.1783500236611
 31
0.0
  0
LINE
  5
324
330
1F
100
AcDbEntity
  8
0
  6
Continuous
 62
     7
100
AcDbLine
 10
539.5509978971078
 20
353.9194240236611
 30
0.0
 11
539.5509978971078
 21
349.4783500236612
 31
0.0
  0
ARC
  5
325
330
1F
100
AcDbEntity
  8
0
  6
Continuous
 62
     7
100
AcDbCircle
 10
539.8509976729851
 20
349.4783497995386
 30
0.0
 40
0.2999997758775221
100
AcDbArc
 50
179.9999571957079
 51
270.0000428042789
  0
LINE
  5
326
330
1F
100
AcDbEntity
  8
0
  6
Continuous
 62
     7
100
AcDbLine
 10
539.5509978971078
 20
350.1786490236611
 30
0.0
 11
539.5509978971078
 21
350.1783500236612
 31
0.0
  0
LINE
  5
327
330
1F
100
AcDbEntity
  8
0
  6
Continuous
 62
     7
100
AcDbLine
 10
539.8509978971077
 20
349.1783500236611
 30
0.0
 11
542.0509978971076
 21
349.1783500236611
 31
0.0
  0
ARC
  5
328
330
1F
100
AcDbEntity
  8
0
  6
Continuous
 62
     7
100
AcDbCircle
 10
542.5510162799362
 20
353.9194261421983
 30
0.0
 40
3.000018382829248
100
AcDbArc
 50
170.1343053458804
 51
180.0000404608276
  0
ARC
  5
329
330
1F
100
AcDbEntity
  8
0
  6
Continuous
 62
     7
100
AcDbCircle
 10
545.0460246169342
 20
349.8107579610282
 30
0.0
 40
0.4999997198266292
100
AcDbArc
 50
123.6900368313692
 51
171.912345401067
  0
LINE
  5
32A
330
1F
100
AcDbEntity
  8
0
  6
Continuous
 62
     7
100
AcDbLine
 10
551.1460248971077
 20
347.1783500236611
 30
0.0
 11
546.5460248971075
 21
347.1783500236611
 31
0.0
  0
LINE
  5
32B
330
1F
100
AcDbEntity
  8
0
  6
Continuous
 62
     7
100
AcDbLine
 10
544.5509978971078
 20
349.1283500236612
 30
0.0
 11
544.5509978971078
 21
349.8811018767878
 31
0.0
  0
LINE
  5
32C
330
1F
100
AcDbEntity
  8
0
  6
Continuous
 62
     7
100
AcDbLine
 10
546.5460248971075
 20
349.1283500236612
 30
0.0
 11
544.5509978971078
 21
349.1283500236612
 31
0.0
  0
LINE
  5
32D
330
1F
100
AcDbEntity
  8
0
  6
Continuous
 62
     7
100
AcDbLine
 10
544.5509978971078
 20
354.1783500236612
 30
0.0
 11
546.5417888971077
 21
354.1783510236612
 31
0.0
  0
LINE
  5
32E
330
1F
100
AcDbEntity
  8
0
  6
Continuous
 62
     7
100
AcDbLine
 10
544.5509978971078
 20
354.1783500236612
 30
0.0
 11
546.5460248971075
 21
354.1783500236612
 31
0.0
  0
LINE
  5
32F
330
1F
100
AcDbEntity
  8
0
  6
Continuous
 62
     7
100
AcDbLine
 10
545.4460248971075
 20
350.9783500236612
 30
0.0
 11
545.4460248971075
 21
350.6783500236612
 31
0.0
  0
LINE
  5
330
330
1F
100
AcDbEntity
  8
0
  6
Continuous
 62
     7
100
AcDbLine
 10
545.4460248971075
 20
350.9783500236612
 30
0.0
 11
544.5509978971078
 21
352.6689565792167
 31
0.0
  0
LINE
  5
331
330
1F
100
AcDbEntity
  8
0
  6
Continuous
 62
     7
100
AcDbLine
 10
545.4460248971075
 20
350.6783500236612
 30
0.0
 11
544.7686748971076
 21
350.2267830236612
 31
0.0
  0
LINE
  5
332
330
1F
100
AcDbEntity
  8
0
  6
Continuous
 62
     7
100
AcDbLine
 10
544.3422863895853
 20
350.6783500236612
 30
0.0
 11
545.4460248971075
 21
350.6783500236612
 31
0.0
  0
LINE
  5
333
330
1F
100
AcDbEntity
  8
0
  6
Continuous
 62
     7
100
AcDbLine
 10
544.5509978971078
 20
351.6783500236612
 30
0.0
 11
544.5509978971078
 21
354.1783500236612
 31
0.0
  0
LINE
  5
334
330
1F
100
AcDbEntity
  8
0
  6
Continuous
 62
     7
100
AcDbLine
 10
544.5509978971078
 20
354.1783500236612
 30
0.0
 11
544.5509978971078
 21
352.6689565792167
 31
0.0
  0
LINE
  5
335
330
1F
100
AcDbEntity
  8
0
  6
DASHED
 62
     4
 48
2.0
100
AcDbLine
 10
497.1509988971078
 20
369.9783470236609
 30
0.0
 11
495.852608897108
 21
369.9783470236609
 31
0.0
  0
LINE
  5
336
330
1F
100
AcDbEntity
  8
0
  6
DASHED
 62
     4
 48
2.0
100
AcDbLine
 10
495.852608897108
 20
371.3783470236612
 30
0.0
 11
497.1509988971078
 21
371.3783470236612
 31
0.0
  0
ARC
  5
337
330
1F
100
AcDbEntity
  8
0
  6
DASHED
 62
     4
 48
2.0
100
AcDbCircle
 10
496.6509992706455
 20
366.5783466501236
 30
0.0
 40
0.4999996264625369
100
AcDbArc
 50
269.9999571957111
 51
0.0000428042855519
  0
ARC
  5
338
330
1F
100
AcDbEntity
  8
0
  6
DASHED
 62
     4
 48
2.0
100
AcDbCircle
 10
496.6509992706455
 20
374.7783473971986
 30
0.0
 40
0.4999996264625369
100
AcDbArc
 50
359.9999571957112
 51
90.00004280428878
  0
CIRCLE
  5
339
330
1F
100
AcDbEntity
  8
0
  6
DASHED
 62
     4
100
AcDbCircle
 10
484.550997897108
 20
384.428343342742
 30
0.0
 40
2.249998319081443
  0
LINE
  5
33A
330
1F
100
AcDbEntity
  8
0
  6
DASHED
 62
     4
 48
2.0
100
AcDbLine
 10
487.9509988971078
 20
371.3783470236612
 30
0.0
 11
489.2493898971078
 21
371.3783470236612
 31
0.0
  0
LINE
  5
33B
330
1F
100
AcDbEntity
  8
0
  6
DASHED
 62
     4
 48
2.0
100
AcDbLine
 10
489.2493898971078
 20
369.9783470236609
 30
0.0
 11
487.9509988971078
 21
369.9783470236609
 31
0.0
  0
ARC
  5
33C
330
1F
100
AcDbEntity
  8
0
  6
DASHED
 62
     4
 48
2.0
100
AcDbCircle
 10
488.4509985235704
 20
374.7783473971986
 30
0.0
 40
0.4999996264625369
100
AcDbArc
 50
89.99995719571119
 51
180.0000428042888
  0
ARC
  5
33D
330
1F
100
AcDbEntity
  8
0
  6
DASHED
 62
     4
 48
2.0
100
AcDbCircle
 10
488.4509985235704
 20
366.5783466501236
 30
0.0
 40
0.4999996264625655
100
AcDbArc
 50
179.9999571957144
 51
270.0000428042887
  0
LINE
  5
33E
330
1F
100
AcDbEntity
  8
0
  6
DASHED
 62
     4
 48
2.0
100
AcDbLine
 10
487.9509988971078
 20
366.5783470236612
 30
0.0
 11
487.9509988971078
 21
374.7783470236611
 31
0.0
  0
LINE
  5
33F
330
1F
100
AcDbEntity
  8
0
  6
DASHED
 62
     4
 48
2.0
100
AcDbLine
 10
481.150998897108
 20
374.7783470236611
 30
0.0
 11
481.150998897108
 21
366.5783470236612
 31
0.0
  0
LINE
  5
340
330
1F
100
AcDbEntity
  8
0
  6
Continuous
 62
     7
100
AcDbLine
 10
480.3009978971078
 20
370.6783500236612
 30
0.0
 11
480.3009978971078
 21
370.6783500236612
 31
0.0
  0
LINE
  5
341
330
1F
100
AcDbEntity
  8
0
  6
DASHED
 62
     4
 48
2.0
100
AcDbLine
 10
481.150998897108
 20
369.9783470236609
 30
0.0
 11
479.8526088971079
 21
369.9783470236609
 31
0.0
  0
LINE
  5
342
330
1F
100
AcDbEntity
  8
0
  6
DASHED
 62
     4
 48
2.0
100
AcDbLine
 10
481.150998897108
 20
371.3783470236612
 30
0.0
 11
481.150998897108
 21
369.9783470236609
 31
0.0
  0
LINE
  5
343
330
1F
100
AcDbEntity
  8
0
  6
DASHED
 62
     4
 48
2.0
100
AcDbLine
 10
479.8526088971079
 20
371.3783470236612
 30
0.0
 11
481.150998897108
 21
371.3783470236612
 31
0.0
  0
LINE
  5
344
330
1F
100
AcDbEntity
  8
0
  6
DASHED
 62
     7
 48
2.0
100
AcDbLine
 10
479.9259988971078
 20
370.6783470236612
 30
0.0
 11
479.9259988971078
 21
370.6783470236612
 31
0.0
  0
ARC
  5
345
330
1F
100
AcDbEntity
  8
0
  6
DASHED
 62
     4
 48
2.0
100
AcDbCircle
 10
480.6509992706454
 20
366.5783466501236
 30
0.0
 40
0.4999996264625369
100
AcDbArc
 50
269.9999571957111
 51
0.0000428042855519
  0
LINE
  5
346
330
1F
100
AcDbEntity
  8
0
  6
DASHED
 62
     4
 48
2.0
100
AcDbLine
 10
487.9509988971078
 20
369.9783470236609
 30
0.0
 11
487.9509988971078
 21
371.3783470236612
 31
0.0
  0
ARC
  5
347
330
1F
100
AcDbEntity
  8
0
  6
DASHED
 62
     4
 48
2.0
100
AcDbCircle
 10
480.6509992706454
 20
374.7783473971986
 30
0.0
 40
0.4999996264625369
100
AcDbArc
 50
359.9999571957112
 51
90.00004280428878
  0
ARC
  5
348
330
1F
100
AcDbEntity
  8
0
  6
Continuous
 62
     7
100
AcDbCircle
 10
492.5509983777752
 20
370.6783505043285
 30
0.0
 40
3.750000480667355
100
AcDbArc
 50
269.9999926559454
 51
180.0000073440544
  0
LINE
  5
349
330
1F
100
AcDbEntity
  8
0
  6
DASHED
 62
     4
 48
2.0
100
AcDbLine
 10
493.1009988971078
 20
371.2283470236611
 30
0.0
 11
493.1009988971078
 21
372.5783470236612
 31
0.0
  0
LINE
  5
34A
330
1F
100
AcDbEntity
  8
0
  6
DASHED
 62
     4
 48
2.0
100
AcDbLine
 10
492.0009988971078
 20
371.2283470236611
 30
0.0
 11
492.0009988971078
 21
372.5783470236612
 31
0.0
  0
ARC
  5
34B
330
1F
100
AcDbEntity
  8
0
  6
DASHED
 62
     4
 48
2.0
100
AcDbCircle
 10
492.5509984645072
 20
370.6783465910604
 30
0.0
 40
3.375000432600613
100
AcDbArc
 50
89.99999265594556
 51
0.0000073440544439
  0
ARC
  5
34C
330
1F
100
AcDbEntity
  8
0
  6
DASHED
 62
     4
 48
2.0
100
AcDbCircle
 10
492.5510014184866
 20
370.6783495450399
 30
0.0
 40
3.374997478622193
100
AcDbArc
 50
359.9999571957112
 51
90.00004280428553
  0
LINE
  5
34D
330
1F
100
AcDbEntity
  8
0
  6
DASHED
 62
     4
 48
2.0
100
AcDbLine
 10
492.0009988971078
 20
368.7783470236609
 30
0.0
 11
493.1009988971078
 21
368.7783470236609
 31
0.0
  0
LINE
  5
34E
330
1F
100
AcDbEntity
  8
0
  6
DASHED
 62
     4
 48
2.0
100
AcDbLine
 10
493.2509988971078
 20
366.0783470236609
 30
0.0
 11
491.8509988971076
 21
366.0783470236609
 31
0.0
  0
LINE
  5
34F
330
1F
100
AcDbEntity
  8
0
  6
DASHED
 62
     4
 48
2.0
100
AcDbLine
 10
496.6509988971078
 20
366.0783470236609
 30
0.0
 11
488.4509988971078
 21
366.0783470236609
 31
0.0
  0
LINE
  5
350
330
1F
100
AcDbEntity
  8
0
  6
Continuous
 62
     7
100
AcDbLine
 10
488.800997897108
 20
370.6783500236612
 30
0.0
 11
488.800997897108
 21
370.6783500236612
 31
0.0
  0
ARC
  5
351
330
1F
100
AcDbEntity
  8
0
  6
Continuous
 62
     7
100
AcDbCircle
 10
492.5509950955761
 20
370.6783472221291
 30
0.0
 40
3.749997198469111
100
AcDbArc
 50
179.9999571957112
 51
270.0000428042855
  0
LINE
  5
352
330
1F
100
AcDbEntity
  8
0
  6
DASHED
 62
     4
 48
2.0
100
AcDbLine
 10
489.175998897108
 20
371.2283470236611
 30
0.0
 11
492.0009988971078
 21
371.2283470236611
 31
0.0
  0
LINE
  5
353
330
1F
100
AcDbEntity
  8
0
  6
DASHED
 62
     4
 48
2.0
100
AcDbLine
 10
489.175998897108
 20
370.1283470236611
 30
0.0
 11
492.0009988971078
 21
370.1283470236611
 31
0.0
  0
LINE
  5
354
330
1F
100
AcDbEntity
  8
0
  6
DASHED
 62
     4
 48
2.0
100
AcDbLine
 10
492.0009988971078
 20
368.7783470236609
 30
0.0
 11
492.0009988971078
 21
370.1283470236611
 31
0.0
  0
LINE
  5
355
330
1F
100
AcDbEntity
  8
0
  6
DASHED
 62
     4
 48
2.0
100
AcDbLine
 10
491.8509988971076
 20
366.0783470236609
 30
0.0
 11
491.8509988971076
 21
367.3767370236611
 31
0.0
  0
LINE
  5
356
330
1F
100
AcDbEntity
  8
0
  6
DASHED
 62
     4
 48
2.0
100
AcDbLine
 10
493.1009988971078
 20
371.2283470236611
 30
0.0
 11
495.925998897108
 21
371.2283470236611
 31
0.0
  0
LINE
  5
357
330
1F
100
AcDbEntity
  8
0
  6
DASHED
 62
     4
 48
2.0
100
AcDbLine
 10
493.1009988971078
 20
370.1283470236611
 30
0.0
 11
495.925998897108
 21
370.1283470236611
 31
0.0
  0
LINE
  5
358
330
1F
100
AcDbEntity
  8
0
  6
DASHED
 62
     4
 48
2.0
100
AcDbLine
 10
493.1009988971078
 20
368.7783470236609
 30
0.0
 11
493.1009988971078
 21
370.1283470236611
 31
0.0
  0
LINE
  5
359
330
1F
100
AcDbEntity
  8
0
  6
DASHED
 62
     4
 48
2.0
100
AcDbLine
 10
493.2509988971078
 20
367.3767370236611
 30
0.0
 11
493.2509988971078
 21
366.0783470236609
 31
0.0
  0
LINE
  5
35A
330
1F
100
AcDbEntity
  8
0
  6
DASHED
 62
     7
 48
2.0
100
AcDbLine
 10
495.925998897108
 20
370.6783470236612
 30
0.0
 11
495.925998897108
 21
370.6783470236612
 31
0.0
  0
LINE
  5
35B
330
1F
100
AcDbEntity
  8
0
  6
DASHED
 62
     4
 48
2.0
100
AcDbLine
 10
492.0009988971078
 20
372.5783470236612
 30
0.0
 11
493.1009988971078
 21
372.5783470236612
 31
0.0
  0
LINE
  5
35C
330
1F
100
AcDbEntity
  8
0
  6
DASHED
 62
     4
 48
2.0
100
AcDbLine
 10
491.8509988971076
 20
375.2783470236611
 30
0.0
 11
493.2509988971078
 21
375.2783470236611
 31
0.0
  0
LINE
  5
35D
330
1F
100
AcDbEntity
  8
0
  6
DASHED
 62
     4
 48
2.0
100
AcDbLine
 10
488.4509988971078
 20
375.2783470236611
 30
0.0
 11
496.6509988971078
 21
375.2783470236611
 31
0.0
  0
LINE
  5
35E
330
1F
100
AcDbEntity
  8
0
  6
DASHED
 62
     4
 48
2.0
100
AcDbLine
 10
491.8509988971076
 20
373.9799560236608
 30
0.0
 11
491.8509988971076
 21
375.2783470236611
 31
0.0
  0
LINE
  5
35F
330
1F
100
AcDbEntity
  8
0
  6
DASHED
 62
     4
 48
2.0
100
AcDbLine
 10
493.2509988971078
 20
375.2783470236611
 30
0.0
 11
493.2509988971078
 21
373.9799560236608
 31
0.0
  0
LINE
  5
360
330
1F
100
AcDbEntity
  8
0
  6
DASHED
 62
     4
 48
2.0
100
AcDbLine
 10
497.1509988971078
 20
374.7783470236611
 30
0.0
 11
497.1509988971078
 21
366.5783470236612
 31
0.0
  0
LINE
  5
361
330
1F
100
AcDbEntity
  8
0
  6
DASHED
 62
     4
 48
2.0
100
AcDbLine
 10
497.1509988971078
 20
371.3783470236612
 30
0.0
 11
497.1509988971078
 21
369.9783470236609
 31
0.0
  0
ARC
  5
362
330
1F
100
AcDbEntity
  8
0
  6
Continuous
 62
     7
100
AcDbCircle
 10
497.5509993912582
 20
375.1783515178113
 30
0.0
 40
1.999998505850204
100
AcDbArc
 50
359.9999571957112
 51
90.00004280428553
  0
ARC
  5
363
330
1F
100
AcDbEntity
  8
0
  6
DASHED
 62
     4
100
AcDbCircle
 10
497.3509995406732
 20
384.9783516672266
 30
0.0
 40
2.199998356435187
100
AcDbArc
 50
359.9999571957112
 51
90.00004280428553
  0
ARC
  5
364
330
1F
100
AcDbEntity
  8
0
  6
Continuous
 62
     7
100
AcDbCircle
 10
546.0742918339849
 20
374.1783469547616
 30
0.0
 40
3.000003068901082
100
AcDbArc
 50
90.0000560901641
 51
170.1341539216521
  0
LINE
  5
365
330
1F
100
AcDbEntity
  8
0
  6
Continuous
 62
     7
100
AcDbLine
 10
541.9528458971076
 20
367.9889760236611
 30
0.0
 11
541.6572818971076
 21
368.0403790236612
 31
0.0
  0
LINE
  5
366
330
1F
100
AcDbEntity
  8
0
  6
Continuous
 62
     7
100
AcDbLine
 10
542.3043118971076
 20
370.0099070236611
 30
0.0
 11
542.0087478971075
 21
370.0613090236611
 31
0.0
  0
LINE
  5
367
330
1F
100
AcDbEntity
  8
0
  6
Continuous
 62
     7
100
AcDbLine
 10
541.6572818971076
 20
368.0403790236612
 30
0.0
 11
542.0087478971075
 21
370.0613090236611
 31
0.0
  0
LINE
  5
368
330
1F
100
AcDbEntity
  8
0
  6
Continuous
 62
     7
100
AcDbLine
 10
546.5460248971075
 20
377.1783500236612
 30
0.0
 11
546.0742888971077
 21
377.1783500236612
 31
0.0
  0
LINE
  5
369
330
1F
100
AcDbEntity
  8
0
  6
DASHED
 62
     4
100
AcDbLine
 10
624.3009988971076
 20
377.1783500236612
 30
0.0
 11
624.3009988971076
 21
297.1783500236608
 31
0.0
  0
LINE
  5
36A
330
1F
100
AcDbEntity
  8
0
  6
DASHED
 62
     4
100
AcDbLine
 10
622.3009988971076
 20
377.1783500236612
 30
0.0
 11
622.3009988971076
 21
297.1783500236608
 31
0.0
  0
LINE
  5
36B
330
1F
100
AcDbEntity
  8
0
  6
DASHED
 62
     4
100
AcDbLine
 10
621.8009988971076
 20
377.1783500236612
 30
0.0
 11
621.8009988971076
 21
297.1783500236608
 31
0.0
  0
LINE
  5
36C
330
1F
100
AcDbEntity
  8
0
  6
DASHED
 62
     4
100
AcDbLine
 10
614.0509968971078
 20
377.1783500236612
 30
0.0
 11
614.0509968971078
 21
297.1783500236608
 31
0.0
  0
LINE
  5
36D
330
1F
100
AcDbEntity
  8
0
  6
DASHED
 62
     4
100
AcDbLine
 10
614.5509968971076
 20
377.1783500236612
 30
0.0
 11
614.5509968971076
 21
297.1783500236608
 31
0.0
  0
LINE
  5
36E
330
1F
100
AcDbEntity
  8
0
  6
DASHED
 62
     4
100
AcDbLine
 10
612.0509968971076
 20
377.1783500236612
 30
0.0
 11
612.0509968971076
 21
297.1783500236608
 31
0.0
  0
LINE
  5
36F
330
1F
100
AcDbEntity
  8
0
  6
DASHED
 62
     4
100
AcDbLine
 10
611.550996897108
 20
377.1783500236612
 30
0.0
 11
611.550996897108
 21
297.1783500236608
 31
0.0
  0
LINE
  5
370
330
1F
100
AcDbEntity
  8
0
  6
DASHED
 62
     4
100
AcDbLine
 10
604.0509978971077
 20
377.1783500236612
 30
0.0
 11
604.0509978971077
 21
297.1783500236608
 31
0.0
  0
LINE
  5
371
330
1F
100
AcDbEntity
  8
0
  6
DASHED
 62
     4
100
AcDbLine
 10
603.5509978971074
 20
377.1783500236612
 30
0.0
 11
603.5509978971074
 21
297.1783500236608
 31
0.0
  0
LINE
  5
372
330
1F
100
AcDbEntity
  8
0
  6
DASHED
 62
     4
100
AcDbLine
 10
601.5509978971078
 20
377.1783500236612
 30
0.0
 11
601.5509978971078
 21
297.1783500236608
 31
0.0
  0
LINE
  5
373
330
1F
100
AcDbEntity
  8
0
  6
DASHED
 62
     4
100
AcDbLine
 10
601.0509978971078
 20
377.1783500236612
 30
0.0
 11
601.0509978971078
 21
297.1783500236608
 31
0.0
  0
LINE
  5
374
330
1F
100
AcDbEntity
  8
0
  6
DASHED
 62
     4
100
AcDbLine
 10
594.0509998971077
 20
377.1783500236612
 30
0.0
 11
594.0509998971077
 21
297.1783500236608
 31
0.0
  0
LINE
  5
375
330
1F
100
AcDbEntity
  8
0
  6
DASHED
 62
     4
100
AcDbLine
 10
593.5509998971078
 20
377.1783500236612
 30
0.0
 11
593.5509998971078
 21
297.1783500236608
 31
0.0
  0
LINE
  5
376
330
1F
100
AcDbEntity
  8
0
  6
DASHED
 62
     4
100
AcDbLine
 10
591.5509998971079
 20
377.1783500236612
 30
0.0
 11
591.5509998971079
 21
297.1783500236608
 31
0.0
  0
LINE
  5
377
330
1F
100
AcDbEntity
  8
0
  6
DASHED
 62
     4
100
AcDbLine
 10
591.0509998971074
 20
377.1783500236612
 30
0.0
 11
591.0509998971074
 21
297.1783500236608
 31
0.0
  0
LINE
  5
378
330
1F
100
AcDbEntity
  8
0
  6
DASHED
 62
     4
100
AcDbLine
 10
584.0509978971079
 20
377.1783500236612
 30
0.0
 11
584.0509978971079
 21
297.1783500236608
 31
0.0
  0
LINE
  5
379
330
1F
100
AcDbEntity
  8
0
  6
DASHED
 62
     4
100
AcDbLine
 10
583.5509978971079
 20
377.1783500236612
 30
0.0
 11
583.5509978971079
 21
297.1783500236608
 31
0.0
  0
LINE
  5
37A
330
1F
100
AcDbEntity
  8
0
  6
DASHED
 62
     4
100
AcDbLine
 10
581.5509978971078
 20
377.1783500236612
 30
0.0
 11
581.5509978971078
 21
297.1783500236608
 31
0.0
  0
LINE
  5
37B
330
1F
100
AcDbEntity
  8
0
  6
DASHED
 62
     4
100
AcDbLine
 10
581.0509978971074
 20
377.1783500236612
 30
0.0
 11
581.0509978971074
 21
297.1783500236608
 31
0.0
  0
LINE
  5
37C
330
1F
100
AcDbEntity
  8
0
  6
DASHED
 62
     4
100
AcDbLine
 10
574.0509978971077
 20
377.1783500236612
 30
0.0
 11
574.0509978971077
 21
297.1783500236608
 31
0.0
  0
LINE
  5
37D
330
1F
100
AcDbEntity
  8
0
  6
DASHED
 62
     4
100
AcDbLine
 10
573.5509978971077
 20
377.1783500236612
 30
0.0
 11
573.5509978971077
 21
297.1783500236608
 31
0.0
  0
LINE
  5
37E
330
1F
100
AcDbEntity
  8
0
  6
DASHED
 62
     4
100
AcDbLine
 10
572.5509978971074
 20
377.1783500236612
 30
0.0
 11
572.5509978971074
 21
297.1783500236608
 31
0.0
  0
LINE
  5
37F
330
1F
100
AcDbEntity
  8
0
  6
DASHED
 62
     4
100
AcDbLine
 10
570.0509978971077
 20
377.1783500236612
 30
0.0
 11
570.0509978971077
 21
297.1783500236608
 31
0.0
  0
LINE
  5
380
330
1F
100
AcDbEntity
  8
0
  6
DASHED
 62
     4
100
AcDbLine
 10
568.5509978971074
 20
377.1783500236612
 30
0.0
 11
568.5509978971074
 21
297.1783500236608
 31
0.0
  0
LINE
  5
381
330
1F
100
AcDbEntity
  8
0
  6
Continuous
 62
     7
100
AcDbLine
 10
567.5509978971079
 20
373.1783500236612
 30
0.0
 11
567.5509978971079
 21
301.1783500236609
 31
0.0
  0
LINE
  5
382
330
1F
100
AcDbEntity
  8
0
  6
Continuous
 62
     7
100
AcDbLine
 10
568.5509978971074
 20
376.0783500236612
 30
0.0
 11
568.5509978971074
 21
298.2783500236612
 31
0.0
  0
LINE
  5
383
330
1F
100
AcDbEntity
  8
0
  6
Continuous
 62
     7
100
AcDbLine
 10
568.0509978971078
 20
301.1783500236609
 30
0.0
 11
568.0509978971078
 21
297.1783500236608
 31
0.0
  0
LINE
  5
384
330
1F
100
AcDbEntity
  8
0
  6
Continuous
 62
     7
100
AcDbLine
 10
568.0509978971078
 20
301.1783500236609
 30
0.0
 11
567.5509978971079
 21
301.1783500236609
 31
0.0
  0
LINE
  5
385
330
1F
100
AcDbEntity
  8
0
  6
Continuous
 62
     7
100
AcDbLine
 10
568.5509978971074
 20
298.2783500236612
 30
0.0
 11
568.0509978971078
 21
298.2783500236612
 31
0.0
  0
LINE
  5
386
330
1F
100
AcDbEntity
  8
0
  6
Continuous
 62
     7
100
AcDbLine
 10
553.0510078971079
 20
320.1783500236613
 30
0.0
 11
553.0510078971079
 21
354.1783500236612
 31
0.0
  0
LINE
  5
387
330
1F
100
AcDbEntity
  8
0
  6
Continuous
 62
     7
100
AcDbLine
 10
566.0510078971078
 20
354.1783500236612
 30
0.0
 11
566.0510078971078
 21
320.1783500236613
 31
0.0
  0
LINE
  5
388
330
1F
100
AcDbEntity
  8
0
  6
Continuous
 62
     7
100
AcDbLine
 10
552.551007897108
 20
355.6598820236609
 30
0.0
 11
552.551007897108
 21
318.6598820236611
 31
0.0
  0
LINE
  5
389
330
1F
100
AcDbEntity
  8
0
  6
Continuous
 62
     7
100
AcDbLine
 10
564.051007897108
 20
318.1783500236613
 30
0.0
 11
555.0510078971078
 21
318.1783500236613
 31
0.0
  0
LINE
  5
38A
330
1F
100
AcDbEntity
  8
0
  6
Continuous
 62
     7
100
AcDbLine
 10
553.5510078971078
 20
317.6598820236611
 30
0.0
 11
567.5510068971078
 21
317.6598820236611
 31
0.0
  0
ARC
  5
38B
330
1F
100
AcDbEntity
  8
0
  6
Continuous
 62
     7
100
AcDbCircle
 10
555.0510064029573
 20
320.1783485295108
 30
0.0
 40
1.999998505850204
100
AcDbArc
 50
179.9999571957112
 51
270.0000428042855
  0
ARC
  5
38C
330
1F
100
AcDbEntity
  8
0
  6
Continuous
 62
     7
100
AcDbCircle
 10
553.5510071500326
 20
318.659881276586
 30
0.0
 40
0.9999992529250738
100
AcDbArc
 50
179.9999571957112
 51
270.0000428042887
  0
ARC
  5
38D
330
1F
100
AcDbEntity
  8
0
  6
Continuous
 62
     7
100
AcDbCircle
 10
564.051009391258
 20
320.1783485295108
 30
0.0
 40
1.999998505850204
100
AcDbArc
 50
269.9999571957144
 51
0.0000428042888088
  0
LINE
  5
38E
330
1F
100
AcDbEntity
  8
0
  6
Continuous
 62
     7
100
AcDbLine
 10
555.0510078971078
 20
356.178350023661
 30
0.0
 11
564.051007897108
 21
356.178350023661
 31
0.0
  0
LINE
  5
38F
330
1F
100
AcDbEntity
  8
0
  6
Continuous
 62
     7
100
AcDbLine
 10
567.5510088971078
 20
356.6598820236609
 30
0.0
 11
553.5510078971078
 21
356.6598820236609
 31
0.0
  0
ARC
  5
390
330
1F
100
AcDbEntity
  8
0
  6
Continuous
 62
     7
100
AcDbCircle
 10
555.0510064029573
 20
354.1783515178112
 30
0.0
 40
1.999998505850204
100
AcDbArc
 50
89.99995719571442
 51
180.0000428042855
  0
ARC
  5
391
330
1F
100
AcDbEntity
  8
0
  6
Continuous
 62
     7
100
AcDbCircle
 10
553.5510071500326
 20
355.6598827707363
 30
0.0
 40
0.9999992529251022
100
AcDbArc
 50
89.99995719571119
 51
180.0000428042855
  0
ARC
  5
392
330
1F
100
AcDbEntity
  8
0
  6
Continuous
 62
     7
100
AcDbCircle
 10
564.051009391258
 20
354.1783515178112
 30
0.0
 40
1.999998505850204
100
AcDbArc
 50
359.9999571957112
 51
90.00004280428553
  0
LINE
  5
393
330
1F
100
AcDbEntity
  8
0
  6
Continuous
 62
     7
100
AcDbLine
 10
568.0509978971078
 20
377.1783500236612
 30
0.0
 11
568.0509978971078
 21
373.1783500236612
 31
0.0
  0
LINE
  5
394
330
1F
100
AcDbEntity
  8
0
  6
Continuous
 62
     7
100
AcDbLine
 10
567.5509978971079
 20
373.1783500236612
 30
0.0
 11
568.0509978971078
 21
373.1783500236612
 31
0.0
  0
LINE
  5
395
330
1F
100
AcDbEntity
  8
0
  6
Continuous
 62
     7
100
AcDbLine
 10
568.0509978971078
 20
376.0783500236612
 30
0.0
 11
568.5509978971074
 21
376.0783500236612
 31
0.0
  0
LINE
  5
396
330
1F
100
AcDbEntity
  8
0
  6
DASHED
 62
     4
100
AcDbLine
 10
629.0509978971076
 20
377.1783500236612
 30
0.0
 11
629.0509978971076
 21
297.1783500236608
 31
0.0
  0
LINE
  5
397
330
1F
100
AcDbEntity
  8
0
  6
DASHED
 62
     4
100
AcDbLine
 10
628.0509978971076
 20
377.1783500236612
 30
0.0
 11
628.0509978971076
 21
297.1783500236608
 31
0.0
  0
LINE
  5
398
330
1F
100
AcDbEntity
  8
0
  6
DASHED
 62
     4
100
AcDbLine
 10
624.8009988971078
 20
377.1783500236612
 30
0.0
 11
624.8009988971078
 21
297.1783500236608
 31
0.0
  0
LINE
  5
399
330
1F
100
AcDbEntity
  8
0
  6
DASHED
 62
     4
100
AcDbLine
 10
630.050997897108
 20
377.1783500236612
 30
0.0
 11
630.050997897108
 21
297.1783500236608
 31
0.0
  0
LINE
  5
39A
330
1F
100
AcDbEntity
  8
0
  6
DASHED
 62
     4
100
AcDbLine
 10
631.5509978971078
 20
377.1783500236612
 30
0.0
 11
631.5509978971078
 21
292.1783500236613
 31
0.0
  0
LINE
  5
39B
330
1F
100
AcDbEntity
  8
0
  6
DASHED
 62
     4
100
AcDbLine
 10
639.5509978971078
 20
352.6783500236612
 30
0.0
 11
639.5509978971078
 21
387.178350023661
 31
0.0
  0
LINE
  5
39C
330
1F
100
AcDbEntity
  8
0
  6
DASHED
 62
     4
100
AcDbLine
 10
635.5509978971078
 20
287.3783500236609
 30
0.0
 11
635.5509978971078
 21
319.3783500236611
 31
0.0
  0
LINE
  5
39D
330
1F
100
AcDbEntity
  8
0
  6
DASHED
 62
     4
100
AcDbLine
 10
639.5509978971078
 20
318.3783500236611
 30
0.0
 11
639.5509978971078
 21
287.3783500236609
 31
0.0
  0
LINE
  5
39E
330
1F
100
AcDbEntity
  8
0
  6
DASHED
 62
     4
100
AcDbLine
 10
639.5509978971078
 20
297.3783500236612
 30
0.0
 11
639.5509978971078
 21
319.3783500236611
 31
0.0
  0
LINE
  5
39F
330
1F
100
AcDbEntity
  8
0
  6
DASHED
 62
     4
100
AcDbLine
 10
639.5509978971078
 20
319.3783500236611
 30
0.0
 11
639.5509978971078
 21
297.3783500236612
 31
0.0
  0
LINE
  5
3A0
330
1F
100
AcDbEntity
  8
0
  6
DASHED
 62
     4
100
AcDbLine
 10
635.5509978971078
 20
294.3783500236611
 30
0.0
 11
631.5509978971078
 21
294.3783500236611
 31
0.0
  0
LINE
  5
3A1
330
1F
100
AcDbEntity
  8
0
  6
DASHED
 62
     4
100
AcDbLine
 10
631.5509978971078
 20
292.1783500236613
 30
0.0
 11
635.5509978971078
 21
292.1783500236613
 31
0.0
  0
LINE
  5
3A2
330
1F
100
AcDbEntity
  8
0
  6
DASHED
 62
     4
100
AcDbLine
 10
639.5509978971078
 20
292.3783500236611
 30
0.0
 11
635.5509978971078
 21
292.3783500236611
 31
0.0
  0
LINE
  5
3A3
330
1F
100
AcDbEntity
  8
0
  6
DASHED
 62
     4
100
AcDbLine
 10
639.5509978971078
 20
289.3783500236608
 30
0.0
 11
635.5509978971078
 21
289.3783500236608
 31
0.0
  0
LINE
  5
3A4
330
1F
100
AcDbEntity
  8
0
  6
DASHED
 62
     4
100
AcDbLine
 10
639.5509978971078
 20
287.3783500236609
 30
0.0
 11
635.5509978971078
 21
287.3783500236609
 31
0.0
  0
LINE
  5
3A5
330
1F
100
AcDbEntity
  8
0
  6
DASHED
 62
     4
100
AcDbLine
 10
639.5509978971078
 20
297.3783500236612
 30
0.0
 11
635.5509978971078
 21
297.3783500236612
 31
0.0
  0
LINE
  5
3A6
330
1F
100
AcDbEntity
  8
0
  6
DASHED
 62
     4
100
AcDbLine
 10
635.5509978971078
 20
354.6783500236612
 30
0.0
 11
635.5509978971078
 21
319.3783500236611
 31
0.0
  0
LINE
  5
3A7
330
1F
100
AcDbEntity
  8
0
  6
DASHED
 62
     4
100
AcDbLine
 10
637.550997897108
 20
321.3783500236611
 30
0.0
 11
638.8843308971078
 21
319.3783500236611
 31
0.0
  0
LINE
  5
3A8
330
1F
100
AcDbEntity
  8
0
  6
DASHED
 62
     4
100
AcDbLine
 10
635.5509978971078
 20
319.3783500236611
 30
0.0
 11
639.5509978971078
 21
319.3783500236611
 31
0.0
  0
LINE
  5
3A9
330
1F
100
AcDbEntity
  8
0
  6
DASHED
 62
     4
100
AcDbLine
 10
636.5509978971076
 20
319.3783500236611
 30
0.0
 11
636.5509978971076
 21
321.3783500236611
 31
0.0
  0
LINE
  5
3AA
330
1F
100
AcDbEntity
  8
0
  6
DASHED
 62
     4
100
AcDbLine
 10
636.5509978971076
 20
321.3783500236611
 30
0.0
 11
637.550997897108
 21
321.3783500236611
 31
0.0
  0
LINE
  5
3AB
330
1F
100
AcDbEntity
  8
0
  6
DASHED
 62
     4
100
AcDbLine
 10
637.0509978971076
 20
352.6783500236612
 30
0.0
 11
639.5509978971078
 21
352.6783500236612
 31
0.0
  0
LINE
  5
3AC
330
1F
100
AcDbEntity
  8
0
  6
DASHED
 62
     4
100
AcDbLine
 10
635.5509978971078
 20
354.6783500236612
 30
0.0
 11
639.5509978971078
 21
354.6783500236612
 31
0.0
  0
LINE
  5
3AD
330
1F
100
AcDbEntity
  8
0
  6
DASHED
 62
     4
100
AcDbLine
 10
636.5509978971076
 20
354.6783500236612
 30
0.0
 11
637.0509978971076
 21
352.6783500236612
 31
0.0
  0
LINE
  5
3AE
330
1F
100
AcDbEntity
  8
0
  6
DASHED
 62
     4
100
AcDbLine
 10
639.5509978971078
 20
352.6783500236612
 30
0.0
 11
639.5509978971078
 21
356.6783500236612
 31
0.0
  0
LINE
  5
3AF
330
1F
100
AcDbEntity
  8
0
  6
DASHED
 62
     4
100
AcDbLine
 10
635.5509978971078
 20
387.178350023661
 30
0.0
 11
635.5509978971078
 21
377.1783500236612
 31
0.0
  0
LINE
  5
3B0
330
1F
100
AcDbEntity
  8
0
  6
DASHED
 62
     4
100
AcDbLine
 10
639.5509978971078
 20
384.9783500236611
 30
0.0
 11
635.5509978971078
 21
384.9783500236611
 31
0.0
  0
LINE
  5
3B1
330
1F
100
AcDbEntity
  8
0
  6
DASHED
 62
     4
100
AcDbLine
 10
639.5509978971078
 20
387.178350023661
 30
0.0
 11
635.5509978971078
 21
387.178350023661
 31
0.0
  0
ENDSEC
  0
SECTION
  2
OBJECTS
  0
DICTIONARY
  5
C
330
0
100
AcDbDictionary
281
     1
  3
ACAD_GROUP
350
D
  3
ACAD_LAYOUT
350
1A
  3
ACAD_MLINESTYLE
350
17
  3
ACAD_PLOTSETTINGS
350
19
  3
ACAD_PLOTSTYLENAME
350
E
  3
DWGPROPS
350
3B2
  0
DICTIONARY
  5
D
102
{ACAD_REACTORS
330
C
102
}
330
C
100
AcDbDictionary
281
     1
  0
DICTIONARY
  5
1A
102
{ACAD_REACTORS
330
C
102
}
330
C
100
AcDbDictionary
281
     1
  3
Model
350
22
  3
ﾚｲｱｳﾄ1
350
51
  3
ﾚｲｱｳﾄ2
350
56
  0
DICTIONARY
  5
17
102
{ACAD_REACTORS
330
C
102
}
330
C
100
AcDbDictionary
281
     1
  3
Standard
350
18
  0
DICTIONARY
  5
19
102
{ACAD_REACTORS
330
C
102
}
330
C
100
AcDbDictionary
281
     1
  0
ACDBDICTIONARYWDFLT
  5
E
102
{ACAD_REACTORS
330
C
102
}
330
C
100
AcDbDictionary
281
     1
  3
Normal
350
F
100
AcDbDictionaryWithDefault
340
F
  0
XRECORD
  5
3B2
102
{ACAD_REACTORS
330
C
102
}
330
C
100
AcDbXrecord
280
     1
  1
DWGPROPS COOKIE
  2

  3

  4

  6

  7

  8

  9

300
=
301
=
302
=
303
=
304
=
305
=
306
=
307
=
308
=
309
=
 40
0.0004236226851852
 41
2456499.778171654
 42
2456499.778595278
  1

 90
        0
  0
LAYOUT
  5
22
102
{ACAD_REACTORS
330
1A
102
}
330
1A
100
AcDbPlotSettings
  1

  2
none_device
  4
ANSI_A_(8.50_x_11.00_Inches)
  6

 40
6.349999904632567
 41
19.04999923706053
 42
6.350006103515625
 43
19.04998779296875
 44
215.8999938964842
 45
279.3999938964843
 46
0.0
 47
0.0
 48
0.0
 49
0.0
140
0.0
141
0.0
142
1.0
143
78.436453180766
 70
 11952
 72
     0
 73
     1
 74
     0
  7

 75
     0
147
0.0127491741332998
148
0.0
149
0.0
100
AcDbLayout
  1
Model
 70
     1
 71
     0
 10
0.0
 20
0.0
 11
12.0
 21
9.0
 12
0.0
 22
0.0
 32
0.0
 14
0.0
 24
0.0
 34
0.0
 15
0.0
 25
0.0
 35
0.0
146
0.0
 13
0.0
 23
0.0
 33
0.0
 16
1.0
 26
0.0
 36
0.0
 17
0.0
 27
1.0
 37
0.0
 76
     0
330
1F
  0
LAYOUT
  5
51
102
{ACAD_REACTORS
330
1A
102
}
330
1A
100
AcDbPlotSettings
  1

  2
None
  4

  6

 40
0.0
 41
0.0
 42
0.0
 43
0.0
 44
0.0
 45
0.0
 46
0.0
 47
0.0
 48
0.0
 49
0.0
140
0.0
141
0.0
142
1.0
143
1.0
 70
   688
 72
     0
 73
     0
 74
     5
  7

 75
    16
147
1.0
148
0.0
149
0.0
100
AcDbLayout
  1
ﾚｲｱｳﾄ1
 70
     1
 71
     1
 10
0.0
 20
0.0
 11
12.0
 21
9.0
 12
0.0
 22
0.0
 32
0.0
 14
0.0
 24
0.0
 34
0.0
 15
0.0
 25
0.0
 35
0.0
146
0.0
 13
0.0
 23
0.0
 33
0.0
 16
1.0
 26
0.0
 36
0.0
 17
0.0
 27
1.0
 37
0.0
 76
     0
330
50
  0
LAYOUT
  5
56
102
{ACAD_REACTORS
330
1A
102
}
330
1A
100
AcDbPlotSettings
  1

  2
None
  4

  6

 40
0.0
 41
0.0
 42
0.0
 43
0.0
 44
0.0
 45
0.0
 46
0.0
 47
0.0
 48
0.0
 49
0.0
140
0.0
141
0.0
142
1.0
143
1.0
 70
   688
 72
     0
 73
     0
 74
     5
  7

 75
    16
147
1.0
148
0.0
149
0.0
100
AcDbLayout
  1
ﾚｲｱｳﾄ2
 70
     1
 71
     2
 10
0.0
 20
0.0
 11
12.0
 21
9.0
 12
0.0
 22
0.0
 32
0.0
 14
0.0
 24
0.0
 34
0.0
 15
0.0
 25
0.0
 35
0.0
146
0.0
 13
0.0
 23
0.0
 33
0.0
 16
1.0
 26
0.0
 36
0.0
 17
0.0
 27
1.0
 37
0.0
 76
     0
330
55
  0
MLINESTYLE
  5
18
102
{ACAD_REACTORS
330
17
102
}
330
17
100
AcDbMlineStyle
  2
STANDARD
 70
     0
  3

 62
   256
 51
90.0
 52
90.0
 71
     2
 49
0.5
 62
   256
  6
BYLAYER
 49
-0.5
 62
   256
  6
BYLAYER
  0
ACDBPLACEHOLDER
  5
F
102
{ACAD_REACTORS
330
E
102
}
330
E
  0
ENDSEC
  0
EOF
