  0
SECTION
  2
HEADER
  9
$ACADVER
  1
AC1015
  9
$ACADMAINTVER
 70
    10
  9
$DWGCODEPAGE
  3
ANSI_932
  9
$INSBASE
 10
0.0
 20
0.0
 30
0.0
  9
$EXTMIN
 10
482.9376551003639
 20
210.0795103987729
 30
0.0
  9
$EXTMAX
 10
594.851869100364
 20
291.157232455728
 30
0.0
  9
$LIMMIN
 10
0.0
 20
0.0
  9
$LIMMAX
 10
420.0
 20
297.0
  9
$ORTHOMODE
 70
     0
  9
$REGENMODE
 70
     1
  9
$FILLMODE
 70
     1
  9
$QTEXTMODE
 70
     0
  9
$MIRRTEXT
 70
     1
  9
$LTSCALE
 40
1.0
  9
$ATTMODE
 70
     1
  9
$TEXTSIZE
 40
2.5
  9
$TRACEWID
 40
1.0
  9
$TEXTSTYLE
  7
Standard
  9
$CLAYER
  8
0
  9
$CELTYPE
  6
ByLayer
  9
$CECOLOR
 62
   256
  9
$CELTSCALE
 40
1.0
  9
$DISPSILH
 70
     0
  9
$DIMSCALE
 40
1.0
  9
$DIMASZ
 40
2.5
  9
$DIMEXO
 40
0.625
  9
$DIMDLI
 40
3.75
  9
$DIMRND
 40
0.0
  9
$DIMDLE
 40
0.0
  9
$DIMEXE
 40
1.25
  9
$DIMTP
 40
0.0
  9
$DIMTM
 40
0.0
  9
$DIMTXT
 40
2.5
  9
$DIMCEN
 40
2.5
  9
$DIMTSZ
 40
0.0
  9
$DIMTOL
 70
     0
  9
$DIMLIM
 70
     0
  9
$DIMTIH
 70
     0
  9
$DIMTOH
 70
     0
  9
$DIMSE1
 70
     0
  9
$DIMSE2
 70
     0
  9
$DIMTAD
 70
     1
  9
$DIMZIN
 70
     8
  9
$DIMBLK
  1

  9
$DIMASO
 70
     1
  9
$DIMSHO
 70
     1
  9
$DIMPOST
  1

  9
$DIMAPOST
  1

  9
$DIMALT
 70
     0
  9
$DIMALTD
 70
     3
  9
$DIMALTF
 40
0.03937007874016
  9
$DIMLFAC
 40
1.0
  9
$DIMTOFL
 70
     1
  9
$DIMTVP
 40
0.0
  9
$DIMTIX
 70
     0
  9
$DIMSOXD
 70
     0
  9
$DIMSAH
 70
     0
  9
$DIMBLK1
  1

  9
$DIMBLK2
  1

  9
$DIMSTYLE
  2
ISO-25
  9
$DIMCLRD
 70
     0
  9
$DIMCLRE
 70
     0
  9
$DIMCLRT
 70
     0
  9
$DIMTFAC
 40
1.0
  9
$DIMGAP
 40
0.625
  9
$DIMJUST
 70
     0
  9
$DIMSD1
 70
     0
  9
$DIMSD2
 70
     0
  9
$DIMTOLJ
 70
     0
  9
$DIMTZIN
 70
     8
  9
$DIMALTZ
 70
     0
  9
$DIMALTTZ
 70
     0
  9
$DIMUPT
 70
     0
  9
$DIMDEC
 70
     2
  9
$DIMTDEC
 70
     2
  9
$DIMALTU
 70
     2
  9
$DIMALTTD
 70
     3
  9
$DIMTXSTY
  7
Standard
  9
$DIMAUNIT
 70
     0
  9
$DIMADEC
 70
     0
  9
$DIMALTRND
 40
0.0
  9
$DIMAZIN
 70
     0
  9
$DIMDSEP
 70
    44
  9
$DIMATFIT
 70
     3
  9
$DIMFRAC
 70
     0
  9
$DIMLDRBLK
  1

  9
$DIMLUNIT
 70
     2
  9
$DIMLWD
 70
    -2
  9
$DIMLWE
 70
    -2
  9
$DIMTMOVE
 70
     0
  9
$LUNITS
 70
     2
  9
$LUPREC
 70
     4
  9
$SKETCHINC
 40
1.0
  9
$FILLETRAD
 40
10.0
  9
$AUNITS
 70
     0
  9
$AUPREC
 70
     0
  9
$MENU
  1
.
  9
$ELEVATION
 40
0.0
  9
$PELEVATION
 40
0.0
  9
$THICKNESS
 40
0.0
  9
$LIMCHECK
 70
     0
  9
$CHAMFERA
 40
10.0
  9
$CHAMFERB
 40
10.0
  9
$CHAMFERC
 40
20.0
  9
$CHAMFERD
 40
0.0
  9
$SKPOLY
 70
     0
  9
$TDCREATE
 40
2456499.778867210
  9
$TDUCREATE
 40
2456499.403867210
  9
$TDUPDATE
 40
2456500.621786273
  9
$TDUUPDATE
 40
2456500.246786273
  9
$TDINDWG
 40
0.0011892824
  9
$TDUSRTIMER
 40
0.0011890972
  9
$USRTIMER
 70
     1
  9
$ANGBASE
 50
0.0
  9
$ANGDIR
 70
     0
  9
$PDMODE
 70
     0
  9
$PDSIZE
 40
0.0
  9
$PLINEWID
 40
0.0
  9
$SPLFRAME
 70
     0
  9
$SPLINETYPE
 70
     6
  9
$SPLINESEGS
 70
     8
  9
$HANDSEED
  5
2EF
  9
$SURFTAB1
 70
     6
  9
$SURFTAB2
 70
     6
  9
$SURFTYPE
 70
     6
  9
$SURFU
 70
     6
  9
$SURFV
 70
     6
  9
$UCSBASE
  2

  9
$UCSNAME
  2

  9
$UCSORG
 10
0.0
 20
0.0
 30
0.0
  9
$UCSXDIR
 10
1.0
 20
0.0
 30
0.0
  9
$UCSYDIR
 10
0.0
 20
1.0
 30
0.0
  9
$UCSORTHOREF
  2

  9
$UCSORTHOVIEW
 70
     0
  9
$UCSORGTOP
 10
0.0
 20
0.0
 30
0.0
  9
$UCSORGBOTTOM
 10
0.0
 20
0.0
 30
0.0
  9
$UCSORGLEFT
 10
0.0
 20
0.0
 30
0.0
  9
$UCSORGRIGHT
 10
0.0
 20
0.0
 30
0.0
  9
$UCSORGFRONT
 10
0.0
 20
0.0
 30
0.0
  9
$UCSORGBACK
 10
0.0
 20
0.0
 30
0.0
  9
$PUCSBASE
  2

  9
$PUCSNAME
  2

  9
$PUCSORG
 10
0.0
 20
0.0
 30
0.0
  9
$PUCSXDIR
 10
1.0
 20
0.0
 30
0.0
  9
$PUCSYDIR
 10
0.0
 20
1.0
 30
0.0
  9
$PUCSORTHOREF
  2

  9
$PUCSORTHOVIEW
 70
     0
  9
$PUCSORGTOP
 10
0.0
 20
0.0
 30
0.0
  9
$PUCSORGBOTTOM
 10
0.0
 20
0.0
 30
0.0
  9
$PUCSORGLEFT
 10
0.0
 20
0.0
 30
0.0
  9
$PUCSORGRIGHT
 10
0.0
 20
0.0
 30
0.0
  9
$PUCSORGFRONT
 10
0.0
 20
0.0
 30
0.0
  9
$PUCSORGBACK
 10
0.0
 20
0.0
 30
0.0
  9
$USERI1
 70
     0
  9
$USERI2
 70
     0
  9
$USERI3
 70
     0
  9
$USERI4
 70
     0
  9
$USERI5
 70
     0
  9
$USERR1
 40
0.0
  9
$USERR2
 40
0.0
  9
$USERR3
 40
0.0
  9
$USERR4
 40
0.0
  9
$USERR5
 40
0.0
  9
$WORLDVIEW
 70
     1
  9
$SHADEDGE
 70
     3
  9
$SHADEDIF
 70
    70
  9
$TILEMODE
 70
     1
  9
$MAXACTVP
 70
    64
  9
$PINSBASE
 10
0.0
 20
0.0
 30
0.0
  9
$PLIMCHECK
 70
     0
  9
$PEXTMIN
 10
0.0
 20
0.0
 30
0.0
  9
$PEXTMAX
 10
0.0
 20
0.0
 30
0.0
  9
$PLIMMIN
 10
0.0
 20
0.0
  9
$PLIMMAX
 10
12.0
 20
9.0
  9
$UNITMODE
 70
     0
  9
$VISRETAIN
 70
     1
  9
$PLINEGEN
 70
     0
  9
$PSLTSCALE
 70
     1
  9
$TREEDEPTH
 70
  3020
  9
$CMLSTYLE
  2
Standard
  9
$CMLJUST
 70
     0
  9
$CMLSCALE
 40
20.0
  9
$PROXYGRAPHICS
 70
     1
  9
$MEASUREMENT
 70
     1
  9
$CELWEIGHT
370
    -1
  9
$ENDCAPS
280
     0
  9
$JOINSTYLE
280
     0
  9
$LWDISPLAY
290
     0
  9
$INSUNITS
 70
     4
  9
$HYPERLINKBASE
  1

  9
$STYLESHEET
  1

  9
$XEDIT
290
     1
  9
$CEPSNTYPE
380
     0
  9
$PSTYLEMODE
290
     1
  9
$FINGERPRINTGUID
  2
{FDEAD578-A652-11D2-9A35-0060089B3A3F}
  9
$VERSIONGUID
  2
{17C30816-9A0D-47E0-AF51-FB1A89197893}
  9
$EXTNAMES
290
     1
  9
$PSVPSCALE
 40
0.0
  9
$OLESTARTUP
290
     0
  0
ENDSEC
  0
SECTION
  2
CLASSES
  0
CLASS
  1
ACDBDICTIONARYWDFLT
  2
AcDbDictionaryWithDefault
  3
AutoCAD 2000
 90
        0
280
     0
281
     0
  0
CLASS
  1
ACDBPLACEHOLDER
  2
AcDbPlaceHolder
  3
AutoCAD 2000
 90
        0
280
     0
281
     0
  0
CLASS
  1
LAYOUT
  2
AcDbLayout
  3
AutoCAD 2000
 90
        0
280
     0
281
     0
  0
ENDSEC
  0
SECTION
  2
TABLES
  0
TABLE
  2
VPORT
  5
8
330
0
100
AcDbSymbolTable
 70
     2
  0
VPORT
  5
2EE
330
8
100
AcDbSymbolTableRecord
100
AcDbViewportTableRecord
  2
*Active
 70
     0
 10
0.0
 20
0.0
 11
1.0
 21
1.0
 12
540.3137820474561
 22
252.5456933980468
 13
0.0
 23
0.0
 14
10.0
 24
10.0
 15
10.0
 25
10.0
 16
0.0
 26
0.0
 36
1.0
 17
0.0
 27
0.0
 37
0.0
 40
99.4945621709
 41
1.781954887218044
 42
50.0
 43
0.0
 44
0.0
 50
0.0
 51
0.0
 71
     0
 72
   100
 73
     1
 74
     3
 75
     0
 76
     0
 77
     0
 78
     0
281
     0
 65
     1
110
0.0
120
0.0
130
0.0
111
1.0
121
0.0
131
0.0
112
0.0
122
1.0
132
0.0
 79
     0
146
0.0
  0
ENDTAB
  0
TABLE
  2
LTYPE
  5
5
330
0
100
AcDbSymbolTable
 70
     2
  0
LTYPE
  5
14
330
5
100
AcDbSymbolTableRecord
100
AcDbLinetypeTableRecord
  2
ByBlock
 70
     0
  3

 72
    65
 73
     0
 40
0.0
  0
LTYPE
  5
15
330
5
100
AcDbSymbolTableRecord
100
AcDbLinetypeTableRecord
  2
ByLayer
 70
     0
  3

 72
    65
 73
     0
 40
0.0
  0
LTYPE
  5
16
330
5
100
AcDbSymbolTableRecord
100
AcDbLinetypeTableRecord
  2
Continuous
 70
     0
  3
Solid line
 72
    65
 73
     0
 40
0.0
  0
LTYPE
  5
61
330
5
100
AcDbSymbolTableRecord
100
AcDbLinetypeTableRecord
  2
DASHED
 70
     0
  3
DASHED
 72
    65
 73
     2
 40
0.75
 49
0.5
 74
     0
 49
-0.25
 74
     0
  0
ENDTAB
  0
TABLE
  2
LAYER
  5
2
330
0
100
AcDbSymbolTable
 70
     1
  0
LAYER
  5
10
330
2
100
AcDbSymbolTableRecord
100
AcDbLayerTableRecord
  2
0
 70
     0
 62
     7
  6
Continuous
370
    -3
390
F
  0
ENDTAB
  0
TABLE
  2
STYLE
  5
3
330
0
100
AcDbSymbolTable
 70
     1
  0
STYLE
  5
11
330
3
100
AcDbSymbolTableRecord
100
AcDbTextStyleTableRecord
  2
Standard
 70
     0
 40
0.0
 41
1.0
 50
0.0
 71
     0
 42
2.5
  3
txt
  4

  0
ENDTAB
  0
TABLE
  2
VIEW
  5
6
330
0
100
AcDbSymbolTable
 70
     0
  0
ENDTAB
  0
TABLE
  2
UCS
  5
7
330
0
100
AcDbSymbolTable
 70
     0
  0
ENDTAB
  0
TABLE
  2
APPID
  5
9
330
0
100
AcDbSymbolTable
 70
     1
  0
APPID
  5
12
330
9
100
AcDbSymbolTableRecord
100
AcDbRegAppTableRecord
  2
ACAD
 70
     0
  0
ENDTAB
  0
TABLE
  2
DIMSTYLE
  5
A
330
0
100
AcDbSymbolTable
 70
     1
100
AcDbDimStyleTable
 71
     1
340
27
  0
DIMSTYLE
105
27
330
A
100
AcDbSymbolTableRecord
100
AcDbDimStyleTableRecord
  2
ISO-25
 70
     0
 41
2.5
 42
0.625
 43
3.75
 44
1.25
 73
     0
 74
     0
 77
     1
 78
     8
140
2.5
141
2.5
143
0.03937007874016
147
0.625
171
     3
172
     1
271
     2
272
     2
274
     3
278
    44
283
     0
284
     8
340
11
  0
ENDTAB
  0
TABLE
  2
BLOCK_RECORD
  5
1
330
0
100
AcDbSymbolTable
 70
     0
  0
BLOCK_RECORD
  5
1F
330
1
100
AcDbSymbolTableRecord
100
AcDbBlockTableRecord
  2
*Model_Space
340
22
  0
BLOCK_RECORD
  5
50
330
1
100
AcDbSymbolTableRecord
100
AcDbBlockTableRecord
  2
*Paper_Space
340
51
  0
ENDTAB
  0
ENDSEC
  0
SECTION
  2
BLOCKS
  0
BLOCK
  5
20
330
1F
100
AcDbEntity
  8
0
100
AcDbBlockBegin
  2
*Model_Space
 70
     0
 10
0.0
 20
0.0
 30
0.0
  3
*Model_Space
  1

  0
ENDBLK
  5
21
330
1F
100
AcDbEntity
  8
0
100
AcDbBlockEnd
  0
BLOCK
  5
52
330
50
100
AcDbEntity
 67
     1
  8
0
100
AcDbBlockBegin
  2
*Paper_Space
 70
     0
 10
0.0
 20
0.0
 30
0.0
  3
*Paper_Space
  1

  0
ENDBLK
  5
53
330
50
100
AcDbEntity
 67
     1
  8
0
100
AcDbBlockEnd
  0
ENDSEC
  0
SECTION
  2
ENTITIES
  0
LINE
  5
1A6
330
1F
100
AcDbEntity
  8
0
  6
Continuous
 62
     7
100
AcDbLine
 10
572.8468961003637
 20
290.6183714272505
 30
0.0
 11
572.3751601003638
 21
290.6183714272505
 31
0.0
  0
ARC
  5
1A7
330
1F
100
AcDbEntity
  8
0
  6
Continuous
 62
     7
100
AcDbCircle
 10
572.375163037241
 20
287.6183683583509
 30
0.0
 40
3.000003068901082
100
AcDbArc
 50
90.0000560901641
 51
170.1341539216521
  0
LINE
  5
1A8
330
1F
100
AcDbEntity
  8
0
  6
Continuous
 62
     7
100
AcDbLine
 10
567.9581531003638
 20
281.4804004272505
 30
0.0
 11
568.3096191003636
 21
283.5013304272505
 31
0.0
  0
LINE
  5
1A9
330
1F
100
AcDbEntity
  8
0
  6
Continuous
 62
     7
100
AcDbLine
 10
568.6051831003637
 20
283.4499284272503
 30
0.0
 11
568.3096191003636
 21
283.5013304272505
 31
0.0
  0
LINE
  5
1AA
330
1F
100
AcDbEntity
  8
0
  6
Continuous
 62
     7
100
AcDbLine
 10
568.2537171003637
 20
281.4289974272504
 30
0.0
 11
567.9581531003638
 21
281.4804004272505
 31
0.0
  0
LINE
  5
1AB
330
1F
100
AcDbEntity
  8
0
  6
Continuous
 62
     7
100
AcDbLine
 10
570.8518691003637
 20
267.6183714272505
 30
0.0
 11
572.8468961003637
 21
267.6183714272505
 31
0.0
  0
LINE
  5
1AC
330
1F
100
AcDbEntity
  8
0
  6
Continuous
 62
     7
100
AcDbLine
 10
570.8518691003637
 20
267.6183714272505
 30
0.0
 11
572.8426601003639
 21
267.6183724272505
 31
0.0
  0
LINE
  5
1AD
330
1F
100
AcDbEntity
  8
0
  6
Continuous
 62
     7
100
AcDbLine
 10
572.8468961003637
 20
262.5683714272505
 30
0.0
 11
570.8518691003637
 21
262.5683714272505
 31
0.0
  0
LINE
  5
1AE
330
1F
100
AcDbEntity
  8
0
  6
Continuous
 62
     7
100
AcDbLine
 10
571.7468961003637
 20
264.4183714272505
 30
0.0
 11
571.7468961003637
 21
264.1183714272504
 31
0.0
  0
LINE
  5
1AF
330
1F
100
AcDbEntity
  8
0
  6
Continuous
 62
     7
100
AcDbLine
 10
570.8518691003637
 20
262.5683714272503
 30
0.0
 11
570.8518691003637
 21
263.3211232803772
 31
0.0
  0
ARC
  5
1B0
330
1F
100
AcDbEntity
  8
0
  6
Continuous
 62
     7
100
AcDbCircle
 10
571.3468958201903
 20
263.2507793646175
 30
0.0
 40
0.4999997198266292
100
AcDbArc
 50
123.6900368313692
 51
171.912345401067
  0
LINE
  5
1B1
330
1F
100
AcDbEntity
  8
0
  6
Continuous
 62
     7
100
AcDbLine
 10
570.6431575928412
 20
264.1183714272504
 30
0.0
 11
571.7468961003637
 21
264.1183714272504
 31
0.0
  0
LINE
  5
1B2
330
1F
100
AcDbEntity
  8
0
  6
Continuous
 62
     7
100
AcDbLine
 10
571.7468961003637
 20
264.1183714272504
 30
0.0
 11
571.0695461003638
 21
263.6668044272503
 31
0.0
  0
LINE
  5
1B3
330
1F
100
AcDbEntity
  8
0
  6
Continuous
 62
     7
100
AcDbLine
 10
571.7468961003637
 20
264.4183714272505
 30
0.0
 11
570.8518691003637
 21
266.108977982806
 31
0.0
  0
LINE
  5
1B4
330
1F
100
AcDbEntity
  8
0
  6
Continuous
 62
     7
100
AcDbLine
 10
570.8518691003637
 20
267.6183714272505
 30
0.0
 11
570.8518691003637
 21
266.108977982806
 31
0.0
  0
LINE
  5
1B5
330
1F
100
AcDbEntity
  8
0
  6
Continuous
 62
     7
100
AcDbLine
 10
570.8518691003637
 20
265.1183714272503
 30
0.0
 11
570.8518691003637
 21
267.6183714272505
 31
0.0
  0
LINE
  5
1B6
330
1F
100
AcDbEntity
  8
0
  6
Continuous
 62
     7
100
AcDbLine
 10
565.8518691003637
 20
267.3594454272505
 30
0.0
 11
565.8518691003637
 21
262.9183714272504
 31
0.0
  0
LINE
  5
1B7
330
1F
100
AcDbEntity
  8
0
  6
Continuous
 62
     7
100
AcDbLine
 10
566.1518691003638
 20
262.6183714272503
 30
0.0
 11
568.3518691003637
 21
262.6183714272503
 31
0.0
  0
ARC
  5
1B8
330
1F
100
AcDbEntity
  8
0
  6
Continuous
 62
     7
100
AcDbCircle
 10
566.1518688762412
 20
262.9183712031279
 30
0.0
 40
0.2999997758775221
100
AcDbArc
 50
179.9999571957079
 51
270.0000428042789
  0
LINE
  5
1B9
330
1F
100
AcDbEntity
  8
0
  6
Continuous
 62
     7
100
AcDbLine
 10
565.8518691003637
 20
263.6186704272505
 30
0.0
 11
565.8518691003637
 21
263.6183714272505
 31
0.0
  0
ARC
  5
1BA
330
1F
100
AcDbEntity
  8
0
  6
Continuous
 62
     7
100
AcDbCircle
 10
568.8518874831921
 20
267.3594475457875
 30
0.0
 40
3.000018382829248
100
AcDbArc
 50
170.1343053458804
 51
180.0000404608276
  0
ARC
  5
1BB
330
1F
100
AcDbEntity
  8
0
  6
Continuous
 62
     7
100
AcDbCircle
 10
568.3518709680519
 20
265.1183695595626
 30
0.0
 40
2.49999813231274
100
AcDbArc
 50
269.9999571957111
 51
0.0000428042888088
  0
LINE
  5
1BC
330
1F
100
AcDbEntity
  8
0
  6
Continuous
 62
     7
100
AcDbLine
 10
570.8518691003637
 20
262.5683714272505
 30
0.0
 11
565.8518691003637
 21
260.6183714272503
 31
0.0
  0
LINE
  5
1BD
330
1F
100
AcDbEntity
  8
0
  6
Continuous
 62
     7
100
AcDbLine
 10
577.4468961003638
 20
260.6183714272505
 30
0.0
 11
572.8468961003637
 21
260.6183714272505
 31
0.0
  0
LINE
  5
1BE
330
1F
100
AcDbEntity
  8
0
  6
Continuous
 62
     7
100
AcDbLine
 10
570.8518691003637
 20
233.6183714272503
 30
0.0
 11
572.8468961003637
 21
233.6183704293691
 31
0.0
  0
LINE
  5
1BF
330
1F
100
AcDbEntity
  8
0
  6
Continuous
 62
     7
100
AcDbLine
 10
570.8518691003637
 20
233.6183714272503
 30
0.0
 11
572.8468961003637
 21
233.6183704293691
 31
0.0
  0
LINE
  5
1C0
330
1F
100
AcDbEntity
  8
0
  6
Continuous
 62
     7
100
AcDbLine
 10
572.8468961003637
 20
238.6683714272505
 30
0.0
 11
570.8518691003637
 21
238.6683714272505
 31
0.0
  0
LINE
  5
1C1
330
1F
100
AcDbEntity
  8
0
  6
Continuous
 62
     7
100
AcDbLine
 10
570.8518691003637
 20
237.9156195741237
 30
0.0
 11
570.8518691003637
 21
238.6683714272505
 31
0.0
  0
ARC
  5
1C2
330
1F
100
AcDbEntity
  8
0
  6
Continuous
 62
     7
100
AcDbCircle
 10
571.3468958201903
 20
237.9859634898835
 30
0.0
 40
0.4999997198266057
100
AcDbArc
 50
188.0876545989167
 51
236.3099631686306
  0
LINE
  5
1C3
330
1F
100
AcDbEntity
  8
0
  6
Continuous
 62
     7
100
AcDbLine
 10
571.7468961003637
 20
236.8183714272505
 30
0.0
 11
570.8518691003637
 21
235.1277648716949
 31
0.0
  0
LINE
  5
1C4
330
1F
100
AcDbEntity
  8
0
  6
Continuous
 62
     7
100
AcDbLine
 10
570.8518691003637
 20
233.6183714272503
 30
0.0
 11
570.8518691003637
 21
235.1277648716949
 31
0.0
  0
LINE
  5
1C5
330
1F
100
AcDbEntity
  8
0
  6
Continuous
 62
     7
100
AcDbLine
 10
570.8518691003637
 20
236.1183714272503
 30
0.0
 11
570.8518691003637
 21
233.6183714272503
 31
0.0
  0
LINE
  5
1C6
330
1F
100
AcDbEntity
  8
0
  6
Continuous
 62
     7
100
AcDbLine
 10
571.7468961003637
 20
237.1183714272504
 30
0.0
 11
571.0695461003638
 21
237.5699384272504
 31
0.0
  0
LINE
  5
1C7
330
1F
100
AcDbEntity
  8
0
  6
Continuous
 62
     7
100
AcDbLine
 10
571.7468961003637
 20
236.8183714272505
 30
0.0
 11
571.7468961003637
 21
237.1183714272504
 31
0.0
  0
LINE
  5
1C8
330
1F
100
AcDbEntity
  8
0
  6
Continuous
 62
     7
100
AcDbLine
 10
570.6532701003636
 20
237.1183714272504
 30
0.0
 11
571.7468961003637
 21
237.1183714272504
 31
0.0
  0
LINE
  5
1C9
330
1F
100
AcDbEntity
  8
0
  6
Continuous
 62
     7
100
AcDbLine
 10
566.1518691003638
 20
238.6183714272505
 30
0.0
 11
568.3518691003637
 21
238.6183714272505
 31
0.0
  0
ARC
  5
1CA
330
1F
100
AcDbEntity
  8
0
  6
Continuous
 62
     7
100
AcDbCircle
 10
566.1518688762412
 20
238.318371651373
 30
0.0
 40
0.2999997758775221
100
AcDbArc
 50
89.99995719571769
 51
180.0000428042953
  0
LINE
  5
1CB
330
1F
100
AcDbEntity
  8
0
  6
Continuous
 62
     7
100
AcDbLine
 10
565.8518691003637
 20
233.8772974272504
 30
0.0
 11
565.8518691003637
 21
238.3183714272505
 31
0.0
  0
ARC
  5
1CC
330
1F
100
AcDbEntity
  8
0
  6
Continuous
 62
     7
100
AcDbCircle
 10
568.8518874831926
 20
233.8772953087135
 30
0.0
 40
3.000018382829418
100
AcDbArc
 50
179.9999595391691
 51
189.8656946541195
  0
LINE
  5
1CD
330
1F
100
AcDbEntity
  8
0
  6
Continuous
 62
     7
100
AcDbLine
 10
570.8518691003637
 20
238.6683714272505
 30
0.0
 11
565.8518691003637
 21
240.6183714272505
 31
0.0
  0
ARC
  5
1CE
330
1F
100
AcDbEntity
  8
0
  6
Continuous
 62
     7
100
AcDbCircle
 10
568.3518709680519
 20
236.1183732949383
 30
0.0
 40
2.49999813231274
100
AcDbArc
 50
359.9999571957112
 51
90.00004280428553
  0
LINE
  5
1CF
330
1F
100
AcDbEntity
  8
0
  6
Continuous
 62
     7
100
AcDbLine
 10
572.8468961003637
 20
210.6183714272505
 30
0.0
 11
572.3751601003638
 21
210.6183714272505
 31
0.0
  0
ARC
  5
1D0
330
1F
100
AcDbEntity
  8
0
  6
Continuous
 62
     7
100
AcDbCircle
 10
572.3751624427784
 20
213.61837399615
 30
0.0
 40
3.000002568900517
100
AcDbArc
 50
189.8658574317317
 51
269.9999552632139
  0
LINE
  5
1D1
330
1F
100
AcDbEntity
  8
0
  6
Continuous
 62
     7
100
AcDbLine
 10
568.3823921003637
 20
217.3169694272505
 30
0.0
 11
568.7338581003635
 21
215.2960384272505
 31
0.0
  0
LINE
  5
1D2
330
1F
100
AcDbEntity
  8
0
  6
Continuous
 62
     7
100
AcDbLine
 10
568.6779561003637
 20
217.3683714272505
 30
0.0
 11
568.3823921003637
 21
217.3169694272505
 31
0.0
  0
LINE
  5
1D3
330
1F
100
AcDbEntity
  8
0
  6
Continuous
 62
     7
100
AcDbLine
 10
569.0294221003638
 20
215.3474404272505
 30
0.0
 11
568.7338581003635
 21
215.2960384272505
 31
0.0
  0
LINE
  5
1D4
330
1F
100
AcDbEntity
  8
0
  6
Continuous
 62
     7
100
AcDbLine
 10
572.8468961003637
 20
233.6183714272503
 30
0.0
 11
572.8468961003637
 21
210.6183714272505
 31
0.0
  0
LINE
  5
1D5
330
1F
100
AcDbEntity
  8
0
  6
Continuous
 62
     7
100
AcDbLine
 10
572.8468961003637
 20
238.6683714272505
 30
0.0
 11
572.8468961003637
 21
210.6183714272505
 31
0.0
  0
LINE
  5
1D6
330
1F
100
AcDbEntity
  8
0
  6
Continuous
 62
     7
100
AcDbLine
 10
565.8962331003638
 20
233.3632744272504
 30
0.0
 11
569.4195251003637
 21
213.1043474272505
 31
0.0
  0
LINE
  5
1D7
330
1F
100
AcDbEntity
  8
0
  6
Continuous
 62
     7
100
AcDbLine
 10
577.4468961003638
 20
240.6183714272505
 30
0.0
 11
572.8468961003637
 21
240.6183714272505
 31
0.0
  0
LINE
  5
1D8
330
1F
100
AcDbEntity
  8
0
  6
Continuous
 62
     7
100
AcDbLine
 10
565.8518691003637
 20
238.1209464272504
 30
0.0
 11
565.8518691003637
 21
263.1157964272505
 31
0.0
  0
LINE
  5
1D9
330
1F
100
AcDbEntity
  8
0
  6
Continuous
 62
     7
100
AcDbLine
 10
577.4468961003638
 20
240.6183714272505
 30
0.0
 11
577.4468961003638
 21
260.6183714272505
 31
0.0
  0
LINE
  5
1DA
330
1F
100
AcDbEntity
  8
0
  6
Continuous
 62
     7
100
AcDbLine
 10
572.8468961003637
 20
238.6683714272505
 30
0.0
 11
572.8468961003637
 21
262.5683714272505
 31
0.0
  0
LINE
  5
1DB
330
1F
100
AcDbEntity
  8
0
  6
Continuous
 62
     7
100
AcDbLine
 10
572.8468961003637
 20
267.6183714272505
 30
0.0
 11
572.8468961003637
 21
290.6183714272505
 31
0.0
  0
LINE
  5
1DC
330
1F
100
AcDbEntity
  8
0
  6
Continuous
 62
     7
100
AcDbLine
 10
572.8468961003637
 20
262.5683714272505
 30
0.0
 11
572.8468961003637
 21
290.6183714272505
 31
0.0
  0
LINE
  5
1DD
330
1F
100
AcDbEntity
  8
0
  6
Continuous
 62
     7
100
AcDbLine
 10
572.8468961003637
 20
267.6183714272505
 30
0.0
 11
572.8468961003637
 21
290.6183714272505
 31
0.0
  0
LINE
  5
1DE
330
1F
100
AcDbEntity
  8
0
100
AcDbLine
 10
572.8468961003637
 20
290.6183714272505
 30
0.0
 11
572.8468961003637
 21
210.6183714272505
 31
0.0
  0
LINE
  5
1DF
330
1F
100
AcDbEntity
  8
0
  6
Continuous
 62
     7
100
AcDbLine
 10
565.8962331003638
 20
267.8734684272505
 30
0.0
 11
569.4195251003637
 21
288.1323944272505
 31
0.0
  0
ARC
  5
1E0
330
1F
100
AcDbEntity
  8
0
  6
DASHED
 62
     4
 48
2.0
100
AcDbCircle
 10
518.1863989292724
 20
219.9486806530969
 30
0.0
 40
0.4374996731547269
100
AcDbArc
 50
359.9999571957126
 51
90.00004280428553
  0
LINE
  5
1E1
330
1F
100
AcDbEntity
  8
0
  6
DASHED
 62
     4
 48
2.0
100
AcDbLine
 10
517.7906606483718
 20
216.9736803262515
 30
0.0
 11
518.6238986024269
 21
216.9736803262515
 31
0.0
  0
LINE
  5
1E2
330
1F
100
AcDbEntity
  8
0
100
AcDbLine
 10
517.7906606483718
 20
216.9736803262515
 30
0.0
 11
517.4878076024269
 21
216.9736803262515
 31
0.0
  0
LINE
  5
1E3
330
1F
100
AcDbEntity
  8
0
  6
DASHED
 62
     4
 48
2.0
100
AcDbLine
 10
513.986398602427
 20
219.552946462412
 30
0.0
 11
513.986398602427
 21
220.3861803262512
 31
0.0
  0
LINE
  5
1E4
330
1F
100
AcDbEntity
  8
0
  6
DASHED
 62
     4
 48
2.0
100
AcDbLine
 10
515.2113986024269
 20
220.3861803262512
 30
0.0
 11
515.2113986024269
 21
219.5529464127008
 31
0.0
  0
LINE
  5
1E5
330
1F
100
AcDbEntity
  8
0
  6
Continuous
 62
     7
 48
2.0
100
AcDbLine
 10
514.1176486024269
 20
218.0236803262513
 30
0.0
 11
515.080148602427
 21
218.0236803262513
 31
0.0
  0
LINE
  5
1E6
330
1F
100
AcDbEntity
  8
0
  6
Continuous
 62
     7
 48
2.0
100
AcDbLine
 10
515.080148602427
 20
216.8424303262515
 30
0.0
 11
515.080148602427
 21
218.0236803262513
 31
0.0
  0
LINE
  5
1E7
330
1F
100
AcDbEntity
  8
0
  6
Continuous
 62
     7
 48
2.0
100
AcDbLine
 10
514.1176486024269
 20
216.8424303262515
 30
0.0
 11
514.1176486024269
 21
218.0236803262513
 31
0.0
  0
LINE
  5
1E8
330
1F
100
AcDbEntity
  8
0
100
AcDbLine
 10
515.2113986024269
 20
219.5529464127008
 30
0.0
 11
515.2113986024269
 21
219.2500893262514
 31
0.0
  0
LINE
  5
1E9
330
1F
100
AcDbEntity
  8
0
100
AcDbLine
 10
513.986398602427
 20
219.552946462412
 30
0.0
 11
513.986398602427
 21
219.2500893262514
 31
0.0
  0
LINE
  5
1EA
330
1F
100
AcDbEntity
  8
0
  6
DASHED
 62
     4
 48
2.0
100
AcDbLine
 10
513.986398602427
 20
220.3861803262512
 30
0.0
 11
515.2113986024269
 21
220.3861803262512
 31
0.0
  0
LINE
  5
1EB
330
1F
100
AcDbEntity
  8
0
  6
Continuous
 62
     7
 48
2.0
100
AcDbLine
 10
515.080148602427
 20
216.8424303262515
 30
0.0
 11
517.552023602427
 21
216.8424303262515
 31
0.0
  0
ARC
  5
1EC
330
1F
100
AcDbEntity
  8
0
  6
DASHED
 62
     4
 48
2.0
100
AcDbCircle
 10
511.0113982755816
 20
219.9486806530969
 30
0.0
 40
0.4374996731547269
100
AcDbArc
 50
89.99995719571119
 51
180.0000428042871
  0
LINE
  5
1ED
330
1F
100
AcDbEntity
  8
0
  6
DASHED
 62
     4
 48
2.0
100
AcDbLine
 10
510.5738986024269
 20
216.9736803262515
 30
0.0
 11
511.4071342172937
 21
216.9736803262515
 31
0.0
  0
LINE
  5
1EE
330
1F
100
AcDbEntity
  8
0
100
AcDbLine
 10
511.4071342172937
 20
216.9736803262515
 30
0.0
 11
511.7099906024269
 21
216.9736803262515
 31
0.0
  0
ARC
  5
1EF
330
1F
100
AcDbEntity
  8
0
  6
DASHED
 62
     4
 48
2.0
100
AcDbCircle
 10
500.6863979292724
 20
219.9486806530969
 30
0.0
 40
0.4374996731547269
100
AcDbArc
 50
359.9999571957126
 51
90.00004280428553
  0
LINE
  5
1F0
330
1F
100
AcDbEntity
  8
0
100
AcDbLine
 10
500.2906596483717
 20
216.9736803262515
 30
0.0
 11
499.9878066024268
 21
216.9736803262515
 31
0.0
  0
LINE
  5
1F1
330
1F
100
AcDbEntity
  8
0
  6
DASHED
 62
     4
 48
2.0
100
AcDbLine
 10
500.2906596483717
 20
216.9736803262515
 30
0.0
 11
501.1238976024269
 21
216.9736803262515
 31
0.0
  0
LINE
  5
1F2
330
1F
100
AcDbEntity
  8
0
  6
DASHED
 62
     4
 48
2.0
100
AcDbLine
 10
497.7113976024269
 20
220.3861803262512
 30
0.0
 11
497.7113976024269
 21
219.5529464127008
 31
0.0
  0
LINE
  5
1F3
330
1F
100
AcDbEntity
  8
0
  6
DASHED
 62
     4
 48
2.0
100
AcDbLine
 10
496.4863976024268
 20
219.552946462412
 30
0.0
 11
496.4863976024268
 21
220.3861803262512
 31
0.0
  0
LINE
  5
1F4
330
1F
100
AcDbEntity
  8
0
100
AcDbLine
 10
496.4863976024268
 20
219.552946462412
 30
0.0
 11
496.4863976024268
 21
219.2500893262514
 31
0.0
  0
LINE
  5
1F5
330
1F
100
AcDbEntity
  8
0
100
AcDbLine
 10
497.7113976024269
 20
219.5529464127008
 30
0.0
 11
497.7113976024269
 21
219.2500893262514
 31
0.0
  0
LINE
  5
1F6
330
1F
100
AcDbEntity
  8
0
  6
Continuous
 62
     7
 48
2.0
100
AcDbLine
 10
496.6176476024269
 20
216.8424303262515
 30
0.0
 11
496.6176476024269
 21
218.0236803262513
 31
0.0
  0
LINE
  5
1F7
330
1F
100
AcDbEntity
  8
0
  6
Continuous
 62
     7
 48
2.0
100
AcDbLine
 10
497.5801476024269
 20
216.8424303262515
 30
0.0
 11
497.5801476024269
 21
218.0236803262513
 31
0.0
  0
LINE
  5
1F8
330
1F
100
AcDbEntity
  8
0
  6
Continuous
 62
     7
 48
2.0
100
AcDbLine
 10
496.6176476024269
 20
218.0236803262513
 30
0.0
 11
497.5801476024269
 21
218.0236803262513
 31
0.0
  0
LINE
  5
1F9
330
1F
100
AcDbEntity
  8
0
  6
DASHED
 62
     4
 48
2.0
100
AcDbLine
 10
496.4863976024268
 20
220.3861803262512
 30
0.0
 11
497.7113976024269
 21
220.3861803262512
 31
0.0
  0
LINE
  5
1FA
330
1F
100
AcDbEntity
  8
0
  6
Continuous
 62
     7
 48
2.0
100
AcDbLine
 10
497.5801476024269
 20
216.8424303262515
 30
0.0
 11
500.052022602427
 21
216.8424303262515
 31
0.0
  0
LINE
  5
1FB
330
1F
100
AcDbEntity
  8
0
  6
DASHED
 62
     4
 48
2.0
100
AcDbLine
 10
511.011398602427
 20
220.3861803262512
 30
0.0
 11
518.1863986024269
 21
220.3861803262512
 31
0.0
  0
LINE
  5
1FC
330
1F
100
AcDbEntity
  8
0
  6
Continuous
 62
     7
 48
2.0
100
AcDbLine
 10
511.6457736024269
 20
216.8424303262515
 30
0.0
 11
514.1176486024269
 21
216.8424303262515
 31
0.0
  0
ARC
  5
1FD
330
1F
100
AcDbEntity
  8
0
  6
DASHED
 62
     4
 48
2.0
100
AcDbCircle
 10
493.5113972755814
 20
219.9486806530969
 30
0.0
 40
0.4374996731547269
100
AcDbArc
 50
89.99995719571119
 51
180.0000428042871
  0
LINE
  5
1FE
330
1F
100
AcDbEntity
  8
0
100
AcDbLine
 10
493.9071332172936
 20
216.9736803262515
 30
0.0
 11
494.2099896024268
 21
216.9736803262515
 31
0.0
  0
LINE
  5
1FF
330
1F
100
AcDbEntity
  8
0
  6
DASHED
 62
     4
 48
2.0
100
AcDbLine
 10
493.073897602427
 20
216.9736803262515
 30
0.0
 11
493.9071332172936
 21
216.9736803262515
 31
0.0
  0
LINE
  5
200
330
1F
100
AcDbEntity
  8
0
  6
DASHED
 62
     4
 48
2.0
100
AcDbLine
 10
493.5113976024268
 20
220.3861803262512
 30
0.0
 11
500.6863976024269
 21
220.3861803262512
 31
0.0
  0
LINE
  5
201
330
1F
100
AcDbEntity
  8
0
  6
Continuous
 62
     7
 48
2.0
100
AcDbLine
 10
494.1457726024268
 20
216.8424303262515
 30
0.0
 11
496.6176476024269
 21
216.8424303262515
 31
0.0
  0
ARC
  5
202
330
1F
100
AcDbEntity
  8
0
  6
DASHED
 62
     4
 48
2.0
100
AcDbCircle
 10
518.1863989292724
 20
212.7736799994059
 30
0.0
 40
0.4374996731547269
100
AcDbArc
 50
269.9999571957111
 51
0.0000428042871804
  0
LINE
  5
203
330
1F
100
AcDbEntity
  8
0
  6
DASHED
 62
     4
 48
2.0
100
AcDbLine
 10
518.6238986024269
 20
215.7486803262514
 30
0.0
 11
517.7906587790841
 21
215.7486803262514
 31
0.0
  0
LINE
  5
204
330
1F
100
AcDbEntity
  8
0
100
AcDbLine
 10
517.7906587790841
 20
215.7486803262514
 30
0.0
 11
517.4878076024269
 21
215.7486803262514
 31
0.0
  0
LINE
  5
205
330
1F
100
AcDbEntity
  8
0
  6
DASHED
 62
     4
 48
2.0
100
AcDbLine
 10
515.2113986024269
 20
213.1694219006178
 30
0.0
 11
515.2113986024269
 21
212.3361803262514
 31
0.0
  0
LINE
  5
206
330
1F
100
AcDbEntity
  8
0
  6
DASHED
 62
     4
 48
2.0
100
AcDbLine
 10
513.986398602427
 20
212.3361803262514
 30
0.0
 11
513.986398602427
 21
213.1694213569343
 31
0.0
  0
LINE
  5
207
330
1F
100
AcDbEntity
  8
0
100
AcDbLine
 10
515.2113986024269
 20
213.1694219006178
 30
0.0
 11
515.2113986024269
 21
213.4722723262515
 31
0.0
  0
LINE
  5
208
330
1F
100
AcDbEntity
  8
0
100
AcDbLine
 10
513.986398602427
 20
213.1694213569343
 30
0.0
 11
513.986398602427
 21
213.4722723262515
 31
0.0
  0
LINE
  5
209
330
1F
100
AcDbEntity
  8
0
  6
DASHED
 62
     4
 48
2.0
100
AcDbLine
 10
515.2113986024269
 20
212.3361803262514
 30
0.0
 11
513.986398602427
 21
212.3361803262514
 31
0.0
  0
LINE
  5
20A
330
1F
100
AcDbEntity
  8
0
  6
Continuous
 62
     7
 48
2.0
100
AcDbLine
 10
514.1176486024269
 20
214.6986803262514
 30
0.0
 11
514.1176486024269
 21
215.8799303262513
 31
0.0
  0
LINE
  5
20B
330
1F
100
AcDbEntity
  8
0
  6
Continuous
 62
     7
 48
2.0
100
AcDbLine
 10
514.1176486024269
 20
214.6986803262514
 30
0.0
 11
515.080148602427
 21
214.6986803262514
 31
0.0
  0
LINE
  5
20C
330
1F
100
AcDbEntity
  8
0
  6
Continuous
 62
     7
 48
2.0
100
AcDbLine
 10
515.080148602427
 20
214.6986803262514
 30
0.0
 11
515.080148602427
 21
215.8799303262513
 31
0.0
  0
LINE
  5
20D
330
1F
100
AcDbEntity
  8
0
  6
Continuous
 62
     7
 48
2.0
100
AcDbLine
 10
515.080148602427
 20
215.8799303262513
 30
0.0
 11
517.552023602427
 21
215.8799303262513
 31
0.0
  0
ARC
  5
20E
330
1F
100
AcDbEntity
  8
0
  6
DASHED
 62
     4
 48
2.0
100
AcDbCircle
 10
511.0113982755816
 20
212.7736799994059
 30
0.0
 40
0.4374996731547269
100
AcDbArc
 50
179.9999571957128
 51
270.0000428042855
  0
LINE
  5
20F
330
1F
100
AcDbEntity
  8
0
  6
DASHED
 62
     4
 48
2.0
100
AcDbLine
 10
511.4071355926126
 20
215.7486803262514
 30
0.0
 11
510.5738986024269
 21
215.7486803262514
 31
0.0
  0
LINE
  5
210
330
1F
100
AcDbEntity
  8
0
100
AcDbLine
 10
511.4071355926126
 20
215.7486803262514
 30
0.0
 11
511.7099906024269
 21
215.7486803262514
 31
0.0
  0
ARC
  5
211
330
1F
100
AcDbEntity
  8
0
  6
DASHED
 62
     4
 48
2.0
100
AcDbCircle
 10
500.6863979292724
 20
212.7736799994059
 30
0.0
 40
0.4374996731547269
100
AcDbArc
 50
269.9999571957111
 51
0.0000428042871804
  0
LINE
  5
212
330
1F
100
AcDbEntity
  8
0
100
AcDbLine
 10
500.2906577790843
 20
215.7486803262514
 30
0.0
 11
499.9878066024268
 21
215.7486803262514
 31
0.0
  0
LINE
  5
213
330
1F
100
AcDbEntity
  8
0
  6
DASHED
 62
     4
 48
2.0
100
AcDbLine
 10
501.1238976024269
 20
215.7486803262514
 30
0.0
 11
500.2906577790843
 21
215.7486803262514
 31
0.0
  0
LINE
  5
214
330
1F
100
AcDbEntity
  8
0
  6
DASHED
 62
     4
 48
2.0
100
AcDbLine
 10
497.7113976024269
 20
212.3361803262514
 30
0.0
 11
496.4863976024268
 21
212.3361803262514
 31
0.0
  0
LINE
  5
215
330
1F
100
AcDbEntity
  8
0
100
AcDbLine
 10
496.4863976024268
 20
213.1694213569343
 30
0.0
 11
496.4863976024268
 21
213.4722723262515
 31
0.0
  0
LINE
  5
216
330
1F
100
AcDbEntity
  8
0
100
AcDbLine
 10
497.7113976024269
 20
213.1694219006178
 30
0.0
 11
497.7113976024269
 21
213.4722723262515
 31
0.0
  0
LINE
  5
217
330
1F
100
AcDbEntity
  8
0
  6
DASHED
 62
     4
 48
2.0
100
AcDbLine
 10
496.4863976024268
 20
212.3361803262514
 30
0.0
 11
496.4863976024268
 21
213.1694213569343
 31
0.0
  0
LINE
  5
218
330
1F
100
AcDbEntity
  8
0
  6
DASHED
 62
     4
 48
2.0
100
AcDbLine
 10
497.7113976024269
 20
213.1694219006178
 30
0.0
 11
497.7113976024269
 21
212.3361803262514
 31
0.0
  0
LINE
  5
219
330
1F
100
AcDbEntity
  8
0
  6
Continuous
 62
     7
 48
2.0
100
AcDbLine
 10
497.5801476024269
 20
214.6986803262514
 30
0.0
 11
497.5801476024269
 21
215.8799303262513
 31
0.0
  0
LINE
  5
21A
330
1F
100
AcDbEntity
  8
0
  6
Continuous
 62
     7
 48
2.0
100
AcDbLine
 10
496.6176476024269
 20
214.6986803262514
 30
0.0
 11
497.5801476024269
 21
214.6986803262514
 31
0.0
  0
LINE
  5
21B
330
1F
100
AcDbEntity
  8
0
  6
Continuous
 62
     7
 48
2.0
100
AcDbLine
 10
496.6176476024269
 20
214.6986803262514
 30
0.0
 11
496.6176476024269
 21
215.8799303262513
 31
0.0
  0
LINE
  5
21C
330
1F
100
AcDbEntity
  8
0
  6
Continuous
 62
     7
 48
2.0
100
AcDbLine
 10
497.5801476024269
 20
215.8799303262513
 30
0.0
 11
500.052022602427
 21
215.8799303262513
 31
0.0
  0
LINE
  5
21D
330
1F
100
AcDbEntity
  8
0
  6
DASHED
 62
     4
 48
2.0
100
AcDbLine
 10
518.1863986024269
 20
212.3361803262514
 30
0.0
 11
511.011398602427
 21
212.3361803262514
 31
0.0
  0
LINE
  5
21E
330
1F
100
AcDbEntity
  8
0
  6
Continuous
 62
     7
 48
2.0
100
AcDbLine
 10
511.6457736024269
 20
215.8799303262513
 30
0.0
 11
514.1176486024269
 21
215.8799303262513
 31
0.0
  0
ARC
  5
21F
330
1F
100
AcDbEntity
  8
0
  6
DASHED
 62
     4
 48
2.0
100
AcDbCircle
 10
493.5113972755814
 20
212.7736799994059
 30
0.0
 40
0.4374996731547269
100
AcDbArc
 50
179.9999571957128
 51
270.0000428042855
  0
LINE
  5
220
330
1F
100
AcDbEntity
  8
0
100
AcDbLine
 10
493.9071345926127
 20
215.7486803262514
 30
0.0
 11
494.2099896024268
 21
215.7486803262514
 31
0.0
  0
LINE
  5
221
330
1F
100
AcDbEntity
  8
0
  6
DASHED
 62
     4
 48
2.0
100
AcDbLine
 10
493.9071345926127
 20
215.7486803262514
 30
0.0
 11
493.073897602427
 21
215.7486803262514
 31
0.0
  0
LINE
  5
222
330
1F
100
AcDbEntity
  8
0
  6
DASHED
 62
     4
 48
2.0
100
AcDbLine
 10
500.6863976024269
 20
212.3361803262514
 30
0.0
 11
493.5113976024268
 21
212.3361803262514
 31
0.0
  0
LINE
  5
223
330
1F
100
AcDbEntity
  8
0
  6
Continuous
 62
     7
 48
2.0
100
AcDbLine
 10
494.1457726024268
 20
215.8799303262513
 30
0.0
 11
496.6176476024269
 21
215.8799303262513
 31
0.0
  0
CIRCLE
  5
224
330
1F
100
AcDbEntity
  8
0
100
AcDbCircle
 10
497.0988990304213
 20
216.3611867542458
 30
0.0
 40
3.249997572006547
  0
CIRCLE
  5
225
330
1F
100
AcDbEntity
  8
0
100
AcDbCircle
 10
497.0988990304213
 20
216.3611867542458
 30
0.0
 40
2.953118572005937
  0
LINE
  5
226
330
1F
100
AcDbEntity
  8
0
  6
DASHED
 62
     4
 48
2.0
100
AcDbLine
 10
493.073897602427
 20
212.7736803262513
 30
0.0
 11
493.073897602427
 21
219.9486803262515
 31
0.0
  0
LINE
  5
227
330
1F
100
AcDbEntity
  8
0
  6
DASHED
 62
     4
 48
2.0
100
AcDbLine
 10
501.1238976024269
 20
219.9486803262515
 30
0.0
 11
501.1238976024269
 21
212.7736803262513
 31
0.0
  0
LINE
  5
228
330
1F
100
AcDbEntity
  8
0
  6
DASHED
 62
     4
 48
2.0
100
AcDbLine
 10
493.073897602427
 20
215.7486803262514
 30
0.0
 11
493.073897602427
 21
216.9736803262515
 31
0.0
  0
LINE
  5
229
330
1F
100
AcDbEntity
  8
0
  6
DASHED
 62
     4
 48
2.0
100
AcDbLine
 10
501.1238976024269
 20
216.9736803262515
 30
0.0
 11
501.1238976024269
 21
215.7486803262514
 31
0.0
  0
CIRCLE
  5
22A
330
1F
100
AcDbEntity
  8
0
100
AcDbCircle
 10
514.5989000304211
 20
216.3611867542458
 30
0.0
 40
2.953118572005937
  0
CIRCLE
  5
22B
330
1F
100
AcDbEntity
  8
0
100
AcDbCircle
 10
514.5989000304211
 20
216.3611867542458
 30
0.0
 40
3.249997572006547
  0
LINE
  5
22C
330
1F
100
AcDbEntity
  8
0
  6
DASHED
 62
     4
 48
2.0
100
AcDbLine
 10
518.6238986024269
 20
219.9486803262515
 30
0.0
 11
518.6238986024269
 21
212.7736803262513
 31
0.0
  0
LINE
  5
22D
330
1F
100
AcDbEntity
  8
0
  6
DASHED
 62
     4
 48
2.0
100
AcDbLine
 10
510.5738986024269
 20
212.7736803262513
 30
0.0
 11
510.5738986024269
 21
219.9486803262515
 31
0.0
  0
LINE
  5
22E
330
1F
100
AcDbEntity
  8
0
  6
DASHED
 62
     4
 48
2.0
100
AcDbLine
 10
510.5738986024269
 20
215.7486803262514
 30
0.0
 11
510.5738986024269
 21
216.9736803262515
 31
0.0
  0
LINE
  5
22F
330
1F
100
AcDbEntity
  8
0
  6
DASHED
 62
     4
 48
2.0
100
AcDbLine
 10
518.6238986024269
 20
216.9736803262515
 30
0.0
 11
518.6238986024269
 21
215.7486803262514
 31
0.0
  0
ARC
  5
230
330
1F
100
AcDbEntity
  8
0
  6
DASHED
 62
     4
 48
2.0
100
AcDbCircle
 10
522.5482979759647
 20
287.9105876997891
 30
0.0
 40
0.4999996264625369
100
AcDbArc
 50
359.9999571957112
 51
90.00004280428878
  0
LINE
  5
231
330
1F
100
AcDbEntity
  8
0
  6
DASHED
 62
     4
 48
2.0
100
AcDbLine
 10
517.9861956024269
 20
286.6807655909282
 30
0.0
 11
517.9861956024269
 21
288.4105873262515
 31
0.0
  0
LINE
  5
232
330
1F
100
AcDbEntity
  8
0
  6
Continuous
 62
     4
100
AcDbLine
 10
517.0512246024269
 20
286.1642393262516
 30
0.0
 11
517.0512246024269
 21
286.1642393262516
 31
0.0
  0
LINE
  5
233
330
1F
100
AcDbEntity
  8
0
  6
DASHED
 62
     4
 48
2.0
100
AcDbLine
 10
516.1115956024268
 20
288.4105873262515
 30
0.0
 11
516.1115956024268
 21
286.6785277202708
 31
0.0
  0
ARC
  5
234
330
1F
100
AcDbEntity
  8
0
  6
DASHED
 62
     4
 48
2.0
100
AcDbCircle
 10
511.5494972288892
 20
287.9105876997891
 30
0.0
 40
0.4999996264625369
100
AcDbArc
 50
89.99995719571119
 51
180.0000428042888
  0
ARC
  5
235
330
1F
100
AcDbEntity
  8
0
  6
DASHED
 62
     4
 48
2.0
100
AcDbCircle
 10
500.1482979759643
 20
287.9105876997891
 30
0.0
 40
0.4999996264625369
100
AcDbArc
 50
359.9999571957112
 51
90.00004280428878
  0
LINE
  5
236
330
1F
100
AcDbEntity
  8
0
  6
DASHED
 62
     4
 48
2.0
100
AcDbLine
 10
511.549497602427
 20
288.4105873262515
 30
0.0
 11
522.5482976024269
 21
288.4105873262515
 31
0.0
  0
LINE
  5
237
330
1F
100
AcDbEntity
  8
0
  6
Continuous
 62
     4
100
AcDbLine
 10
520.7351648621104
 20
281.6990943262516
 30
0.0
 11
521.3622140894837
 21
281.6990943262516
 31
0.0
  0
LINE
  5
238
330
1F
100
AcDbEntity
  8
0
  6
Continuous
 62
     4
100
AcDbLine
 10
520.7363467977434
 20
283.1232753262515
 30
0.0
 11
521.3632240417402
 21
283.1232753262515
 31
0.0
  0
LINE
  5
239
330
1F
100
AcDbEntity
  8
0
  6
DASHED
 62
     4
 48
2.0
100
AcDbLine
 10
523.0482976024269
 20
283.3484873262514
 30
0.0
 11
521.3200668181269
 21
283.3484873262514
 31
0.0
  0
LINE
  5
23A
330
1F
100
AcDbEntity
  8
0
  6
DASHED
 62
     4
 48
2.0
100
AcDbLine
 10
521.3187250495939
 20
281.4738873262514
 30
0.0
 11
523.0482976024269
 21
281.4738873262514
 31
0.0
  0
ARC
  5
23B
330
1F
100
AcDbEntity
  8
0
  6
DASHED
 62
     4
 48
2.0
100
AcDbCircle
 10
522.5482979759647
 20
276.911786952714
 30
0.0
 40
0.4999996264625655
100
AcDbArc
 50
269.9999571957111
 51
0.0000428042855519
  0
LINE
  5
23C
330
1F
100
AcDbEntity
  8
0
  6
Continuous
 62
     7
 48
2.0
100
AcDbLine
 10
517.7609876024269
 20
283.1232753262515
 30
0.0
 11
517.7609876024269
 21
284.8711333262514
 31
0.0
  0
LINE
  5
23D
330
1F
100
AcDbEntity
  8
0
  6
Continuous
 62
     7
 48
2.0
100
AcDbLine
 10
516.336806602427
 20
283.1232753262515
 30
0.0
 11
516.336806602427
 21
284.8711333262514
 31
0.0
  0
LINE
  5
23E
330
1F
100
AcDbEntity
  8
0
  6
Continuous
 62
     7
 48
2.0
100
AcDbLine
 10
516.336806602427
 20
283.1232753262515
 30
0.0
 11
513.3716277955072
 21
283.1232753262515
 31
0.0
  0
LINE
  5
23F
330
1F
100
AcDbEntity
  8
0
  6
Continuous
 62
     7
 48
2.0
100
AcDbLine
 10
516.336806602427
 20
281.6990943262516
 30
0.0
 11
513.3728103047858
 21
281.6990943262516
 31
0.0
  0
LINE
  5
240
330
1F
100
AcDbEntity
  8
0
  6
Continuous
 62
     4
100
AcDbLine
 10
513.3728103047858
 20
281.6990943262516
 30
0.0
 11
512.7457610774123
 21
281.6990943262516
 31
0.0
  0
LINE
  5
241
330
1F
100
AcDbEntity
  8
0
  6
Continuous
 62
     4
100
AcDbLine
 10
513.3716277955072
 20
283.1232753262515
 30
0.0
 11
512.7447511251558
 21
283.1232753262515
 31
0.0
  0
LINE
  5
242
330
1F
100
AcDbEntity
  8
0
  6
Continuous
 62
     7
 48
2.0
100
AcDbLine
 10
517.7609876024269
 20
284.8711333262514
 30
0.0
 11
516.336806602427
 21
284.8711333262514
 31
0.0
  0
LINE
  5
243
330
1F
100
AcDbEntity
  8
0
  6
DASHED
 62
     4
 48
2.0
100
AcDbLine
 10
517.9861956024269
 20
276.4117873262514
 30
0.0
 11
517.9861956024269
 21
278.1477151009489
 31
0.0
  0
LINE
  5
244
330
1F
100
AcDbEntity
  8
0
  6
DASHED
 62
     4
 48
2.0
100
AcDbLine
 10
517.0515196024268
 20
278.0469613262515
 30
0.0
 11
517.0515196024268
 21
278.0469613262515
 31
0.0
  0
LINE
  5
245
330
1F
100
AcDbEntity
  8
0
  6
DASHED
 62
     4
 48
2.0
100
AcDbLine
 10
516.1115956024268
 20
278.1499529716063
 30
0.0
 11
516.1115956024268
 21
276.4117873262514
 31
0.0
  0
LINE
  5
246
330
1F
100
AcDbEntity
  8
0
  6
Continuous
 62
     7
 48
2.0
100
AcDbLine
 10
517.7609876024269
 20
279.9512353262516
 30
0.0
 11
516.336806602427
 21
279.9512353262516
 31
0.0
  0
LINE
  5
247
330
1F
100
AcDbEntity
  8
0
  6
Continuous
 62
     7
 48
2.0
100
AcDbLine
 10
516.336806602427
 20
279.9512353262516
 30
0.0
 11
516.336806602427
 21
281.6990943262516
 31
0.0
  0
LINE
  5
248
330
1F
100
AcDbEntity
  8
0
  6
Continuous
 62
     7
 48
2.0
100
AcDbLine
 10
517.7609876024269
 20
279.9512353262516
 30
0.0
 11
517.7609876024269
 21
281.6990943262516
 31
0.0
  0
LINE
  5
249
330
1F
100
AcDbEntity
  8
0
  6
Continuous
 62
     7
 48
2.0
100
AcDbLine
 10
520.7363467977434
 20
283.1232753262515
 30
0.0
 11
517.7609876024269
 21
283.1232753262515
 31
0.0
  0
LINE
  5
24A
330
1F
100
AcDbEntity
  8
0
  6
Continuous
 62
     7
 48
2.0
100
AcDbLine
 10
520.7351648621104
 20
281.6990943262516
 30
0.0
 11
517.7609876024269
 21
281.6990943262516
 31
0.0
  0
ARC
  5
24B
330
1F
100
AcDbEntity
  8
0
  6
DASHED
 62
     4
 48
2.0
100
AcDbCircle
 10
511.5494972288892
 20
276.911786952714
 30
0.0
 40
0.4999996264625369
100
AcDbArc
 50
179.9999571957144
 51
270.0000428042887
  0
LINE
  5
24C
330
1F
100
AcDbEntity
  8
0
  6
Continuous
 62
     4
100
AcDbLine
 10
498.3363467977433
 20
283.1232753262515
 30
0.0
 11
498.9632240417403
 21
283.1232753262515
 31
0.0
  0
LINE
  5
24D
330
1F
100
AcDbEntity
  8
0
  6
Continuous
 62
     4
100
AcDbLine
 10
498.3351648621102
 20
281.6990943262516
 30
0.0
 11
498.9622140894836
 21
281.6990943262516
 31
0.0
  0
LINE
  5
24E
330
1F
100
AcDbEntity
  8
0
  6
DASHED
 62
     4
 48
2.0
100
AcDbLine
 10
498.9187250495938
 20
281.4738873262514
 30
0.0
 11
500.6482976024268
 21
281.4738873262514
 31
0.0
  0
LINE
  5
24F
330
1F
100
AcDbEntity
  8
0
  6
DASHED
 62
     4
 48
2.0
100
AcDbLine
 10
500.6482976024268
 20
283.3484873262514
 30
0.0
 11
498.9200668181268
 21
283.3484873262514
 31
0.0
  0
ARC
  5
250
330
1F
100
AcDbEntity
  8
0
  6
DASHED
 62
     4
 48
2.0
100
AcDbCircle
 10
500.1482979759643
 20
276.911786952714
 30
0.0
 40
0.4999996264625655
100
AcDbArc
 50
269.9999571957111
 51
0.0000428042855519
  0
LINE
  5
251
330
1F
100
AcDbEntity
  8
0
  6
DASHED
 62
     4
 48
2.0
100
AcDbLine
 10
522.5482976024269
 20
276.4117873262514
 30
0.0
 11
511.549497602427
 21
276.4117873262514
 31
0.0
  0
LINE
  5
252
330
1F
100
AcDbEntity
  8
0
  6
DASHED
 62
     4
 48
2.0
100
AcDbLine
 10
511.0494976024269
 20
281.4738873262514
 30
0.0
 11
512.7892501173023
 21
281.4738873262514
 31
0.0
  0
LINE
  5
253
330
1F
100
AcDbEntity
  8
0
  6
DASHED
 62
     4
 48
2.0
100
AcDbLine
 10
512.7879083487693
 20
283.3484873262514
 30
0.0
 11
511.0494976024269
 21
283.3484873262514
 31
0.0
  0
LINE
  5
254
330
1F
100
AcDbEntity
  8
0
  6
DASHED
 62
     4
 48
2.0
100
AcDbLine
 10
500.6482976024268
 20
287.9105873262515
 30
0.0
 11
500.6482976024268
 21
276.9117873262515
 31
0.0
  0
LINE
  5
255
330
1F
100
AcDbEntity
  8
0
  6
DASHED
 62
     4
 48
2.0
100
AcDbLine
 10
511.0494976024269
 20
276.9117873262515
 30
0.0
 11
511.0494976024269
 21
287.9105873262515
 31
0.0
  0
CIRCLE
  5
256
330
1F
100
AcDbEntity
  8
0
  6
DASHED
 62
     4
100
AcDbCircle
 10
517.0539875834481
 20
282.4142403459384
 30
0.0
 40
4.367178660964365
  0
ARC
  5
257
330
1F
100
AcDbEntity
  8
0
  6
Continuous
 62
     7
100
AcDbCircle
 10
517.0539875834481
 20
282.4142403459384
 30
0.0
 40
3.749999998188378
100
AcDbArc
 50
180.0422005561008
 51
90.04221524421211
  0
ARC
  5
258
330
1F
100
AcDbEntity
  8
0
  6
Continuous
 62
     7
100
AcDbCircle
 10
517.0539842988321
 20
282.4142436257184
 30
0.0
 40
3.749996715990556
100
AcDbArc
 50
90.04216509586825
 51
180.042250704443
  0
LINE
  5
259
330
1F
100
AcDbEntity
  8
0
  6
DASHED
 62
     4
 48
2.0
100
AcDbLine
 10
523.0482976024269
 20
287.9105873262515
 30
0.0
 11
523.0482976024269
 21
276.9117873262515
 31
0.0
  0
LINE
  5
25A
330
1F
100
AcDbEntity
  8
0
  6
Continuous
 62
     4
100
AcDbLine
 10
494.6512246024268
 20
286.1642393262516
 30
0.0
 11
494.6512246024268
 21
286.1642393262516
 31
0.0
  0
LINE
  5
25B
330
1F
100
AcDbEntity
  8
0
  6
DASHED
 62
     4
 48
2.0
100
AcDbLine
 10
493.7115956024268
 20
288.4105873262515
 30
0.0
 11
493.7115956024268
 21
286.6785277202708
 31
0.0
  0
LINE
  5
25C
330
1F
100
AcDbEntity
  8
0
  6
DASHED
 62
     4
 48
2.0
100
AcDbLine
 10
495.5861956024268
 20
286.6807655909282
 30
0.0
 11
495.5861956024268
 21
288.4105873262515
 31
0.0
  0
ARC
  5
25D
330
1F
100
AcDbEntity
  8
0
  6
DASHED
 62
     4
 48
2.0
100
AcDbCircle
 10
489.1494972288891
 20
287.9105876997891
 30
0.0
 40
0.4999996264625369
100
AcDbArc
 50
89.99995719571119
 51
180.0000428042888
  0
LINE
  5
25E
330
1F
100
AcDbEntity
  8
0
  6
Continuous
 62
     7
 48
2.0
100
AcDbLine
 10
495.3609876024268
 20
283.1232753262515
 30
0.0
 11
495.3609876024268
 21
284.8711333262514
 31
0.0
  0
LINE
  5
25F
330
1F
100
AcDbEntity
  8
0
  6
Continuous
 62
     7
 48
2.0
100
AcDbLine
 10
493.9368066024268
 20
283.1232753262515
 30
0.0
 11
493.9368066024268
 21
284.8711333262514
 31
0.0
  0
LINE
  5
260
330
1F
100
AcDbEntity
  8
0
  6
Continuous
 62
     7
 48
2.0
100
AcDbLine
 10
495.3609876024268
 20
284.8711333262514
 30
0.0
 11
493.9368066024268
 21
284.8711333262514
 31
0.0
  0
LINE
  5
261
330
1F
100
AcDbEntity
  8
0
  6
Continuous
 62
     4
100
AcDbLine
 10
490.9716277955071
 20
283.1232753262515
 30
0.0
 11
490.3447511251557
 21
283.1232753262515
 31
0.0
  0
LINE
  5
262
330
1F
100
AcDbEntity
  8
0
  6
Continuous
 62
     4
100
AcDbLine
 10
490.9728103047858
 20
281.6990943262516
 30
0.0
 11
490.3457610774124
 21
281.6990943262516
 31
0.0
  0
LINE
  5
263
330
1F
100
AcDbEntity
  8
0
  6
DASHED
 62
     4
 48
2.0
100
AcDbLine
 10
490.3879083487691
 20
283.3484873262514
 30
0.0
 11
488.6494976024268
 21
283.3484873262514
 31
0.0
  0
LINE
  5
264
330
1F
100
AcDbEntity
  8
0
  6
DASHED
 62
     4
 48
2.0
100
AcDbLine
 10
488.6494976024268
 20
281.4738873262514
 30
0.0
 11
490.3892501173022
 21
281.4738873262514
 31
0.0
  0
LINE
  5
265
330
1F
100
AcDbEntity
  8
0
  6
Continuous
 62
     7
 48
2.0
100
AcDbLine
 10
493.9368066024268
 20
281.6990943262516
 30
0.0
 11
490.9728103047858
 21
281.6990943262516
 31
0.0
  0
LINE
  5
266
330
1F
100
AcDbEntity
  8
0
  6
Continuous
 62
     7
 48
2.0
100
AcDbLine
 10
493.9368066024268
 20
283.1232753262515
 30
0.0
 11
490.9716277955071
 21
283.1232753262515
 31
0.0
  0
LINE
  5
267
330
1F
100
AcDbEntity
  8
0
  6
DASHED
 62
     4
 48
2.0
100
AcDbLine
 10
494.6515196024266
 20
278.0469613262515
 30
0.0
 11
494.6515196024266
 21
278.0469613262515
 31
0.0
  0
LINE
  5
268
330
1F
100
AcDbEntity
  8
0
  6
DASHED
 62
     4
 48
2.0
100
AcDbLine
 10
493.7115956024268
 20
278.1499529716063
 30
0.0
 11
493.7115956024268
 21
276.4117873262514
 31
0.0
  0
LINE
  5
269
330
1F
100
AcDbEntity
  8
0
  6
DASHED
 62
     4
 48
2.0
100
AcDbLine
 10
495.5861956024268
 20
276.4117873262514
 30
0.0
 11
495.5861956024268
 21
278.1477151009489
 31
0.0
  0
LINE
  5
26A
330
1F
100
AcDbEntity
  8
0
  6
Continuous
 62
     7
 48
2.0
100
AcDbLine
 10
495.3609876024268
 20
279.9512353262516
 30
0.0
 11
493.9368066024268
 21
279.9512353262516
 31
0.0
  0
ARC
  5
26B
330
1F
100
AcDbEntity
  8
0
  6
DASHED
 62
     4
 48
2.0
100
AcDbCircle
 10
489.1494972288891
 20
276.911786952714
 30
0.0
 40
0.4999996264625369
100
AcDbArc
 50
179.9999571957144
 51
270.0000428042887
  0
LINE
  5
26C
330
1F
100
AcDbEntity
  8
0
  6
Continuous
 62
     7
 48
2.0
100
AcDbLine
 10
493.9368066024268
 20
279.9512353262516
 30
0.0
 11
493.9368066024268
 21
281.6990943262516
 31
0.0
  0
LINE
  5
26D
330
1F
100
AcDbEntity
  8
0
  6
Continuous
 62
     7
 48
2.0
100
AcDbLine
 10
495.3609876024268
 20
279.9512353262516
 30
0.0
 11
495.3609876024268
 21
281.6990943262516
 31
0.0
  0
ARC
  5
26E
330
1F
100
AcDbEntity
  8
0
  6
Continuous
 62
     7
100
AcDbCircle
 10
494.6539842988321
 20
282.4142436257184
 30
0.0
 40
3.749996715990556
100
AcDbArc
 50
90.04216509586825
 51
180.042250704443
  0
LINE
  5
26F
330
1F
100
AcDbEntity
  8
0
  6
DASHED
 62
     4
 48
2.0
100
AcDbLine
 10
488.6494976024268
 20
276.9117873262515
 30
0.0
 11
488.6494976024268
 21
287.9105873262515
 31
0.0
  0
LINE
  5
270
330
1F
100
AcDbEntity
  8
0
  6
DASHED
 62
     4
 48
2.0
100
AcDbLine
 10
489.1494976024268
 20
288.4105873262515
 30
0.0
 11
500.1482976024268
 21
288.4105873262515
 31
0.0
  0
LINE
  5
271
330
1F
100
AcDbEntity
  8
0
  6
DASHED
 62
     4
 48
2.0
100
AcDbLine
 10
500.1482976024268
 20
276.4117873262514
 30
0.0
 11
489.1494976024268
 21
276.4117873262514
 31
0.0
  0
CIRCLE
  5
272
330
1F
100
AcDbEntity
  8
0
  6
DASHED
 62
     4
100
AcDbCircle
 10
494.653987583448
 20
282.4142403459384
 30
0.0
 40
4.367178660964365
  0
ARC
  5
273
330
1F
100
AcDbEntity
  8
0
  6
Continuous
 62
     7
100
AcDbCircle
 10
494.653987583448
 20
282.4142403459384
 30
0.0
 40
3.749999998188378
100
AcDbArc
 50
180.0422005561008
 51
90.04221524421211
  0
LINE
  5
274
330
1F
100
AcDbEntity
  8
0
  6
Continuous
 62
     7
 48
2.0
100
AcDbLine
 10
498.3351648621102
 20
281.6990943262516
 30
0.0
 11
495.3609876024268
 21
281.6990943262516
 31
0.0
  0
LINE
  5
275
330
1F
100
AcDbEntity
  8
0
  6
Continuous
 62
     7
 48
2.0
100
AcDbLine
 10
498.3363467977433
 20
283.1232753262515
 30
0.0
 11
495.3609876024268
 21
283.1232753262515
 31
0.0
  0
CIRCLE
  5
276
330
1F
100
AcDbEntity
  8
0
  6
DASHED
 62
     4
100
AcDbCircle
 10
505.8518688119636
 20
274.3683711388499
 30
0.0
 40
2.250000288400404
  0
LINE
  5
277
330
1F
100
AcDbEntity
  8
0
  6
DASHED
 62
     4
100
AcDbLine
 10
508.101867100364
 20
227.8683714272505
 30
0.0
 11
508.101867100364
 21
224.8683714272501
 31
0.0
  0
LINE
  5
278
330
1F
100
AcDbEntity
  8
0
  6
DASHED
 62
     4
100
AcDbLine
 10
503.601867100364
 20
227.8683714272505
 30
0.0
 11
503.601867100364
 21
224.8683714272501
 31
0.0
  0
ARC
  5
279
330
1F
100
AcDbEntity
  8
0
  6
DASHED
 62
     4
100
AcDbCircle
 10
505.851867100364
 20
224.8683714272501
 30
0.0
 40
2.25
100
AcDbArc
 50
180.0
 51
0.0
  0
ARC
  5
27A
330
1F
100
AcDbEntity
  8
0
  6
DASHED
 62
     4
100
AcDbCircle
 10
505.851867100364
 20
227.8683714272505
 30
0.0
 40
2.25
100
AcDbArc
 50
0.0
 51
180.0
  0
ARC
  5
27B
330
1F
100
AcDbEntity
  8
0
  6
Continuous
 62
     7
100
AcDbCircle
 10
581.3518776062137
 20
267.6183729214008
 30
0.0
 40
1.999998505850204
100
AcDbArc
 50
89.99995719571442
 51
180.0000428042871
  0
LINE
  5
27C
330
1F
100
AcDbEntity
  8
0
  6
Continuous
 62
     7
100
AcDbLine
 10
579.3518791003641
 20
233.6183714272503
 30
0.0
 11
579.3518791003641
 21
267.6183714272505
 31
0.0
  0
ARC
  5
27D
330
1F
100
AcDbEntity
  8
0
  6
Continuous
 62
     7
100
AcDbCircle
 10
581.3518776062137
 20
233.6183699331002
 30
0.0
 40
1.999998505850204
100
AcDbArc
 50
179.9999571957128
 51
270.0000428042855
  0
LINE
  5
27E
330
1F
100
AcDbEntity
  8
0
  6
Continuous
 62
     7
100
AcDbLine
 10
590.3518791003641
 20
231.6183714272503
 30
0.0
 11
581.3518791003641
 21
231.6183714272503
 31
0.0
  0
ARC
  5
27F
330
1F
100
AcDbEntity
  8
0
  6
Continuous
 62
     7
100
AcDbCircle
 10
590.3518805945142
 20
233.6183699331002
 30
0.0
 40
1.999998505850204
100
AcDbArc
 50
269.9999571957144
 51
0.0000428042871804
  0
LINE
  5
280
330
1F
100
AcDbEntity
  8
0
  6
Continuous
 62
     7
100
AcDbLine
 10
592.3518791003641
 20
267.6183714272505
 30
0.0
 11
592.3518791003641
 21
233.6183714272503
 31
0.0
  0
ARC
  5
281
330
1F
100
AcDbEntity
  8
0
  6
Continuous
 62
     7
100
AcDbCircle
 10
590.3518805945142
 20
267.6183729214008
 30
0.0
 40
1.999998505850174
100
AcDbArc
 50
359.9999571957126
 51
90.00004280428553
  0
LINE
  5
282
330
1F
100
AcDbEntity
  8
0
  6
Continuous
 62
     7
100
AcDbLine
 10
581.3518791003641
 20
269.6183714272505
 30
0.0
 11
590.3518791003641
 21
269.6183714272505
 31
0.0
  0
LINE
  5
283
330
1F
100
AcDbEntity
  8
0
  6
Continuous
 62
     7
100
AcDbLine
 10
579.8518791003641
 20
231.0999034272505
 30
0.0
 11
593.851878100364
 21
231.0999034272505
 31
0.0
  0
ARC
  5
284
330
1F
100
AcDbEntity
  8
0
  6
Continuous
 62
     7
100
AcDbCircle
 10
579.8518783532887
 20
232.0999026801751
 30
0.0
 40
0.9999992529251022
100
AcDbArc
 50
179.9999571957128
 51
270.0000428042855
  0
LINE
  5
285
330
1F
100
AcDbEntity
  8
0
  6
Continuous
 62
     7
100
AcDbLine
 10
578.8518791003641
 20
269.0999034272504
 30
0.0
 11
578.8518791003641
 21
232.0999034272505
 31
0.0
  0
ARC
  5
286
330
1F
100
AcDbEntity
  8
0
  6
Continuous
 62
     7
100
AcDbCircle
 10
579.8518783532887
 20
269.0999041743256
 30
0.0
 40
0.9999992529251022
100
AcDbArc
 50
89.99995719571442
 51
180.0000428042871
  0
LINE
  5
287
330
1F
100
AcDbEntity
  8
0
  6
Continuous
 62
     7
100
AcDbLine
 10
593.851880100364
 20
270.0999034272505
 30
0.0
 11
579.8518791003641
 21
270.0999034272505
 31
0.0
  0
LINE
  5
288
330
1F
100
AcDbEntity
  8
0
  6
Continuous
 62
     7
100
AcDbLine
 10
594.3518691003637
 20
211.7183714272504
 30
0.0
 11
594.3518691003637
 21
214.6183714272501
 31
0.0
  0
LINE
  5
289
330
1F
100
AcDbEntity
  8
0
  6
Continuous
 62
     7
100
AcDbLine
 10
594.851869100364
 20
211.7183714272504
 30
0.0
 11
594.3518691003637
 21
211.7183714272504
 31
0.0
  0
LINE
  5
28A
330
1F
100
AcDbEntity
  8
0
  6
Continuous
 62
     7
100
AcDbLine
 10
594.851869100364
 20
289.5183714272505
 30
0.0
 11
594.851869100364
 21
211.7183714272504
 31
0.0
  0
LINE
  5
28B
330
1F
100
AcDbEntity
  8
0
  6
Continuous
 62
     7
100
AcDbLine
 10
594.3518691003637
 20
289.5183714272505
 30
0.0
 11
594.851869100364
 21
289.5183714272505
 31
0.0
  0
LINE
  5
28C
330
1F
100
AcDbEntity
  8
0
  6
Continuous
 62
     7
100
AcDbLine
 10
594.3518691003637
 20
286.6183714272505
 30
0.0
 11
594.3518691003637
 21
289.5183714272505
 31
0.0
  0
LINE
  5
28D
330
1F
100
AcDbEntity
  8
0
  6
Continuous
 62
     7
100
AcDbLine
 10
594.3518691003637
 20
214.6183714272501
 30
0.0
 11
594.3518691003637
 21
210.6183714272503
 31
0.0
  0
LINE
  5
28E
330
1F
100
AcDbEntity
  8
0
  6
Continuous
 62
     7
100
AcDbLine
 10
594.3518691003637
 20
290.6183714272505
 30
0.0
 11
594.3518691003637
 21
286.6183714272505
 31
0.0
  0
LINE
  5
28F
330
1F
100
AcDbEntity
  8
0
  6
Continuous
 62
     7
100
AcDbLine
 10
594.3518691003637
 20
214.6183714272501
 30
0.0
 11
593.8518691003638
 21
214.6183714272501
 31
0.0
  0
LINE
  5
290
330
1F
100
AcDbEntity
  8
0
  6
Continuous
 62
     7
100
AcDbLine
 10
593.8518691003638
 20
286.6183714272505
 30
0.0
 11
594.3518691003637
 21
286.6183714272505
 31
0.0
  0
LINE
  5
291
330
1F
100
AcDbEntity
  8
0
  6
Continuous
 62
     7
100
AcDbLine
 10
593.8518691003638
 20
286.6183714272505
 30
0.0
 11
593.8518691003638
 21
214.6183714272501
 31
0.0
  0
LINE
  5
292
330
1F
100
AcDbEntity
  8
0
  6
Continuous
 62
     7
100
AcDbLine
 10
572.8465281003641
 20
212.6183714272503
 30
0.0
 11
594.3518691003637
 21
212.6183714272503
 31
0.0
  0
LINE
  5
293
330
1F
100
AcDbEntity
  8
0
  6
Continuous
 62
     7
100
AcDbLine
 10
572.8465281003641
 20
288.6183714272505
 30
0.0
 11
594.3518691003637
 21
288.6183714272505
 31
0.0
  0
LINE
  5
294
330
1F
100
AcDbEntity
  8
0
  6
Continuous
 62
     7
100
AcDbLine
 10
594.3518691003637
 20
210.6183714272503
 30
0.0
 11
572.8468961003637
 21
210.6183714272503
 31
0.0
  0
LINE
  5
295
330
1F
100
AcDbEntity
  8
0
  6
Continuous
 62
     7
100
AcDbLine
 10
572.8468961003637
 20
290.6183714272505
 30
0.0
 11
594.3518691003637
 21
290.6183714272505
 31
0.0
  0
ARC
  5
296
330
1F
100
AcDbEntity
  8
0
  6
Continuous
 62
     7
100
AcDbCircle
 10
525.7518687838174
 20
230.1137307100574
 30
0.0
 40
0.5000003165466273
100
AcDbArc
 50
269.9789514395515
 51
359.9999675927218
  0
ARC
  5
297
330
1F
100
AcDbEntity
  8
0
  6
Continuous
 62
     7
100
AcDbCircle
 10
525.748368726689
 20
230.1137310538503
 30
0.0
 40
0.4999996603185107
100
AcDbArc
 50
179.9788723498024
 51
269.9789579583793
  0
LINE
  5
298
330
1F
100
AcDbEntity
  8
0
  6
Continuous
 62
     7
100
AcDbLine
 10
526.2518691003641
 20
238.6183714272505
 30
0.0
 11
526.2518691003641
 21
230.1137304272505
 31
0.0
  0
LINE
  5
299
330
1F
100
AcDbEntity
  8
0
  6
Continuous
 62
     7
100
AcDbLine
 10
525.250562100364
 20
230.0669564272505
 30
0.0
 11
525.251868100364
 21
233.6139144272503
 31
0.0
  0
ARC
  5
29A
330
1F
100
AcDbEntity
  8
0
  6
Continuous
 62
     7
100
AcDbCircle
 10
485.9518694169104
 20
230.1137307100574
 30
0.0
 40
0.5000003165466273
100
AcDbArc
 50
180.0000324072779
 51
270.0210485604484
  0
ARC
  5
29B
330
1F
100
AcDbEntity
  8
0
  6
Continuous
 62
     7
100
AcDbCircle
 10
485.9553694740391
 20
230.1137310538503
 30
0.0
 40
0.4999996603185178
100
AcDbArc
 50
270.0210420416206
 51
0.0211276501975281
  0
LINE
  5
29C
330
1F
100
AcDbEntity
  8
0
  6
Continuous
 62
     7
100
AcDbLine
 10
485.4518691003639
 20
238.6183714272505
 30
0.0
 11
485.4518691003639
 21
230.1137304272505
 31
0.0
  0
LINE
  5
29D
330
1F
100
AcDbEntity
  8
0
  6
Continuous
 62
     7
100
AcDbLine
 10
486.453176100364
 20
230.0669564272505
 30
0.0
 11
486.4518701003641
 21
233.6139144272503
 31
0.0
  0
ARC
  5
29E
330
1F
100
AcDbEntity
  8
0
  6
Continuous
 62
     7
100
AcDbCircle
 10
525.7518687838174
 20
271.1230121444434
 30
0.0
 40
0.5000003165466273
100
AcDbArc
 50
0.0000324072780413
 51
90.02104856044848
  0
ARC
  5
29F
330
1F
100
AcDbEntity
  8
0
  6
Continuous
 62
     7
100
AcDbCircle
 10
525.748368726689
 20
271.1230108006505
 30
0.0
 40
0.4999996603185107
100
AcDbArc
 50
90.02104204162062
 51
180.0211276501974
  0
LINE
  5
2A0
330
1F
100
AcDbEntity
  8
0
  6
Continuous
 62
     7
100
AcDbLine
 10
526.2518691003641
 20
262.6183714272503
 30
0.0
 11
526.2518691003641
 21
271.1230124272505
 31
0.0
  0
LINE
  5
2A1
330
1F
100
AcDbEntity
  8
0
  6
Continuous
 62
     7
100
AcDbLine
 10
525.250562100364
 20
271.1697864272504
 30
0.0
 11
525.251868100364
 21
267.6228274272505
 31
0.0
  0
ARC
  5
2A2
330
1F
100
AcDbEntity
  8
0
  6
Continuous
 62
     7
100
AcDbCircle
 10
485.9518694169104
 20
271.1230121444434
 30
0.0
 40
0.5000003165466273
100
AcDbArc
 50
89.97895143955153
 51
179.9999675927203
  0
ARC
  5
2A3
330
1F
100
AcDbEntity
  8
0
  6
Continuous
 62
     7
100
AcDbCircle
 10
485.9553694740391
 20
271.1230108006505
 30
0.0
 40
0.4999996603185178
100
AcDbArc
 50
359.9788723498023
 51
89.97895795837939
  0
LINE
  5
2A4
330
1F
100
AcDbEntity
  8
0
  6
Continuous
 62
     7
100
AcDbLine
 10
514.8518711003641
 20
262.6183654272505
 30
0.0
 11
496.851871100364
 21
262.6183654272505
 31
0.0
  0
LINE
  5
2A5
330
1F
100
AcDbEntity
  8
0
  6
Continuous
 62
     7
100
AcDbLine
 10
496.851871100364
 20
259.6183654272504
 30
0.0
 11
514.8518711003641
 21
259.6183654272504
 31
0.0
  0
LINE
  5
2A6
330
1F
100
AcDbEntity
  8
0
  6
Continuous
 62
     7
100
AcDbLine
 10
514.8518711003641
 20
259.6183654272504
 30
0.0
 11
514.8518711003641
 21
262.6183654272505
 31
0.0
  0
LINE
  5
2A7
330
1F
100
AcDbEntity
  8
0
  6
Continuous
 62
     7
100
AcDbLine
 10
496.851871100364
 20
262.6183654272505
 30
0.0
 11
496.851871100364
 21
259.6183654272504
 31
0.0
  0
ARC
  5
2A8
330
1F
100
AcDbEntity
  8
0
  6
Continuous
 62
     7
100
AcDbCircle
 10
526.1518705945144
 20
212.6183699331
 30
0.0
 40
1.999998505850204
100
AcDbArc
 50
269.9999571957111
 51
0.0000428042871804
  0
LINE
  5
2A9
330
1F
100
AcDbEntity
  8
0
  6
Continuous
 62
     7
100
AcDbLine
 10
528.1518691003641
 20
212.6183714272503
 30
0.0
 11
528.1518691003641
 21
238.6183714272505
 31
0.0
  0
LINE
  5
2AA
330
1F
100
AcDbEntity
  8
0
  6
Continuous
 62
     7
100
AcDbLine
 10
483.551869100364
 20
238.6183714272505
 30
0.0
 11
483.551869100364
 21
212.6183714272503
 31
0.0
  0
ARC
  5
2AB
330
1F
100
AcDbEntity
  8
0
  6
Continuous
 62
     7
100
AcDbCircle
 10
485.5518676062136
 20
212.6183699331
 30
0.0
 40
1.999998505850189
100
AcDbArc
 50
179.9999571957128
 51
270.0000428042855
  0
LINE
  5
2AC
330
1F
100
AcDbEntity
  8
0
  6
Continuous
 62
     7
100
AcDbLine
 10
528.1518691003641
 20
238.6183714272505
 30
0.0
 11
526.2518691003641
 21
238.6183714272505
 31
0.0
  0
LINE
  5
2AD
330
1F
100
AcDbEntity
  8
0
  6
Continuous
 62
     7
100
AcDbLine
 10
527.3518691003642
 20
211.0183714272505
 30
0.0
 11
527.3518691003642
 21
238.6183714272505
 31
0.0
  0
LINE
  5
2AE
330
1F
100
AcDbEntity
  8
0
  6
Continuous
 62
     7
100
AcDbLine
 10
484.351869100364
 20
238.6183714272505
 30
0.0
 11
484.351869100364
 21
211.0183714272505
 31
0.0
  0
LINE
  5
2AF
330
1F
100
AcDbEntity
  8
0
  6
Continuous
 62
     7
100
AcDbLine
 10
485.4518691003639
 20
238.6183714272505
 30
0.0
 11
483.551869100364
 21
238.6183714272505
 31
0.0
  0
LINE
  5
2B0
330
1F
100
AcDbEntity
  8
0
  6
Continuous
 62
     7
100
AcDbLine
 10
486.4524211003639
 20
232.1183704272503
 30
0.0
 11
525.2513171003641
 21
232.1183704272503
 31
0.0
  0
LINE
  5
2B1
330
1F
100
AcDbEntity
  8
0
  6
Continuous
 62
     7
100
AcDbLine
 10
525.251868100364
 20
233.6183714272503
 30
0.0
 11
486.4518701003641
 21
233.6183714272503
 31
0.0
  0
LINE
  5
2B2
330
1F
100
AcDbEntity
  8
0
  6
Continuous
 62
     7
100
AcDbLine
 10
485.551869100364
 20
210.6183714272503
 30
0.0
 11
526.1518691003641
 21
210.6183714272503
 31
0.0
  0
ARC
  5
2B3
330
1F
100
AcDbEntity
  8
0
  6
Continuous
 62
     7
100
AcDbCircle
 10
485.5518676062136
 20
288.6183729214008
 30
0.0
 40
1.999998505850204
100
AcDbArc
 50
89.99995719571119
 51
180.0000428042871
  0
LINE
  5
2B4
330
1F
100
AcDbEntity
  8
0
  6
Continuous
 62
     7
100
AcDbLine
 10
483.551869100364
 20
288.6183714272505
 30
0.0
 11
483.551869100364
 21
262.6183714272503
 31
0.0
  0
LINE
  5
2B5
330
1F
100
AcDbEntity
  8
0
  6
Continuous
 62
     7
100
AcDbLine
 10
528.1518691003641
 20
262.6183714272503
 30
0.0
 11
528.1518691003641
 21
288.6183714272505
 31
0.0
  0
ARC
  5
2B6
330
1F
100
AcDbEntity
  8
0
  6
Continuous
 62
     7
100
AcDbCircle
 10
526.1518705945144
 20
288.6183729214008
 30
0.0
 40
1.999998505850189
100
AcDbArc
 50
359.9999571957126
 51
90.00004280428553
  0
LINE
  5
2B7
330
1F
100
AcDbEntity
  8
0
  6
Continuous
 62
     7
100
AcDbLine
 10
485.4518691003639
 20
262.6183714272503
 30
0.0
 11
485.4518691003639
 21
271.1230124272505
 31
0.0
  0
LINE
  5
2B8
330
1F
100
AcDbEntity
  8
0
  6
Continuous
 62
     7
100
AcDbLine
 10
486.453176100364
 20
271.1697864272504
 30
0.0
 11
486.4518701003641
 21
267.6228274272505
 31
0.0
  0
LINE
  5
2B9
330
1F
100
AcDbEntity
  8
0
  6
Continuous
 62
     7
100
AcDbLine
 10
483.551869100364
 20
262.6183714272503
 30
0.0
 11
485.4518691003639
 21
262.6183714272503
 31
0.0
  0
LINE
  5
2BA
330
1F
100
AcDbEntity
  8
0
  6
Continuous
 62
     7
100
AcDbLine
 10
484.351869100364
 20
290.2183714272505
 30
0.0
 11
484.351869100364
 21
262.6183714272503
 31
0.0
  0
LINE
  5
2BB
330
1F
100
AcDbEntity
  8
0
  6
Continuous
 62
     7
100
AcDbLine
 10
527.3518691003642
 20
262.6183714272503
 30
0.0
 11
527.3518691003642
 21
290.2183714272505
 31
0.0
  0
LINE
  5
2BC
330
1F
100
AcDbEntity
  8
0
  6
Continuous
 62
     7
100
AcDbLine
 10
526.2518691003641
 20
262.6183714272503
 30
0.0
 11
528.1518691003641
 21
262.6183714272503
 31
0.0
  0
LINE
  5
2BD
330
1F
100
AcDbEntity
  8
0
  6
Continuous
 62
     7
100
AcDbLine
 10
525.2513171003641
 20
269.1183714272503
 30
0.0
 11
486.4524211003639
 21
269.1183714272503
 31
0.0
  0
LINE
  5
2BE
330
1F
100
AcDbEntity
  8
0
  6
Continuous
 62
     7
100
AcDbLine
 10
486.4518701003641
 20
267.6183714272505
 30
0.0
 11
525.251868100364
 21
267.6183714272505
 31
0.0
  0
LINE
  5
2BF
330
1F
100
AcDbEntity
  8
0
  6
Continuous
 62
     7
100
AcDbLine
 10
526.1518691003641
 20
290.6183714272505
 30
0.0
 11
485.551869100364
 21
290.6183714272505
 31
0.0
  0
LINE
  5
2C0
330
1F
100
AcDbEntity
  8
0
  6
Continuous
 62
     7
 48
2.0
100
AcDbLine
 10
526.2518691003641
 20
260.6183714272503
 30
0.0
 11
526.2518691003641
 21
267.6183714272505
 31
0.0
  0
LINE
  5
2C1
330
1F
100
AcDbEntity
  8
0
  6
Continuous
 62
     7
 48
2.0
100
AcDbLine
 10
526.2518691003641
 20
240.6183714272505
 30
0.0
 11
526.2518691003641
 21
233.6183714272503
 31
0.0
  0
LINE
  5
2C2
330
1F
100
AcDbEntity
  8
0
  6
Continuous
 62
     7
 48
2.0
100
AcDbLine
 10
485.4518691003639
 20
260.6183714272503
 30
0.0
 11
485.4518691003639
 21
267.6183714272505
 31
0.0
  0
LINE
  5
2C3
330
1F
100
AcDbEntity
  8
0
  6
Continuous
 62
     7
 48
2.0
100
AcDbLine
 10
485.4518691003639
 20
240.6183714272505
 30
0.0
 11
485.4518691003639
 21
233.6183714272503
 31
0.0
  0
LINE
  5
2C4
330
1F
100
AcDbEntity
  8
0
  6
Continuous
 62
     7
100
AcDbLine
 10
498.351871100364
 20
241.1183764272505
 30
0.0
 11
513.3518711003639
 21
241.1183764272505
 31
0.0
  0
LINE
  5
2C5
330
1F
100
AcDbEntity
  8
0
  6
Continuous
 62
     7
100
AcDbLine
 10
498.351871100364
 20
239.1183764272505
 30
0.0
 11
513.3518711003639
 21
239.1183764272505
 31
0.0
  0
LINE
  5
2C6
330
1F
100
AcDbEntity
  8
0
  6
Continuous
 62
     7
100
AcDbLine
 10
514.8518711003641
 20
238.6183764272505
 30
0.0
 11
496.851871100364
 21
238.6183764272505
 31
0.0
  0
LINE
  5
2C7
330
1F
100
AcDbEntity
  8
0
  6
Continuous
 62
     7
100
AcDbLine
 10
496.851871100364
 20
241.6183764272505
 30
0.0
 11
514.8518711003641
 21
241.6183764272505
 31
0.0
  0
LINE
  5
2C8
330
1F
100
AcDbEntity
  8
0
  6
Continuous
 62
     7
100
AcDbLine
 10
514.8518711003641
 20
241.6183764272505
 30
0.0
 11
514.8518711003641
 21
238.6183764272505
 31
0.0
  0
LINE
  5
2C9
330
1F
100
AcDbEntity
  8
0
  6
Continuous
 62
     7
100
AcDbLine
 10
496.851871100364
 20
238.6183764272505
 30
0.0
 11
496.851871100364
 21
241.6183764272505
 31
0.0
  0
LINE
  5
2CA
330
1F
100
AcDbEntity
  8
0
  6
Continuous
 62
     7
100
AcDbLine
 10
513.3518711003639
 20
241.1183764272505
 30
0.0
 11
513.3518711003639
 21
239.1183764272505
 31
0.0
  0
LINE
  5
2CB
330
1F
100
AcDbEntity
  8
0
  6
Continuous
 62
     7
100
AcDbLine
 10
498.351871100364
 20
239.1183764272505
 30
0.0
 11
498.351871100364
 21
241.1183764272505
 31
0.0
  0
LINE
  5
2CC
330
1F
100
AcDbEntity
  8
0
  6
Continuous
 62
     7
100
AcDbLine
 10
483.3518691003639
 20
240.6183714272505
 30
0.0
 11
485.4518691003639
 21
240.6183714272505
 31
0.0
  0
LINE
  5
2CD
330
1F
100
AcDbEntity
  8
0
  6
Continuous
 62
     7
100
AcDbLine
 10
483.3518691003639
 20
262.6183714272503
 30
0.0
 11
483.3518691003639
 21
288.6183714272505
 31
0.0
  0
ARC
  5
2CE
330
1F
100
AcDbEntity
  8
0
  6
Continuous
 62
     7
100
AcDbCircle
 10
485.3518676062136
 20
288.6183729214008
 30
0.0
 40
1.999998505850204
100
AcDbArc
 50
89.99995719571119
 51
180.0000428042871
  0
LINE
  5
2CF
330
1F
100
AcDbEntity
  8
0
  6
Continuous
 62
     7
100
AcDbLine
 10
485.2518691003639
 20
238.6183714272505
 30
0.0
 11
483.3518691003639
 21
238.6183714272505
 31
0.0
  0
LINE
  5
2D0
330
1F
100
AcDbEntity
  8
0
  6
Continuous
 62
     7
100
AcDbLine
 10
483.3518691003639
 20
238.6183714272505
 30
0.0
 11
483.3518691003639
 21
212.6183714272503
 31
0.0
  0
ARC
  5
2D1
330
1F
100
AcDbEntity
  8
0
  6
Continuous
 62
     7
100
AcDbCircle
 10
485.3518676062136
 20
212.6183699331
 30
0.0
 40
1.999998505850189
100
AcDbArc
 50
179.9999571957128
 51
270.0000428042855
  0
LINE
  5
2D2
330
1F
100
AcDbEntity
  8
0
  6
Continuous
 62
     7
100
AcDbLine
 10
483.3518701003639
 20
262.5683714272503
 30
0.0
 11
485.2518691003639
 21
262.5683714272503
 31
0.0
  0
LINE
  5
2D3
330
1F
100
AcDbEntity
  8
0
  6
Continuous
 62
     7
100
AcDbLine
 10
483.3518691003639
 20
260.6183714272503
 30
0.0
 11
485.4518691003639
 21
260.6183714272503
 31
0.0
  0
LINE
  5
2D4
330
1F
100
AcDbEntity
  8
0
  6
Continuous
 62
     7
100
AcDbLine
 10
484.351869100364
 20
240.6183714272505
 30
0.0
 11
484.351869100364
 21
260.6183714272503
 31
0.0
  0
LINE
  5
2D5
330
1F
100
AcDbEntity
  8
0
  6
Continuous
 62
     7
100
AcDbLine
 10
483.3518691003639
 20
238.6683714272505
 30
0.0
 11
483.3518691003639
 21
262.5683714272503
 31
0.0
  0
ARC
  5
2D6
330
1F
100
AcDbEntity
  8
0
  6
Continuous
 62
     7
100
AcDbCircle
 10
526.3518705945143
 20
288.6183729214008
 30
0.0
 40
1.999998505850189
100
AcDbArc
 50
359.9999571957126
 51
90.00004280428553
  0
LINE
  5
2D7
330
1F
100
AcDbEntity
  8
0
  6
Continuous
 62
     7
100
AcDbLine
 10
528.351869100364
 20
288.6183714272505
 30
0.0
 11
528.351869100364
 21
262.6183714272503
 31
0.0
  0
ARC
  5
2D8
330
1F
100
AcDbEntity
  8
0
  6
Continuous
 62
     7
100
AcDbCircle
 10
526.3518705945143
 20
212.6183699331
 30
0.0
 40
1.999998505850204
100
AcDbArc
 50
269.9999571957111
 51
0.0000428042871804
  0
LINE
  5
2D9
330
1F
100
AcDbEntity
  8
0
  6
Continuous
 62
     7
100
AcDbLine
 10
528.351869100364
 20
212.6183714272503
 30
0.0
 11
528.351869100364
 21
238.6183714272505
 31
0.0
  0
LINE
  5
2DA
330
1F
100
AcDbEntity
  8
0
  6
Continuous
 62
     7
100
AcDbLine
 10
528.3518701003639
 20
238.6683714272505
 30
0.0
 11
526.4518691003639
 21
238.6683714272505
 31
0.0
  0
LINE
  5
2DB
330
1F
100
AcDbEntity
  8
0
  6
Continuous
 62
     7
100
AcDbLine
 10
526.4518691003639
 20
262.5683714272503
 30
0.0
 11
528.3518701003639
 21
262.5683714272503
 31
0.0
  0
LINE
  5
2DC
330
1F
100
AcDbEntity
  8
0
  6
Continuous
 62
     7
100
AcDbLine
 10
526.2518691003641
 20
260.6183714272503
 30
0.0
 11
528.351869100364
 21
260.6183714272503
 31
0.0
  0
LINE
  5
2DD
330
1F
100
AcDbEntity
  8
0
  6
Continuous
 62
     7
100
AcDbLine
 10
528.351869100364
 20
240.6183714272505
 30
0.0
 11
526.2518691003641
 21
240.6183714272505
 31
0.0
  0
LINE
  5
2DE
330
1F
100
AcDbEntity
  8
0
  6
Continuous
 62
     7
100
AcDbLine
 10
527.3518691003642
 20
260.6183714272503
 30
0.0
 11
527.3518691003642
 21
240.6183714272505
 31
0.0
  0
LINE
  5
2DF
330
1F
100
AcDbEntity
  8
0
  6
Continuous
 62
     7
100
AcDbLine
 10
528.351869100364
 20
262.5683714272503
 30
0.0
 11
528.351869100364
 21
238.6683714272505
 31
0.0
  0
LINE
  5
2E0
330
1F
100
AcDbEntity
  8
0
  6
Continuous
 62
     7
100
AcDbLine
 10
518.9518691003639
 20
267.6183714272505
 30
0.0
 11
492.751869100364
 21
267.6183714272505
 31
0.0
  0
LINE
  5
2E1
330
1F
100
AcDbEntity
  8
0
  6
Continuous
 62
     7
100
AcDbLine
 10
485.3518691003641
 20
290.6183714272505
 30
0.0
 11
526.3518691003639
 21
290.6183714272505
 31
0.0
  0
LINE
  5
2E2
330
1F
100
AcDbEntity
  8
0
  6
Continuous
 62
     7
100
AcDbLine
 10
526.2518691003641
 20
233.6183714272503
 30
0.0
 11
485.4518691003639
 21
233.6183714272503
 31
0.0
  0
LINE
  5
2E3
330
1F
100
AcDbEntity
  8
0
  6
Continuous
 62
     7
100
AcDbLine
 10
485.3518691003641
 20
210.6183714272503
 30
0.0
 11
526.3518691003639
 21
210.6183714272503
 31
0.0
  0
LINE
  5
2E4
330
1F
100
AcDbEntity
  8
0
  6
Continuous
 62
     7
100
AcDbLine
 10
518.751869100364
 20
233.6183714272503
 30
0.0
 11
492.9518691003639
 21
233.6183714272503
 31
0.0
  0
LINE
  5
2E5
330
1F
100
AcDbEntity
  8
0
  6
Continuous
 62
     7
100
AcDbLine
 10
485.4518691003639
 20
267.6183714272505
 30
0.0
 11
526.2518691003641
 21
267.6183714272505
 31
0.0
  0
ENDSEC
  0
SECTION
  2
OBJECTS
  0
DICTIONARY
  5
C
330
0
100
AcDbDictionary
281
     1
  3
ACAD_GROUP
350
D
  3
ACAD_LAYOUT
350
1A
  3
ACAD_MLINESTYLE
350
17
  3
ACAD_PLOTSETTINGS
350
19
  3
ACAD_PLOTSTYLENAME
350
E
  3
DWGPROPS
350
2E8
  0
DICTIONARY
  5
D
102
{ACAD_REACTORS
330
C
102
}
330
C
100
AcDbDictionary
281
     1
  0
DICTIONARY
  5
1A
102
{ACAD_REACTORS
330
C
102
}
330
C
100
AcDbDictionary
281
     1
  3
Model
350
22
  3
ﾚｲｱｳﾄ1
350
51
  0
DICTIONARY
  5
17
102
{ACAD_REACTORS
330
C
102
}
330
C
100
AcDbDictionary
281
     1
  3
Standard
350
18
  0
DICTIONARY
  5
19
102
{ACAD_REACTORS
330
C
102
}
330
C
100
AcDbDictionary
281
     1
  0
ACDBDICTIONARYWDFLT
  5
E
102
{ACAD_REACTORS
330
C
102
}
330
C
100
AcDbDictionary
281
     1
  3
Normal
350
F
100
AcDbDictionaryWithDefault
340
F
  0
XRECORD
  5
2E8
102
{ACAD_REACTORS
330
C
102
}
330
C
100
AcDbXrecord
280
     1
  1
DWGPROPS COOKIE
  2

  3

  4

  6

  7

  8

  9

300
=
301
=
302
=
303
=
304
=
305
=
306
=
307
=
308
=
309
=
 40
0.0003719212962963
 41
2456499.778867209
 42
2456499.779239132
  1

 90
        0
  0
LAYOUT
  5
22
102
{ACAD_REACTORS
330
1A
102
}
330
1A
100
AcDbPlotSettings
  1

  2
none_device
  4
ANSI_A_(8.50_x_11.00_Inches)
  6

 40
6.349999904632567
 41
19.04999923706053
 42
6.350006103515625
 43
19.04998779296875
 44
215.8999938964842
 45
279.3999938964843
 46
0.0
 47
0.0
 48
0.0
 49
0.0
140
0.0
141
0.0
142
1.0
143
78.436453180766
 70
 11952
 72
     0
 73
     1
 74
     0
  7

 75
     0
147
0.0127491741332998
148
0.0
149
0.0
100
AcDbLayout
  1
Model
 70
     1
 71
     0
 10
0.0
 20
0.0
 11
12.0
 21
9.0
 12
0.0
 22
0.0
 32
0.0
 14
0.0
 24
0.0
 34
0.0
 15
0.0
 25
0.0
 35
0.0
146
0.0
 13
0.0
 23
0.0
 33
0.0
 16
1.0
 26
0.0
 36
0.0
 17
0.0
 27
1.0
 37
0.0
 76
     0
330
1F
  0
LAYOUT
  5
51
102
{ACAD_REACTORS
330
1A
102
}
330
1A
100
AcDbPlotSettings
  1

  2
None
  4

  6

 40
0.0
 41
0.0
 42
0.0
 43
0.0
 44
0.0
 45
0.0
 46
0.0
 47
0.0
 48
0.0
 49
0.0
140
0.0
141
0.0
142
1.0
143
1.0
 70
   688
 72
     0
 73
     0
 74
     5
  7

 75
    16
147
1.0
148
0.0
149
0.0
100
AcDbLayout
  1
ﾚｲｱｳﾄ1
 70
     1
 71
     1
 10
0.0
 20
0.0
 11
12.0
 21
9.0
 12
0.0
 22
0.0
 32
0.0
 14
0.0
 24
0.0
 34
0.0
 15
0.0
 25
0.0
 35
0.0
146
0.0
 13
0.0
 23
0.0
 33
0.0
 16
1.0
 26
0.0
 36
0.0
 17
0.0
 27
1.0
 37
0.0
 76
     0
330
50
  0
MLINESTYLE
  5
18
102
{ACAD_REACTORS
330
17
102
}
330
17
100
AcDbMlineStyle
  2
STANDARD
 70
     0
  3

 62
   256
 51
90.0
 52
90.0
 71
     2
 49
0.5
 62
   256
  6
BYLAYER
 49
-0.5
 62
   256
  6
BYLAYER
  0
ACDBPLACEHOLDER
  5
F
102
{ACAD_REACTORS
330
E
102
}
330
E
  0
ENDSEC
  0
EOF
