  0
SECTION
  2
HEADER
  9
$ACADVER
  1
AC1015
  9
$ACADMAINTVER
 70
    10
  9
$DWGCODEPAGE
  3
ANSI_932
  9
$INSBASE
 10
0.0
 20
0.0
 30
0.0
  9
$EXTMIN
 10
436.5022748857337
 20
263.0106107800301
 30
0.0
  9
$EXTMAX
 10
556.4579102857333
 20
363.4657881800301
 30
0.0
  9
$LIMMIN
 10
0.0
 20
0.0
  9
$LIMMAX
 10
420.0
 20
297.0
  9
$ORTHOMODE
 70
     0
  9
$REGENMODE
 70
     1
  9
$FILLMODE
 70
     1
  9
$QTEXTMODE
 70
     0
  9
$MIRRTEXT
 70
     1
  9
$LTSCALE
 40
1.0
  9
$ATTMODE
 70
     1
  9
$TEXTSIZE
 40
2.5
  9
$TRACEWID
 40
1.0
  9
$TEXTSTYLE
  7
Standard
  9
$CLAYER
  8
0
  9
$CELTYPE
  6
ByLayer
  9
$CECOLOR
 62
   256
  9
$CELTSCALE
 40
1.0
  9
$DISPSILH
 70
     0
  9
$DIMSCALE
 40
1.0
  9
$DIMASZ
 40
2.5
  9
$DIMEXO
 40
0.625
  9
$DIMDLI
 40
3.75
  9
$DIMRND
 40
0.0
  9
$DIMDLE
 40
0.0
  9
$DIMEXE
 40
1.25
  9
$DIMTP
 40
0.0
  9
$DIMTM
 40
0.0
  9
$DIMTXT
 40
2.5
  9
$DIMCEN
 40
2.5
  9
$DIMTSZ
 40
0.0
  9
$DIMTOL
 70
     0
  9
$DIMLIM
 70
     0
  9
$DIMTIH
 70
     0
  9
$DIMTOH
 70
     0
  9
$DIMSE1
 70
     0
  9
$DIMSE2
 70
     0
  9
$DIMTAD
 70
     1
  9
$DIMZIN
 70
     8
  9
$DIMBLK
  1

  9
$DIMASO
 70
     1
  9
$DIMSHO
 70
     1
  9
$DIMPOST
  1

  9
$DIMAPOST
  1

  9
$DIMALT
 70
     0
  9
$DIMALTD
 70
     3
  9
$DIMALTF
 40
0.03937007874016
  9
$DIMLFAC
 40
1.0
  9
$DIMTOFL
 70
     1
  9
$DIMTVP
 40
0.0
  9
$DIMTIX
 70
     0
  9
$DIMSOXD
 70
     0
  9
$DIMSAH
 70
     0
  9
$DIMBLK1
  1

  9
$DIMBLK2
  1

  9
$DIMSTYLE
  2
ISO-25
  9
$DIMCLRD
 70
     0
  9
$DIMCLRE
 70
     0
  9
$DIMCLRT
 70
     0
  9
$DIMTFAC
 40
1.0
  9
$DIMGAP
 40
0.625
  9
$DIMJUST
 70
     0
  9
$DIMSD1
 70
     0
  9
$DIMSD2
 70
     0
  9
$DIMTOLJ
 70
     0
  9
$DIMTZIN
 70
     8
  9
$DIMALTZ
 70
     0
  9
$DIMALTTZ
 70
     0
  9
$DIMUPT
 70
     0
  9
$DIMDEC
 70
     2
  9
$DIMTDEC
 70
     2
  9
$DIMALTU
 70
     2
  9
$DIMALTTD
 70
     3
  9
$DIMTXSTY
  7
Standard
  9
$DIMAUNIT
 70
     0
  9
$DIMADEC
 70
     0
  9
$DIMALTRND
 40
0.0
  9
$DIMAZIN
 70
     0
  9
$DIMDSEP
 70
    44
  9
$DIMATFIT
 70
     3
  9
$DIMFRAC
 70
     0
  9
$DIMLDRBLK
  1

  9
$DIMLUNIT
 70
     2
  9
$DIMLWD
 70
    -2
  9
$DIMLWE
 70
    -2
  9
$DIMTMOVE
 70
     0
  9
$LUNITS
 70
     2
  9
$LUPREC
 70
     4
  9
$SKETCHINC
 40
1.0
  9
$FILLETRAD
 40
10.0
  9
$AUNITS
 70
     0
  9
$AUPREC
 70
     0
  9
$MENU
  1
.
  9
$ELEVATION
 40
0.0
  9
$PELEVATION
 40
0.0
  9
$THICKNESS
 40
0.0
  9
$LIMCHECK
 70
     0
  9
$CHAMFERA
 40
10.0
  9
$CHAMFERB
 40
10.0
  9
$CHAMFERC
 40
20.0
  9
$CHAMFERD
 40
0.0
  9
$SKPOLY
 70
     0
  9
$TDCREATE
 40
2456499.780526470
  9
$TDUCREATE
 40
2456499.405526470
  9
$TDUPDATE
 40
2456500.621556435
  9
$TDUUPDATE
 40
2456500.246556435
  9
$TDINDWG
 40
0.0007706829
  9
$TDUSRTIMER
 40
0.0007706829
  9
$USRTIMER
 70
     1
  9
$ANGBASE
 50
0.0
  9
$ANGDIR
 70
     0
  9
$PDMODE
 70
     0
  9
$PDSIZE
 40
0.0
  9
$PLINEWID
 40
0.0
  9
$SPLFRAME
 70
     0
  9
$SPLINETYPE
 70
     6
  9
$SPLINESEGS
 70
     8
  9
$HANDSEED
  5
38F
  9
$SURFTAB1
 70
     6
  9
$SURFTAB2
 70
     6
  9
$SURFTYPE
 70
     6
  9
$SURFU
 70
     6
  9
$SURFV
 70
     6
  9
$UCSBASE
  2

  9
$UCSNAME
  2

  9
$UCSORG
 10
0.0
 20
0.0
 30
0.0
  9
$UCSXDIR
 10
1.0
 20
0.0
 30
0.0
  9
$UCSYDIR
 10
0.0
 20
1.0
 30
0.0
  9
$UCSORTHOREF
  2

  9
$UCSORTHOVIEW
 70
     0
  9
$UCSORGTOP
 10
0.0
 20
0.0
 30
0.0
  9
$UCSORGBOTTOM
 10
0.0
 20
0.0
 30
0.0
  9
$UCSORGLEFT
 10
0.0
 20
0.0
 30
0.0
  9
$UCSORGRIGHT
 10
0.0
 20
0.0
 30
0.0
  9
$UCSORGFRONT
 10
0.0
 20
0.0
 30
0.0
  9
$UCSORGBACK
 10
0.0
 20
0.0
 30
0.0
  9
$PUCSBASE
  2

  9
$PUCSNAME
  2

  9
$PUCSORG
 10
0.0
 20
0.0
 30
0.0
  9
$PUCSXDIR
 10
1.0
 20
0.0
 30
0.0
  9
$PUCSYDIR
 10
0.0
 20
1.0
 30
0.0
  9
$PUCSORTHOREF
  2

  9
$PUCSORTHOVIEW
 70
     0
  9
$PUCSORGTOP
 10
0.0
 20
0.0
 30
0.0
  9
$PUCSORGBOTTOM
 10
0.0
 20
0.0
 30
0.0
  9
$PUCSORGLEFT
 10
0.0
 20
0.0
 30
0.0
  9
$PUCSORGRIGHT
 10
0.0
 20
0.0
 30
0.0
  9
$PUCSORGFRONT
 10
0.0
 20
0.0
 30
0.0
  9
$PUCSORGBACK
 10
0.0
 20
0.0
 30
0.0
  9
$USERI1
 70
     0
  9
$USERI2
 70
     0
  9
$USERI3
 70
     0
  9
$USERI4
 70
     0
  9
$USERI5
 70
     0
  9
$USERR1
 40
0.0
  9
$USERR2
 40
0.0
  9
$USERR3
 40
0.0
  9
$USERR4
 40
0.0
  9
$USERR5
 40
0.0
  9
$WORLDVIEW
 70
     1
  9
$SHADEDGE
 70
     3
  9
$SHADEDIF
 70
    70
  9
$TILEMODE
 70
     1
  9
$MAXACTVP
 70
    64
  9
$PINSBASE
 10
0.0
 20
0.0
 30
0.0
  9
$PLIMCHECK
 70
     0
  9
$PEXTMIN
 10
0.0
 20
0.0
 30
0.0
  9
$PEXTMAX
 10
0.0
 20
0.0
 30
0.0
  9
$PLIMMIN
 10
0.0
 20
0.0
  9
$PLIMMAX
 10
12.0
 20
9.0
  9
$UNITMODE
 70
     0
  9
$VISRETAIN
 70
     1
  9
$PLINEGEN
 70
     0
  9
$PSLTSCALE
 70
     1
  9
$TREEDEPTH
 70
  3020
  9
$CMLSTYLE
  2
Standard
  9
$CMLJUST
 70
     0
  9
$CMLSCALE
 40
20.0
  9
$PROXYGRAPHICS
 70
     1
  9
$MEASUREMENT
 70
     1
  9
$CELWEIGHT
370
    -1
  9
$ENDCAPS
280
     0
  9
$JOINSTYLE
280
     0
  9
$LWDISPLAY
290
     0
  9
$INSUNITS
 70
     4
  9
$HYPERLINKBASE
  1

  9
$STYLESHEET
  1

  9
$XEDIT
290
     1
  9
$CEPSNTYPE
380
     0
  9
$PSTYLEMODE
290
     1
  9
$FINGERPRINTGUID
  2
{FDEAD578-A652-11D2-9A35-0060089B3A3F}
  9
$VERSIONGUID
  2
{694D308C-DBE2-466F-AE79-5027E8E7198D}
  9
$EXTNAMES
290
     1
  9
$PSVPSCALE
 40
0.0
  9
$OLESTARTUP
290
     0
  0
ENDSEC
  0
SECTION
  2
CLASSES
  0
CLASS
  1
ACDBDICTIONARYWDFLT
  2
AcDbDictionaryWithDefault
  3
AutoCAD 2000
 90
        0
280
     0
281
     0
  0
CLASS
  1
ACDBPLACEHOLDER
  2
AcDbPlaceHolder
  3
AutoCAD 2000
 90
        0
280
     0
281
     0
  0
CLASS
  1
LAYOUT
  2
AcDbLayout
  3
AutoCAD 2000
 90
        0
280
     0
281
     0
  0
ENDSEC
  0
SECTION
  2
TABLES
  0
TABLE
  2
VPORT
  5
8
330
0
100
AcDbSymbolTable
 70
     2
  0
VPORT
  5
38E
330
8
100
AcDbSymbolTableRecord
100
AcDbViewportTableRecord
  2
*Active
 70
     0
 10
0.0
 20
0.0
 11
1.0
 21
1.0
 12
499.5663088977826
 22
309.4991748668367
 13
0.0
 23
0.0
 14
10.0
 24
10.0
 15
10.0
 25
10.0
 16
0.0
 26
0.0
 36
1.0
 17
0.0
 27
0.0
 37
0.0
 40
133.8144021868088
 41
1.781954887218045
 42
50.0
 43
0.0
 44
0.0
 50
0.0
 51
0.0
 71
     0
 72
   100
 73
     1
 74
     3
 75
     0
 76
     0
 77
     0
 78
     0
281
     0
 65
     1
110
0.0
120
0.0
130
0.0
111
1.0
121
0.0
131
0.0
112
0.0
122
1.0
132
0.0
 79
     0
146
0.0
  0
ENDTAB
  0
TABLE
  2
LTYPE
  5
5
330
0
100
AcDbSymbolTable
 70
     2
  0
LTYPE
  5
14
330
5
100
AcDbSymbolTableRecord
100
AcDbLinetypeTableRecord
  2
ByBlock
 70
     0
  3

 72
    65
 73
     0
 40
0.0
  0
LTYPE
  5
15
330
5
100
AcDbSymbolTableRecord
100
AcDbLinetypeTableRecord
  2
ByLayer
 70
     0
  3

 72
    65
 73
     0
 40
0.0
  0
LTYPE
  5
16
330
5
100
AcDbSymbolTableRecord
100
AcDbLinetypeTableRecord
  2
Continuous
 70
     0
  3
Solid line
 72
    65
 73
     0
 40
0.0
  0
LTYPE
  5
61
330
5
100
AcDbSymbolTableRecord
100
AcDbLinetypeTableRecord
  2
DASHED
 70
     0
  3
DASHED
 72
    65
 73
     2
 40
0.75
 49
0.5
 74
     0
 49
-0.25
 74
     0
  0
ENDTAB
  0
TABLE
  2
LAYER
  5
2
330
0
100
AcDbSymbolTable
 70
     1
  0
LAYER
  5
10
330
2
100
AcDbSymbolTableRecord
100
AcDbLayerTableRecord
  2
0
 70
     0
 62
     7
  6
Continuous
370
    -3
390
F
  0
ENDTAB
  0
TABLE
  2
STYLE
  5
3
330
0
100
AcDbSymbolTable
 70
     1
  0
STYLE
  5
11
330
3
100
AcDbSymbolTableRecord
100
AcDbTextStyleTableRecord
  2
Standard
 70
     0
 40
0.0
 41
1.0
 50
0.0
 71
     0
 42
2.5
  3
txt
  4

  0
ENDTAB
  0
TABLE
  2
VIEW
  5
6
330
0
100
AcDbSymbolTable
 70
     0
  0
ENDTAB
  0
TABLE
  2
UCS
  5
7
330
0
100
AcDbSymbolTable
 70
     0
  0
ENDTAB
  0
TABLE
  2
APPID
  5
9
330
0
100
AcDbSymbolTable
 70
     1
  0
APPID
  5
12
330
9
100
AcDbSymbolTableRecord
100
AcDbRegAppTableRecord
  2
ACAD
 70
     0
  0
ENDTAB
  0
TABLE
  2
DIMSTYLE
  5
A
330
0
100
AcDbSymbolTable
 70
     1
100
AcDbDimStyleTable
 71
     1
340
27
  0
DIMSTYLE
105
27
330
A
100
AcDbSymbolTableRecord
100
AcDbDimStyleTableRecord
  2
ISO-25
 70
     0
 41
2.5
 42
0.625
 43
3.75
 44
1.25
 73
     0
 74
     0
 77
     1
 78
     8
140
2.5
141
2.5
143
0.03937007874016
147
0.625
171
     3
172
     1
271
     2
272
     2
274
     3
278
    44
283
     0
284
     8
340
11
  0
ENDTAB
  0
TABLE
  2
BLOCK_RECORD
  5
1
330
0
100
AcDbSymbolTable
 70
     1
  0
BLOCK_RECORD
  5
1F
330
1
100
AcDbSymbolTableRecord
100
AcDbBlockTableRecord
  2
*Model_Space
340
22
  0
BLOCK_RECORD
  5
50
330
1
100
AcDbSymbolTableRecord
100
AcDbBlockTableRecord
  2
*Paper_Space
340
51
  0
BLOCK_RECORD
  5
55
330
1
100
AcDbSymbolTableRecord
100
AcDbBlockTableRecord
  2
*Paper_Space0
340
56
  0
ENDTAB
  0
ENDSEC
  0
SECTION
  2
BLOCKS
  0
BLOCK
  5
20
330
1F
100
AcDbEntity
  8
0
100
AcDbBlockBegin
  2
*Model_Space
 70
     0
 10
0.0
 20
0.0
 30
0.0
  3
*Model_Space
  1

  0
ENDBLK
  5
21
330
1F
100
AcDbEntity
  8
0
100
AcDbBlockEnd
  0
BLOCK
  5
52
330
50
100
AcDbEntity
 67
     1
  8
0
100
AcDbBlockBegin
  2
*Paper_Space
 70
     0
 10
0.0
 20
0.0
 30
0.0
  3
*Paper_Space
  1

  0
ENDBLK
  5
53
330
50
100
AcDbEntity
 67
     1
  8
0
100
AcDbBlockEnd
  0
BLOCK
  5
57
330
55
100
AcDbEntity
  8
0
100
AcDbBlockBegin
  2
*Paper_Space0
 70
     0
 10
0.0
 20
0.0
 30
0.0
  3
*Paper_Space0
  1

  0
ENDBLK
  5
58
330
55
100
AcDbEntity
  8
0
100
AcDbBlockEnd
  0
ENDSEC
  0
SECTION
  2
ENTITIES
  0
LINE
  5
1F7
330
1F
100
AcDbEntity
  8
0
  6
Continuous
 62
     7
100
AcDbLine
 10
526.4529372857338
 20
353.01015278003
 30
0.0
 11
525.9812012857338
 21
353.01015278003
 31
0.0
  0
ARC
  5
1F8
330
1F
100
AcDbEntity
  8
0
  6
Continuous
 62
     7
100
AcDbCircle
 10
525.9812042226108
 20
350.0101497111304
 30
0.0
 40
3.000003068901082
100
AcDbArc
 50
90.0000560901641
 51
170.1341539216521
  0
LINE
  5
1F9
330
1F
100
AcDbEntity
  8
0
  6
Continuous
 62
     7
100
AcDbLine
 10
521.5641942857337
 20
343.8721817800299
 30
0.0
 11
521.9156602857337
 21
345.8931117800299
 31
0.0
  0
LINE
  5
1FA
330
1F
100
AcDbEntity
  8
0
  6
Continuous
 62
     7
100
AcDbLine
 10
522.2112242857336
 20
345.84170978003
 30
0.0
 11
521.9156602857337
 21
345.8931117800299
 31
0.0
  0
LINE
  5
1FB
330
1F
100
AcDbEntity
  8
0
  6
Continuous
 62
     7
100
AcDbLine
 10
521.8597582857337
 20
343.8207787800299
 30
0.0
 11
521.5641942857337
 21
343.8721817800299
 31
0.0
  0
LINE
  5
1FC
330
1F
100
AcDbEntity
  8
0
  6
Continuous
 62
     7
100
AcDbLine
 10
524.4579102857337
 20
330.01015278003
 30
0.0
 11
526.4529372857338
 21
330.01015278003
 31
0.0
  0
LINE
  5
1FD
330
1F
100
AcDbEntity
  8
0
  6
Continuous
 62
     7
100
AcDbLine
 10
524.4579102857337
 20
330.01015278003
 30
0.0
 11
526.4487012857338
 21
330.01015378003
 31
0.0
  0
LINE
  5
1FE
330
1F
100
AcDbEntity
  8
0
  6
Continuous
 62
     7
100
AcDbLine
 10
526.4529372857338
 20
324.96015278003
 30
0.0
 11
524.4579102857337
 21
324.96015278003
 31
0.0
  0
LINE
  5
1FF
330
1F
100
AcDbEntity
  8
0
  6
Continuous
 62
     7
100
AcDbLine
 10
525.3529372857336
 20
326.8101527800299
 30
0.0
 11
525.3529372857336
 21
326.5101527800298
 31
0.0
  0
LINE
  5
200
330
1F
100
AcDbEntity
  8
0
  6
Continuous
 62
     7
100
AcDbLine
 10
524.4579102857337
 20
324.9601527800298
 30
0.0
 11
524.4579102857337
 21
325.7129046331566
 31
0.0
  0
ARC
  5
201
330
1F
100
AcDbEntity
  8
0
  6
Continuous
 62
     7
100
AcDbCircle
 10
524.9529370055603
 20
325.6425607173969
 30
0.0
 40
0.4999997198266292
100
AcDbArc
 50
123.6900368313692
 51
171.912345401067
  0
LINE
  5
202
330
1F
100
AcDbEntity
  8
0
  6
Continuous
 62
     7
100
AcDbLine
 10
524.2491987782114
 20
326.5101527800298
 30
0.0
 11
525.3529372857336
 21
326.5101527800298
 31
0.0
  0
LINE
  5
203
330
1F
100
AcDbEntity
  8
0
  6
Continuous
 62
     7
100
AcDbLine
 10
525.3529372857336
 20
326.5101527800298
 30
0.0
 11
524.6755872857337
 21
326.0585857800299
 31
0.0
  0
LINE
  5
204
330
1F
100
AcDbEntity
  8
0
  6
Continuous
 62
     7
100
AcDbLine
 10
525.3529372857336
 20
326.8101527800299
 30
0.0
 11
524.4579102857337
 21
328.5007593355855
 31
0.0
  0
LINE
  5
205
330
1F
100
AcDbEntity
  8
0
  6
Continuous
 62
     7
100
AcDbLine
 10
524.4579102857337
 20
330.01015278003
 30
0.0
 11
524.4579102857337
 21
328.5007593355855
 31
0.0
  0
LINE
  5
206
330
1F
100
AcDbEntity
  8
0
  6
Continuous
 62
     7
100
AcDbLine
 10
524.4579102857337
 20
327.5101527800298
 30
0.0
 11
524.4579102857337
 21
330.01015278003
 31
0.0
  0
LINE
  5
207
330
1F
100
AcDbEntity
  8
0
  6
Continuous
 62
     7
100
AcDbLine
 10
519.4579102857337
 20
329.7512267800299
 30
0.0
 11
519.4579102857337
 21
325.3101527800299
 31
0.0
  0
LINE
  5
208
330
1F
100
AcDbEntity
  8
0
  6
Continuous
 62
     7
100
AcDbLine
 10
519.7579102857338
 20
325.01015278003
 30
0.0
 11
521.9579102857339
 21
325.01015278003
 31
0.0
  0
ARC
  5
209
330
1F
100
AcDbEntity
  8
0
  6
Continuous
 62
     7
100
AcDbCircle
 10
519.7579100616111
 20
325.3101525559073
 30
0.0
 40
0.2999997758775221
100
AcDbArc
 50
179.9999571957079
 51
270.0000428042789
  0
LINE
  5
20A
330
1F
100
AcDbEntity
  8
0
  6
Continuous
 62
     7
100
AcDbLine
 10
519.4579102857337
 20
326.01045178003
 30
0.0
 11
519.4579102857337
 21
326.01015278003
 31
0.0
  0
ARC
  5
20B
330
1F
100
AcDbEntity
  8
0
  6
Continuous
 62
     7
100
AcDbCircle
 10
522.4579286685623
 20
329.7512288985671
 30
0.0
 40
3.000018382829248
100
AcDbArc
 50
170.1343053458804
 51
180.0000404608276
  0
ARC
  5
20C
330
1F
100
AcDbEntity
  8
0
  6
Continuous
 62
     7
100
AcDbCircle
 10
521.9579121534218
 20
327.5101509123421
 30
0.0
 40
2.49999813231274
100
AcDbArc
 50
269.9999571957111
 51
0.0000428042888088
  0
LINE
  5
20D
330
1F
100
AcDbEntity
  8
0
  6
Continuous
 62
     7
100
AcDbLine
 10
524.4579102857337
 20
324.96015278003
 30
0.0
 11
519.4579102857337
 21
323.01015278003
 31
0.0
  0
LINE
  5
20E
330
1F
100
AcDbEntity
  8
0
  6
Continuous
 62
     7
100
AcDbLine
 10
531.0529372857338
 20
323.01015278003
 30
0.0
 11
526.4529372857338
 21
323.01015278003
 31
0.0
  0
LINE
  5
20F
330
1F
100
AcDbEntity
  8
0
  6
Continuous
 62
     7
100
AcDbLine
 10
524.4579102857337
 20
296.01015278003
 30
0.0
 11
526.4529372857338
 21
296.0101517821488
 31
0.0
  0
LINE
  5
210
330
1F
100
AcDbEntity
  8
0
  6
Continuous
 62
     7
100
AcDbLine
 10
524.4579102857337
 20
296.01015278003
 30
0.0
 11
526.4529372857338
 21
296.0101517821488
 31
0.0
  0
LINE
  5
211
330
1F
100
AcDbEntity
  8
0
  6
Continuous
 62
     7
100
AcDbLine
 10
526.4529372857338
 20
301.0601527800299
 30
0.0
 11
524.4579102857337
 21
301.0601527800299
 31
0.0
  0
LINE
  5
212
330
1F
100
AcDbEntity
  8
0
  6
Continuous
 62
     7
100
AcDbLine
 10
524.4579102857337
 20
300.3074009269033
 30
0.0
 11
524.4579102857337
 21
301.0601527800299
 31
0.0
  0
ARC
  5
213
330
1F
100
AcDbEntity
  8
0
  6
Continuous
 62
     7
100
AcDbCircle
 10
524.9529370055603
 20
300.3777448426631
 30
0.0
 40
0.4999997198266057
100
AcDbArc
 50
188.0876545989167
 51
236.3099631686279
  0
LINE
  5
214
330
1F
100
AcDbEntity
  8
0
  6
Continuous
 62
     7
100
AcDbLine
 10
525.3529372857336
 20
299.2101527800301
 30
0.0
 11
524.4579102857337
 21
297.5195462244744
 31
0.0
  0
LINE
  5
215
330
1F
100
AcDbEntity
  8
0
  6
Continuous
 62
     7
100
AcDbLine
 10
524.4579102857337
 20
296.01015278003
 30
0.0
 11
524.4579102857337
 21
297.5195462244744
 31
0.0
  0
LINE
  5
216
330
1F
100
AcDbEntity
  8
0
  6
Continuous
 62
     7
100
AcDbLine
 10
524.4579102857337
 20
298.51015278003
 30
0.0
 11
524.4579102857337
 21
296.01015278003
 31
0.0
  0
LINE
  5
217
330
1F
100
AcDbEntity
  8
0
  6
Continuous
 62
     7
100
AcDbLine
 10
525.3529372857336
 20
299.51015278003
 30
0.0
 11
524.6755872857337
 21
299.9617197800299
 31
0.0
  0
LINE
  5
218
330
1F
100
AcDbEntity
  8
0
  6
Continuous
 62
     7
100
AcDbLine
 10
525.3529372857336
 20
299.2101527800301
 30
0.0
 11
525.3529372857336
 21
299.51015278003
 31
0.0
  0
LINE
  5
219
330
1F
100
AcDbEntity
  8
0
  6
Continuous
 62
     7
100
AcDbLine
 10
524.2593112857337
 20
299.51015278003
 30
0.0
 11
525.3529372857336
 21
299.51015278003
 31
0.0
  0
LINE
  5
21A
330
1F
100
AcDbEntity
  8
0
  6
Continuous
 62
     7
100
AcDbLine
 10
519.7579102857338
 20
301.01015278003
 30
0.0
 11
521.9579102857339
 21
301.01015278003
 31
0.0
  0
ARC
  5
21B
330
1F
100
AcDbEntity
  8
0
  6
Continuous
 62
     7
100
AcDbCircle
 10
519.7579100616111
 20
300.7101530041527
 30
0.0
 40
0.2999997758775221
100
AcDbArc
 50
89.99995719571769
 51
180.0000428042953
  0
LINE
  5
21C
330
1F
100
AcDbEntity
  8
0
  6
Continuous
 62
     7
100
AcDbLine
 10
519.4579102857338
 20
296.2690787800301
 30
0.0
 11
519.4579102857337
 21
300.7101527800301
 31
0.0
  0
ARC
  5
21D
330
1F
100
AcDbEntity
  8
0
  6
Continuous
 62
     7
100
AcDbCircle
 10
522.4579286685626
 20
296.269076661493
 30
0.0
 40
3.000018382829418
100
AcDbArc
 50
179.9999595391691
 51
189.8656946541195
  0
LINE
  5
21E
330
1F
100
AcDbEntity
  8
0
  6
Continuous
 62
     7
100
AcDbLine
 10
524.4579102857337
 20
301.0601527800299
 30
0.0
 11
519.4579102857337
 21
303.01015278003
 31
0.0
  0
ARC
  5
21F
330
1F
100
AcDbEntity
  8
0
  6
Continuous
 62
     7
100
AcDbCircle
 10
521.9579121534218
 20
298.510154647718
 30
0.0
 40
2.49999813231274
100
AcDbArc
 50
359.9999571957112
 51
90.00004280428553
  0
LINE
  5
220
330
1F
100
AcDbEntity
  8
0
  6
Continuous
 62
     7
100
AcDbLine
 10
526.4529372857338
 20
273.0101527800301
 30
0.0
 11
525.9812012857338
 21
273.0101527800301
 31
0.0
  0
ARC
  5
221
330
1F
100
AcDbEntity
  8
0
  6
Continuous
 62
     7
100
AcDbCircle
 10
525.9812036281483
 20
276.0101553489295
 30
0.0
 40
3.000002568900517
100
AcDbArc
 50
189.8658574317317
 51
269.9999552632139
  0
LINE
  5
222
330
1F
100
AcDbEntity
  8
0
  6
Continuous
 62
     7
100
AcDbLine
 10
521.9884332857336
 20
279.70875078003
 30
0.0
 11
522.3398992857338
 21
277.68781978003
 31
0.0
  0
LINE
  5
223
330
1F
100
AcDbEntity
  8
0
  6
Continuous
 62
     7
100
AcDbLine
 10
522.2839972857336
 20
279.7601527800301
 30
0.0
 11
521.9884332857336
 21
279.70875078003
 31
0.0
  0
LINE
  5
224
330
1F
100
AcDbEntity
  8
0
  6
Continuous
 62
     7
100
AcDbLine
 10
522.6354632857337
 20
277.7392217800301
 30
0.0
 11
522.3398992857338
 21
277.68781978003
 31
0.0
  0
LINE
  5
225
330
1F
100
AcDbEntity
  8
0
  6
Continuous
 62
     7
100
AcDbLine
 10
526.4529372857338
 20
296.01015278003
 30
0.0
 11
526.4529372857338
 21
273.0101527800301
 31
0.0
  0
LINE
  5
226
330
1F
100
AcDbEntity
  8
0
  6
Continuous
 62
     7
100
AcDbLine
 10
526.4529372857338
 20
301.0601527800299
 30
0.0
 11
526.4529372857338
 21
273.0101527800301
 31
0.0
  0
LINE
  5
227
330
1F
100
AcDbEntity
  8
0
  6
Continuous
 62
     7
100
AcDbLine
 10
519.5022742857339
 20
295.7550557800301
 30
0.0
 11
523.0255662857338
 21
275.4961287800301
 31
0.0
  0
LINE
  5
228
330
1F
100
AcDbEntity
  8
0
  6
Continuous
 62
     7
100
AcDbLine
 10
531.0529372857338
 20
303.01015278003
 30
0.0
 11
526.4529372857338
 21
303.01015278003
 31
0.0
  0
LINE
  5
229
330
1F
100
AcDbEntity
  8
0
  6
Continuous
 62
     7
100
AcDbLine
 10
519.4579102857337
 20
300.5127277800299
 30
0.0
 11
519.4579102857337
 21
325.5075777800299
 31
0.0
  0
LINE
  5
22A
330
1F
100
AcDbEntity
  8
0
  6
Continuous
 62
     7
100
AcDbLine
 10
531.0529372857338
 20
303.01015278003
 30
0.0
 11
531.0529372857338
 21
323.01015278003
 31
0.0
  0
LINE
  5
22B
330
1F
100
AcDbEntity
  8
0
  6
Continuous
 62
     7
100
AcDbLine
 10
526.4529372857338
 20
301.0601527800299
 30
0.0
 11
526.4529372857338
 21
324.96015278003
 31
0.0
  0
LINE
  5
22C
330
1F
100
AcDbEntity
  8
0
  6
Continuous
 62
     7
100
AcDbLine
 10
526.4529372857338
 20
330.01015278003
 30
0.0
 11
526.4529372857338
 21
353.01015278003
 31
0.0
  0
LINE
  5
22D
330
1F
100
AcDbEntity
  8
0
  6
Continuous
 62
     7
100
AcDbLine
 10
526.4529372857338
 20
324.96015278003
 30
0.0
 11
526.4529372857338
 21
353.01015278003
 31
0.0
  0
LINE
  5
22E
330
1F
100
AcDbEntity
  8
0
  6
Continuous
 62
     7
100
AcDbLine
 10
526.4529372857338
 20
330.01015278003
 30
0.0
 11
526.4529372857338
 21
353.01015278003
 31
0.0
  0
LINE
  5
22F
330
1F
100
AcDbEntity
  8
0
100
AcDbLine
 10
526.4529372857338
 20
353.01015278003
 30
0.0
 11
526.4529372857338
 21
273.0101527800301
 31
0.0
  0
LINE
  5
230
330
1F
100
AcDbEntity
  8
0
  6
Continuous
 62
     7
100
AcDbLine
 10
519.5022742857339
 20
330.2652497800299
 30
0.0
 11
523.0255662857338
 21
350.5241757800301
 31
0.0
  0
CIRCLE
  5
231
330
1F
100
AcDbEntity
  8
0
  6
DASHED
 62
     4
100
AcDbCircle
 10
459.4572259666529
 20
358.0108310991111
 30
0.0
 40
2.249998319081468
  0
LINE
  5
232
330
1F
100
AcDbEntity
  8
0
  6
DASHED
 62
     4
 48
2.0
100
AcDbLine
 10
472.2329112857337
 20
279.3726487800301
 30
0.0
 11
472.2329112857337
 21
278.1476487800301
 31
0.0
  0
LINE
  5
233
330
1F
100
AcDbEntity
  8
0
100
AcDbLine
 10
471.3996733316786
 20
279.3726487800301
 30
0.0
 11
471.0968202857337
 21
279.3726487800301
 31
0.0
  0
LINE
  5
234
330
1F
100
AcDbEntity
  8
0
100
AcDbLine
 10
471.3996714623911
 20
278.1476487800301
 30
0.0
 11
471.0968202857337
 21
278.1476487800301
 31
0.0
  0
LINE
  5
235
330
1F
100
AcDbEntity
  8
0
  6
DASHED
 62
     4
 48
2.0
100
AcDbLine
 10
471.3996733316786
 20
279.3726487800301
 30
0.0
 11
472.2329112857337
 21
279.3726487800301
 31
0.0
  0
LINE
  5
236
330
1F
100
AcDbEntity
  8
0
  6
DASHED
 62
     4
 48
2.0
100
AcDbLine
 10
472.2329112857337
 20
278.1476487800301
 30
0.0
 11
471.3996714623911
 21
278.1476487800301
 31
0.0
  0
ARC
  5
237
330
1F
100
AcDbEntity
  8
0
  6
DASHED
 62
     4
 48
2.0
100
AcDbCircle
 10
471.7954116125792
 20
282.3476491068756
 30
0.0
 40
0.4374996731547269
100
AcDbArc
 50
359.9999571957112
 51
90.00004280428553
  0
LINE
  5
238
330
1F
100
AcDbEntity
  8
0
  6
DASHED
 62
     4
 48
2.0
100
AcDbLine
 10
467.5954112857338
 20
282.7851487800301
 30
0.0
 11
468.8204112857337
 21
282.7851487800301
 31
0.0
  0
LINE
  5
239
330
1F
100
AcDbEntity
  8
0
100
AcDbLine
 10
465.0161469006005
 20
279.3726487800301
 30
0.0
 11
465.3190032857337
 21
279.3726487800301
 31
0.0
  0
LINE
  5
23A
330
1F
100
AcDbEntity
  8
0
100
AcDbLine
 10
465.0161482759196
 20
278.1476487800301
 30
0.0
 11
465.3190032857337
 21
278.1476487800301
 31
0.0
  0
LINE
  5
23B
330
1F
100
AcDbEntity
  8
0
100
AcDbLine
 10
467.5954112857338
 20
281.9519149161907
 30
0.0
 11
467.5954112857338
 21
281.6490577800301
 31
0.0
  0
LINE
  5
23C
330
1F
100
AcDbEntity
  8
0
100
AcDbLine
 10
468.8204112857337
 20
281.9519148664793
 30
0.0
 11
468.8204112857337
 21
281.6490577800301
 31
0.0
  0
LINE
  5
23D
330
1F
100
AcDbEntity
  8
0
  6
Continuous
 62
     7
 48
2.0
100
AcDbLine
 10
467.7266612857337
 20
279.2413987800301
 30
0.0
 11
467.7266612857337
 21
280.4226487800301
 31
0.0
  0
LINE
  5
23E
330
1F
100
AcDbEntity
  8
0
  6
Continuous
 62
     7
 48
2.0
100
AcDbLine
 10
468.6891612857338
 20
277.0976487800301
 30
0.0
 11
468.6891612857338
 21
278.2788987800301
 31
0.0
  0
LINE
  5
23F
330
1F
100
AcDbEntity
  8
0
  6
Continuous
 62
     7
 48
2.0
100
AcDbLine
 10
468.6891612857338
 20
279.2413987800301
 30
0.0
 11
468.6891612857338
 21
280.4226487800301
 31
0.0
  0
LINE
  5
240
330
1F
100
AcDbEntity
  8
0
  6
Continuous
 62
     7
 48
2.0
100
AcDbLine
 10
465.2547862857338
 20
278.2788987800301
 30
0.0
 11
467.7266612857337
 21
278.2788987800301
 31
0.0
  0
LINE
  5
241
330
1F
100
AcDbEntity
  8
0
  6
Continuous
 62
     7
 48
2.0
100
AcDbLine
 10
465.2547862857338
 20
279.2413987800301
 30
0.0
 11
467.7266612857337
 21
279.2413987800301
 31
0.0
  0
LINE
  5
242
330
1F
100
AcDbEntity
  8
0
  6
Continuous
 62
     7
 48
2.0
100
AcDbLine
 10
467.7266612857337
 20
277.0976487800301
 30
0.0
 11
468.6891612857338
 21
277.0976487800301
 31
0.0
  0
LINE
  5
243
330
1F
100
AcDbEntity
  8
0
  6
Continuous
 62
     7
 48
2.0
100
AcDbLine
 10
467.7266612857337
 20
280.4226487800301
 30
0.0
 11
468.6891612857338
 21
280.4226487800301
 31
0.0
  0
LINE
  5
244
330
1F
100
AcDbEntity
  8
0
  6
Continuous
 62
     7
 48
2.0
100
AcDbLine
 10
467.7266612857337
 20
277.0976487800301
 30
0.0
 11
467.7266612857337
 21
278.2788987800301
 31
0.0
  0
LINE
  5
245
330
1F
100
AcDbEntity
  8
0
  6
DASHED
 62
     4
 48
2.0
100
AcDbLine
 10
464.1829112857338
 20
278.1476487800301
 30
0.0
 11
464.1829112857338
 21
279.3726487800301
 31
0.0
  0
LINE
  5
246
330
1F
100
AcDbEntity
  8
0
  6
DASHED
 62
     4
 48
2.0
100
AcDbLine
 10
464.1829112857338
 20
279.3726487800301
 30
0.0
 11
465.0161469006005
 21
279.3726487800301
 31
0.0
  0
LINE
  5
247
330
1F
100
AcDbEntity
  8
0
  6
DASHED
 62
     4
 48
2.0
100
AcDbLine
 10
465.0161482759196
 20
278.1476487800301
 30
0.0
 11
464.1829112857338
 21
278.1476487800301
 31
0.0
  0
ARC
  5
248
330
1F
100
AcDbEntity
  8
0
  6
DASHED
 62
     4
 48
2.0
100
AcDbCircle
 10
464.6204109588883
 20
282.3476491068756
 30
0.0
 40
0.4374996731547269
100
AcDbArc
 50
89.99995719571119
 51
180.0000428042855
  0
LINE
  5
249
330
1F
100
AcDbEntity
  8
0
  6
DASHED
 62
     4
 48
2.0
100
AcDbLine
 10
468.8204112857337
 20
282.7851487800301
 30
0.0
 11
468.8204112857337
 21
281.9519148664793
 31
0.0
  0
LINE
  5
24A
330
1F
100
AcDbEntity
  8
0
  6
DASHED
 62
     4
 48
2.0
100
AcDbLine
 10
467.5954112857338
 20
281.9519149161907
 30
0.0
 11
467.5954112857338
 21
282.7851487800301
 31
0.0
  0
LINE
  5
24B
330
1F
100
AcDbEntity
  8
0
  6
DASHED
 62
     4
 48
2.0
100
AcDbLine
 10
464.6204112857337
 20
282.7851487800301
 30
0.0
 11
471.7954112857338
 21
282.7851487800301
 31
0.0
  0
LINE
  5
24C
330
1F
100
AcDbEntity
  8
0
  6
Continuous
 62
     7
 48
2.0
100
AcDbLine
 10
468.6891612857338
 20
278.2788987800301
 30
0.0
 11
471.1610362857339
 21
278.2788987800301
 31
0.0
  0
LINE
  5
24D
330
1F
100
AcDbEntity
  8
0
  6
Continuous
 62
     7
 48
2.0
100
AcDbLine
 10
468.6891612857338
 20
279.2413987800301
 30
0.0
 11
471.1610362857339
 21
279.2413987800301
 31
0.0
  0
ARC
  5
24E
330
1F
100
AcDbEntity
  8
0
  6
DASHED
 62
     4
 48
2.0
100
AcDbCircle
 10
471.7954116125792
 20
275.1726484531848
 30
0.0
 40
0.4374996731547269
100
AcDbArc
 50
269.9999571957111
 51
0.0000428042855519
  0
LINE
  5
24F
330
1F
100
AcDbEntity
  8
0
  6
DASHED
 62
     4
 48
2.0
100
AcDbLine
 10
468.8204112857337
 20
274.7351487800301
 30
0.0
 11
467.5954112857338
 21
274.7351487800301
 31
0.0
  0
LINE
  5
250
330
1F
100
AcDbEntity
  8
0
100
AcDbLine
 10
467.5954112857338
 20
275.568389810713
 30
0.0
 11
467.5954112857338
 21
275.8712407800302
 31
0.0
  0
LINE
  5
251
330
1F
100
AcDbEntity
  8
0
100
AcDbLine
 10
468.8204112857337
 20
275.5683903543965
 30
0.0
 11
468.8204112857337
 21
275.8712407800302
 31
0.0
  0
LINE
  5
252
330
1F
100
AcDbEntity
  8
0
  6
DASHED
 62
     4
 48
2.0
100
AcDbLine
 10
467.5954112857338
 20
274.7351487800301
 30
0.0
 11
467.5954112857338
 21
275.568389810713
 31
0.0
  0
LINE
  5
253
330
1F
100
AcDbEntity
  8
0
  6
DASHED
 62
     4
 48
2.0
100
AcDbLine
 10
468.8204112857337
 20
275.5683903543965
 30
0.0
 11
468.8204112857337
 21
274.7351487800301
 31
0.0
  0
ARC
  5
254
330
1F
100
AcDbEntity
  8
0
  6
DASHED
 62
     4
 48
2.0
100
AcDbCircle
 10
464.6204109588883
 20
275.1726484531848
 30
0.0
 40
0.4374996731547269
100
AcDbArc
 50
179.9999571957112
 51
270.0000428042855
  0
LINE
  5
255
330
1F
100
AcDbEntity
  8
0
  6
DASHED
 62
     4
 48
2.0
100
AcDbLine
 10
471.7954112857338
 20
274.7351487800301
 30
0.0
 11
464.6204112857337
 21
274.7351487800301
 31
0.0
  0
LINE
  5
256
330
1F
100
AcDbEntity
  8
0
  6
DASHED
 62
     4
 48
2.0
100
AcDbLine
 10
464.1829112857338
 20
275.1726487800301
 30
0.0
 11
464.1829112857338
 21
282.3476487800301
 31
0.0
  0
LINE
  5
257
330
1F
100
AcDbEntity
  8
0
  6
DASHED
 62
     4
 48
2.0
100
AcDbLine
 10
472.2329112857337
 20
282.3476487800301
 30
0.0
 11
472.2329112857337
 21
275.1726487800301
 31
0.0
  0
CIRCLE
  5
258
330
1F
100
AcDbEntity
  8
0
100
AcDbCircle
 10
468.2079127137281
 20
278.7601552080244
 30
0.0
 40
3.249997572006547
  0
CIRCLE
  5
259
330
1F
100
AcDbEntity
  8
0
100
AcDbCircle
 10
468.2079127137281
 20
278.7601552080244
 30
0.0
 40
2.953118572005937
  0
LINE
  5
25A
330
1F
100
AcDbEntity
  8
0
  6
DASHED
 62
     4
 48
2.0
100
AcDbLine
 10
454.7329102857339
 20
278.1476487800301
 30
0.0
 11
453.8996704623912
 21
278.1476487800301
 31
0.0
  0
LINE
  5
25B
330
1F
100
AcDbEntity
  8
0
  6
DASHED
 62
     4
 48
2.0
100
AcDbLine
 10
453.8996723316786
 20
279.3726487800301
 30
0.0
 11
454.7329102857339
 21
279.3726487800301
 31
0.0
  0
LINE
  5
25C
330
1F
100
AcDbEntity
  8
0
100
AcDbLine
 10
453.8996704623912
 20
278.1476487800301
 30
0.0
 11
453.5968192857337
 21
278.1476487800301
 31
0.0
  0
LINE
  5
25D
330
1F
100
AcDbEntity
  8
0
100
AcDbLine
 10
453.8996723316786
 20
279.3726487800301
 30
0.0
 11
453.5968192857337
 21
279.3726487800301
 31
0.0
  0
LINE
  5
25E
330
1F
100
AcDbEntity
  8
0
  6
DASHED
 62
     4
 48
2.0
100
AcDbLine
 10
454.7329102857339
 20
279.3726487800301
 30
0.0
 11
454.7329102857339
 21
278.1476487800301
 31
0.0
  0
ARC
  5
25F
330
1F
100
AcDbEntity
  8
0
  6
DASHED
 62
     4
 48
2.0
100
AcDbCircle
 10
454.2954106125791
 20
282.3476491068756
 30
0.0
 40
0.4374996731547269
100
AcDbArc
 50
359.9999571957112
 51
90.00004280428553
  0
LINE
  5
260
330
1F
100
AcDbEntity
  8
0
  6
DASHED
 62
     4
 48
2.0
100
AcDbLine
 10
450.0954102857336
 20
282.7851487800301
 30
0.0
 11
451.3204102857337
 21
282.7851487800301
 31
0.0
  0
LINE
  5
261
330
1F
100
AcDbEntity
  8
0
  6
Continuous
 62
     7
 48
2.0
100
AcDbLine
 10
450.2266602857337
 20
277.0976487800301
 30
0.0
 11
450.2266602857337
 21
278.2788987800301
 31
0.0
  0
LINE
  5
262
330
1F
100
AcDbEntity
  8
0
  6
Continuous
 62
     7
 48
2.0
100
AcDbLine
 10
450.2266602857337
 20
280.4226487800301
 30
0.0
 11
451.1891602857338
 21
280.4226487800301
 31
0.0
  0
LINE
  5
263
330
1F
100
AcDbEntity
  8
0
  6
Continuous
 62
     7
 48
2.0
100
AcDbLine
 10
450.2266602857337
 20
277.0976487800301
 30
0.0
 11
451.1891602857338
 21
277.0976487800301
 31
0.0
  0
LINE
  5
264
330
1F
100
AcDbEntity
  8
0
  6
Continuous
 62
     7
 48
2.0
100
AcDbLine
 10
451.1891602857338
 20
279.2413987800301
 30
0.0
 11
451.1891602857338
 21
280.4226487800301
 31
0.0
  0
LINE
  5
265
330
1F
100
AcDbEntity
  8
0
  6
Continuous
 62
     7
 48
2.0
100
AcDbLine
 10
451.1891602857338
 20
277.0976487800301
 30
0.0
 11
451.1891602857338
 21
278.2788987800301
 31
0.0
  0
LINE
  5
266
330
1F
100
AcDbEntity
  8
0
  6
Continuous
 62
     7
 48
2.0
100
AcDbLine
 10
450.2266602857337
 20
279.2413987800301
 30
0.0
 11
450.2266602857337
 21
280.4226487800301
 31
0.0
  0
LINE
  5
267
330
1F
100
AcDbEntity
  8
0
100
AcDbLine
 10
451.3204102857337
 20
281.9519148664793
 30
0.0
 11
451.3204102857337
 21
281.6490577800301
 31
0.0
  0
LINE
  5
268
330
1F
100
AcDbEntity
  8
0
100
AcDbLine
 10
450.0954102857337
 20
281.9519149161907
 30
0.0
 11
450.0954102857337
 21
281.6490577800301
 31
0.0
  0
LINE
  5
269
330
1F
100
AcDbEntity
  8
0
  6
DASHED
 62
     4
 48
2.0
100
AcDbLine
 10
447.5161472759196
 20
278.1476487800301
 30
0.0
 11
446.6829102857338
 21
278.1476487800301
 31
0.0
  0
LINE
  5
26A
330
1F
100
AcDbEntity
  8
0
  6
DASHED
 62
     4
 48
2.0
100
AcDbLine
 10
446.6829102857338
 20
279.3726487800301
 30
0.0
 11
447.5161459006005
 21
279.3726487800301
 31
0.0
  0
LINE
  5
26B
330
1F
100
AcDbEntity
  8
0
  6
DASHED
 62
     4
 48
2.0
100
AcDbLine
 10
446.6829102857338
 20
278.1476487800301
 30
0.0
 11
446.6829102857338
 21
279.3726487800301
 31
0.0
  0
LINE
  5
26C
330
1F
100
AcDbEntity
  8
0
100
AcDbLine
 10
447.5161472759196
 20
278.1476487800301
 30
0.0
 11
447.8190022857337
 21
278.1476487800301
 31
0.0
  0
LINE
  5
26D
330
1F
100
AcDbEntity
  8
0
100
AcDbLine
 10
447.5161459006005
 20
279.3726487800301
 30
0.0
 11
447.8190022857337
 21
279.3726487800301
 31
0.0
  0
LINE
  5
26E
330
1F
100
AcDbEntity
  8
0
  6
Continuous
 62
     7
 48
2.0
100
AcDbLine
 10
447.7547852857338
 20
279.2413987800301
 30
0.0
 11
450.2266602857337
 21
279.2413987800301
 31
0.0
  0
LINE
  5
26F
330
1F
100
AcDbEntity
  8
0
  6
Continuous
 62
     7
 48
2.0
100
AcDbLine
 10
447.7547852857338
 20
278.2788987800301
 30
0.0
 11
450.2266602857337
 21
278.2788987800301
 31
0.0
  0
LINE
  5
270
330
1F
100
AcDbEntity
  8
0
  6
DASHED
 62
     4
 48
2.0
100
AcDbLine
 10
450.0954102857337
 20
281.9519149161907
 30
0.0
 11
450.0954102857337
 21
282.7851487800301
 31
0.0
  0
LINE
  5
271
330
1F
100
AcDbEntity
  8
0
  6
DASHED
 62
     4
 48
2.0
100
AcDbLine
 10
451.3204102857337
 20
282.7851487800301
 30
0.0
 11
451.3204102857337
 21
281.9519148664793
 31
0.0
  0
ARC
  5
272
330
1F
100
AcDbEntity
  8
0
  6
DASHED
 62
     4
 48
2.0
100
AcDbCircle
 10
447.1204099588883
 20
282.3476491068756
 30
0.0
 40
0.4374996731547269
100
AcDbArc
 50
89.99995719571119
 51
180.0000428042855
  0
LINE
  5
273
330
1F
100
AcDbEntity
  8
0
  6
DASHED
 62
     4
 48
2.0
100
AcDbLine
 10
447.1204102857337
 20
282.7851487800301
 30
0.0
 11
454.2954102857337
 21
282.7851487800301
 31
0.0
  0
LINE
  5
274
330
1F
100
AcDbEntity
  8
0
  6
Continuous
 62
     7
 48
2.0
100
AcDbLine
 10
451.1891602857338
 20
279.2413987800301
 30
0.0
 11
453.6610352857338
 21
279.2413987800301
 31
0.0
  0
LINE
  5
275
330
1F
100
AcDbEntity
  8
0
  6
Continuous
 62
     7
 48
2.0
100
AcDbLine
 10
451.1891602857338
 20
278.2788987800301
 30
0.0
 11
453.6610352857338
 21
278.2788987800301
 31
0.0
  0
ARC
  5
276
330
1F
100
AcDbEntity
  8
0
  6
DASHED
 62
     4
 48
2.0
100
AcDbCircle
 10
454.2954106125791
 20
275.1726484531848
 30
0.0
 40
0.4374996731547269
100
AcDbArc
 50
269.9999571957111
 51
0.0000428042855519
  0
LINE
  5
277
330
1F
100
AcDbEntity
  8
0
  6
DASHED
 62
     4
 48
2.0
100
AcDbLine
 10
451.3204102857337
 20
275.5683903543965
 30
0.0
 11
451.3204102857337
 21
274.7351487800301
 31
0.0
  0
LINE
  5
278
330
1F
100
AcDbEntity
  8
0
  6
DASHED
 62
     4
 48
2.0
100
AcDbLine
 10
450.0954102857337
 20
274.7351487800301
 30
0.0
 11
450.0954102857336
 21
275.568389810713
 31
0.0
  0
LINE
  5
279
330
1F
100
AcDbEntity
  8
0
100
AcDbLine
 10
451.3204102857337
 20
275.5683903543965
 30
0.0
 11
451.3204102857337
 21
275.8712407800302
 31
0.0
  0
LINE
  5
27A
330
1F
100
AcDbEntity
  8
0
100
AcDbLine
 10
450.0954102857336
 20
275.568389810713
 30
0.0
 11
450.0954102857337
 21
275.8712407800302
 31
0.0
  0
LINE
  5
27B
330
1F
100
AcDbEntity
  8
0
  6
DASHED
 62
     4
 48
2.0
100
AcDbLine
 10
451.3204102857337
 20
274.7351487800301
 30
0.0
 11
450.0954102857337
 21
274.7351487800301
 31
0.0
  0
ARC
  5
27C
330
1F
100
AcDbEntity
  8
0
  6
DASHED
 62
     4
 48
2.0
100
AcDbCircle
 10
447.1204099588883
 20
275.1726484531848
 30
0.0
 40
0.4374996731547269
100
AcDbArc
 50
179.9999571957112
 51
270.0000428042855
  0
LINE
  5
27D
330
1F
100
AcDbEntity
  8
0
  6
DASHED
 62
     4
 48
2.0
100
AcDbLine
 10
454.2954102857337
 20
274.7351487800301
 30
0.0
 11
447.1204102857337
 21
274.7351487800301
 31
0.0
  0
LINE
  5
27E
330
1F
100
AcDbEntity
  8
0
  6
DASHED
 62
     4
 48
2.0
100
AcDbLine
 10
454.7329102857339
 20
282.3476487800301
 30
0.0
 11
454.7329102857339
 21
275.1726487800301
 31
0.0
  0
LINE
  5
27F
330
1F
100
AcDbEntity
  8
0
  6
DASHED
 62
     4
 48
2.0
100
AcDbLine
 10
446.6829102857338
 20
275.1726487800301
 30
0.0
 11
446.6829102857338
 21
282.3476487800301
 31
0.0
  0
CIRCLE
  5
280
330
1F
100
AcDbEntity
  8
0
100
AcDbCircle
 10
450.7079117137281
 20
278.7601552080244
 30
0.0
 40
2.953118572005937
  0
CIRCLE
  5
281
330
1F
100
AcDbEntity
  8
0
100
AcDbCircle
 10
450.7079117137281
 20
278.7601552080244
 30
0.0
 40
3.249997572006547
  0
ARC
  5
282
330
1F
100
AcDbEntity
  8
0
  6
DASHED
 62
     4
 48
2.0
100
AcDbCircle
 10
476.1573106592713
 20
350.3095561535674
 30
0.0
 40
0.4999996264625369
100
AcDbArc
 50
359.9999571957112
 51
90.00004280428878
  0
LINE
  5
283
330
1F
100
AcDbEntity
  8
0
  6
Continuous
 62
     4
100
AcDbLine
 10
470.6602372857338
 20
348.5632077800299
 30
0.0
 11
470.6602372857338
 21
348.5632077800299
 31
0.0
  0
LINE
  5
284
330
1F
100
AcDbEntity
  8
0
  6
DASHED
 62
     4
 48
2.0
100
AcDbLine
 10
471.5952082857338
 20
349.0797340447064
 30
0.0
 11
471.5952082857338
 21
350.80955578003
 31
0.0
  0
LINE
  5
285
330
1F
100
AcDbEntity
  8
0
  6
DASHED
 62
     4
 48
2.0
100
AcDbLine
 10
469.7206082857337
 20
350.80955578003
 30
0.0
 11
469.7206082857337
 21
349.0774961740492
 31
0.0
  0
LINE
  5
286
330
1F
100
AcDbEntity
  8
0
  6
Continuous
 62
     7
 48
2.0
100
AcDbLine
 10
471.3700002857337
 20
347.2701017800299
 30
0.0
 11
469.9458192857338
 21
347.2701017800299
 31
0.0
  0
ARC
  5
287
330
1F
100
AcDbEntity
  8
0
  6
DASHED
 62
     4
 48
2.0
100
AcDbCircle
 10
465.1585099121962
 20
350.3095561535674
 30
0.0
 40
0.4999996264625369
100
AcDbArc
 50
89.99995719571119
 51
180.0000428042888
  0
LINE
  5
288
330
1F
100
AcDbEntity
  8
0
  6
DASHED
 62
     4
 48
2.0
100
AcDbLine
 10
465.1585102857337
 20
350.80955578003
 30
0.0
 11
476.1573102857338
 21
350.80955578003
 31
0.0
  0
LINE
  5
289
330
1F
100
AcDbEntity
  8
0
  6
DASHED
 62
     4
 48
2.0
100
AcDbLine
 10
474.9277377329008
 20
343.8728557800299
 30
0.0
 11
476.6573102857337
 21
343.8728557800299
 31
0.0
  0
LINE
  5
28A
330
1F
100
AcDbEntity
  8
0
  6
DASHED
 62
     4
 48
2.0
100
AcDbLine
 10
476.6573102857337
 20
345.7474557800299
 30
0.0
 11
474.9290795014339
 21
345.7474557800299
 31
0.0
  0
LINE
  5
28B
330
1F
100
AcDbEntity
  8
0
  6
Continuous
 62
     4
100
AcDbLine
 10
474.3453594810501
 20
345.52224378003
 30
0.0
 11
474.9722367250471
 21
345.52224378003
 31
0.0
  0
LINE
  5
28C
330
1F
100
AcDbEntity
  8
0
  6
Continuous
 62
     4
100
AcDbLine
 10
474.344177545417
 20
344.0980627800301
 30
0.0
 11
474.9712267727907
 21
344.0980627800301
 31
0.0
  0
LINE
  5
28D
330
1F
100
AcDbEntity
  8
0
  6
Continuous
 62
     7
 48
2.0
100
AcDbLine
 10
471.3700002857337
 20
342.3502037800298
 30
0.0
 11
469.9458192857338
 21
342.3502037800298
 31
0.0
  0
LINE
  5
28E
330
1F
100
AcDbEntity
  8
0
  6
Continuous
 62
     7
 48
2.0
100
AcDbLine
 10
471.3700002857337
 20
342.3502037800298
 30
0.0
 11
471.3700002857337
 21
344.0980627800301
 31
0.0
  0
LINE
  5
28F
330
1F
100
AcDbEntity
  8
0
  6
Continuous
 62
     7
 48
2.0
100
AcDbLine
 10
469.9458192857338
 20
342.3502037800298
 30
0.0
 11
469.9458192857338
 21
344.0980627800301
 31
0.0
  0
LINE
  5
290
330
1F
100
AcDbEntity
  8
0
  6
Continuous
 62
     7
 48
2.0
100
AcDbLine
 10
474.344177545417
 20
344.0980627800301
 30
0.0
 11
471.3700002857337
 21
344.0980627800301
 31
0.0
  0
LINE
  5
291
330
1F
100
AcDbEntity
  8
0
  6
Continuous
 62
     7
 48
2.0
100
AcDbLine
 10
474.3453594810501
 20
345.52224378003
 30
0.0
 11
471.3700002857337
 21
345.52224378003
 31
0.0
  0
ARC
  5
292
330
1F
100
AcDbEntity
  8
0
  6
DASHED
 62
     4
 48
2.0
100
AcDbCircle
 10
476.1573106592713
 20
339.3107554064925
 30
0.0
 40
0.4999996264625655
100
AcDbArc
 50
269.9999571957111
 51
0.0000428042855519
  0
LINE
  5
293
330
1F
100
AcDbEntity
  8
0
  6
DASHED
 62
     4
 48
2.0
100
AcDbLine
 10
470.6605322857337
 20
340.4459297800301
 30
0.0
 11
470.6605322857337
 21
340.4459297800301
 31
0.0
  0
LINE
  5
294
330
1F
100
AcDbEntity
  8
0
  6
DASHED
 62
     4
 48
2.0
100
AcDbLine
 10
469.7206082857337
 20
340.5489214253848
 30
0.0
 11
469.7206082857337
 21
338.8107557800298
 31
0.0
  0
LINE
  5
295
330
1F
100
AcDbEntity
  8
0
  6
DASHED
 62
     4
 48
2.0
100
AcDbLine
 10
471.5952082857338
 20
338.8107557800298
 30
0.0
 11
471.5952082857338
 21
340.5466835547273
 31
0.0
  0
LINE
  5
296
330
1F
100
AcDbEntity
  8
0
  6
Continuous
 62
     4
100
AcDbLine
 10
466.9806404788142
 20
345.52224378003
 30
0.0
 11
466.3537638084628
 21
345.52224378003
 31
0.0
  0
LINE
  5
297
330
1F
100
AcDbEntity
  8
0
  6
Continuous
 62
     4
100
AcDbLine
 10
466.9818229880927
 20
344.0980627800301
 30
0.0
 11
466.3547737607193
 21
344.0980627800301
 31
0.0
  0
LINE
  5
298
330
1F
100
AcDbEntity
  8
0
  6
DASHED
 62
     4
 48
2.0
100
AcDbLine
 10
466.3969210320761
 20
345.7474557800299
 30
0.0
 11
464.6585102857337
 21
345.7474557800299
 31
0.0
  0
LINE
  5
299
330
1F
100
AcDbEntity
  8
0
  6
DASHED
 62
     4
 48
2.0
100
AcDbLine
 10
464.6585102857337
 20
343.8728557800299
 30
0.0
 11
466.3982628006092
 21
343.8728557800299
 31
0.0
  0
ARC
  5
29A
330
1F
100
AcDbEntity
  8
0
  6
DASHED
 62
     4
 48
2.0
100
AcDbCircle
 10
465.1585099121962
 20
339.3107554064925
 30
0.0
 40
0.4999996264625369
100
AcDbArc
 50
179.9999571957144
 51
270.0000428042887
  0
LINE
  5
29B
330
1F
100
AcDbEntity
  8
0
  6
DASHED
 62
     4
 48
2.0
100
AcDbLine
 10
476.1573102857338
 20
338.8107557800298
 30
0.0
 11
465.1585102857337
 21
338.8107557800298
 31
0.0
  0
LINE
  5
29C
330
1F
100
AcDbEntity
  8
0
  6
Continuous
 62
     7
 48
2.0
100
AcDbLine
 10
469.9458192857338
 20
344.0980627800301
 30
0.0
 11
466.9818229880927
 21
344.0980627800301
 31
0.0
  0
LINE
  5
29D
330
1F
100
AcDbEntity
  8
0
  6
Continuous
 62
     7
 48
2.0
100
AcDbLine
 10
469.9458192857338
 20
345.52224378003
 30
0.0
 11
466.9806404788142
 21
345.52224378003
 31
0.0
  0
LINE
  5
29E
330
1F
100
AcDbEntity
  8
0
  6
DASHED
 62
     4
 48
2.0
100
AcDbLine
 10
476.6573102857337
 20
350.30955578003
 30
0.0
 11
476.6573102857337
 21
339.3107557800299
 31
0.0
  0
ARC
  5
29F
330
1F
100
AcDbEntity
  8
0
  6
Continuous
 62
     7
100
AcDbCircle
 10
470.6629969821391
 20
344.813212079497
 30
0.0
 40
3.749996715990556
100
AcDbArc
 50
90.04216509586825
 51
180.042250704443
  0
ARC
  5
2A0
330
1F
100
AcDbEntity
  8
0
  6
Continuous
 62
     7
100
AcDbCircle
 10
470.663000266755
 20
344.813208799717
 30
0.0
 40
3.749999998188378
100
AcDbArc
 50
180.0422005561024
 51
90.04221524421211
  0
CIRCLE
  5
2A1
330
1F
100
AcDbEntity
  8
0
  6
DASHED
 62
     4
100
AcDbCircle
 10
470.663000266755
 20
344.813208799717
 30
0.0
 40
4.367178660964365
  0
LINE
  5
2A2
330
1F
100
AcDbEntity
  8
0
  6
Continuous
 62
     7
 48
2.0
100
AcDbLine
 10
471.3700002857337
 20
345.52224378003
 30
0.0
 11
471.3700002857337
 21
347.2701017800299
 31
0.0
  0
LINE
  5
2A3
330
1F
100
AcDbEntity
  8
0
  6
Continuous
 62
     7
 48
2.0
100
AcDbLine
 10
469.9458192857338
 20
345.52224378003
 30
0.0
 11
469.9458192857338
 21
347.2701017800299
 31
0.0
  0
LINE
  5
2A4
330
1F
100
AcDbEntity
  8
0
  6
DASHED
 62
     4
 48
2.0
100
AcDbLine
 10
464.6585102857337
 20
339.3107557800299
 30
0.0
 11
464.6585102857337
 21
350.30955578003
 31
0.0
  0
ARC
  5
2A5
330
1F
100
AcDbEntity
  8
0
  6
DASHED
 62
     4
 48
2.0
100
AcDbCircle
 10
453.7573106592713
 20
350.3095561535674
 30
0.0
 40
0.4999996264625369
100
AcDbArc
 50
359.9999571957112
 51
90.00004280428878
  0
LINE
  5
2A6
330
1F
100
AcDbEntity
  8
0
  6
DASHED
 62
     4
 48
2.0
100
AcDbLine
 10
449.1952082857337
 20
349.0797340447064
 30
0.0
 11
449.1952082857337
 21
350.80955578003
 31
0.0
  0
LINE
  5
2A7
330
1F
100
AcDbEntity
  8
0
  6
DASHED
 62
     4
 48
2.0
100
AcDbLine
 10
447.3206082857337
 20
350.80955578003
 30
0.0
 11
447.3206082857337
 21
349.0774961740492
 31
0.0
  0
LINE
  5
2A8
330
1F
100
AcDbEntity
  8
0
  6
Continuous
 62
     4
100
AcDbLine
 10
448.2602372857336
 20
348.5632077800299
 30
0.0
 11
448.2602372857336
 21
348.5632077800299
 31
0.0
  0
LINE
  5
2A9
330
1F
100
AcDbEntity
  8
0
  6
Continuous
 62
     7
 48
2.0
100
AcDbLine
 10
448.9700002857337
 20
347.2701017800299
 30
0.0
 11
447.5458192857337
 21
347.2701017800299
 31
0.0
  0
LINE
  5
2AA
330
1F
100
AcDbEntity
  8
0
  6
DASHED
 62
     4
 48
2.0
100
AcDbLine
 10
454.2573102857336
 20
345.7474557800299
 30
0.0
 11
452.5290795014337
 21
345.7474557800299
 31
0.0
  0
LINE
  5
2AB
330
1F
100
AcDbEntity
  8
0
  6
DASHED
 62
     4
 48
2.0
100
AcDbLine
 10
452.5277377329008
 20
343.8728557800299
 30
0.0
 11
454.2573102857336
 21
343.8728557800299
 31
0.0
  0
ARC
  5
2AC
330
1F
100
AcDbEntity
  8
0
  6
DASHED
 62
     4
 48
2.0
100
AcDbCircle
 10
453.7573106592713
 20
339.3107554064925
 30
0.0
 40
0.4999996264625655
100
AcDbArc
 50
269.9999571957111
 51
0.0000428042855519
  0
LINE
  5
2AD
330
1F
100
AcDbEntity
  8
0
  6
Continuous
 62
     7
 48
2.0
100
AcDbLine
 10
451.9453594810501
 20
345.52224378003
 30
0.0
 11
448.9700002857337
 21
345.52224378003
 31
0.0
  0
LINE
  5
2AE
330
1F
100
AcDbEntity
  8
0
  6
Continuous
 62
     7
 48
2.0
100
AcDbLine
 10
451.9441775454171
 20
344.0980627800301
 30
0.0
 11
448.9700002857337
 21
344.0980627800301
 31
0.0
  0
LINE
  5
2AF
330
1F
100
AcDbEntity
  8
0
  6
Continuous
 62
     7
 48
2.0
100
AcDbLine
 10
448.9700002857337
 20
342.3502037800298
 30
0.0
 11
448.9700002857337
 21
344.0980627800301
 31
0.0
  0
LINE
  5
2B0
330
1F
100
AcDbEntity
  8
0
  6
Continuous
 62
     7
 48
2.0
100
AcDbLine
 10
447.5458192857337
 20
345.52224378003
 30
0.0
 11
444.580640478814
 21
345.52224378003
 31
0.0
  0
LINE
  5
2B1
330
1F
100
AcDbEntity
  8
0
  6
Continuous
 62
     7
 48
2.0
100
AcDbLine
 10
447.5458192857337
 20
344.0980627800301
 30
0.0
 11
444.5818229880926
 21
344.0980627800301
 31
0.0
  0
LINE
  5
2B2
330
1F
100
AcDbEntity
  8
0
  6
Continuous
 62
     7
 48
2.0
100
AcDbLine
 10
447.5458192857337
 20
342.3502037800298
 30
0.0
 11
447.5458192857337
 21
344.0980627800301
 31
0.0
  0
LINE
  5
2B3
330
1F
100
AcDbEntity
  8
0
  6
Continuous
 62
     7
 48
2.0
100
AcDbLine
 10
448.9700002857337
 20
342.3502037800298
 30
0.0
 11
447.5458192857337
 21
342.3502037800298
 31
0.0
  0
LINE
  5
2B4
330
1F
100
AcDbEntity
  8
0
  6
DASHED
 62
     4
 48
2.0
100
AcDbLine
 10
449.1952082857337
 20
338.8107557800298
 30
0.0
 11
449.1952082857337
 21
340.5466835547273
 31
0.0
  0
LINE
  5
2B5
330
1F
100
AcDbEntity
  8
0
  6
DASHED
 62
     4
 48
2.0
100
AcDbLine
 10
447.3206082857337
 20
340.5489214253848
 30
0.0
 11
447.3206082857337
 21
338.8107557800298
 31
0.0
  0
LINE
  5
2B6
330
1F
100
AcDbEntity
  8
0
  6
DASHED
 62
     4
 48
2.0
100
AcDbLine
 10
448.2605322857336
 20
340.4459297800301
 30
0.0
 11
448.2605322857336
 21
340.4459297800301
 31
0.0
  0
LINE
  5
2B7
330
1F
100
AcDbEntity
  8
0
  6
Continuous
 62
     4
100
AcDbLine
 10
451.9441775454171
 20
344.0980627800301
 30
0.0
 11
452.5712267727906
 21
344.0980627800301
 31
0.0
  0
LINE
  5
2B8
330
1F
100
AcDbEntity
  8
0
  6
Continuous
 62
     4
100
AcDbLine
 10
451.9453594810501
 20
345.52224378003
 30
0.0
 11
452.5722367250471
 21
345.52224378003
 31
0.0
  0
LINE
  5
2B9
330
1F
100
AcDbEntity
  8
0
  6
Continuous
 62
     7
 48
2.0
100
AcDbLine
 10
447.5458192857337
 20
345.52224378003
 30
0.0
 11
447.5458192857337
 21
347.2701017800299
 31
0.0
  0
LINE
  5
2BA
330
1F
100
AcDbEntity
  8
0
  6
Continuous
 62
     7
 48
2.0
100
AcDbLine
 10
448.9700002857337
 20
345.52224378003
 30
0.0
 11
448.9700002857337
 21
347.2701017800299
 31
0.0
  0
ARC
  5
2BB
330
1F
100
AcDbEntity
  8
0
  6
Continuous
 62
     7
100
AcDbCircle
 10
448.2630002667548
 20
344.813208799717
 30
0.0
 40
3.749999998188378
100
AcDbArc
 50
180.0422005561024
 51
90.04221524421211
  0
LINE
  5
2BC
330
1F
100
AcDbEntity
  8
0
  6
DASHED
 62
     4
 48
2.0
100
AcDbLine
 10
454.2573102857336
 20
350.30955578003
 30
0.0
 11
454.2573102857336
 21
339.3107557800299
 31
0.0
  0
ARC
  5
2BD
330
1F
100
AcDbEntity
  8
0
  6
DASHED
 62
     4
 48
2.0
100
AcDbCircle
 10
442.7585099121961
 20
350.3095561535674
 30
0.0
 40
0.4999996264625369
100
AcDbArc
 50
89.99995719571119
 51
180.0000428042888
  0
LINE
  5
2BE
330
1F
100
AcDbEntity
  8
0
  6
DASHED
 62
     4
 48
2.0
100
AcDbLine
 10
442.2585102857337
 20
343.8728557800299
 30
0.0
 11
443.9982628006091
 21
343.8728557800299
 31
0.0
  0
LINE
  5
2BF
330
1F
100
AcDbEntity
  8
0
  6
DASHED
 62
     4
 48
2.0
100
AcDbLine
 10
443.996921032076
 20
345.7474557800299
 30
0.0
 11
442.2585102857337
 21
345.7474557800299
 31
0.0
  0
ARC
  5
2C0
330
1F
100
AcDbEntity
  8
0
  6
DASHED
 62
     4
 48
2.0
100
AcDbCircle
 10
442.7585099121961
 20
339.3107554064925
 30
0.0
 40
0.4999996264625369
100
AcDbArc
 50
179.9999571957144
 51
270.0000428042887
  0
LINE
  5
2C1
330
1F
100
AcDbEntity
  8
0
  6
DASHED
 62
     4
 48
2.0
100
AcDbLine
 10
442.2585102857337
 20
339.3107557800299
 30
0.0
 11
442.2585102857337
 21
350.30955578003
 31
0.0
  0
CIRCLE
  5
2C2
330
1F
100
AcDbEntity
  8
0
  6
DASHED
 62
     4
100
AcDbCircle
 10
448.2630002667548
 20
344.813208799717
 30
0.0
 40
4.367178660964365
  0
ARC
  5
2C3
330
1F
100
AcDbEntity
  8
0
  6
Continuous
 62
     7
100
AcDbCircle
 10
448.2629969821389
 20
344.813212079497
 30
0.0
 40
3.749996715990556
100
AcDbArc
 50
90.04216509586825
 51
180.042250704443
  0
LINE
  5
2C4
330
1F
100
AcDbEntity
  8
0
  6
DASHED
 62
     4
 48
2.0
100
AcDbLine
 10
453.7573102857336
 20
338.8107557800298
 30
0.0
 11
442.7585102857337
 21
338.8107557800298
 31
0.0
  0
LINE
  5
2C5
330
1F
100
AcDbEntity
  8
0
  6
Continuous
 62
     4
100
AcDbLine
 10
444.5818229880926
 20
344.0980627800301
 30
0.0
 11
443.9547737607192
 21
344.0980627800301
 31
0.0
  0
LINE
  5
2C6
330
1F
100
AcDbEntity
  8
0
  6
Continuous
 62
     4
100
AcDbLine
 10
444.580640478814
 20
345.52224378003
 30
0.0
 11
443.9537638084626
 21
345.52224378003
 31
0.0
  0
LINE
  5
2C7
330
1F
100
AcDbEntity
  8
0
  6
DASHED
 62
     4
 48
2.0
100
AcDbLine
 10
442.7585102857337
 20
350.80955578003
 30
0.0
 11
453.7573102857336
 21
350.80955578003
 31
0.0
  0
LINE
  5
2C8
330
1F
100
AcDbEntity
  8
0
  6
DASHED
 62
     4
100
AcDbLine
 10
461.7108797836708
 20
290.2673398810291
 30
0.0
 11
461.7108797836708
 21
287.2673398810291
 31
0.0
  0
LINE
  5
2C9
330
1F
100
AcDbEntity
  8
0
  6
DASHED
 62
     4
100
AcDbLine
 10
457.2108797836708
 20
290.2673398810291
 30
0.0
 11
457.2108797836708
 21
287.2673398810291
 31
0.0
  0
ARC
  5
2CA
330
1F
100
AcDbEntity
  8
0
  6
DASHED
 62
     4
100
AcDbCircle
 10
459.4608797836708
 20
287.2673398810291
 30
0.0
 40
2.25
100
AcDbArc
 50
180.0
 51
0.0
  0
ARC
  5
2CB
330
1F
100
AcDbEntity
  8
0
  6
DASHED
 62
     4
100
AcDbCircle
 10
459.4608797836708
 20
290.2673398810291
 30
0.0
 40
2.25
100
AcDbArc
 50
0.0
 51
180.0
  0
CIRCLE
  5
2CC
330
1F
100
AcDbEntity
  8
0
  6
DASHED
 62
     4
100
AcDbCircle
 10
459.4608814952705
 20
336.7673395926285
 30
0.0
 40
2.250000288400404
  0
ARC
  5
2CD
330
1F
100
AcDbEntity
  8
0
  6
Continuous
 62
     7
100
AcDbCircle
 10
534.9579177915834
 20
330.0101542741805
 30
0.0
 40
1.999998505850204
100
AcDbArc
 50
89.99995719571442
 51
180.0000428042855
  0
LINE
  5
2CE
330
1F
100
AcDbEntity
  8
0
  6
Continuous
 62
     7
100
AcDbLine
 10
532.9579192857338
 20
296.0101527800302
 30
0.0
 11
532.9579192857338
 21
330.0101527800301
 31
0.0
  0
ARC
  5
2CF
330
1F
100
AcDbEntity
  8
0
  6
Continuous
 62
     7
100
AcDbCircle
 10
534.9579177915834
 20
296.0101512858798
 30
0.0
 40
1.999998505850189
100
AcDbArc
 50
179.9999571957112
 51
270.0000428042855
  0
LINE
  5
2D0
330
1F
100
AcDbEntity
  8
0
  6
Continuous
 62
     7
100
AcDbLine
 10
543.9579192857338
 20
294.0101527800301
 30
0.0
 11
534.9579192857338
 21
294.0101527800301
 31
0.0
  0
ARC
  5
2D1
330
1F
100
AcDbEntity
  8
0
  6
Continuous
 62
     7
100
AcDbCircle
 10
543.9579207798836
 20
296.0101512858798
 30
0.0
 40
1.999998505850204
100
AcDbArc
 50
269.9999571957144
 51
0.0000428042855519
  0
LINE
  5
2D2
330
1F
100
AcDbEntity
  8
0
  6
Continuous
 62
     7
100
AcDbLine
 10
545.9579192857337
 20
330.0101527800301
 30
0.0
 11
545.9579192857337
 21
296.0101527800302
 31
0.0
  0
ARC
  5
2D3
330
1F
100
AcDbEntity
  8
0
  6
Continuous
 62
     7
100
AcDbCircle
 10
543.9579207798836
 20
330.0101542741805
 30
0.0
 40
1.999998505850189
100
AcDbArc
 50
359.9999571957112
 51
90.00004280428553
  0
LINE
  5
2D4
330
1F
100
AcDbEntity
  8
0
  6
Continuous
 62
     7
100
AcDbLine
 10
534.9579192857338
 20
332.0101527800298
 30
0.0
 11
543.9579192857338
 21
332.0101527800298
 31
0.0
  0
LINE
  5
2D5
330
1F
100
AcDbEntity
  8
0
  6
Continuous
 62
     7
100
AcDbLine
 10
533.4579192857338
 20
293.4916847800301
 30
0.0
 11
547.4579192857337
 21
293.4916847800301
 31
0.0
  0
ARC
  5
2D6
330
1F
100
AcDbEntity
  8
0
  6
Continuous
 62
     7
100
AcDbCircle
 10
533.4579185386585
 20
294.491684032955
 30
0.0
 40
0.9999992529251022
100
AcDbArc
 50
179.9999571957144
 51
270.0000428042855
  0
LINE
  5
2D7
330
1F
100
AcDbEntity
  8
0
  6
Continuous
 62
     7
100
AcDbLine
 10
532.4579192857338
 20
331.4916847800298
 30
0.0
 11
532.4579192857338
 21
294.4916847800302
 31
0.0
  0
ARC
  5
2D8
330
1F
100
AcDbEntity
  8
0
  6
Continuous
 62
     7
100
AcDbCircle
 10
533.4579185386585
 20
331.4916855271053
 30
0.0
 40
0.9999992529251022
100
AcDbArc
 50
89.99995719571442
 51
180.0000428042855
  0
LINE
  5
2D9
330
1F
100
AcDbEntity
  8
0
  6
Continuous
 62
     7
100
AcDbLine
 10
547.4579212857338
 20
332.4916847800298
 30
0.0
 11
533.4579192857338
 21
332.4916847800298
 31
0.0
  0
LINE
  5
2DA
330
1F
100
AcDbEntity
  8
0
  6
Continuous
 62
     7
100
AcDbLine
 10
547.9579102857333
 20
277.0101527800302
 30
0.0
 11
547.9579102857333
 21
273.0101527800302
 31
0.0
  0
LINE
  5
2DB
330
1F
100
AcDbEntity
  8
0
  6
Continuous
 62
     7
100
AcDbLine
 10
547.9579102857333
 20
353.01015278003
 30
0.0
 11
547.9579102857333
 21
349.0101527800299
 31
0.0
  0
LINE
  5
2DC
330
1F
100
AcDbEntity
  8
0
  6
Continuous
 62
     7
100
AcDbLine
 10
547.9579102857333
 20
277.0101527800302
 30
0.0
 11
547.4579102857338
 21
277.0101527800302
 31
0.0
  0
LINE
  5
2DD
330
1F
100
AcDbEntity
  8
0
  6
Continuous
 62
     7
100
AcDbLine
 10
547.4579102857338
 20
349.0101527800299
 30
0.0
 11
547.9579102857333
 21
349.0101527800299
 31
0.0
  0
LINE
  5
2DE
330
1F
100
AcDbEntity
  8
0
  6
Continuous
 62
     7
100
AcDbLine
 10
547.4579102857338
 20
349.0101527800299
 30
0.0
 11
547.4579102857338
 21
277.0101527800302
 31
0.0
  0
LINE
  5
2DF
330
1F
100
AcDbEntity
  8
0
  6
Continuous
 62
     7
100
AcDbLine
 10
548.4579102857337
 20
274.1101527800301
 30
0.0
 11
547.9579102857333
 21
274.1101527800301
 31
0.0
  0
LINE
  5
2E0
330
1F
100
AcDbEntity
  8
0
  6
Continuous
 62
     7
100
AcDbLine
 10
548.4579102857337
 20
351.9101527800301
 30
0.0
 11
548.4579102857337
 21
274.1101527800301
 31
0.0
  0
LINE
  5
2E1
330
1F
100
AcDbEntity
  8
0
  6
Continuous
 62
     7
100
AcDbLine
 10
547.9579102857333
 20
351.9101527800301
 30
0.0
 11
548.4579102857337
 21
351.9101527800301
 31
0.0
  0
LINE
  5
2E2
330
1F
100
AcDbEntity
  8
0
  6
Continuous
 62
     7
100
AcDbLine
 10
526.4525692857334
 20
275.0101527800302
 30
0.0
 11
547.9579102857333
 21
275.0101527800302
 31
0.0
  0
LINE
  5
2E3
330
1F
100
AcDbEntity
  8
0
  6
Continuous
 62
     7
100
AcDbLine
 10
526.4525692857334
 20
351.01015278003
 30
0.0
 11
547.9579102857333
 21
351.01015278003
 31
0.0
  0
LINE
  5
2E4
330
1F
100
AcDbEntity
  8
0
  6
Continuous
 62
     7
100
AcDbLine
 10
547.9579102857333
 20
273.0101527800302
 30
0.0
 11
526.4529372857338
 21
273.0101527800302
 31
0.0
  0
LINE
  5
2E5
330
1F
100
AcDbEntity
  8
0
  6
Continuous
 62
     7
100
AcDbLine
 10
526.4529372857338
 20
353.01015278003
 30
0.0
 11
547.9579102857333
 21
353.01015278003
 31
0.0
  0
LINE
  5
2E6
330
1F
100
AcDbEntity
  8
0
  6
DASHED
 62
     4
100
AcDbLine
 10
554.4579102857337
 20
297.2101527800301
 30
0.0
 11
555.7912432857338
 21
295.2101527800301
 31
0.0
  0
LINE
  5
2E7
330
1F
100
AcDbEntity
  8
0
  6
DASHED
 62
     4
100
AcDbLine
 10
553.4579102857337
 20
295.2101527800301
 30
0.0
 11
553.4579102857337
 21
297.2101527800301
 31
0.0
  0
LINE
  5
2E8
330
1F
100
AcDbEntity
  8
0
  6
DASHED
 62
     4
100
AcDbLine
 10
554.2579102857338
 20
295.2101527800301
 30
0.0
 11
552.4579102857337
 21
295.2101527800301
 31
0.0
  0
LINE
  5
2E9
330
1F
100
AcDbEntity
  8
0
  6
DASHED
 62
     4
100
AcDbLine
 10
556.4579102857333
 20
273.2101527800301
 30
0.0
 11
554.2579102857338
 21
273.2101527800301
 31
0.0
  0
LINE
  5
2EA
330
1F
100
AcDbEntity
  8
0
  6
DASHED
 62
     4
100
AcDbLine
 10
556.4579102857333
 20
268.2101527800301
 30
0.0
 11
552.4579102857337
 21
268.2101527800301
 31
0.0
  0
LINE
  5
2EB
330
1F
100
AcDbEntity
  8
0
  6
DASHED
 62
     4
100
AcDbLine
 10
556.4579102857333
 20
265.2101527800301
 30
0.0
 11
552.4579102857337
 21
265.2101527800301
 31
0.0
  0
LINE
  5
2EC
330
1F
100
AcDbEntity
  8
0
  6
DASHED
 62
     4
100
AcDbLine
 10
552.4579102857337
 20
263.2101527800301
 30
0.0
 11
552.4579102857337
 21
295.2101527800301
 31
0.0
  0
LINE
  5
2ED
330
1F
100
AcDbEntity
  8
0
  6
DASHED
 62
     4
100
AcDbLine
 10
556.4579102857333
 20
263.2101527800301
 30
0.0
 11
552.4579102857337
 21
263.2101527800301
 31
0.0
  0
LINE
  5
2EE
330
1F
100
AcDbEntity
  8
0
  6
DASHED
 62
     4
100
AcDbLine
 10
556.4579102857333
 20
294.2101527800301
 30
0.0
 11
556.4579102857333
 21
263.2101527800301
 31
0.0
  0
LINE
  5
2EF
330
1F
100
AcDbEntity
  8
0
  6
DASHED
 62
     4
100
AcDbLine
 10
553.4579102857337
 20
297.2101527800301
 30
0.0
 11
554.4579102857337
 21
297.2101527800301
 31
0.0
  0
LINE
  5
2F0
330
1F
100
AcDbEntity
  8
0
  6
DASHED
 62
     4
100
AcDbLine
 10
552.4579102857337
 20
270.2101527800301
 30
0.0
 11
548.4579102857337
 21
270.2101527800301
 31
0.0
  0
LINE
  5
2F1
330
1F
100
AcDbEntity
  8
0
  6
DASHED
 62
     4
100
AcDbLine
 10
548.4579102857337
 20
268.0101527800301
 30
0.0
 11
552.4579102857337
 21
268.0101527800301
 31
0.0
  0
LINE
  5
2F2
330
1F
100
AcDbEntity
  8
0
  6
DASHED
 62
     4
100
AcDbLine
 10
552.4579102857337
 20
353.01015278003
 30
0.0
 11
548.4579102857337
 21
353.01015278003
 31
0.0
  0
LINE
  5
2F3
330
1F
100
AcDbEntity
  8
0
  6
DASHED
 62
     4
100
AcDbLine
 10
552.4579102857337
 20
363.0101527800299
 30
0.0
 11
552.4579102857337
 21
353.01015278003
 31
0.0
  0
LINE
  5
2F4
330
1F
100
AcDbEntity
  8
0
  6
DASHED
 62
     4
100
AcDbLine
 10
556.4579102857333
 20
360.8101527800302
 30
0.0
 11
552.4579102857337
 21
360.8101527800302
 31
0.0
  0
LINE
  5
2F5
330
1F
100
AcDbEntity
  8
0
  6
DASHED
 62
     4
100
AcDbLine
 10
548.4579102857337
 20
353.01015278003
 30
0.0
 11
548.4579102857337
 21
268.0101527800301
 31
0.0
  0
LINE
  5
2F6
330
1F
100
AcDbEntity
  8
0
  6
DASHED
 62
     4
100
AcDbLine
 10
552.4579102857337
 20
273.2101527800301
 30
0.0
 11
552.4579102857337
 21
268.0101527800301
 31
0.0
  0
LINE
  5
2F7
330
1F
100
AcDbEntity
  8
0
  6
DASHED
 62
     4
100
AcDbLine
 10
552.4579102857337
 20
330.5101527800299
 30
0.0
 11
552.4579102857337
 21
295.2101527800301
 31
0.0
  0
LINE
  5
2F8
330
1F
100
AcDbEntity
  8
0
  6
DASHED
 62
     4
100
AcDbLine
 10
556.4579102857333
 20
328.5101527800298
 30
0.0
 11
556.4579102857333
 21
363.0101527800299
 31
0.0
  0
LINE
  5
2F9
330
1F
100
AcDbEntity
  8
0
  6
DASHED
 62
     4
100
AcDbLine
 10
556.4579102857333
 20
273.2101527800301
 30
0.0
 11
556.4579102857333
 21
295.2101527800301
 31
0.0
  0
LINE
  5
2FA
330
1F
100
AcDbEntity
  8
0
  6
DASHED
 62
     4
100
AcDbLine
 10
556.4579102857333
 20
363.0101527800299
 30
0.0
 11
552.4579102857337
 21
363.0101527800299
 31
0.0
  0
LINE
  5
2FB
330
1F
100
AcDbEntity
  8
0
  6
DASHED
 62
     4
100
AcDbLine
 10
556.4579102857333
 20
328.5101527800298
 30
0.0
 11
556.4579102857333
 21
332.5101527800298
 31
0.0
  0
LINE
  5
2FC
330
1F
100
AcDbEntity
  8
0
  6
DASHED
 62
     4
100
AcDbLine
 10
553.9579102857337
 20
328.5101527800298
 30
0.0
 11
556.4579102857333
 21
328.5101527800298
 31
0.0
  0
LINE
  5
2FD
330
1F
100
AcDbEntity
  8
0
  6
DASHED
 62
     4
100
AcDbLine
 10
553.4579102857337
 20
330.5101527800299
 30
0.0
 11
553.9579102857337
 21
328.5101527800298
 31
0.0
  0
LINE
  5
2FE
330
1F
100
AcDbEntity
  8
0
  6
DASHED
 62
     4
100
AcDbLine
 10
552.4579102857337
 20
330.5101527800299
 30
0.0
 11
556.4579102857333
 21
330.5101527800299
 31
0.0
  0
LINE
  5
2FF
330
1F
100
AcDbEntity
  8
0
  6
DASHED
 62
     4
100
AcDbLine
 10
556.4579102857333
 20
273.2101527800301
 30
0.0
 11
552.4579102857337
 21
273.2101527800301
 31
0.0
  0
LINE
  5
300
330
1F
100
AcDbEntity
  8
0
  6
DASHED
 62
     4
100
AcDbLine
 10
556.4579102857333
 20
295.2101527800301
 30
0.0
 11
556.4579102857333
 21
273.2101527800301
 31
0.0
  0
LINE
  5
301
330
1F
100
AcDbEntity
  8
0
  6
DASHED
 62
     4
100
AcDbLine
 10
552.4579102857337
 20
295.2101527800301
 30
0.0
 11
556.4579102857333
 21
295.2101527800301
 31
0.0
  0
ARC
  5
302
330
1F
100
AcDbEntity
  8
0
  6
Continuous
 62
     7
100
AcDbCircle
 10
479.3579094691873
 20
292.5055125626538
 30
0.0
 40
0.5000008165471486
100
AcDbArc
 50
269.9788941649087
 51
359.9999103180813
  0
ARC
  5
303
330
1F
100
AcDbEntity
  8
0
  6
Continuous
 62
     7
100
AcDbCircle
 10
479.3544094120587
 20
292.5055119066308
 30
0.0
 40
0.4999991605031694
100
AcDbArc
 50
179.9788150328884
 51
269.9789006414654
  0
LINE
  5
304
330
1F
100
AcDbEntity
  8
0
  6
Continuous
 62
     7
100
AcDbLine
 10
479.8579102857337
 20
301.0101527800301
 30
0.0
 11
479.8579102857337
 21
292.5055117800301
 31
0.0
  0
LINE
  5
305
330
1F
100
AcDbEntity
  8
0
  6
Continuous
 62
     7
100
AcDbLine
 10
478.8566022857337
 20
292.4587377800301
 30
0.0
 11
478.8579092857339
 21
296.0056957800301
 31
0.0
  0
ARC
  5
306
330
1F
100
AcDbEntity
  8
0
  6
Continuous
 62
     7
100
AcDbCircle
 10
439.5579106022803
 20
292.5055120628373
 30
0.0
 40
0.5000003165466131
100
AcDbArc
 50
180.0000324072764
 51
270.0210485604484
  0
ARC
  5
307
330
1F
100
AcDbEntity
  8
0
  6
Continuous
 62
     7
100
AcDbCircle
 10
439.5614106594088
 20
292.5055124066299
 30
0.0
 40
0.4999996603185178
100
AcDbArc
 50
270.0210420416206
 51
0.0211276501975281
  0
LINE
  5
308
330
1F
100
AcDbEntity
  8
0
  6
Continuous
 62
     7
100
AcDbLine
 10
439.0579102857337
 20
301.0101527800301
 30
0.0
 11
439.0579102857337
 21
292.5055117800301
 31
0.0
  0
LINE
  5
309
330
1F
100
AcDbEntity
  8
0
  6
Continuous
 62
     7
100
AcDbLine
 10
440.0592172857337
 20
292.4587377800301
 30
0.0
 11
440.0579102857338
 21
296.0056957800301
 31
0.0
  0
ARC
  5
30A
330
1F
100
AcDbEntity
  8
0
  6
Continuous
 62
     7
100
AcDbCircle
 10
479.3579094691873
 20
333.5147929974065
 30
0.0
 40
0.5000008165471486
100
AcDbArc
 50
0.0000896819185782
 51
90.021105835088
  0
ARC
  5
30B
330
1F
100
AcDbEntity
  8
0
  6
Continuous
 62
     7
100
AcDbCircle
 10
479.3544094120587
 20
333.5147926534293
 30
0.0
 40
0.4999991605031694
100
AcDbArc
 50
90.02109935853454
 51
180.0211849671081
  0
LINE
  5
30C
330
1F
100
AcDbEntity
  8
0
  6
Continuous
 62
     7
100
AcDbLine
 10
479.8579102857337
 20
325.0101527800298
 30
0.0
 11
479.8579102857337
 21
333.5147937800298
 31
0.0
  0
LINE
  5
30D
330
1F
100
AcDbEntity
  8
0
  6
Continuous
 62
     7
100
AcDbLine
 10
478.8566022857337
 20
333.5615677800301
 30
0.0
 11
478.8579092857339
 21
330.0146087800298
 31
0.0
  0
ARC
  5
30E
330
1F
100
AcDbEntity
  8
0
  6
Continuous
 62
     7
100
AcDbCircle
 10
439.5579106022803
 20
333.5147934972232
 30
0.0
 40
0.5000003165466131
100
AcDbArc
 50
89.97895143955153
 51
179.9999675927234
  0
ARC
  5
30F
330
1F
100
AcDbEntity
  8
0
  6
Continuous
 62
     7
100
AcDbCircle
 10
439.5614106594088
 20
333.5147921534301
 30
0.0
 40
0.4999996603185178
100
AcDbArc
 50
359.9788723498023
 51
89.97895795837939
  0
LINE
  5
310
330
1F
100
AcDbEntity
  8
0
  6
Continuous
 62
     7
100
AcDbLine
 10
439.0579102857337
 20
325.0101527800298
 30
0.0
 11
439.0579102857337
 21
333.5147937800298
 31
0.0
  0
LINE
  5
311
330
1F
100
AcDbEntity
  8
0
  6
Continuous
 62
     7
100
AcDbLine
 10
440.0592172857337
 20
333.5615677800301
 30
0.0
 11
440.0579102857338
 21
330.0146087800298
 31
0.0
  0
LINE
  5
312
330
1F
100
AcDbEntity
  8
0
  6
Continuous
 62
     7
100
AcDbLine
 10
468.4579122857337
 20
325.0101467800298
 30
0.0
 11
450.4579122857338
 21
325.0101467800298
 31
0.0
  0
LINE
  5
313
330
1F
100
AcDbEntity
  8
0
  6
Continuous
 62
     7
100
AcDbLine
 10
450.4579122857338
 20
322.0101467800302
 30
0.0
 11
468.4579122857337
 21
322.0101467800302
 31
0.0
  0
LINE
  5
314
330
1F
100
AcDbEntity
  8
0
  6
Continuous
 62
     7
100
AcDbLine
 10
468.4579122857337
 20
322.0101467800302
 30
0.0
 11
468.4579122857337
 21
325.0101467800298
 31
0.0
  0
LINE
  5
315
330
1F
100
AcDbEntity
  8
0
  6
Continuous
 62
     7
100
AcDbLine
 10
450.4579122857338
 20
325.0101467800298
 30
0.0
 11
450.4579122857338
 21
322.0101467800302
 31
0.0
  0
ARC
  5
316
330
1F
100
AcDbEntity
  8
0
  6
Continuous
 62
     7
100
AcDbCircle
 10
479.7579117798841
 20
275.0101512858798
 30
0.0
 40
1.999998505850189
100
AcDbArc
 50
269.9999571957111
 51
0.0000428042855519
  0
LINE
  5
317
330
1F
100
AcDbEntity
  8
0
  6
Continuous
 62
     7
100
AcDbLine
 10
481.7579102857338
 20
275.0101527800302
 30
0.0
 11
481.7579102857338
 21
301.0101527800301
 31
0.0
  0
LINE
  5
318
330
1F
100
AcDbEntity
  8
0
  6
Continuous
 62
     7
100
AcDbLine
 10
437.1579102857338
 20
301.0101527800301
 30
0.0
 11
437.1579102857338
 21
275.0101527800302
 31
0.0
  0
ARC
  5
319
330
1F
100
AcDbEntity
  8
0
  6
Continuous
 62
     7
100
AcDbCircle
 10
439.1579087915833
 20
275.0101512858798
 30
0.0
 40
1.999998505850189
100
AcDbArc
 50
179.9999571957112
 51
270.0000428042855
  0
LINE
  5
31A
330
1F
100
AcDbEntity
  8
0
  6
Continuous
 62
     7
100
AcDbLine
 10
481.7579102857338
 20
301.0101527800301
 30
0.0
 11
479.8579102857337
 21
301.0101527800301
 31
0.0
  0
LINE
  5
31B
330
1F
100
AcDbEntity
  8
0
  6
Continuous
 62
     7
100
AcDbLine
 10
480.9579102857338
 20
273.4101527800301
 30
0.0
 11
480.9579102857338
 21
301.0101527800301
 31
0.0
  0
LINE
  5
31C
330
1F
100
AcDbEntity
  8
0
  6
Continuous
 62
     7
100
AcDbLine
 10
437.9579102857338
 20
301.0101527800301
 30
0.0
 11
437.9579102857338
 21
273.4101527800301
 31
0.0
  0
LINE
  5
31D
330
1F
100
AcDbEntity
  8
0
  6
Continuous
 62
     7
100
AcDbLine
 10
439.0579102857337
 20
301.0101527800301
 30
0.0
 11
437.1579102857338
 21
301.0101527800301
 31
0.0
  0
LINE
  5
31E
330
1F
100
AcDbEntity
  8
0
  6
Continuous
 62
     7
100
AcDbLine
 10
440.0584612857338
 20
294.5101517800301
 30
0.0
 11
478.8573582857337
 21
294.5101517800301
 31
0.0
  0
LINE
  5
31F
330
1F
100
AcDbEntity
  8
0
  6
Continuous
 62
     7
100
AcDbLine
 10
478.8579092857339
 20
296.0101527800302
 30
0.0
 11
440.0579102857338
 21
296.0101527800302
 31
0.0
  0
LINE
  5
320
330
1F
100
AcDbEntity
  8
0
  6
Continuous
 62
     7
100
AcDbLine
 10
439.1579102857336
 20
273.0101527800302
 30
0.0
 11
479.7579102857337
 21
273.0101527800302
 31
0.0
  0
ARC
  5
321
330
1F
100
AcDbEntity
  8
0
  6
Continuous
 62
     7
100
AcDbCircle
 10
439.1579087915833
 20
351.0101542741805
 30
0.0
 40
1.999998505850204
100
AcDbArc
 50
89.99995719571119
 51
180.0000428042855
  0
LINE
  5
322
330
1F
100
AcDbEntity
  8
0
  6
Continuous
 62
     7
100
AcDbLine
 10
437.1579102857338
 20
351.01015278003
 30
0.0
 11
437.1579102857338
 21
325.0101527800298
 31
0.0
  0
LINE
  5
323
330
1F
100
AcDbEntity
  8
0
  6
Continuous
 62
     7
100
AcDbLine
 10
481.7579102857338
 20
325.0101527800298
 30
0.0
 11
481.7579102857338
 21
351.01015278003
 31
0.0
  0
ARC
  5
324
330
1F
100
AcDbEntity
  8
0
  6
Continuous
 62
     7
100
AcDbCircle
 10
479.7579117798841
 20
351.0101542741805
 30
0.0
 40
1.999998505850189
100
AcDbArc
 50
359.9999571957143
 51
90.00004280428553
  0
LINE
  5
325
330
1F
100
AcDbEntity
  8
0
  6
Continuous
 62
     7
100
AcDbLine
 10
437.1579102857338
 20
325.0101527800298
 30
0.0
 11
439.0579102857337
 21
325.0101527800298
 31
0.0
  0
LINE
  5
326
330
1F
100
AcDbEntity
  8
0
  6
Continuous
 62
     7
100
AcDbLine
 10
437.9579102857338
 20
352.61015278003
 30
0.0
 11
437.9579102857338
 21
325.0101527800298
 31
0.0
  0
LINE
  5
327
330
1F
100
AcDbEntity
  8
0
  6
Continuous
 62
     7
100
AcDbLine
 10
480.9579102857338
 20
325.0101527800298
 30
0.0
 11
480.9579102857338
 21
352.61015278003
 31
0.0
  0
LINE
  5
328
330
1F
100
AcDbEntity
  8
0
  6
Continuous
 62
     7
100
AcDbLine
 10
479.8579102857337
 20
325.0101527800298
 30
0.0
 11
481.7579102857338
 21
325.0101527800298
 31
0.0
  0
LINE
  5
329
330
1F
100
AcDbEntity
  8
0
  6
Continuous
 62
     7
100
AcDbLine
 10
478.8573582857337
 20
331.51015278003
 30
0.0
 11
440.0584612857338
 21
331.51015278003
 31
0.0
  0
LINE
  5
32A
330
1F
100
AcDbEntity
  8
0
  6
Continuous
 62
     7
100
AcDbLine
 10
440.0579102857338
 20
330.0101527800301
 30
0.0
 11
478.8579092857339
 21
330.0101527800301
 31
0.0
  0
LINE
  5
32B
330
1F
100
AcDbEntity
  8
0
  6
Continuous
 62
     7
100
AcDbLine
 10
479.7579102857337
 20
353.01015278003
 30
0.0
 11
439.1579102857336
 21
353.01015278003
 31
0.0
  0
LINE
  5
32C
330
1F
100
AcDbEntity
  8
0
  6
Continuous
 62
     7
 48
2.0
100
AcDbLine
 10
479.8579102857337
 20
323.0101527800298
 30
0.0
 11
479.8579102857337
 21
330.0101527800301
 31
0.0
  0
LINE
  5
32D
330
1F
100
AcDbEntity
  8
0
  6
Continuous
 62
     7
 48
2.0
100
AcDbLine
 10
479.8579102857337
 20
303.0101527800301
 30
0.0
 11
479.8579102857337
 21
296.0101527800302
 31
0.0
  0
LINE
  5
32E
330
1F
100
AcDbEntity
  8
0
  6
Continuous
 62
     7
 48
2.0
100
AcDbLine
 10
439.0579102857337
 20
323.0101527800298
 30
0.0
 11
439.0579102857337
 21
330.0101527800301
 31
0.0
  0
LINE
  5
32F
330
1F
100
AcDbEntity
  8
0
  6
Continuous
 62
     7
 48
2.0
100
AcDbLine
 10
439.0579102857337
 20
303.0101527800301
 30
0.0
 11
439.0579102857337
 21
296.0101527800302
 31
0.0
  0
LINE
  5
330
330
1F
100
AcDbEntity
  8
0
  6
Continuous
 62
     7
100
AcDbLine
 10
436.9579102857338
 20
303.0101527800301
 30
0.0
 11
439.0579102857337
 21
303.0101527800301
 31
0.0
  0
LINE
  5
331
330
1F
100
AcDbEntity
  8
0
  6
Continuous
 62
     7
100
AcDbLine
 10
438.8579102857337
 20
301.0101527800301
 30
0.0
 11
436.9579102857338
 21
301.0101527800301
 31
0.0
  0
LINE
  5
332
330
1F
100
AcDbEntity
  8
0
  6
Continuous
 62
     7
100
AcDbLine
 10
436.9579102857338
 20
324.9601527800301
 30
0.0
 11
438.8579102857337
 21
324.9601527800301
 31
0.0
  0
LINE
  5
333
330
1F
100
AcDbEntity
  8
0
  6
Continuous
 62
     7
100
AcDbLine
 10
436.9579102857338
 20
323.0101527800298
 30
0.0
 11
439.0579102857337
 21
323.0101527800298
 31
0.0
  0
LINE
  5
334
330
1F
100
AcDbEntity
  8
0
  6
Continuous
 62
     7
100
AcDbLine
 10
481.9579102857338
 20
301.0601527800301
 30
0.0
 11
480.0579102857337
 21
301.0601527800301
 31
0.0
  0
LINE
  5
335
330
1F
100
AcDbEntity
  8
0
  6
Continuous
 62
     7
100
AcDbLine
 10
480.0579102857337
 20
324.9601527800301
 30
0.0
 11
481.9579102857338
 21
324.9601527800301
 31
0.0
  0
LINE
  5
336
330
1F
100
AcDbEntity
  8
0
  6
Continuous
 62
     7
100
AcDbLine
 10
479.8579102857337
 20
323.0101527800298
 30
0.0
 11
481.9579102857338
 21
323.0101527800298
 31
0.0
  0
LINE
  5
337
330
1F
100
AcDbEntity
  8
0
  6
Continuous
 62
     7
100
AcDbLine
 10
481.9579102857338
 20
303.0101527800301
 30
0.0
 11
479.8579102857337
 21
303.0101527800301
 31
0.0
  0
LINE
  5
338
330
1F
100
AcDbEntity
  8
0
  6
Continuous
 62
     7
100
AcDbLine
 10
479.8579102857337
 20
296.0101527800302
 30
0.0
 11
439.0579102857337
 21
296.0101527800302
 31
0.0
  0
LINE
  5
339
330
1F
100
AcDbEntity
  8
0
  6
Continuous
 62
     7
100
AcDbLine
 10
439.0579102857337
 20
330.0101527800301
 30
0.0
 11
479.8579102857337
 21
330.0101527800301
 31
0.0
  0
LINE
  5
33A
330
1F
100
AcDbEntity
  8
0
  6
Continuous
 62
     7
100
AcDbLine
 10
451.9579122857336
 20
303.5101577800301
 30
0.0
 11
466.9579122857338
 21
303.5101577800301
 31
0.0
  0
LINE
  5
33B
330
1F
100
AcDbEntity
  8
0
  6
Continuous
 62
     7
100
AcDbLine
 10
451.9579122857336
 20
301.5101577800301
 30
0.0
 11
466.9579122857338
 21
301.5101577800301
 31
0.0
  0
LINE
  5
33C
330
1F
100
AcDbEntity
  8
0
  6
Continuous
 62
     7
100
AcDbLine
 10
468.4579122857337
 20
301.0101577800301
 30
0.0
 11
450.4579122857338
 21
301.0101577800301
 31
0.0
  0
LINE
  5
33D
330
1F
100
AcDbEntity
  8
0
  6
Continuous
 62
     7
100
AcDbLine
 10
450.4579122857338
 20
304.0101577800301
 30
0.0
 11
468.4579122857337
 21
304.0101577800301
 31
0.0
  0
LINE
  5
33E
330
1F
100
AcDbEntity
  8
0
  6
Continuous
 62
     7
100
AcDbLine
 10
468.4579122857337
 20
304.0101577800301
 30
0.0
 11
468.4579122857337
 21
301.0101577800301
 31
0.0
  0
LINE
  5
33F
330
1F
100
AcDbEntity
  8
0
  6
Continuous
 62
     7
100
AcDbLine
 10
450.4579122857338
 20
301.0101577800301
 30
0.0
 11
450.4579122857338
 21
304.0101577800301
 31
0.0
  0
LINE
  5
340
330
1F
100
AcDbEntity
  8
0
  6
Continuous
 62
     7
100
AcDbLine
 10
466.9579122857338
 20
303.5101577800301
 30
0.0
 11
466.9579122857338
 21
301.5101577800301
 31
0.0
  0
LINE
  5
341
330
1F
100
AcDbEntity
  8
0
  6
Continuous
 62
     7
100
AcDbLine
 10
451.9579122857336
 20
301.5101577800301
 30
0.0
 11
451.9579122857336
 21
303.5101577800301
 31
0.0
  0
LINE
  5
342
330
1F
100
AcDbEntity
  8
0
  6
Continuous
 62
     7
100
AcDbLine
 10
436.9579102857338
 20
325.0101527800298
 30
0.0
 11
436.9579102857338
 21
351.01015278003
 31
0.0
  0
LINE
  5
343
330
1F
100
AcDbEntity
  8
0
  6
Continuous
 62
     7
100
AcDbLine
 10
436.9579102857338
 20
301.0101527800301
 30
0.0
 11
436.9579102857338
 21
275.0101527800302
 31
0.0
  0
LINE
  5
344
330
1F
100
AcDbEntity
  8
0
  6
Continuous
 62
     7
100
AcDbLine
 10
436.9579102857338
 20
301.0601527800301
 30
0.0
 11
436.9579102857338
 21
324.9601527800301
 31
0.0
  0
ARC
  5
345
330
1F
100
AcDbEntity
  8
0
  6
Continuous
 62
     7
100
AcDbCircle
 10
438.9579087915834
 20
351.0101542741805
 30
0.0
 40
1.999998505850204
100
AcDbArc
 50
89.99995719571119
 51
180.0000428042855
  0
ARC
  5
346
330
1F
100
AcDbEntity
  8
0
  6
Continuous
 62
     7
100
AcDbCircle
 10
438.9579087915834
 20
275.0101512858798
 30
0.0
 40
1.999998505850189
100
AcDbArc
 50
179.9999571957112
 51
270.0000428042855
  0
LINE
  5
347
330
1F
100
AcDbEntity
  8
0
  6
Continuous
 62
     7
100
AcDbLine
 10
437.9579102857338
 20
303.0101527800301
 30
0.0
 11
437.9579102857338
 21
323.0101527800298
 31
0.0
  0
ARC
  5
348
330
1F
100
AcDbEntity
  8
0
  6
DASHED
 62
     4
100
AcDbCircle
 10
439.1579086421684
 20
270.2101511364646
 30
0.0
 40
2.199998356435211
100
AcDbArc
 50
179.9999571957112
 51
270.0000428042855
  0
ARC
  5
349
330
1F
100
AcDbEntity
  8
0
  6
DASHED
 62
     4
100
AcDbCircle
 10
439.1579086421684
 20
360.8101544235955
 30
0.0
 40
2.199998356435219
100
AcDbArc
 50
89.99995719571119
 51
180.0000428042855
  0
LINE
  5
34A
330
1F
100
AcDbEntity
  8
0
  6
DASHED
 62
     4
100
AcDbLine
 10
436.9579102857338
 20
360.8101527800302
 30
0.0
 11
436.9579102857338
 21
270.2101527800301
 31
0.0
  0
LINE
  5
34B
330
1F
100
AcDbEntity
  8
0
  6
Continuous
 62
     7
100
AcDbLine
 10
481.9579102857338
 20
351.01015278003
 30
0.0
 11
481.9579102857338
 21
325.0101527800298
 31
0.0
  0
LINE
  5
34C
330
1F
100
AcDbEntity
  8
0
  6
Continuous
 62
     7
100
AcDbLine
 10
481.9579102857338
 20
275.0101527800302
 30
0.0
 11
481.9579102857338
 21
301.0101527800301
 31
0.0
  0
LINE
  5
34D
330
1F
100
AcDbEntity
  8
0
  6
Continuous
 62
     7
100
AcDbLine
 10
481.9579102857338
 20
324.9601527800301
 30
0.0
 11
481.9579102857338
 21
301.0601527800301
 31
0.0
  0
ARC
  5
34E
330
1F
100
AcDbEntity
  8
0
  6
Continuous
 62
     7
100
AcDbCircle
 10
479.9579117798841
 20
351.0101542741805
 30
0.0
 40
1.999998505850189
100
AcDbArc
 50
359.9999571957143
 51
90.00004280428553
  0
ARC
  5
34F
330
1F
100
AcDbEntity
  8
0
  6
Continuous
 62
     7
100
AcDbCircle
 10
479.9579117798841
 20
275.0101512858798
 30
0.0
 40
1.999998505850189
100
AcDbArc
 50
269.9999571957111
 51
0.0000428042855519
  0
LINE
  5
350
330
1F
100
AcDbEntity
  8
0
  6
Continuous
 62
     7
100
AcDbLine
 10
480.9579102857338
 20
323.0101527800298
 30
0.0
 11
480.9579102857338
 21
303.0101527800301
 31
0.0
  0
ARC
  5
351
330
1F
100
AcDbEntity
  8
0
  6
DASHED
 62
     4
100
AcDbCircle
 10
479.7579119292991
 20
270.2101511364646
 30
0.0
 40
2.199998356435204
100
AcDbArc
 50
269.9999571957144
 51
0.0000428042855519
  0
LINE
  5
352
330
1F
100
AcDbEntity
  8
0
  6
DASHED
 62
     4
100
AcDbLine
 10
481.9579102857338
 20
270.2101527800301
 30
0.0
 11
481.9579102857338
 21
360.8101527800302
 31
0.0
  0
ARC
  5
353
330
1F
100
AcDbEntity
  8
0
  6
DASHED
 62
     4
100
AcDbCircle
 10
479.7579119292991
 20
360.8101544235955
 30
0.0
 40
2.199998356435204
100
AcDbArc
 50
359.9999571957143
 51
90.00004280428553
  0
LINE
  5
354
330
1F
100
AcDbEntity
  8
0
  6
Continuous
 62
     7
100
AcDbLine
 10
446.4579102857338
 20
353.01015278003
 30
0.0
 11
472.4579102857338
 21
353.01015278003
 31
0.0
  0
LINE
  5
355
330
1F
100
AcDbEntity
  8
0
  6
Continuous
 62
     7
100
AcDbLine
 10
438.9579102857338
 20
273.0101527800302
 30
0.0
 11
479.9579102857338
 21
273.0101527800302
 31
0.0
  0
LINE
  5
356
330
1F
100
AcDbEntity
  8
0
  6
DASHED
 62
     4
100
AcDbLine
 10
465.4579102857338
 20
271.0106107800301
 30
0.0
 11
465.2079082857338
 21
271.0106107800301
 31
0.0
  0
LINE
  5
357
330
1F
100
AcDbEntity
  8
0
  6
DASHED
 62
     4
100
AcDbLine
 10
462.7079102857337
 20
273.0101527800302
 30
0.0
 11
462.7079102857337
 21
271.6915627800301
 31
0.0
  0
LINE
  5
358
330
1F
100
AcDbEntity
  8
0
  6
DASHED
 62
     4
100
AcDbLine
 10
456.2079102857338
 20
271.5106107800301
 30
0.0
 11
456.2079102857338
 21
273.0101527800302
 31
0.0
  0
LINE
  5
359
330
1F
100
AcDbEntity
  8
0
  6
DASHED
 62
     4
100
AcDbLine
 10
453.7079082857338
 20
271.0106107800301
 30
0.0
 11
453.4579102857338
 21
271.0106107800301
 31
0.0
  0
LINE
  5
35A
330
1F
100
AcDbEntity
  8
0
  6
Continuous
 62
     7
100
AcDbLine
 10
461.7491972857338
 20
273.0101527800302
 30
0.0
 11
465.4579102857338
 21
273.0101527800302
 31
0.0
  0
LINE
  5
35B
330
1F
100
AcDbEntity
  8
0
  6
Continuous
 62
     7
100
AcDbLine
 10
453.4579102857338
 20
273.0101527800302
 30
0.0
 11
457.1666222857338
 21
273.0101527800302
 31
0.0
  0
LINE
  5
35C
330
1F
100
AcDbEntity
  8
0
  6
DASHED
 62
     4
100
AcDbLine
 10
467.6579102857338
 20
268.0101527800301
 30
0.0
 11
479.7579102857337
 21
268.0101527800301
 31
0.0
  0
LINE
  5
35D
330
1F
100
AcDbEntity
  8
0
  6
DASHED
 62
     4
100
AcDbLine
 10
446.6579102857338
 20
268.0101527800301
 30
0.0
 11
451.2579102857337
 21
268.0101527800301
 31
0.0
  0
LINE
  5
35E
330
1F
100
AcDbEntity
  8
0
  6
DASHED
 62
     4
100
AcDbLine
 10
465.4579102857338
 20
270.2101527800301
 30
0.0
 11
467.6579102857338
 21
268.0101527800301
 31
0.0
  0
LINE
  5
35F
330
1F
100
AcDbEntity
  8
0
  6
DASHED
 62
     4
100
AcDbLine
 10
465.4579102857338
 20
270.2101527800301
 30
0.0
 11
465.4579102857338
 21
273.0101527800302
 31
0.0
  0
LINE
  5
360
330
1F
100
AcDbEntity
  8
0
  6
DASHED
 62
     4
100
AcDbLine
 10
453.4579102857338
 20
270.2101527800301
 30
0.0
 11
451.2579102857337
 21
268.0101527800301
 31
0.0
  0
LINE
  5
361
330
1F
100
AcDbEntity
  8
0
  6
DASHED
 62
     4
100
AcDbLine
 10
453.4579102857338
 20
270.2101527800301
 30
0.0
 11
453.4579102857338
 21
273.0101527800302
 31
0.0
  0
LINE
  5
362
330
1F
100
AcDbEntity
  8
0
  6
DASHED
 62
     4
100
AcDbLine
 10
479.7579102857337
 20
363.0101527800299
 30
0.0
 11
439.1579102857336
 21
363.0101527800299
 31
0.0
  0
LINE
  5
363
330
1F
100
AcDbEntity
  8
0
  6
Continuous
 62
     7
 48
2.0
100
AcDbLine
 10
479.9579102857338
 20
353.01015278003
 30
0.0
 11
438.9579102857338
 21
353.01015278003
 31
0.0
  0
LINE
  5
364
330
1F
100
AcDbEntity
  8
0
  6
DASHED
 62
     4
100
AcDbLine
 10
454.7079102857336
 20
273.0106107800301
 30
0.0
 11
454.7079102857336
 21
272.0106107800301
 31
0.0
  0
LINE
  5
365
330
1F
100
AcDbEntity
  8
0
  6
DASHED
 62
     4
100
AcDbLine
 10
464.2079102857338
 20
272.0106107800301
 30
0.0
 11
464.2079102857338
 21
273.0101527800302
 31
0.0
  0
LINE
  5
366
330
1F
100
AcDbEntity
  8
0
  6
DASHED
 62
     4
100
AcDbLine
 10
465.4579102857338
 20
268.0106107800301
 30
0.0
 11
471.4079102857338
 21
268.0106107800301
 31
0.0
  0
LINE
  5
367
330
1F
100
AcDbEntity
  8
0
  6
DASHED
 62
     4
100
AcDbLine
 10
447.5079102857337
 20
268.0106107800301
 30
0.0
 11
453.4579102857338
 21
268.0106107800301
 31
0.0
  0
LINE
  5
368
330
1F
100
AcDbEntity
  8
0
  6
DASHED
 62
     4
100
AcDbLine
 10
465.4579102857338
 20
268.0106107800301
 30
0.0
 11
465.4579102857338
 21
265.0106107800301
 31
0.0
  0
LINE
  5
369
330
1F
100
AcDbEntity
  8
0
  6
DASHED
 62
     4
100
AcDbLine
 10
465.4579102857338
 20
265.0106107800301
 30
0.0
 11
463.4579102857338
 21
263.0106107800301
 31
0.0
  0
LINE
  5
36A
330
1F
100
AcDbEntity
  8
0
  6
DASHED
 62
     4
100
AcDbLine
 10
453.4579102857338
 20
265.0106107800301
 30
0.0
 11
453.4579102857338
 21
268.0106107800301
 31
0.0
  0
LINE
  5
36B
330
1F
100
AcDbEntity
  8
0
  6
DASHED
 62
     4
100
AcDbLine
 10
453.4579102857338
 20
265.0106107800301
 30
0.0
 11
455.4579102857338
 21
263.0106107800301
 31
0.0
  0
LINE
  5
36C
330
1F
100
AcDbEntity
  8
0
  6
DASHED
 62
     4
100
AcDbLine
 10
463.4579102857338
 20
263.0106107800301
 30
0.0
 11
455.4579102857338
 21
263.0106107800301
 31
0.0
  0
ARC
  5
36D
330
1F
100
AcDbEntity
  8
0
  6
DASHED
 62
     4
100
AcDbCircle
 10
459.4579119086007
 20
268.0106059680936
 30
0.0
 40
2.250000082850193
100
AcDbArc
 50
102.8396303118259
 51
153.6122064315071
  0
ARC
  5
36E
330
1F
100
AcDbEntity
  8
0
  6
DASHED
 62
     4
100
AcDbCircle
 10
459.4579096628669
 20
268.010603860797
 30
0.0
 40
2.250001915233132
100
AcDbArc
 50
26.38783032142463
 51
77.16040644110845
  0
ARC
  5
36F
330
1F
100
AcDbEntity
  8
0
  6
DASHED
 62
     4
100
AcDbCircle
 10
459.4579112857338
 20
268.0106043766242
 30
0.0
 40
2.249998984729973
100
AcDbArc
 50
206.3877728940759
 51
333.6122271059238
  0
LINE
  5
370
330
1F
100
AcDbEntity
  8
0
  6
DASHED
 62
     4
100
AcDbLine
 10
455.4579112857338
 20
269.0106057800301
 30
0.0
 11
455.4579102857338
 21
267.0106057800301
 31
0.0
  0
LINE
  5
371
330
1F
100
AcDbEntity
  8
0
  6
DASHED
 62
     4
100
AcDbLine
 10
463.4579102857338
 20
269.0106057800301
 30
0.0
 11
463.4579102857338
 21
267.0106057800301
 31
0.0
  0
LINE
  5
372
330
1F
100
AcDbEntity
  8
0
  6
DASHED
 62
     4
100
AcDbLine
 10
455.4579102857338
 20
267.0106057800301
 30
0.0
 11
457.4423462857337
 21
267.0106057800301
 31
0.0
  0
LINE
  5
373
330
1F
100
AcDbEntity
  8
0
  6
DASHED
 62
     4
100
AcDbLine
 10
461.4734752857337
 20
267.0106057800301
 30
0.0
 11
463.4579102857338
 21
267.0106057800301
 31
0.0
  0
LINE
  5
374
330
1F
100
AcDbEntity
  8
0
  6
DASHED
 62
     4
100
AcDbLine
 10
455.4579112857338
 20
269.0106057800301
 30
0.0
 11
457.4423462857337
 21
269.0106057800301
 31
0.0
  0
LINE
  5
375
330
1F
100
AcDbEntity
  8
0
  6
DASHED
 62
     4
100
AcDbLine
 10
461.4734752857337
 20
269.0106057800301
 30
0.0
 11
463.4579102857338
 21
269.0106057800301
 31
0.0
  0
LINE
  5
376
330
1F
100
AcDbEntity
  8
0
  6
DASHED
 62
     4
100
AcDbLine
 10
458.9579102857338
 20
271.0106107800301
 30
0.0
 11
458.9579102857338
 21
270.20434678003
 31
0.0
  0
LINE
  5
377
330
1F
100
AcDbEntity
  8
0
  6
DASHED
 62
     4
100
AcDbLine
 10
459.9579102857338
 20
271.0106107800301
 30
0.0
 11
459.9579102857338
 21
270.20434678003
 31
0.0
  0
ARC
  5
378
330
1F
100
AcDbEntity
  8
0
  6
DASHED
 62
     4
100
AcDbCircle
 10
456.7079079121961
 20
271.5106104064925
 30
0.0
 40
0.4999996264625512
100
AcDbArc
 50
179.9999571957112
 51
270.0000428042855
  0
LINE
  5
379
330
1F
100
AcDbEntity
  8
0
  6
DASHED
 62
     4
100
AcDbLine
 10
458.9579082857338
 20
271.0106107800301
 30
0.0
 11
456.7079082857338
 21
271.0106107800301
 31
0.0
  0
LINE
  5
37A
330
1F
100
AcDbEntity
  8
0
  6
DASHED
 62
     4
100
AcDbLine
 10
462.2079082857338
 20
271.0106107800301
 30
0.0
 11
459.9579082857338
 21
271.0106107800301
 31
0.0
  0
ARC
  5
37B
330
1F
100
AcDbEntity
  8
0
  6
DASHED
 62
     4
100
AcDbCircle
 10
462.2079086592713
 20
271.5106104064925
 30
0.0
 40
0.4999996264625441
100
AcDbArc
 50
269.9999571957144
 51
0.0000428042888088
  0
ARC
  5
37C
330
1F
100
AcDbEntity
  8
0
  6
DASHED
 62
     4
100
AcDbCircle
 10
453.707909032809
 20
272.010610032955
 30
0.0
 40
0.9999992529250951
100
AcDbArc
 50
269.9999571957111
 51
0.0000428042855519
  0
ARC
  5
37D
330
1F
100
AcDbEntity
  8
0
  6
DASHED
 62
     4
100
AcDbCircle
 10
465.2079075386587
 20
272.010610032955
 30
0.0
 40
0.9999992529250951
100
AcDbArc
 50
179.9999571957112
 51
270.0000428042855
  0
LINE
  5
37E
330
1F
100
AcDbEntity
  8
0
  6
DASHED
 62
     4
100
AcDbLine
 10
453.7079082857338
 20
271.0106107800301
 30
0.0
 11
456.7079082857338
 21
271.0106107800301
 31
0.0
  0
LINE
  5
37F
330
1F
100
AcDbEntity
  8
0
  6
DASHED
 62
     4
100
AcDbLine
 10
462.2079082857338
 20
271.0106107800301
 30
0.0
 11
465.2079082857338
 21
271.0106107800301
 31
0.0
  0
LINE
  5
380
330
1F
100
AcDbEntity
  8
0
  6
DASHED
 62
     4
100
AcDbLine
 10
451.2579102857337
 20
268.0106107800301
 30
0.0
 11
439.1579102857336
 21
268.0106107800301
 31
0.0
  0
LINE
  5
381
330
1F
100
AcDbEntity
  8
0
  6
DASHED
 62
     4
100
AcDbLine
 10
472.2579102857337
 20
268.0106107800301
 30
0.0
 11
467.6579102857338
 21
268.0106107800301
 31
0.0
  0
LINE
  5
382
330
1F
100
AcDbEntity
  8
0
  6
Continuous
 62
     7
100
AcDbLine
 10
457.1666222857338
 20
273.0106107800301
 30
0.0
 11
456.2079102857338
 21
273.0106107800301
 31
0.0
  0
LINE
  5
383
330
1F
100
AcDbEntity
  8
0
  6
Continuous
 62
     7
100
AcDbLine
 10
454.7079102857336
 20
273.0106107800301
 30
0.0
 11
453.4579102857338
 21
273.0106107800301
 31
0.0
  0
LINE
  5
384
330
1F
100
AcDbEntity
  8
0
  6
DASHED
 62
     4
100
AcDbLine
 10
453.4579102857338
 20
271.0106107800301
 30
0.0
 11
453.4579102857338
 21
273.0106107800301
 31
0.0
  0
LINE
  5
385
330
1F
100
AcDbEntity
  8
0
  6
Continuous
 62
     7
100
AcDbLine
 10
465.4579102857338
 20
273.0106107800301
 30
0.0
 11
464.2079102857338
 21
273.0106107800301
 31
0.0
  0
LINE
  5
386
330
1F
100
AcDbEntity
  8
0
  6
Continuous
 62
     7
100
AcDbLine
 10
462.7079102857337
 20
273.0106107800301
 30
0.0
 11
461.7491972857338
 21
273.0106107800301
 31
0.0
  0
LINE
  5
387
330
1F
100
AcDbEntity
  8
0
  6
DASHED
 62
     4
100
AcDbLine
 10
465.4579102857338
 20
271.0106107800301
 30
0.0
 11
465.4579102857338
 21
273.0106107800301
 31
0.0
  0
ENDSEC
  0
SECTION
  2
OBJECTS
  0
DICTIONARY
  5
C
330
0
100
AcDbDictionary
281
     1
  3
ACAD_GROUP
350
D
  3
ACAD_LAYOUT
350
1A
  3
ACAD_MLINESTYLE
350
17
  3
ACAD_PLOTSETTINGS
350
19
  3
ACAD_PLOTSTYLENAME
350
E
  3
DWGPROPS
350
388
  0
DICTIONARY
  5
D
102
{ACAD_REACTORS
330
C
102
}
330
C
100
AcDbDictionary
281
     1
  0
DICTIONARY
  5
1A
102
{ACAD_REACTORS
330
C
102
}
330
C
100
AcDbDictionary
281
     1
  3
Model
350
22
  3
ﾚｲｱｳﾄ1
350
51
  3
ﾚｲｱｳﾄ2
350
56
  0
DICTIONARY
  5
17
102
{ACAD_REACTORS
330
C
102
}
330
C
100
AcDbDictionary
281
     1
  3
Standard
350
18
  0
DICTIONARY
  5
19
102
{ACAD_REACTORS
330
C
102
}
330
C
100
AcDbDictionary
281
     1
  0
ACDBDICTIONARYWDFLT
  5
E
102
{ACAD_REACTORS
330
C
102
}
330
C
100
AcDbDictionary
281
     1
  3
Normal
350
F
100
AcDbDictionaryWithDefault
340
F
  0
XRECORD
  5
388
102
{ACAD_REACTORS
330
C
102
}
330
C
100
AcDbXrecord
280
     1
  1
DWGPROPS COOKIE
  2

  3

  4

  6

  7

  8

  9

300
=
301
=
302
=
303
=
304
=
305
=
306
=
307
=
308
=
309
=
 40
0.0001889467592593
 41
2456499.78052647
 42
2456499.780715415
  1

 90
        0
  0
LAYOUT
  5
22
102
{ACAD_REACTORS
330
1A
102
}
330
1A
100
AcDbPlotSettings
  1

  2
none_device
  4
ANSI_A_(8.50_x_11.00_Inches)
  6

 40
6.349999904632567
 41
19.04999923706053
 42
6.350006103515625
 43
19.04998779296875
 44
215.8999938964842
 45
279.3999938964843
 46
0.0
 47
0.0
 48
0.0
 49
0.0
140
0.0
141
0.0
142
1.0
143
78.436453180766
 70
 11952
 72
     0
 73
     1
 74
     0
  7

 75
     0
147
0.0127491741332998
148
0.0
149
0.0
100
AcDbLayout
  1
Model
 70
     1
 71
     0
 10
0.0
 20
0.0
 11
12.0
 21
9.0
 12
0.0
 22
0.0
 32
0.0
 14
0.0
 24
0.0
 34
0.0
 15
0.0
 25
0.0
 35
0.0
146
0.0
 13
0.0
 23
0.0
 33
0.0
 16
1.0
 26
0.0
 36
0.0
 17
0.0
 27
1.0
 37
0.0
 76
     0
330
1F
  0
LAYOUT
  5
51
102
{ACAD_REACTORS
330
1A
102
}
330
1A
100
AcDbPlotSettings
  1

  2
None
  4

  6

 40
0.0
 41
0.0
 42
0.0
 43
0.0
 44
0.0
 45
0.0
 46
0.0
 47
0.0
 48
0.0
 49
0.0
140
0.0
141
0.0
142
1.0
143
1.0
 70
   688
 72
     0
 73
     0
 74
     5
  7

 75
    16
147
1.0
148
0.0
149
0.0
100
AcDbLayout
  1
ﾚｲｱｳﾄ1
 70
     1
 71
     1
 10
0.0
 20
0.0
 11
12.0
 21
9.0
 12
0.0
 22
0.0
 32
0.0
 14
0.0
 24
0.0
 34
0.0
 15
0.0
 25
0.0
 35
0.0
146
0.0
 13
0.0
 23
0.0
 33
0.0
 16
1.0
 26
0.0
 36
0.0
 17
0.0
 27
1.0
 37
0.0
 76
     0
330
50
  0
LAYOUT
  5
56
102
{ACAD_REACTORS
330
1A
102
}
330
1A
100
AcDbPlotSettings
  1

  2
None
  4

  6

 40
0.0
 41
0.0
 42
0.0
 43
0.0
 44
0.0
 45
0.0
 46
0.0
 47
0.0
 48
0.0
 49
0.0
140
0.0
141
0.0
142
1.0
143
1.0
 70
   688
 72
     0
 73
     0
 74
     5
  7

 75
    16
147
1.0
148
0.0
149
0.0
100
AcDbLayout
  1
ﾚｲｱｳﾄ2
 70
     1
 71
     2
 10
0.0
 20
0.0
 11
12.0
 21
9.0
 12
0.0
 22
0.0
 32
0.0
 14
0.0
 24
0.0
 34
0.0
 15
0.0
 25
0.0
 35
0.0
146
0.0
 13
0.0
 23
0.0
 33
0.0
 16
1.0
 26
0.0
 36
0.0
 17
0.0
 27
1.0
 37
0.0
 76
     0
330
55
  0
MLINESTYLE
  5
18
102
{ACAD_REACTORS
330
17
102
}
330
17
100
AcDbMlineStyle
  2
STANDARD
 70
     0
  3

 62
   256
 51
90.0
 52
90.0
 71
     2
 49
0.5
 62
   256
  6
BYLAYER
 49
-0.5
 62
   256
  6
BYLAYER
  0
ACDBPLACEHOLDER
  5
F
102
{ACAD_REACTORS
330
E
102
}
330
E
  0
ENDSEC
  0
EOF
