  0
SECTION
  2
HEADER
  9
$ACADVER
  1
AC1015
  9
$ACADMAINTVER
 70
    10
  9
$DWGCODEPAGE
  3
ANSI_932
  9
$INSBASE
 10
0.0
 20
0.0
 30
0.0
  9
$EXTMIN
 10
17.49087626808776
 20
-127.1234712692218
 30
0.0
  9
$EXTMAX
 10
463.1887886835013
 20
33.65316022830882
 30
0.0
  9
$LIMMIN
 10
0.0
 20
0.0
  9
$LIMMAX
 10
420.0
 20
297.0
  9
$ORTHOMODE
 70
     0
  9
$REGENMODE
 70
     1
  9
$FILLMODE
 70
     1
  9
$QTEXTMODE
 70
     0
  9
$MIRRTEXT
 70
     1
  9
$LTSCALE
 40
1.0
  9
$ATTMODE
 70
     1
  9
$TEXTSIZE
 40
0.0
  9
$TRACEWID
 40
1.0
  9
$TEXTSTYLE
  7
STANDARD
  9
$CLAYER
  8
0
  9
$CELTYPE
  6
CONTINUOUS
  9
$CECOLOR
 62
     7
  9
$CELTSCALE
 40
1.0
  9
$DISPSILH
 70
     0
  9
$DIMSCALE
 40
1.0
  9
$DIMASZ
 40
2.5
  9
$DIMEXO
 40
0.625
  9
$DIMDLI
 40
3.75
  9
$DIMRND
 40
0.0
  9
$DIMDLE
 40
0.0
  9
$DIMEXE
 40
1.25
  9
$DIMTP
 40
0.0
  9
$DIMTM
 40
0.0
  9
$DIMTXT
 40
2.5
  9
$DIMCEN
 40
2.5
  9
$DIMTSZ
 40
0.0
  9
$DIMTOL
 70
     0
  9
$DIMLIM
 70
     0
  9
$DIMTIH
 70
     0
  9
$DIMTOH
 70
     0
  9
$DIMSE1
 70
     0
  9
$DIMSE2
 70
     0
  9
$DIMTAD
 70
     1
  9
$DIMZIN
 70
     8
  9
$DIMBLK
  1

  9
$DIMASO
 70
     1
  9
$DIMSHO
 70
     1
  9
$DIMPOST
  1

  9
$DIMAPOST
  1

  9
$DIMALT
 70
     0
  9
$DIMALTD
 70
     3
  9
$DIMALTF
 40
0.03937
  9
$DIMLFAC
 40
1.0
  9
$DIMTOFL
 70
     1
  9
$DIMTVP
 40
0.0
  9
$DIMTIX
 70
     0
  9
$DIMSOXD
 70
     0
  9
$DIMSAH
 70
     0
  9
$DIMBLK1
  1

  9
$DIMBLK2
  1

  9
$DIMSTYLE
  2
STANDARD
  9
$DIMCLRD
 70
     0
  9
$DIMCLRE
 70
     0
  9
$DIMCLRT
 70
     0
  9
$DIMTFAC
 40
1.0
  9
$DIMGAP
 40
0.625
  9
$DIMJUST
 70
     0
  9
$DIMSD1
 70
     0
  9
$DIMSD2
 70
     0
  9
$DIMTOLJ
 70
     0
  9
$DIMTZIN
 70
     8
  9
$DIMALTZ
 70
     0
  9
$DIMALTTZ
 70
     0
  9
$DIMUPT
 70
     0
  9
$DIMDEC
 70
     2
  9
$DIMTDEC
 70
     2
  9
$DIMALTU
 70
     2
  9
$DIMALTTD
 70
     3
  9
$DIMTXSTY
  7
STANDARD
  9
$DIMAUNIT
 70
     0
  9
$DIMADEC
 70
     0
  9
$DIMALTRND
 40
0.0
  9
$DIMAZIN
 70
     0
  9
$DIMDSEP
 70
    46
  9
$DIMATFIT
 70
     3
  9
$DIMFRAC
 70
     0
  9
$DIMLDRBLK
  1

  9
$DIMLUNIT
 70
     2
  9
$DIMLWD
 70
    -2
  9
$DIMLWE
 70
    -2
  9
$DIMTMOVE
 70
     0
  9
$LUNITS
 70
     2
  9
$LUPREC
 70
     4
  9
$SKETCHINC
 40
1.0
  9
$FILLETRAD
 40
2.5
  9
$AUNITS
 70
     0
  9
$AUPREC
 70
     0
  9
$MENU
  1
.
  9
$ELEVATION
 40
0.0
  9
$PELEVATION
 40
0.0
  9
$THICKNESS
 40
0.0
  9
$LIMCHECK
 70
     0
  9
$CHAMFERA
 40
2.5
  9
$CHAMFERB
 40
2.5
  9
$CHAMFERC
 40
0.0
  9
$CHAMFERD
 40
0.0
  9
$SKPOLY
 70
     0
  9
$TDCREATE
 40
2312275.082375798
  9
$TDUCREATE
 40
2312274.707375798
  9
$TDUPDATE
 40
2456493.760235463
  9
$TDUUPDATE
 40
2456493.385235463
  9
$TDINDWG
 40
0.0122372222
  9
$TDUSRTIMER
 40
0.0122366782
  9
$USRTIMER
 70
     1
  9
$ANGBASE
 50
0.0
  9
$ANGDIR
 70
     0
  9
$PDMODE
 70
     0
  9
$PDSIZE
 40
0.0
  9
$PLINEWID
 40
0.0
  9
$SPLFRAME
 70
     0
  9
$SPLINETYPE
 70
     6
  9
$SPLINESEGS
 70
     8
  9
$HANDSEED
  5
3BAA
  9
$SURFTAB1
 70
     6
  9
$SURFTAB2
 70
     6
  9
$SURFTYPE
 70
     6
  9
$SURFU
 70
     6
  9
$SURFV
 70
     6
  9
$UCSBASE
  2

  9
$UCSNAME
  2

  9
$UCSORG
 10
0.0
 20
0.0
 30
0.0
  9
$UCSXDIR
 10
1.0
 20
0.0
 30
0.0
  9
$UCSYDIR
 10
0.0
 20
1.0
 30
0.0
  9
$UCSORTHOREF
  2

  9
$UCSORTHOVIEW
 70
     0
  9
$UCSORGTOP
 10
0.0
 20
0.0
 30
0.0
  9
$UCSORGBOTTOM
 10
0.0
 20
0.0
 30
0.0
  9
$UCSORGLEFT
 10
0.0
 20
0.0
 30
0.0
  9
$UCSORGRIGHT
 10
0.0
 20
0.0
 30
0.0
  9
$UCSORGFRONT
 10
0.0
 20
0.0
 30
0.0
  9
$UCSORGBACK
 10
0.0
 20
0.0
 30
0.0
  9
$PUCSBASE
  2

  9
$PUCSNAME
  2

  9
$PUCSORG
 10
0.0
 20
0.0
 30
0.0
  9
$PUCSXDIR
 10
1.0
 20
0.0
 30
0.0
  9
$PUCSYDIR
 10
0.0
 20
1.0
 30
0.0
  9
$PUCSORTHOREF
  2

  9
$PUCSORTHOVIEW
 70
     0
  9
$PUCSORGTOP
 10
0.0
 20
0.0
 30
0.0
  9
$PUCSORGBOTTOM
 10
0.0
 20
0.0
 30
0.0
  9
$PUCSORGLEFT
 10
0.0
 20
0.0
 30
0.0
  9
$PUCSORGRIGHT
 10
0.0
 20
0.0
 30
0.0
  9
$PUCSORGFRONT
 10
0.0
 20
0.0
 30
0.0
  9
$PUCSORGBACK
 10
0.0
 20
0.0
 30
0.0
  9
$USERI1
 70
     0
  9
$USERI2
 70
     0
  9
$USERI3
 70
     0
  9
$USERI4
 70
     0
  9
$USERI5
 70
     0
  9
$USERR1
 40
0.0
  9
$USERR2
 40
0.0
  9
$USERR3
 40
0.0
  9
$USERR4
 40
0.0
  9
$USERR5
 40
0.0
  9
$WORLDVIEW
 70
     1
  9
$SHADEDGE
 70
     3
  9
$SHADEDIF
 70
    70
  9
$TILEMODE
 70
     1
  9
$MAXACTVP
 70
    48
  9
$PINSBASE
 10
0.0
 20
0.0
 30
0.0
  9
$PLIMCHECK
 70
     0
  9
$PEXTMIN
 10
0.0
 20
0.0
 30
0.0
  9
$PEXTMAX
 10
401.4999999999998
 20
275.0
 30
2.0
  9
$PLIMMIN
 10
0.0
 20
0.0
  9
$PLIMMAX
 10
420.0
 20
297.0
  9
$UNITMODE
 70
     0
  9
$VISRETAIN
 70
     0
  9
$PLINEGEN
 70
     0
  9
$PSLTSCALE
 70
     1
  9
$TREEDEPTH
 70
  3020
  9
$CMLSTYLE
  2
STANDARD
  9
$CMLJUST
 70
     0
  9
$CMLSCALE
 40
20.0
  9
$PROXYGRAPHICS
 70
     1
  9
$MEASUREMENT
 70
     1
  9
$CELWEIGHT
370
    -1
  9
$ENDCAPS
280
     0
  9
$JOINSTYLE
280
     0
  9
$LWDISPLAY
290
     0
  9
$INSUNITS
 70
     0
  9
$HYPERLINKBASE
  1

  9
$STYLESHEET
  1

  9
$XEDIT
290
     1
  9
$CEPSNTYPE
380
     0
  9
$PSTYLEMODE
290
     1
  9
$FINGERPRINTGUID
  2
{88208805-C1FE-432B-B916-D95ED1EE64E9}
  9
$VERSIONGUID
  2
{F5CE99FD-CA1F-426D-BA2E-77FB95C6CA46}
  9
$EXTNAMES
290
     1
  9
$PSVPSCALE
 40
0.0
  9
$OLESTARTUP
290
     0
  0
ENDSEC
  0
SECTION
  2
CLASSES
  0
CLASS
  1
LWPOLYLINE
  2
AcDbPolyline
  3
AutoCAD 2000
 90
    32768
280
     0
281
     1
  0
CLASS
  1
IMAGE
  2
AcDbRasterImage
  3
ISM
 90
    32895
280
     0
281
     1
  0
CLASS
  1
OLE2FRAME
  2
AcDbOle2Frame
  3
AutoCAD 2000
 90
    32768
280
     0
281
     1
  0
CLASS
  1
HATCH
  2
AcDbHatch
  3
AutoCAD 2000
 90
    32768
280
     0
281
     1
  0
CLASS
  1
DICTIONARYVAR
  2
AcDbDictionaryVar
  3
AutoCAD 2000
 90
    32768
280
     0
281
     0
  0
CLASS
  1
RASTERVARIABLES
  2
AcDbRasterVariables
  3
ISM
 90
    32768
280
     0
281
     0
  0
CLASS
  1
IMAGEDEF
  2
AcDbRasterImageDef
  3
ISM
 90
    32768
280
     0
281
     0
  0
CLASS
  1
IMAGEDEF_REACTOR
  2
AcDbRasterImageDefReactor
  3
ISM
 90
    32769
280
     0
281
     0
  0
CLASS
  1
IDBUFFER
  2
AcDbIdBuffer
  3
AutoCAD 2000
 90
    32768
280
     0
281
     0
  0
CLASS
  1
SPATIAL_FILTER
  2
AcDbSpatialFilter
  3
AutoCAD 2000
 90
    32768
280
     0
281
     0
  0
CLASS
  1
XRECORD
  2
AcDbXrecord
  3
AutoCAD 2000
 90
    32768
280
     0
281
     0
  0
CLASS
  1
SORTENTSTABLE
  2
AcDbSortentsTable
  3
AutoCAD 2000
 90
    32768
280
     0
281
     0
  0
CLASS
  1
LAYER_INDEX
  2
AcDbLayerIndex
  3
AutoCAD 2000
 90
    32768
280
     0
281
     0
  0
CLASS
  1
SPATIAL_INDEX
  2
AcDbSpatialIndex
  3
AutoCAD 2000
 90
    32768
280
     0
281
     0
  0
CLASS
  1
OBJECT_PTR
  2
CAseDLPNTableRecord
  3
"ASE-LPNTableRecord"
 90
    32769
280
     0
281
     0
  0
CLASS
  1
LAYOUT
  2
AcDbLayout
  3
AutoCAD 2000
 90
        0
280
     0
281
     0
  0
CLASS
  1
PLOTSETTINGS
  2
AcDbPlotSettings
  3
AutoCAD 2000
 90
    32768
280
     0
281
     0
  0
CLASS
  1
ACDBDICTIONARYWDFLT
  2
AcDbDictionaryWithDefault
  3
AutoCAD 2000
 90
        0
280
     0
281
     0
  0
CLASS
  1
ACDBPLACEHOLDER
  2
AcDbPlaceHolder
  3
AutoCAD 2000
 90
        0
280
     0
281
     0
  0
CLASS
  1
VBA_PROJECT
  2
AcDbVbaProject
  3
"acadvba"
 90
    32768
280
     0
281
     0
  0
CLASS
  1
WIPEOUT
  2
AcDbWipeout
  3
WipeOut|AutoCAD Express Tool|expresstools@autodesk.com
 90
    32895
280
     0
281
     1
  0
CLASS
  1
WIPEOUTVARIABLES
  2
AcDbWipeoutVariables
  3
WipeOut|AutoCAD Express Tool|expresstools@autodesk.com
 90
    32768
280
     0
281
     0
  0
CLASS
  1
RTEXT
  2
RText
  3
RText|AutoCAD Express Tool|expresstools@autodesk.com
 90
    32768
280
     0
281
     1
  0
CLASS
  1
ARCALIGNEDTEXT
  2
AcDbArcAlignedText
  3
ATEXT|AutoCAD Express Tool|expresstools@autodesk.com
 90
    32768
280
     0
281
     1
  0
ENDSEC
  0
SECTION
  2
TABLES
  0
TABLE
  2
VPORT
  5
7
330
0
100
AcDbSymbolTable
 70
     2
  0
VPORT
  5
3BA9
330
7
100
AcDbSymbolTableRecord
100
AcDbViewportTableRecord
  2
*Active
 70
     0
 10
0.0
 20
0.0
 11
1.0
 21
1.0
 12
223.4089625625987
 22
-37.17575700989078
 13
0.0
 23
0.0
 14
1.0
 24
1.0
 15
0.0
 25
0.0
 16
0.0
 26
0.0
 36
1.0
 17
0.0
 27
0.0
 37
0.0
 40
324.9358935250294
 41
1.794625719769673
 42
50.0
 43
0.0
 44
0.0
 50
0.0
 51
0.0
 71
     0
 72
   100
 73
     1
 74
     1
 75
     0
 76
     0
 77
     0
 78
     0
281
     0
 65
     1
110
0.0
120
0.0
130
0.0
111
1.0
121
0.0
131
0.0
112
0.0
122
1.0
132
0.0
 79
     0
146
0.0
  0
ENDTAB
  0
TABLE
  2
LTYPE
  5
4
330
0
100
AcDbSymbolTable
 70
     2
  0
LTYPE
  5
11
330
4
100
AcDbSymbolTableRecord
100
AcDbLinetypeTableRecord
  2
BYBLOCK
 70
     0
  3

 72
    65
 73
     0
 40
0.0
  0
LTYPE
  5
12
330
4
100
AcDbSymbolTableRecord
100
AcDbLinetypeTableRecord
  2
BYLAYER
 70
     0
  3

 72
    65
 73
     0
 40
0.0
  0
LTYPE
  5
13
330
4
100
AcDbSymbolTableRecord
100
AcDbLinetypeTableRecord
  2
CONTINUOUS
 70
     0
  3
Solid line
 72
    65
 73
     0
 40
0.0
  0
LTYPE
  5
3B9D
330
4
100
AcDbSymbolTableRecord
100
AcDbLinetypeTableRecord
  2
DASHED
 70
     0
  3
Dashed __ __ __ __ __ __ __ __ __ __ __ __ __ _
 72
    65
 73
     2
 40
19.04999999999998
 49
12.7
 74
     0
 49
-6.349999999999998
 74
     0
  0
ENDTAB
  0
TABLE
  2
LAYER
  5
2
330
0
100
AcDbSymbolTable
 70
     1
  0
LAYER
  5
14
330
2
100
AcDbSymbolTableRecord
100
AcDbLayerTableRecord
  2
0
 70
     0
 62
     7
  6
CONTINUOUS
370
    -3
390
387E
  0
ENDTAB
  0
TABLE
  2
STYLE
  5
3
330
0
100
AcDbSymbolTable
 70
     2
  0
STYLE
  5
17
330
3
100
AcDbSymbolTableRecord
100
AcDbTextStyleTableRecord
  2
STANDARD
 70
     0
 40
0.0
 41
1.0
 50
0.0
 71
     0
 42
0.0
  3
txt
  4

  0
STYLE
  5
3B9C
330
3
100
AcDbSymbolTableRecord
100
AcDbTextStyleTableRecord
  2

 70
     1
 40
0.0
 41
1.0
 50
0.0
 71
     0
 42
0.2
  3
ltypeshp.shx
  4

  0
ENDTAB
  0
TABLE
  2
VIEW
  5
5
330
0
100
AcDbSymbolTable
 70
     0
  0
ENDTAB
  0
TABLE
  2
UCS
  5
6
330
0
100
AcDbSymbolTable
 70
     0
  0
ENDTAB
  0
TABLE
  2
APPID
  5
8
330
0
100
AcDbSymbolTable
 70
     1
  0
APPID
  5
16
330
8
100
AcDbSymbolTableRecord
100
AcDbRegAppTableRecord
  2
ACAD
 70
     0
  0
ENDTAB
  0
TABLE
  2
DIMSTYLE
  5
9
330
0
100
AcDbSymbolTable
 70
     1
100
AcDbDimStyleTable
 71
     1
340
18
  0
DIMSTYLE
105
18
330
9
100
AcDbSymbolTableRecord
100
AcDbDimStyleTableRecord
  2
STANDARD
 70
     0
340
17
  0
ENDTAB
  0
TABLE
  2
BLOCK_RECORD
  5
1
330
0
100
AcDbSymbolTable
 70
     0
  0
BLOCK_RECORD
  5
A
330
1
100
AcDbSymbolTableRecord
100
AcDbBlockTableRecord
  2
*MODEL_SPACE
340
3881
  0
BLOCK_RECORD
  5
B
330
1
100
AcDbSymbolTableRecord
100
AcDbBlockTableRecord
  2
*PAPER_SPACE
340
3882
  0
ENDTAB
  0
ENDSEC
  0
SECTION
  2
BLOCKS
  0
BLOCK
  5
D
330
A
100
AcDbEntity
  8
0
100
AcDbBlockBegin
  2
*MODEL_SPACE
 70
     0
 10
0.0
 20
0.0
 30
0.0
  3
*MODEL_SPACE
  1

  0
ENDBLK
  5
E
330
A
100
AcDbEntity
  8
0
100
AcDbBlockEnd
  0
BLOCK
  5
F
330
B
100
AcDbEntity
 67
     1
  8
0
100
AcDbBlockBegin
  2
*PAPER_SPACE
 70
     0
 10
0.0
 20
0.0
 30
0.0
  3
*PAPER_SPACE
  1

  0
ENDBLK
  5
10
330
B
100
AcDbEntity
 67
     1
  8
0
100
AcDbBlockEnd
  0
ENDSEC
  0
SECTION
  2
ENTITIES
  0
LINE
  5
339B
330
A
100
AcDbEntity
  8
0
  6
DASHED
 62
     4
100
AcDbLine
 10
250.7644622680877
 20
24.31190844066273
 30
0.0
 11
398.7644462680876
 21
24.31190844066273
 31
0.0
  0
LINE
  5
339C
330
A
100
AcDbEntity
  8
0
  6
DASHED
 62
     4
 48
0.1
100
AcDbLine
 10
250.7644622680877
 20
18.31190844066273
 30
0.0
 11
250.7644622680877
 21
24.31190844066273
 31
0.0
  0
LINE
  5
339D
330
A
100
AcDbEntity
  8
0
  6
DASHED
 62
     4
 48
0.1
100
AcDbLine
 10
398.7644462680876
 20
18.31190844066273
 30
0.0
 11
398.7644462680876
 21
24.31190844066273
 31
0.0
  0
LINE
  5
339E
330
A
100
AcDbEntity
  8
0
  6
DASHED
 62
     4
 48
0.016667
100
AcDbLine
 10
250.7644622680877
 20
25.31191644066263
 30
0.0
 11
250.7644622680877
 21
24.31190844066273
 31
0.0
  0
LINE
  5
33A0
330
A
100
AcDbEntity
  8
0
  6
DASHED
 62
     4
100
AcDbLine
 10
250.7644622680877
 20
25.31191644066263
 30
0.0
 11
398.7644462680876
 21
25.31191644066263
 31
0.0
  0
LINE
  5
33A1
330
A
100
AcDbEntity
  8
0
  6
DASHED
 62
     4
 48
0.016667
100
AcDbLine
 10
249.7644542680876
 20
23.71191744066273
 30
0.0
 11
250.7644622680877
 21
23.71191744066273
 31
0.0
  0
LINE
  5
33A3
330
A
100
AcDbEntity
  8
0
  6
DASHED
 62
     4
 48
0.026667
100
AcDbLine
 10
249.7644542680876
 20
25.31191644066263
 30
0.0
 11
249.7644542680876
 21
23.71191744066273
 31
0.0
  0
LINE
  5
33A4
330
A
100
AcDbEntity
  8
0
  6
DASHED
 62
     4
 48
0.016666
100
AcDbLine
 10
249.7644542680876
 20
23.71191744066273
 30
0.0
 11
248.7644687680875
 21
23.71191744066273
 31
0.0
  0
LINE
  5
33A6
330
A
100
AcDbEntity
  8
0
  6
DASHED
 62
     4
 48
0.026667
100
AcDbLine
 10
248.7644687680875
 20
25.31191644066263
 30
0.0
 11
248.7644687680875
 21
23.71191744066273
 31
0.0
  0
LINE
  5
33A7
330
A
100
AcDbEntity
  8
0
  6
DASHED
 62
     4
 48
0.116666
100
AcDbLine
 10
398.7644462680876
 20
24.31190844066273
 30
0.0
 11
398.7644462680876
 21
32.31190044066269
 31
0.0
  0
ARC
  5
33B0
330
A
100
AcDbEntity
  8
0
  6
DASHED
 62
     4
100
AcDbCircle
 10
373.7644622680877
 20
32.31190044066269
 30
0.0
 40
1.000000499999999
100
AcDbArc
 50
90.00000300000001
 51
180.000005
  0
LINE
  5
33B2
330
A
100
AcDbEntity
  8
0
  6
DASHED
 62
     4
 48
0.383334
100
AcDbLine
 10
373.7644622157278
 20
33.31190094066268
 30
0.0
 11
397.7644622157278
 21
33.31190094066268
 31
0.0
  0
ARC
  5
33B4
330
A
100
AcDbEntity
  8
0
  6
DASHED
 62
     4
100
AcDbCircle
 10
397.7644622680877
 20
32.31190044066269
 30
0.0
 40
1.000000499999999
100
AcDbArc
 50
0.0
 51
90.00000300000001
  0
LINE
  5
33BB
330
A
100
AcDbEntity
  8
0
  6
DASHED
 62
     4
 48
0.383334
100
AcDbLine
 10
248.7644687680875
 20
25.31191644066263
 30
0.0
 11
273.2068292680875
 21
25.31191644066263
 31
0.0
  0
ARC
  5
33BD
330
A
100
AcDbEntity
  8
0
  6
DASHED
 62
     4
100
AcDbCircle
 10
273.7644767680877
 20
32.31190044066269
 30
0.0
 40
1.000000499999999
100
AcDbArc
 50
0.0
 51
90.00000300000001
  0
LINE
  5
33C2
330
A
100
AcDbEntity
  8
0
  6
DASHED
 62
     4
 48
0.116666
100
AcDbLine
 10
248.7644687680875
 20
25.31191644066263
 30
0.0
 11
248.7644687680875
 21
32.31190044066269
 31
0.0
  0
LINE
  5
33C3
330
A
100
AcDbEntity
  8
0
  6
DASHED
 62
     4
 48
0.383334
100
AcDbLine
 10
273.7644767157278
 20
33.31190094066268
 30
0.0
 11
250.2452432680877
 21
33.31190844066256
 31
0.0
  0
LINE
  5
33C5
330
A
100
AcDbEntity
  8
0
  6
DASHED
 62
     4
 48
0.008013
100
AcDbLine
 10
249.7644542680876
 20
33.31190844066256
 30
0.0
 11
250.2452432680877
 21
33.31190844066256
 31
0.0
  0
ARC
  5
33C6
330
A
100
AcDbEntity
  8
0
  6
DASHED
 62
     4
100
AcDbCircle
 10
249.7644542680876
 20
32.31190044066269
 30
0.0
 40
1.000000499999999
100
AcDbArc
 50
90.00000300000001
 51
180.000005
  0
ARC
  5
33CF
330
A
100
AcDbEntity
  8
0
  6
DASHED
 62
     4
100
AcDbCircle
 10
275.7644687680876
 20
32.84734794066273
 30
0.0
 40
1.000000499999999
100
AcDbArc
 50
129.987322
 51
180.000005
  0
ARC
  5
33D3
330
A
100
AcDbEntity
  8
0
  6
DASHED
 62
     4
100
AcDbCircle
 10
371.7644462680876
 20
32.84734794066273
 30
0.0
 40
1.000000499999999
100
AcDbArc
 50
0.0
 51
50.01267999999999
  0
LINE
  5
33DB
330
A
100
AcDbEntity
  8
0
  6
DASHED
 62
     4
 48
0.125591
100
AcDbLine
 10
372.7644767680877
 20
32.84734794066273
 30
0.0
 11
372.7644767680877
 21
25.31191644066263
 31
0.0
  0
LINE
  5
33DC
330
A
100
AcDbEntity
  8
0
  6
DASHED
 62
     4
 48
0.125591
100
AcDbLine
 10
274.7644622680875
 20
25.31191644066263
 30
0.0
 11
274.7644622680875
 21
32.84734794066273
 31
0.0
  0
LINE
  5
33DD
330
A
100
AcDbEntity
  8
0
  6
DASHED
 62
     4
 48
0.06941
100
AcDbLine
 10
272.2644767680877
 20
-119.2880865593372
 30
0.0
 11
268.0998812680875
 21
-119.2880865593372
 31
0.0
  0
LINE
  5
33DE
330
A
100
AcDbEntity
  8
0
  6
DASHED
 62
     4
 48
0.197257
100
AcDbLine
 10
268.0998812680875
 20
-119.2880865593372
 30
0.0
 11
256.2644687680876
 21
-119.2880865593372
 31
0.0
  0
LINE
  5
33DF
330
A
100
AcDbEntity
  8
0
  6
DASHED
 62
     4
 48
0.047488
100
AcDbLine
 10
269.7377822680875
 20
-123.8925825593371
 30
0.0
 11
266.8885007680875
 21
-123.8925825593371
 31
0.0
  0
LINE
  5
33E0
330
A
100
AcDbEntity
  8
0
  6
DASHED
 62
     4
 48
0.134956
100
AcDbLine
 10
266.8885007680875
 20
-123.8925825593371
 30
0.0
 11
258.7911422680875
 21
-123.8925825593371
 31
0.0
  0
LINE
  5
33E1
330
A
100
AcDbEntity
  8
0
  6
DASHED
 62
     4
 48
0.014993
100
AcDbLine
 10
265.9924517680877
 20
-126.4881015593374
 30
0.0
 11
265.0929002680876
 21
-126.4881015593374
 31
0.0
  0
LINE
  5
33E2
330
A
100
AcDbEntity
  8
0
  6
DASHED
 62
     4
 48
0.042607
100
AcDbLine
 10
265.0929002680876
 20
-126.4881015593374
 30
0.0
 11
262.5364727680877
 21
-126.4881015593374
 31
0.0
  0
LINE
  5
33E3
330
A
100
AcDbEntity
  8
0
  6
DASHED
 62
     4
 48
0.01
100
AcDbLine
 10
272.2644767680877
 20
-119.2880865593372
 30
0.0
 11
272.2644767680877
 21
-118.6880955593374
 31
0.0
  0
LINE
  5
33E4
330
A
100
AcDbEntity
  8
0
  6
DASHED
 62
     4
 48
0.01
100
AcDbLine
 10
256.2644687680876
 20
-119.2880865593372
 30
0.0
 11
256.2644687680876
 21
-118.6880955593374
 31
0.0
  0
LINE
  5
33E5
330
A
100
AcDbEntity
  8
0
  6
DASHED
 62
     4
 48
0.08196
100
AcDbLine
 10
269.7377822680875
 20
-123.8925825593371
 30
0.0
 11
271.4644667680875
 21
-119.2880865593372
 31
0.0
  0
LINE
  5
33E6
330
A
100
AcDbEntity
  8
0
  6
DASHED
 62
     4
 48
0.08196
100
AcDbLine
 10
258.7911422680875
 20
-123.8925825593371
 30
0.0
 11
257.0644577680875
 21
-119.2880865593372
 31
0.0
  0
ARC
  5
33E7
330
A
100
AcDbEntity
  8
0
  6
DASHED
 62
     4
100
AcDbCircle
 10
262.5364727680877
 20
-122.4880950593371
 30
0.0
 40
4.000000499999997
100
AcDbArc
 50
200.55605
 51
269.9999969999999
  0
ARC
  5
33E8
330
A
100
AcDbEntity
  8
0
  6
DASHED
 62
     4
100
AcDbCircle
 10
265.9924517680877
 20
-122.4880950593371
 30
0.0
 40
4.000000499999997
100
AcDbArc
 50
269.9999969999999
 51
339.443954
  0
LINE
  5
33E9
330
A
100
AcDbEntity
  8
0
  6
DASHED
 62
     4
 48
0.06941
100
AcDbLine
 10
394.2644462680876
 20
-119.2880865593372
 30
0.0
 11
390.0998507680876
 21
-119.2880865593372
 31
0.0
  0
LINE
  5
33EA
330
A
100
AcDbEntity
  8
0
  6
DASHED
 62
     4
 48
0.197256
100
AcDbLine
 10
390.0998507680876
 20
-119.2880865593372
 30
0.0
 11
378.2644622680876
 21
-119.2880865593372
 31
0.0
  0
LINE
  5
33EB
330
A
100
AcDbEntity
  8
0
  6
DASHED
 62
     4
 48
0.047488
100
AcDbLine
 10
391.7377742680877
 20
-123.8925825593371
 30
0.0
 11
388.8885152680876
 21
-123.8925825593371
 31
0.0
  0
LINE
  5
33EC
330
A
100
AcDbEntity
  8
0
  6
DASHED
 62
     4
 48
0.134956
100
AcDbLine
 10
388.8885152680876
 20
-123.8925825593371
 30
0.0
 11
380.7911342680874
 21
-123.8925825593371
 31
0.0
  0
LINE
  5
33ED
330
A
100
AcDbEntity
  8
0
  6
DASHED
 62
     4
 48
0.014993
100
AcDbLine
 10
387.9924437680877
 20
-126.4881015593374
 30
0.0
 11
387.0928922680876
 21
-126.4881015593374
 31
0.0
  0
LINE
  5
33EE
330
A
100
AcDbEntity
  8
0
  6
DASHED
 62
     4
 48
0.042607
100
AcDbLine
 10
387.0928922680876
 20
-126.4881015593374
 30
0.0
 11
384.5364647680876
 21
-126.4881015593374
 31
0.0
  0
LINE
  5
33EF
330
A
100
AcDbEntity
  8
0
  6
DASHED
 62
     4
 48
0.01
100
AcDbLine
 10
394.2644462680876
 20
-119.2880865593372
 30
0.0
 11
394.2644462680876
 21
-118.6880955593374
 31
0.0
  0
LINE
  5
33F0
330
A
100
AcDbEntity
  8
0
  6
DASHED
 62
     4
 48
0.01
100
AcDbLine
 10
378.2644622680876
 20
-119.2880865593372
 30
0.0
 11
378.2644622680876
 21
-118.6880955593374
 31
0.0
  0
LINE
  5
33F1
330
A
100
AcDbEntity
  8
0
  6
DASHED
 62
     4
 48
0.08196
100
AcDbLine
 10
391.7377742680877
 20
-123.8925825593371
 30
0.0
 11
393.4644587680876
 21
-119.2880865593372
 31
0.0
  0
LINE
  5
33F2
330
A
100
AcDbEntity
  8
0
  6
DASHED
 62
     4
 48
0.08196
100
AcDbLine
 10
380.7911342680874
 20
-123.8925825593371
 30
0.0
 11
379.0644497680876
 21
-119.2880865593372
 31
0.0
  0
ARC
  5
33F3
330
A
100
AcDbEntity
  8
0
  6
DASHED
 62
     4
100
AcDbCircle
 10
384.5364647680876
 20
-122.4880950593371
 30
0.0
 40
4.000000499999997
100
AcDbArc
 50
200.55605
 51
269.9999969999999
  0
ARC
  5
33F4
330
A
100
AcDbEntity
  8
0
  6
DASHED
 62
     4
100
AcDbCircle
 10
387.9924437680877
 20
-122.4880950593371
 30
0.0
 40
4.000000499999997
100
AcDbArc
 50
269.9999969999999
 51
339.443954
  0
LINE
  5
3812
330
A
100
AcDbEntity
  8
0
  6
DASHED
 62
     4
 48
0.031667
100
AcDbLine
 10
102.6408692680877
 20
23.66199744066318
 30
0.0
 11
102.6408692680877
 21
21.76198044066316
 31
0.0
  0
LINE
  5
3813
330
A
100
AcDbEntity
  8
0
  6
DASHED
 62
     4
 48
0.031667
100
AcDbLine
 10
75.84087776808775
 20
21.76200444066316
 30
0.0
 11
75.84087776808775
 21
23.66199744066318
 31
0.0
  0
LINE
  5
3814
330
A
100
AcDbEntity
  8
0
  6
DASHED
 62
     4
 48
0.041666
100
AcDbLine
 10
104.2408907680877
 20
21.76200444066316
 30
0.0
 11
104.2408907680877
 21
24.26198844066317
 31
0.0
  0
LINE
  5
3815
330
A
100
AcDbEntity
  8
0
  6
DASHED
 62
     4
 48
0.01
100
AcDbLine
 10
102.6408692680877
 20
25.26199644066307
 30
0.0
 11
103.2408827680876
 21
25.26199644066307
 31
0.0
  0
ARC
  5
3816
330
A
100
AcDbEntity
  8
0
  6
DASHED
 62
     4
100
AcDbCircle
 10
103.2408827680876
 20
24.26198844066317
 30
0.0
 40
1.000000499999999
100
AcDbArc
 50
0.0
 51
90.00000300000001
  0
LINE
  5
3817
330
A
100
AcDbEntity
  8
0
  6
DASHED
 62
     4
 48
0.026667
100
AcDbLine
 10
102.6408692680877
 20
25.26199644066307
 30
0.0
 11
102.6408692680877
 21
23.66199744066318
 31
0.0
  0
LINE
  5
3818
330
A
100
AcDbEntity
  8
0
  6
DASHED
 62
     4
 48
0.016666
100
AcDbLine
 10
102.6408692680877
 20
23.66199744066318
 30
0.0
 11
101.6408852680877
 21
23.66199744066318
 31
0.0
  0
LINE
  5
3819
330
A
100
AcDbEntity
  8
0
  6
DASHED
 62
     4
 48
0.016666
100
AcDbLine
 10
101.6408852680877
 20
25.26199644066307
 30
0.0
 11
102.6408692680877
 21
25.26199644066307
 31
0.0
  0
LINE
  5
381A
330
A
100
AcDbEntity
  8
0
  6
DASHED
 62
     4
 48
0.026667
100
AcDbLine
 10
101.6408852680877
 20
25.26199644066307
 30
0.0
 11
101.6408852680877
 21
23.66199744066318
 31
0.0
  0
LINE
  5
381B
330
A
100
AcDbEntity
  8
0
  6
DASHED
 62
     4
 48
0.026667
100
AcDbLine
 10
75.84087776808775
 20
23.66199744066318
 30
0.0
 11
75.84087776808775
 21
25.26199644066307
 31
0.0
  0
LINE
  5
381C
330
A
100
AcDbEntity
  8
0
  6
DASHED
 62
     4
 48
0.016667
100
AcDbLine
 10
76.8408737680876
 20
23.66199744066318
 30
0.0
 11
75.84087776808775
 21
23.66199744066318
 31
0.0
  0
LINE
  5
381D
330
A
100
AcDbEntity
  8
0
  6
DASHED
 62
     4
 48
0.4133340000000001
100
AcDbLine
 10
76.8408737680876
 20
23.66199744066318
 30
0.0
 11
101.6408852680877
 21
23.66199744066318
 31
0.0
  0
LINE
  5
381E
330
A
100
AcDbEntity
  8
0
  6
DASHED
 62
     4
 48
0.4133340000000001
100
AcDbLine
 10
101.6408852680877
 20
25.26199644066307
 30
0.0
 11
76.8408737680876
 21
25.26199644066307
 31
0.0
  0
LINE
  5
381F
330
A
100
AcDbEntity
  8
0
  6
DASHED
 62
     4
 48
0.026667
100
AcDbLine
 10
76.8408737680876
 20
23.66199744066318
 30
0.0
 11
76.8408737680876
 21
25.26199644066307
 31
0.0
  0
LINE
  5
3820
330
A
100
AcDbEntity
  8
0
  6
DASHED
 62
     4
 48
0.016667
100
AcDbLine
 10
75.84087776808775
 20
25.26199644066307
 30
0.0
 11
76.8408737680876
 21
25.26199644066307
 31
0.0
  0
LINE
  5
3821
330
A
100
AcDbEntity
  8
0
  6
DASHED
 62
     4
 48
0.041667
100
AcDbLine
 10
74.24088026808778
 20
24.26198844066317
 30
0.0
 11
74.24088026808778
 21
21.76198044066316
 31
0.0
  0
LINE
  5
3822
330
A
100
AcDbEntity
  8
0
  6
DASHED
 62
     4
 48
0.01
100
AcDbLine
 10
75.24087626808777
 20
25.26199644066307
 30
0.0
 11
75.84087776808775
 21
25.26199644066307
 31
0.0
  0
ARC
  5
3823
330
A
100
AcDbEntity
  8
0
  6
DASHED
 62
     4
100
AcDbCircle
 10
75.24087626808777
 20
24.26198844066317
 30
0.0
 40
1.000000499999999
100
AcDbArc
 50
90.00000300000001
 51
180.000005
  0
LINE
  5
3824
330
A
100
AcDbEntity
  8
0
  6
DASHED
 62
     4
 48
0.031667
100
AcDbLine
 10
92.69088476808779
 20
23.66199744066318
 30
0.0
 11
92.69088476808779
 21
21.76200444066316
 31
0.0
  0
LINE
  5
3825
330
A
100
AcDbEntity
  8
0
  6
DASHED
 62
     4
 48
0.0575
100
AcDbLine
 10
92.69088476808779
 20
23.66199744066318
 30
0.0
 11
89.2408802680878
 21
23.66199744066318
 31
0.0
  0
LINE
  5
3826
330
A
100
AcDbEntity
  8
0
  6
DASHED
 62
     4
 48
0.031667
100
AcDbLine
 10
89.2408802680878
 20
23.66199744066318
 30
0.0
 11
89.2408802680878
 21
21.76200444066316
 31
0.0
  0
LINE
  5
3827
330
A
100
AcDbEntity
  8
0
  6
DASHED
 62
     4
 48
0.0575
100
AcDbLine
 10
89.2408802680878
 20
23.66199744066318
 30
0.0
 11
85.79087426808778
 21
23.66199744066318
 31
0.0
  0
LINE
  5
3828
330
A
100
AcDbEntity
  8
0
  6
DASHED
 62
     4
 48
0.031667
100
AcDbLine
 10
85.79087426808778
 20
23.66199744066318
 30
0.0
 11
85.79087426808778
 21
21.76200444066316
 31
0.0
  0
LINE
  5
3829
330
A
100
AcDbEntity
  8
0
  6
DASHED
 62
     4
 48
0.000018
100
AcDbLine
 10
99.18097676808763
 20
32.26198044066313
 30
0.0
 11
99.18207626808772
 21
32.26198044066313
 31
0.0
  0
LINE
  5
382A
330
A
100
AcDbEntity
  8
0
  6
DASHED
 62
     4
 48
0.116666
100
AcDbLine
 10
99.18097676808763
 20
25.26199644066307
 30
0.0
 11
99.18097676808763
 21
32.26198044066313
 31
0.0
  0
ELLIPSE
  5
382D
330
A
100
AcDbEntity
  8
0
  6
DASHED
 62
     4
100
AcDbEllipse
 10
98.1817022680878
 20
32.26198044066318
 30
0.0
 11
0.0
 21
-1.000007629394531
 31
0.0
210
0.0
220
0.0
230
1.0
 40
0.999261
 41
1.570796370506284
 42
3.141592741012571
  0
LINE
  5
3830
330
A
100
AcDbEntity
  8
0
  6
DASHED
 62
     4
 48
0.014743
100
AcDbLine
 10
98.1817022680878
 20
33.26198844066299
 30
0.0
 11
97.29709676808765
 21
33.26198844066299
 31
0.0
  0
LINE
  5
3833
330
A
100
AcDbEntity
  8
0
  6
DASHED
 62
     4
 48
0.251886
100
AcDbLine
 10
81.68430026808781
 20
25.26199644066307
 30
0.0
 11
96.7974707680878
 21
25.26199644066307
 31
0.0
  0
LINE
  5
3838
330
A
100
AcDbEntity
  8
0
  6
DASHED
 62
     4
 48
0.116666
100
AcDbLine
 10
79.3007927680878
 20
25.26199644066307
 30
0.0
 11
79.3007927680878
 21
32.26198044066313
 31
0.0
  0
LINE
  5
3839
330
A
100
AcDbEntity
  8
0
  6
DASHED
 62
     4
 48
0.000019
100
AcDbLine
 10
79.29968276808776
 20
32.26198044066313
 30
0.0
 11
79.3007927680878
 21
32.26198044066313
 31
0.0
  0
LINE
  5
383A
330
A
100
AcDbEntity
  8
0
  6
DASHED
 62
     4
 48
0.008327
100
AcDbLine
 10
96.7974707680878
 20
33.26198844066299
 30
0.0
 11
97.29709676808765
 21
33.26198844066299
 31
0.0
  0
LINE
  5
383B
330
A
100
AcDbEntity
  8
0
  6
DASHED
 62
     4
 48
0.251886
100
AcDbLine
 10
96.7974707680878
 20
33.26198844066299
 30
0.0
 11
81.68430026808781
 21
33.26198844066299
 31
0.0
  0
LINE
  5
383C
330
A
100
AcDbEntity
  8
0
  6
DASHED
 62
     4
 48
0.008327
100
AcDbLine
 10
81.18466226808761
 20
33.26198844066299
 30
0.0
 11
81.68430026808781
 21
33.26198844066299
 31
0.0
  0
LINE
  5
383D
330
A
100
AcDbEntity
  8
0
  6
DASHED
 62
     4
 48
0.014744
100
AcDbLine
 10
81.18466226808761
 20
33.26198844066299
 30
0.0
 11
80.30004626808764
 21
33.26198844066299
 31
0.0
  0
ELLIPSE
  5
3841
330
A
100
AcDbEntity
  8
0
  6
DASHED
 62
     4
100
AcDbEllipse
 10
80.30004626808761
 20
32.26198044066318
 30
0.0
 11
0.0
 21
-1.000007629394531
 31
0.0
210
0.0
220
0.0
230
1.0
 40
0.999261
 41
3.141592741012571
 42
4.712388992309568
  0
LINE
  5
3843
330
A
100
AcDbEntity
  8
0
  6
DASHED
 62
     4
 48
0.108924
100
AcDbLine
 10
99.24087626808763
 20
26.26198044066312
 30
0.0
 11
99.24087626808763
 21
32.79742794066317
 31
0.0
  0
ELLIPSE
  5
3846
330
A
100
AcDbEntity
  8
0
  6
DASHED
 62
     4
100
AcDbEllipse
 10
98.24089076808776
 20
32.79742794066317
 30
0.0
 11
-0.9999961853027343
 21
0.0
 31
0.0
210
0.0
220
0.0
230
1.0
 40
0.766187
 41
3.141592741012571
 42
4.712388992309568
  0
ARC
  5
3849
330
A
100
AcDbEntity
  8
0
  6
DASHED
 62
     4
100
AcDbCircle
 10
98.2408907680878
 20
26.26198044066312
 30
0.0
 40
1.000000499999999
100
AcDbArc
 50
340.265039
 51
0.0
  0
LINE
  5
384A
330
A
100
AcDbEntity
  8
0
  6
DASHED
 62
     4
 48
0.3
100
AcDbLine
 10
98.2408907680878
 20
33.56360844066319
 30
0.0
 11
80.24088026808778
 21
33.56360844066319
 31
0.0
  0
ELLIPSE
  5
384E
330
A
100
AcDbEntity
  8
0
  6
DASHED
 62
     4
100
AcDbEllipse
 10
80.24088026808778
 20
32.79742794066317
 30
0.0
 11
-0.9999961853027343
 21
0.0
 31
0.0
210
0.0
220
0.0
230
1.0
 40
0.766187
 41
4.712388992309568
 42
6.283185482025146
  0
LINE
  5
3850
330
A
100
AcDbEntity
  8
0
  6
DASHED
 62
     4
 48
0.108924
100
AcDbLine
 10
79.24088276808777
 20
26.26198044066312
 30
0.0
 11
79.24088276808777
 21
32.79742794066317
 31
0.0
  0
ARC
  5
3851
330
A
100
AcDbEntity
  8
0
  6
DASHED
 62
     4
100
AcDbCircle
 10
80.24088026808778
 20
26.26198044066312
 30
0.0
 40
1.000000499999999
100
AcDbArc
 50
180.000005
 51
199.734484
  0
LINE
  5
3852
330
A
100
AcDbEntity
  8
0
  6
DASHED
 62
     4
 48
0.011036
100
AcDbLine
 10
99.18207626808772
 20
25.92415194066319
 30
0.0
 11
99.18207626808772
 21
25.26199644066307
 31
0.0
  0
LINE
  5
3853
330
A
100
AcDbEntity
  8
0
  6
DASHED
 62
     4
 48
0.116666
100
AcDbLine
 10
99.18207626808772
 20
32.26198044066313
 30
0.0
 11
99.18207626808772
 21
25.26199644066307
 31
0.0
  0
ARC
  5
3854
330
A
100
AcDbEntity
  8
0
  6
DASHED
 62
     4
100
AcDbCircle
 10
98.18206826808763
 20
32.26198044066313
 30
0.0
 40
1.000000499999999
100
AcDbArc
 50
0.0
 51
90.00000300000001
  0
LINE
  5
3855
330
A
100
AcDbEntity
  8
0
  6
DASHED
 62
     4
 48
0.116666
100
AcDbLine
 10
79.29968276808776
 20
32.26198044066313
 30
0.0
 11
79.29968276808776
 21
25.26199644066307
 31
0.0
  0
ARC
  5
3856
330
A
100
AcDbEntity
  8
0
  6
DASHED
 62
     4
100
AcDbCircle
 10
80.29967876808763
 20
32.26198044066313
 30
0.0
 40
1.000000499999999
100
AcDbArc
 50
90.00000300000001
 51
180.000005
  0
LINE
  5
385A
330
A
100
AcDbEntity
  8
0
  6
DASHED
 62
     4
 48
0.011167
100
AcDbLine
 10
139.4375837680875
 20
-123.9425025593368
 30
0.0
 11
138.7675562680875
 21
-123.9425025593368
 31
0.0
  0
LINE
  5
385B
330
A
100
AcDbEntity
  8
0
  6
DASHED
 62
     4
 48
0.171277
100
AcDbLine
 10
149.7141962680878
 20
-123.9425025593368
 30
0.0
 11
139.4375837680875
 21
-123.9425025593368
 31
0.0
  0
LINE
  5
385D
330
A
100
AcDbEntity
  8
0
  6
DASHED
 62
     4
 48
0.054074
100
AcDbLine
 10
145.9688882680878
 20
-126.5380215593369
 30
0.0
 11
142.7244197680876
 21
-126.5380215593369
 31
0.0
  0
LINE
  5
385E
330
A
100
AcDbEntity
  8
0
  6
DASHED
 62
     4
 48
0.03034
100
AcDbLine
 10
138.7675562680875
 20
-123.9425025593368
 30
0.0
 11
138.1283807680877
 21
-122.2379850593368
 31
0.0
  0
LINE
  5
385F
330
A
100
AcDbEntity
  8
0
  6
DASHED
 62
     4
 48
0.03034
100
AcDbLine
 10
149.7141962680878
 20
-123.9425025593368
 30
0.0
 11
150.3533942680878
 21
-122.2379850593368
 31
0.0
  0
ARC
  5
3860
330
A
100
AcDbEntity
  8
0
  6
DASHED
 62
     4
100
AcDbCircle
 10
145.9688882680878
 20
-122.5380150593368
 30
0.0
 40
4.000000499999997
100
AcDbArc
 50
269.9999969999999
 51
339.443954
  0
ARC
  5
3861
330
A
100
AcDbEntity
  8
0
  6
DASHED
 62
     4
100
AcDbCircle
 10
142.5128867680877
 20
-122.5380150593368
 30
0.0
 40
4.000000499999997
100
AcDbArc
 50
200.55605
 51
269.9999969999999
  0
LINE
  5
3862
330
A
100
AcDbEntity
  8
0
  6
DASHED
 62
     4
 48
0.011167
100
AcDbLine
 10
29.43759176808775
 20
-123.9425025593368
 30
0.0
 11
28.76756276808777
 21
-123.9425025593368
 31
0.0
  0
LINE
  5
3863
330
A
100
AcDbEntity
  8
0
  6
DASHED
 62
     4
 48
0.171277
100
AcDbLine
 10
39.71419226808777
 20
-123.9425025593368
 30
0.0
 11
29.43759176808775
 21
-123.9425025593368
 31
0.0
  0
LINE
  5
3865
330
A
100
AcDbEntity
  8
0
  6
DASHED
 62
     4
 48
0.054074
100
AcDbLine
 10
35.96887226808775
 20
-126.5380215593369
 30
0.0
 11
32.72441576808779
 21
-126.5380215593369
 31
0.0
  0
LINE
  5
3866
330
A
100
AcDbEntity
  8
0
  6
DASHED
 62
     4
 48
0.03034
100
AcDbLine
 10
28.76756276808777
 20
-123.9425025593368
 30
0.0
 11
28.12836476808778
 21
-122.2379850593368
 31
0.0
  0
LINE
  5
3867
330
A
100
AcDbEntity
  8
0
  6
DASHED
 62
     4
 48
0.03034
100
AcDbLine
 10
39.71419226808777
 20
-123.9425025593368
 30
0.0
 11
40.35339026808776
 21
-122.2379850593368
 31
0.0
  0
ARC
  5
3868
330
A
100
AcDbEntity
  8
0
  6
DASHED
 62
     4
100
AcDbCircle
 10
35.96887226808775
 20
-122.5380150593368
 30
0.0
 40
4.000000499999997
100
AcDbArc
 50
269.9999969999999
 51
339.443954
  0
ARC
  5
3869
330
A
100
AcDbEntity
  8
0
  6
DASHED
 62
     4
100
AcDbCircle
 10
32.5128827680878
 20
-122.5380150593368
 30
0.0
 40
4.000000499999997
100
AcDbArc
 50
200.55605
 51
269.9999969999999
  0
LINE
  5
3A1B
330
A
100
AcDbEntity
  8
0
  6
Continuous
 62
     7
100
AcDbLine
 10
17.49104726808781
 20
-120.6879960593375
 30
0.0
 11
17.49104726808781
 21
20.31199194066303
 31
0.0
  0
LINE
  5
3A1C
330
A
100
AcDbEntity
  8
0
  6
Continuous
 62
     7
100
AcDbLine
 10
161.4910472680875
 20
-120.6717000593372
 30
0.0
 11
161.4910472680875
 21
-68.93800805933697
 31
0.0
  0
LINE
  5
3A1D
330
A
100
AcDbEntity
  8
0
  6
Continuous
 62
     7
100
AcDbLine
 10
29.4910352680878
 20
-113.688000059337
 30
0.0
 11
29.4910352680878
 21
13.31200794066296
 31
0.0
  0
LINE
  5
3A1E
330
A
100
AcDbEntity
  8
0
  6
Continuous
 62
     7
100
AcDbLine
 10
149.4910247680877
 20
13.31212194066296
 30
0.0
 11
149.4910247680877
 21
-113.6880105593369
 31
0.0
  0
LINE
  5
3A1F
330
A
100
AcDbEntity
  8
0
  6
Continuous
 62
     7
100
AcDbLine
 10
152.9427677680876
 20
-116.2899975593371
 30
0.0
 11
152.9427917680878
 21
15.91407444066294
 31
0.0
  0
LINE
  5
3A20
330
A
100
AcDbEntity
  8
0
  6
Continuous
 62
     7
100
AcDbLine
 10
25.93846976808777
 20
15.88889694066295
 30
0.0
 11
25.93846976808777
 21
-116.2648770593369
 31
0.0
  0
LINE
  5
3A21
330
A
100
AcDbEntity
  8
0
  6
Continuous
 62
     7
100
AcDbLine
 10
17.49087626808776
 20
21.01200444066296
 30
0.0
 11
17.49087626808776
 21
-121.3879965593372
 31
0.0
  0
LINE
  5
3A22
330
A
100
AcDbEntity
  8
0
  6
Continuous
 62
     7
100
AcDbLine
 10
30.9910352680878
 20
-115.188000059337
 30
0.0
 11
147.9910247680876
 21
-115.188000059337
 31
0.0
  0
ARC
  5
3A23
330
A
100
AcDbEntity
  8
0
  6
Continuous
 62
     7
100
AcDbCircle
 10
89.06266076808771
 20
-16121.9143635593
 30
0.0
 40
16004.27489099998
100
AcDbArc
 50
89.77425800000027
 51
90.22285099999979
  0
LINE
  5
3A24
330
A
100
AcDbEntity
  8
0
  6
Continuous
 62
     7
100
AcDbLine
 10
22.1908727680878
 20
-122.1880080593369
 30
0.0
 11
157.1908832680878
 21
-122.1880080593369
 31
0.0
  0
LINE
  5
3A25
330
A
100
AcDbEntity
  8
0
  6
Continuous
 62
     7
 48
0.4900000000000003
100
AcDbLine
 10
25.49087876808775
 20
-122.1880080593369
 30
0.0
 11
54.89087726808779
 21
-122.1880080593369
 31
0.0
  0
LINE
  5
3A26
330
A
100
AcDbEntity
  8
0
  6
Continuous
 62
     7
 48
0.055478
100
AcDbLine
 10
18.91216376808776
 20
-122.2380060593369
 30
0.0
 11
22.24087226808781
 21
-122.2380060593369
 31
0.0
  0
LINE
  5
3A27
330
A
100
AcDbEntity
  8
0
  6
Continuous
 62
     7
 48
0.028356
100
AcDbLine
 10
19.43952926808778
 20
-121.1380005593369
 30
0.0
 11
21.14087726808784
 21
-121.1380005593369
 31
0.0
  0
LINE
  5
3A28
330
A
100
AcDbEntity
  8
0
  6
Continuous
 62
     7
 48
0.070164
100
AcDbLine
 10
18.70518476808776
 20
-121.1380005593369
 30
0.0
 11
22.91503226808778
 21
-121.1380005593369
 31
0.0
  0
LINE
  5
3A29
330
A
100
AcDbEntity
  8
0
  6
Continuous
 62
     7
 48
0.083333
100
AcDbLine
 10
17.49087626808776
 20
-122.1880080593369
 30
0.0
 11
22.4908682680878
 21
-122.1880080593369
 31
0.0
  0
LINE
  5
3A2A
330
A
100
AcDbEntity
  8
0
  6
Continuous
 62
     7
 48
0.083333
100
AcDbLine
 10
17.49087626808776
 20
-121.3879965593372
 30
0.0
 11
22.91489426808769
 21
-121.3879965593372
 31
0.0
  0
LINE
  5
3A2B
330
A
100
AcDbEntity
  8
0
  6
Continuous
 62
     7
 48
0.013334
100
AcDbLine
 10
17.49087626808776
 20
-121.3879965593372
 30
0.0
 11
17.49087626808776
 21
-122.1880080593369
 31
0.0
  0
LINE
  5
3A2C
330
A
100
AcDbEntity
  8
0
  6
Continuous
 62
     7
 48
0.001178
100
AcDbLine
 10
17.7908702680878
 20
-122.1880080593369
 30
0.0
 11
17.74087226808781
 21
-122.2380060593369
 31
0.0
  0
LINE
  5
3A2D
330
A
100
AcDbEntity
  8
0
  6
Continuous
 62
     7
 48
0.019522
100
AcDbLine
 10
17.74087226808781
 20
-122.2380060593369
 30
0.0
 11
18.91216376808776
 21
-122.2380060593369
 31
0.0
  0
LINE
  5
3A2E
330
A
100
AcDbEntity
  8
0
  6
Continuous
 62
     7
 48
0.005892
100
AcDbLine
 10
18.84086576808781
 20
-121.1380005593369
 30
0.0
 11
18.5908697680878
 21
-121.3879965593372
 31
0.0
  0
LINE
  5
3A2F
330
A
100
AcDbEntity
  8
0
  6
Continuous
 62
     7
 48
0.009978
100
AcDbLine
 10
18.84086576808781
 20
-121.1380005593369
 30
0.0
 11
19.43952926808778
 21
-121.1380005593369
 31
0.0
  0
LINE
  5
3A30
330
A
100
AcDbEntity
  8
0
  6
Continuous
 62
     7
 48
0.020236
100
AcDbLine
 10
17.49103526808776
 20
-121.1380005593369
 30
0.0
 11
18.70518476808776
 21
-121.1380005593369
 31
0.0
  0
LINE
  5
3A31
330
A
100
AcDbEntity
  8
0
  6
Continuous
 62
     7
 48
0.073146
100
AcDbLine
 10
25.9384457680878
 20
-116.2648995593372
 30
0.0
 11
29.4910352680878
 21
-113.688000059337
 31
0.0
  0
LWPOLYLINE
  5
3A32
330
A
100
AcDbEntity
  8
0
  6
Continuous
 62
     7
100
AcDbPolyline
 90
        7
 70
     0
 43
0.0
 10
30.99103526808775
 20
-115.188000059337
 10
30.85794026808776
 20
-115.2241515593372
 10
30.7320452680878
 20
-115.2802845593368
 10
30.37212776808782
 20
-115.4697540593373
 10
29.46958976808782
 20
-116.0129355593372
 10
28.43480276808776
 20
-116.6771625593369
 10
26.81415926808778
 20
-117.7614780593369
  0
LINE
  5
3A33
330
A
100
AcDbEntity
  8
0
  6
Continuous
 62
     7
 48
0.001856
100
AcDbLine
 10
22.91489426808776
 20
-121.2716910593369
 30
0.0
 11
22.91489426808769
 21
-122.1880080593369
 31
0.0
  0
LINE
  5
3A34
330
A
100
AcDbEntity
  8
0
  6
Continuous
 62
     7
 48
0.05
100
AcDbLine
 10
22.4908682680878
 20
-122.1880080593369
 30
0.0
 11
25.49087876808775
 21
-122.1880080593369
 31
0.0
  0
LINE
  5
3A35
330
A
100
AcDbEntity
  8
0
  6
Continuous
 62
     7
 48
0.001179
100
AcDbLine
 10
22.19085026808776
 20
-122.187984059337
 30
0.0
 11
22.24087226808781
 21
-122.2380060593369
 31
0.0
  0
LINE
  5
3A36
330
A
100
AcDbEntity
  8
0
  6
Continuous
 62
     7
 48
0.005892
100
AcDbLine
 10
21.14087726808784
 20
-121.1380005593369
 30
0.0
 11
21.39087326808782
 21
-121.3879965593372
 31
0.0
  0
LINE
  5
3A37
330
A
100
AcDbEntity
  8
0
  6
Continuous
 62
     7
 48
0.002228
100
AcDbLine
 10
22.91489426808776
 20
-121.1380005593369
 30
0.0
 11
22.91489426808776
 21
-121.2716910593369
 31
0.0
  0
LINE
  5
3A38
330
A
100
AcDbEntity
  8
0
  6
Continuous
 62
     7
 48
0.000116
100
AcDbLine
 10
26.80793426808774
 20
-117.758320559337
 30
0.0
 11
26.81414876808782
 21
-117.7614900593372
 31
0.0
  0
LWPOLYLINE
  5
3A39
330
A
100
AcDbEntity
  8
0
  6
Continuous
 62
     7
100
AcDbPolyline
 90
        7
 70
     0
 43
0.0
 10
25.93897226808778
 20
-116.264511059337
 10
25.97513576808778
 20
-116.6176410593368
 10
26.08537676808778
 20
-116.9651415593369
 10
26.2168127680878
 20
-117.211669559337
 10
26.38430876808774
 20
-117.4307445593371
 10
26.5827032680878
 20
-117.614536559337
 10
26.80793426808774
 20
-117.758320559337
  0
ARC
  5
3A3A
330
A
100
AcDbEntity
  8
0
  6
Continuous
 62
     7
100
AcDbCircle
 10
30.99123026808782
 20
-113.6877930593379
 30
0.0
 40
1.500257999999994
100
AcDbArc
 50
180.0077539999999
 51
269.9923949999996
  0
LINE
  5
3A3B
330
A
100
AcDbEntity
  8
0
  6
Continuous
 62
     7
100
AcDbLine
 10
61.3908692680874
 20
-122.1880080593369
 30
0.0
 11
157.1908832680878
 21
-122.1880080593369
 31
0.0
  0
LINE
  5
3A3C
330
A
100
AcDbEntity
  8
0
  6
Continuous
 62
     7
100
AcDbLine
 10
61.6152992680875
 20
-122.1880080593369
 30
0.0
 11
109.4910392680875
 21
-122.1880080593369
 31
0.0
  0
LINE
  5
3A3D
330
A
100
AcDbEntity
  8
0
  6
Continuous
 62
     7
 48
0.108333
100
AcDbLine
 10
54.89087726808779
 20
-122.1880080593369
 30
0.0
 11
61.3908692680874
 21
-122.1880080593369
 31
0.0
  0
LINE
  5
3A3E
330
A
100
AcDbEntity
  8
0
  6
Continuous
 62
     7
 48
0.000327
100
AcDbLine
 10
61.3908692680874
 20
-122.168370059337
 30
0.0
 11
61.3908692680874
 21
-122.1880080593369
 31
0.0
  0
LWPOLYLINE
  5
3A3F
330
A
100
AcDbEntity
  8
0
  6
Continuous
 62
     7
100
AcDbPolyline
 90
        7
 70
     0
 43
0.0
 10
147.9910247680876
 20
-115.188000059337
 10
148.1211662680873
 20
-115.220821559337
 10
148.2450137680878
 20
-115.274299559337
 10
148.5958442680878
 20
-115.4572335593369
 10
149.4835397680878
 20
-115.9958160593369
 10
150.6453212680878
 20
-116.7562755593369
 10
152.1174662680876
 20
-117.7644990593369
  0
LINE
  5
3A40
330
A
100
AcDbEntity
  8
0
  6
Continuous
 62
     7
 48
0.072044
100
AcDbLine
 10
149.4910247680877
 20
-113.6880105593369
 30
0.0
 11
152.9428367680876
 21
-116.2899975593371
 31
0.0
  0
ARC
  5
3A41
330
A
100
AcDbEntity
  8
0
  6
Continuous
 62
     7
100
AcDbCircle
 10
159.9729887680877
 20
-120.6962130593369
 30
0.0
 40
1.4916285
100
AcDbArc
 50
269.9040130000001
 51
0.096004999999826
  0
ARC
  5
3A42
330
A
100
AcDbEntity
  8
0
  6
Continuous
 62
     7
100
AcDbCircle
 10
160.8908732680871
 20
-121.5880050593369
 30
0.0
 40
0.6000000000000001
100
AcDbArc
 50
270.0000009999997
 51
0.0000100000001922
  0
LINE
  5
3A43
330
A
100
AcDbEntity
  8
0
  6
Continuous
 62
     7
 48
0.057991
100
AcDbLine
 10
159.9704942680876
 20
-122.1880080593369
 30
0.0
 11
156.4910312680876
 21
-122.1880080593369
 31
0.0
  0
LINE
  5
3A44
330
A
100
AcDbEntity
  8
0
  6
Continuous
 62
     7
 48
0.061666
100
AcDbLine
 10
160.8908732680871
 20
-122.1880080593369
 30
0.0
 11
157.1908832680878
 21
-122.1880080593369
 31
0.0
  0
LWPOLYLINE
  5
3A45
330
A
100
AcDbEntity
  8
0
  6
Continuous
 62
     7
100
AcDbPolyline
 90
        6
 70
     0
 43
0.0
 10
152.1231887680878
 20
-117.762153059337
 10
152.3385437680875
 20
-117.6119730593372
 10
152.5275767680878
 20
-117.424861559337
 10
152.7298847680876
 20
-117.1282995593369
 10
152.8674887680876
 20
-116.7978405593371
 10
152.9427677680876
 20
-116.2899405593369
  0
LINE
  5
3A46
330
A
100
AcDbEntity
  8
0
  6
Continuous
 62
     7
 48
0.000102
100
AcDbLine
 10
152.1174662680876
 20
-117.7644990593369
 30
0.0
 11
152.1227987680877
 21
-117.7614780593369
 31
0.0
  0
LINE
  5
3A47
330
A
100
AcDbEntity
  8
0
  6
Continuous
 62
     7
 48
0.000095
100
AcDbLine
 10
161.4647942680875
 20
-120.6937065593369
 30
0.0
 11
161.4647942680875
 21
-120.6879960593375
 31
0.0
  0
LINE
  5
3A48
330
A
100
AcDbEntity
  8
0
  6
Continuous
 62
     7
 48
0.000515
100
AcDbLine
 10
161.4647942680875
 20
-120.6879960593375
 30
0.0
 11
161.4910472680875
 21
-120.6717000593372
 31
0.0
  0
LINE
  5
3A49
330
A
100
AcDbEntity
  8
0
  6
Continuous
 62
     7
 48
0.003333
100
AcDbLine
 10
161.4908867680877
 20
-121.5880050593369
 30
0.0
 11
161.4908867680877
 21
-121.3879965593372
 31
0.0
  0
LINE
  5
3A4A
330
A
100
AcDbEntity
  8
0
  6
Continuous
 62
     7
 48
0.011937
100
AcDbLine
 10
161.4908867680877
 20
-121.3879965593372
 30
0.0
 11
161.4908867680877
 21
-120.6717915593372
 31
0.0
  0
ARC
  5
3A4B
330
A
100
AcDbEntity
  8
0
  6
Continuous
 62
     7
100
AcDbCircle
 10
147.9908417680878
 20
-113.6877930593379
 30
0.0
 40
1.500259499999995
100
AcDbArc
 50
270.0076539999995
 51
359.9922209999996
  0
LINE
  5
3A4C
330
A
100
AcDbEntity
  8
0
  6
Continuous
 62
     7
100
AcDbLine
 10
159.9704942680876
 20
21.81199194066303
 30
0.0
 11
31.1251712680878
 21
21.81199194066303
 31
0.0
  0
LINE
  5
3A4D
330
A
100
AcDbEntity
  8
0
  6
Continuous
 62
     7
100
AcDbLine
 10
147.9910247680876
 20
14.81200794066296
 30
0.0
 11
30.9910352680878
 21
14.81200794066296
 31
0.0
  0
ARC
  5
3A4E
330
A
100
AcDbEntity
  8
0
  6
Continuous
 62
     7
100
AcDbCircle
 10
89.06370176808769
 20
16021.63983594063
 30
0.0
 40
16004.3745
100
AcDbArc
 50
269.7771490000001
 51
270.2257349999998
  0
LINE
  5
3A4F
330
A
100
AcDbEntity
  8
0
  6
Continuous
 62
     7
 48
0.055478
100
AcDbLine
 10
21.06958076808781
 20
21.86200344066284
 30
0.0
 11
17.74087226808781
 21
21.86200344066284
 31
0.0
  0
LINE
  5
3A50
330
A
100
AcDbEntity
  8
0
  6
Continuous
 62
     7
 48
0.069814
100
AcDbLine
 10
22.8940322680878
 20
20.76199644066283
 30
0.0
 11
18.70518476808776
 21
20.76199644066283
 31
0.0
  0
LINE
  5
3A51
330
A
100
AcDbEntity
  8
0
  6
Continuous
 62
     7
 48
0.083333
100
AcDbLine
 10
22.89392876808784
 20
21.00712944066302
 30
0.0
 11
17.49087626808776
 21
21.01200444066296
 31
0.0
  0
LINE
  5
3A52
330
A
100
AcDbEntity
  8
0
  6
Continuous
 62
     7
 48
0.083333
100
AcDbLine
 10
22.4908682680878
 20
21.81199194066303
 30
0.0
 11
17.49087626808776
 21
21.81199194066303
 31
0.0
  0
LINE
  5
3A53
330
A
100
AcDbEntity
  8
0
  6
Continuous
 62
     7
 48
0.001179
100
AcDbLine
 10
17.79089426808772
 20
21.81196944066282
 30
0.0
 11
17.74087226808781
 21
21.86200344066284
 31
0.0
  0
LINE
  5
3A54
330
A
100
AcDbEntity
  8
0
  6
Continuous
 62
     7
 48
0.005893
100
AcDbLine
 10
18.84086576808781
 20
20.76199644066283
 30
0.0
 11
18.5908697680878
 21
21.01200444066296
 31
0.0
  0
LINE
  5
3A55
330
A
100
AcDbEntity
  8
0
  6
Continuous
 62
     7
 48
0.0075
100
AcDbLine
 10
17.49103526808776
 20
20.31199194066303
 30
0.0
 11
17.49103526808776
 21
20.76199644066283
 31
0.0
  0
LINE
  5
3A56
330
A
100
AcDbEntity
  8
0
  6
Continuous
 62
     7
 48
0.020236
100
AcDbLine
 10
18.70518476808776
 20
20.76199644066283
 30
0.0
 11
17.49103526808776
 21
20.76199644066283
 31
0.0
  0
LINE
  5
3A57
330
A
100
AcDbEntity
  8
0
  6
Continuous
 62
     7
 48
0.016667
100
AcDbLine
 10
18.59088176808779
 20
21.01200444066296
 30
0.0
 11
17.59087376808776
 21
21.01200444066296
 31
0.0
  0
LINE
  5
3A58
330
A
100
AcDbEntity
  8
0
  6
Continuous
 62
     7
 48
0.001667
100
AcDbLine
 10
17.49087626808776
 20
21.01200444066296
 30
0.0
 11
17.59087376808776
 21
21.01200444066296
 31
0.0
  0
LINE
  5
3A59
330
A
100
AcDbEntity
  8
0
  6
Continuous
 62
     7
 48
0.013333
100
AcDbLine
 10
17.49087626808776
 20
21.81199194066303
 30
0.0
 11
17.49087626808776
 21
21.01200444066296
 31
0.0
  0
LWPOLYLINE
  5
3A5A
330
A
100
AcDbEntity
  8
0
  6
Continuous
 62
     7
100
AcDbPolyline
 90
        7
 70
     0
 43
0.0
 10
26.81415926808778
 20
17.38546344066296
 10
28.69300526808782
 20
16.13265594066294
 10
29.65425176808777
 20
15.52215894066296
 10
30.51175676808776
 20
15.01706244066284
 10
30.81845876808782
 20
14.86458144066284
 10
30.9029852680878
 20
14.83180644066303
 10
30.9906347680878
 20
14.81200794066296
  0
ARC
  5
3A5B
330
A
100
AcDbEntity
  8
0
  6
Continuous
 62
     7
100
AcDbCircle
 10
30.99123026808782
 20
13.31180244066294
 30
0.0
 40
1.500257999999994
100
AcDbArc
 50
90.00759100000014
 51
179.9922600000003
  0
LINE
  5
3A5C
330
A
100
AcDbEntity
  8
0
  6
Continuous
 62
     7
 48
0.141667
100
AcDbLine
 10
22.4908682680878
 20
21.81199194066303
 30
0.0
 11
31.1251712680878
 21
21.81199194066303
 31
0.0
  0
LWPOLYLINE
  5
3A5D
330
A
100
AcDbEntity
  8
0
  6
Continuous
 62
     7
100
AcDbPolyline
 90
        6
 70
     0
 43
0.0
 10
26.80797926808777
 20
17.38235094066293
 10
26.58444176808776
 20
17.23987194066282
 10
26.2718357680878
 20
16.91623344066295
 10
26.0855837680878
 20
16.58961894066294
 10
25.95927476808784
 20
16.15405644066293
 10
25.93897226808778
 20
15.88850844066294
  0
LINE
  5
3A5E
330
A
100
AcDbEntity
  8
0
  6
Continuous
 62
     7
 48
0.073146
100
AcDbLine
 10
29.4910352680878
 20
13.31200794066296
 30
0.0
 11
25.9384457680878
 21
15.88889694066295
 31
0.0
  0
LINE
  5
3A5F
330
A
100
AcDbEntity
  8
0
  6
Continuous
 62
     7
 48
0.001179
100
AcDbLine
 10
22.1908727680878
 20
21.81199194066303
 30
0.0
 11
22.24087226808781
 21
21.86200344066284
 31
0.0
  0
LINE
  5
3A60
330
A
100
AcDbEntity
  8
0
  6
Continuous
 62
     7
 48
0.005893
100
AcDbLine
 10
21.14087726808784
 20
20.76199644066283
 30
0.0
 11
21.39087326808782
 21
21.01200444066296
 31
0.0
  0
LINE
  5
3A61
330
A
100
AcDbEntity
  8
0
  6
Continuous
 62
     7
 48
0.019522
100
AcDbLine
 10
22.24087226808781
 20
21.86200344066284
 30
0.0
 11
21.06958076808781
 21
21.86200344066284
 31
0.0
  0
LINE
  5
3A62
330
A
100
AcDbEntity
  8
0
  6
Continuous
 62
     7
 48
0.00223
100
AcDbLine
 10
22.89392876808784
 20
20.76199644066283
 30
0.0
 11
22.89392876808784
 21
20.89577844066282
 31
0.0
  0
LINE
  5
3A63
330
A
100
AcDbEntity
  8
0
  6
Continuous
 62
     7
 48
0.001856
100
AcDbLine
 10
22.89392876808784
 20
20.89577844066282
 30
0.0
 11
22.89392876808784
 21
21.81199194066303
 31
0.0
  0
LINE
  5
3A64
330
A
100
AcDbEntity
  8
0
  6
Continuous
 62
     7
 48
0.000115
100
AcDbLine
 10
26.81414876808782
 20
17.38548594066283
 30
0.0
 11
26.80797926808777
 21
17.38235094066293
 31
0.0
  0
LINE
  5
3A65
330
A
100
AcDbEntity
  8
0
  6
Continuous
 62
     7
100
AcDbLine
 10
161.4910472680875
 20
-27.43800005933698
 30
0.0
 11
161.4910472680875
 21
20.29569594066271
 31
0.0
  0
LINE
  5
3A66
330
A
100
AcDbEntity
  8
0
  6
Continuous
 62
     7
100
AcDbLine
 10
161.2723052680873
 20
-66.69993155933707
 30
0.0
 11
161.2723052680873
 21
-29.67605255933705
 31
0.0
  0
LINE
  5
3A67
330
A
100
AcDbEntity
  8
0
  6
Continuous
 62
     7
100
AcDbLine
 10
161.4908867680877
 20
-27.43850405933739
 30
0.0
 11
161.4908867680877
 21
-68.93748155933716
 31
0.0
  0
LINE
  5
3A68
330
A
100
AcDbEntity
  8
0
  6
Continuous
 62
     7
100
AcDbLine
 10
161.4908867680877
 20
-68.93745755933716
 30
0.0
 11
161.4908867680877
 21
-27.43800005933698
 31
0.0
  0
LINE
  5
3A69
330
A
100
AcDbEntity
  8
0
  6
Continuous
 62
     7
 48
0.005598
100
AcDbLine
 10
161.4910472680875
 20
-68.93800805933697
 30
0.0
 11
161.3970227680878
 21
-68.61558155933707
 31
0.0
  0
LWPOLYLINE
  5
3A6A
330
A
100
AcDbEntity
  8
0
  6
Continuous
 62
     7
100
AcDbPolyline
 90
        3
 70
     0
 43
0.0
 10
161.3970227680878
 20
-68.61558155933707
 10
161.3204837680878
 20
-68.07816755933706
 10
161.2723052680873
 20
-66.69993155933707
  0
LWPOLYLINE
  5
3A6B
330
A
100
AcDbEntity
  8
0
  6
Continuous
 62
     7
100
AcDbPolyline
 90
        4
 70
     0
 43
0.0
 10
161.2723052680873
 20
-29.67605255933705
 10
161.2953302680876
 20
-28.68478805933705
 10
161.3583422680874
 20
-27.95380805933703
 10
161.3970227680878
 20
-27.76040255933716
  0
LINE
  5
3A6C
330
A
100
AcDbEntity
  8
0
  6
Continuous
 62
     7
 48
0.005597
100
AcDbLine
 10
161.3970227680878
 20
-27.76040255933716
 30
0.0
 11
161.4910472680875
 21
-27.43800005933698
 31
0.0
  0
LWPOLYLINE
  5
3A6D
330
A
100
AcDbEntity
  8
0
  6
Continuous
 62
     7
100
AcDbPolyline
 90
        6
 70
     0
 43
0.0
 10
147.9910247680876
 20
14.81200794066296
 10
148.1414222680878
 20
14.85231444066295
 10
148.3813367680876
 20
14.96590794066304
 10
149.1015362680877
 20
15.38103144066303
 10
150.3980372680877
 20
16.21489344066285
 10
152.1175577680876
 20
17.38857594066303
  0
LINE
  5
3A6E
330
A
100
AcDbEntity
  8
0
  6
Continuous
 62
     7
 48
0.072044
100
AcDbLine
 10
152.9428367680876
 20
15.91411944066294
 30
0.0
 11
149.4910247680877
 21
13.31212194066296
 31
0.0
  0
ARC
  5
3A6F
330
A
100
AcDbEntity
  8
0
  6
Continuous
 62
     7
100
AcDbCircle
 10
147.9908417680878
 20
13.31180244066294
 30
0.0
 40
1.500259499999995
100
AcDbArc
 50
0.0077929999996526
 51
89.99233200000023
  0
LWPOLYLINE
  5
3A70
330
A
100
AcDbEntity
  8
0
  6
Continuous
 62
     7
100
AcDbPolyline
 90
        7
 70
     0
 43
0.0
 10
152.1233492680873
 20
17.38610394066284
 10
152.3367812680878
 20
17.23746894066294
 10
152.5248992680876
 20
17.05202844066272
 10
152.7275972680876
 20
16.75658844066302
 10
152.8664132680878
 20
16.42550994066306
 10
152.9235887680874
 20
16.17000894066293
 10
152.9427917680878
 20
15.91395894066303
  0
LINE
  5
3A71
330
A
100
AcDbEntity
  8
0
  6
Continuous
 62
     7
 48
0.000105
100
AcDbLine
 10
152.1229367680875
 20
17.38539444066285
 30
0.0
 11
152.1174662680876
 21
17.38850844066293
 31
0.0
  0
LINE
  5
3A72
330
A
100
AcDbEntity
  8
0
  6
Continuous
 62
     7
 48
0.000095
100
AcDbLine
 10
161.4647942680875
 20
20.31199194066303
 30
0.0
 11
161.4647942680875
 21
20.31771444066305
 31
0.0
  0
ARC
  5
3A73
330
A
100
AcDbEntity
  8
0
  6
Continuous
 62
     7
100
AcDbCircle
 10
159.9729887680877
 20
20.32020894066302
 30
0.0
 40
1.4916285
100
AcDbArc
 50
359.9040150000001
 51
90.09600800000008
  0
LINE
  5
3A74
330
A
100
AcDbEntity
  8
0
  6
Continuous
 62
     7
 48
0.000515
100
AcDbLine
 10
161.4910472680875
 20
20.29569594066271
 30
0.0
 11
161.4647942680875
 21
20.31199194066303
 31
0.0
  0
ARC
  5
3A75
330
A
100
AcDbEntity
  8
0
  6
Continuous
 62
     7
100
AcDbCircle
 10
160.8908732680871
 20
21.21200244066284
 30
0.0
 40
0.6000000000000001
100
AcDbArc
 50
0.0
 51
90.00000300000015
  0
LINE
  5
3A76
330
A
100
AcDbEntity
  8
0
  6
Continuous
 62
     7
 48
0.015329
100
AcDbLine
 10
159.9711122680878
 20
21.81199194066303
 30
0.0
 11
160.8908732680871
 21
21.81199194066303
 31
0.0
  0
LINE
  5
3A77
330
A
100
AcDbEntity
  8
0
  6
Continuous
 62
     7
 48
0.003333
100
AcDbLine
 10
161.4908867680877
 20
21.01200444066296
 30
0.0
 11
161.4908867680877
 21
21.21200244066284
 31
0.0
  0
LINE
  5
3A78
330
A
100
AcDbEntity
  8
0
  6
Continuous
 62
     7
 48
0.011937
100
AcDbLine
 10
161.4908867680877
 20
20.29578744066284
 30
0.0
 11
161.4908867680877
 21
21.01200444066296
 31
0.0
  0
LINE
  5
3A79
330
A
100
AcDbEntity
  8
0
  6
Continuous
 62
     7
 48
0.048591
100
AcDbLine
 10
447.6645017680876
 20
-80.18800805933697
 30
0.0
 11
449.1645017680879
 21
-82.68799205933715
 31
0.0
  0
LINE
  5
3A7A
330
A
100
AcDbEntity
  8
0
  6
Continuous
 62
     7
 48
0.05
100
AcDbLine
 10
444.6645017680878
 20
-83.18800805933717
 30
0.0
 11
444.6645017680878
 21
-80.18800805933697
 31
0.0
  0
LINE
  5
3A7B
330
A
100
AcDbEntity
  8
0
  6
Continuous
 62
     7
 48
0.030047
100
AcDbLine
 10
459.0644642680878
 20
-80.18800805933697
 30
0.0
 11
460.0644947680875
 21
-81.68800805933697
 31
0.0
  0
LINE
  5
3A7C
330
A
100
AcDbEntity
  8
0
  6
Continuous
 62
     7
 48
0.042091
100
AcDbLine
 10
460.0644947680875
 20
-81.68800805933697
 30
0.0
 11
462.3530387680873
 21
-80.61999905933706
 31
0.0
  0
LINE
  5
3A7D
330
A
100
AcDbEntity
  8
0
  6
Continuous
 62
     7
 48
0.220497
100
AcDbLine
 10
463.0644947680874
 20
-81.07309355933697
 30
0.0
 11
463.0644947680874
 21
-94.30289855933695
 31
0.0
  0
LINE
  5
3A7E
330
A
100
AcDbEntity
  8
0
  6
Continuous
 62
     7
100
AcDbLine
 10
442.9944887680876
 20
-113.1879960593375
 30
0.0
 11
442.9944887680876
 21
-67.68799205933706
 31
0.0
  0
LINE
  5
3A7F
330
A
100
AcDbEntity
  8
0
  6
Continuous
 62
     7
100
AcDbLine
 10
427.7944457680876
 20
-112.188000059337
 30
0.0
 11
427.7944457680876
 21
-54.68800805933696
 31
0.0
  0
LINE
  5
3A80
330
A
100
AcDbEntity
  8
0
  6
Continuous
 62
     7
100
AcDbLine
 10
422.9944727680874
 20
-48.18799205933739
 30
0.0
 11
422.9944727680874
 21
-115.6880040593373
 31
0.0
  0
LINE
  5
3A81
330
A
100
AcDbEntity
  8
0
  6
Continuous
 62
     7
100
AcDbLine
 10
237.2644622680875
 20
-120.5358240593371
 30
0.0
 11
237.2644622680875
 21
-69.68800805933716
 31
0.0
  0
LINE
  5
3A82
330
A
100
AcDbEntity
  8
0
  6
Continuous
 62
     7
100
AcDbLine
 10
222.5138972680877
 20
-116.2899975593371
 30
0.0
 11
222.5138747680878
 21
15.91407444066294
 31
0.0
  0
LINE
  5
3A83
330
A
100
AcDbEntity
  8
0
  6
Continuous
 62
     7
100
AcDbLine
 10
222.4802747680877
 20
15.88889694066295
 30
0.0
 11
222.4802747680877
 21
-116.2648770593369
 31
0.0
  0
LINE
  5
3A84
330
A
100
AcDbEntity
  8
0
  6
Continuous
 62
     7
100
AcDbLine
 10
248.8644677680877
 20
21.21200244066284
 30
0.0
 11
248.8644677680877
 21
-121.8880005593369
 31
0.0
  0
LINE
  5
3A85
330
A
100
AcDbEntity
  8
0
  6
Continuous
 62
     7
100
AcDbLine
 10
402.6645017680878
 20
-118.6880040593372
 30
0.0
 11
402.6645017680878
 21
18.31199994066303
 31
0.0
  0
LINE
  5
3A86
330
A
100
AcDbEntity
  8
0
  6
Continuous
 62
     7
100
AcDbLine
 10
238.4644667680876
 20
-121.3879965593372
 30
0.0
 11
238.4644667680876
 21
21.01200444066296
 31
0.0
  0
LINE
  5
3A87
330
A
100
AcDbEntity
  8
0
  6
Continuous
 62
     7
100
AcDbLine
 10
248.8644677680877
 20
-118.6880040593372
 30
0.0
 11
402.6645017680878
 21
-118.6880040593372
 31
0.0
  0
LINE
  5
3A88
330
A
100
AcDbEntity
  8
0
  6
Continuous
 62
     7
 48
0.225
100
AcDbLine
 10
234.7644542680878
 20
-122.1880080593369
 30
0.0
 11
248.2644542680875
 21
-122.1880080593369
 31
0.0
  0
LINE
  5
3A89
330
A
100
AcDbEntity
  8
0
  6
Continuous
 62
     7
 48
0.070409
100
AcDbLine
 10
223.0144622680878
 20
-122.2380060593369
 30
0.0
 11
227.2390247680875
 21
-122.2380060593369
 31
0.0
  0
LINE
  5
3A8A
330
A
100
AcDbEntity
  8
0
  6
Continuous
 62
     7
 48
0.028602
100
AcDbLine
 10
224.1349532680875
 20
-121.284279059337
 30
0.0
 11
222.4253432680878
 21
-121.1347155593369
 31
0.0
  0
LINE
  5
3A8B
330
A
100
AcDbEntity
  8
0
  6
Continuous
 62
     7
 48
0.041667
100
AcDbLine
 10
222.7644542680876
 20
-122.1880080593369
 30
0.0
 11
225.2644622680874
 21
-122.1880080593369
 31
0.0
  0
LINE
  5
3A8C
330
A
100
AcDbEntity
  8
0
  6
Continuous
 62
     7
 48
0.041667
100
AcDbLine
 10
222.7644542680876
 20
-121.3879965593372
 30
0.0
 11
225.2644622680874
 21
-121.3879965593372
 31
0.0
  0
LINE
  5
3A8D
330
A
100
AcDbEntity
  8
0
  6
Continuous
 62
     7
 48
0.001344
100
AcDbLine
 10
222.4802747680877
 20
-116.2648995593372
 30
0.0
 11
222.5139437680878
 21
-116.1916350593374
 31
0.0
  0
LINE
  5
3A8E
330
A
100
AcDbEntity
  8
0
  6
Continuous
 62
     7
 48
0.013334
100
AcDbLine
 10
222.7644542680876
 20
-121.3879965593372
 30
0.0
 11
222.7644542680876
 21
-122.1880080593369
 31
0.0
  0
LINE
  5
3A8F
330
A
100
AcDbEntity
  8
0
  6
Continuous
 62
     7
 48
0.001178
100
AcDbLine
 10
223.0644497680876
 20
-122.1880080593369
 30
0.0
 11
223.0144622680878
 21
-122.2380060593369
 31
0.0
  0
ARC
  5
3A90
330
A
100
AcDbEntity
  8
0
  6
Continuous
 62
     7
100
AcDbCircle
 10
222.5569727680877
 20
-119.639602559337
 30
0.0
 40
1.500935999999995
100
AcDbArc
 50
180.0310179999995
 51
264.9711199999996
  0
LINE
  5
3A91
330
A
100
AcDbEntity
  8
0
  6
Continuous
 62
     7
 48
0.033348
100
AcDbLine
 10
221.0563547680876
 20
-117.6405255593369
 30
0.0
 11
222.5139887680875
 21
-116.269843559337
 31
0.0
  0
LINE
  5
3A92
330
A
100
AcDbEntity
  8
0
  6
Continuous
 62
     7
 48
0.033332
100
AcDbLine
 10
221.0560802680876
 20
-119.640426059337
 30
0.0
 11
221.0560802680876
 21
-117.6405255593369
 31
0.0
  0
LWPOLYLINE
  5
3A93
330
A
100
AcDbEntity
  8
0
  6
Continuous
 62
     7
100
AcDbPolyline
 90
        3
 70
     0
 43
0.0
 10
222.4767272680878
 20
-117.762153059337
 10
222.5075117680876
 20
-116.9761275593371
 10
222.5138972680877
 20
-116.2899405593369
  0
LINE
  5
3A94
330
A
100
AcDbEntity
  8
0
  6
Continuous
 62
     7
 48
0.000051
100
AcDbLine
 10
222.4764527680876
 20
-117.7644990593369
 30
0.0
 11
222.4767032680877
 21
-117.7614780593369
 31
0.0
  0
LINE
  5
3A95
330
A
100
AcDbEntity
  8
0
  6
Continuous
 62
     7
 48
0.023764
100
AcDbLine
 10
221.0560802680876
 20
-117.6405255593369
 30
0.0
 11
222.4764752680878
 21
-117.7647405593372
 31
0.0
  0
LINE
  5
3A96
330
A
100
AcDbEntity
  8
0
  6
Continuous
 62
     7
 48
0.000605
100
AcDbLine
 10
222.4802522680877
 20
-116.264511059337
 30
0.0
 11
222.4802282680876
 21
-116.300800559337
 31
0.0
  0
LINE
  5
3A97
330
A
100
AcDbEntity
  8
0
  6
Continuous
 62
     7
 48
0.157564
100
AcDbLine
 10
234.4644587680878
 20
-122.1880080593369
 30
0.0
 11
225.0465662680876
 21
-121.3640445593372
 31
0.0
  0
LINE
  5
3A98
330
A
100
AcDbEntity
  8
0
  6
Continuous
 62
     7
 48
0.108333
100
AcDbLine
 10
228.2644622680874
 20
-122.1880080593369
 30
0.0
 11
234.7644542680878
 21
-122.1880080593369
 31
0.0
  0
LINE
  5
3A99
330
A
100
AcDbEntity
  8
0
  6
Continuous
 62
     7
 48
0.05
100
AcDbLine
 10
225.2644622680874
 20
-122.1880080593369
 30
0.0
 11
228.2644622680874
 21
-122.1880080593369
 31
0.0
  0
LINE
  5
3A9A
330
A
100
AcDbEntity
  8
0
  6
Continuous
 62
     7
 48
0.001178
100
AcDbLine
 10
227.4644747680877
 20
-122.1880080593369
 30
0.0
 11
227.5144622680874
 21
-122.2380060593369
 31
0.0
  0
LINE
  5
3A9B
330
A
100
AcDbEntity
  8
0
  6
Continuous
 62
     7
 48
0.004591
100
AcDbLine
 10
227.2390247680875
 20
-122.2380060593369
 30
0.0
 11
227.5144622680874
 21
-122.2380060593369
 31
0.0
  0
LINE
  5
3A9C
330
A
100
AcDbEntity
  8
0
  6
Continuous
 62
     7
 48
0.002761
100
AcDbLine
 10
223.9816022680876
 20
-121.2708660593369
 30
0.0
 11
223.8644597680875
 21
-121.3879965593372
 31
0.0
  0
LINE
  5
3A9D
330
A
100
AcDbEntity
  8
0
  6
Continuous
 62
     7
 48
0.015252
100
AcDbLine
 10
224.1349532680875
 20
-121.284279059337
 30
0.0
 11
225.0465662680876
 21
-121.3640445593372
 31
0.0
  0
LINE
  5
3A9E
330
A
100
AcDbEntity
  8
0
  6
Continuous
 62
     7
 48
0.000912
100
AcDbLine
 10
225.2644622680874
 20
-121.3879965593372
 30
0.0
 11
225.3191867680874
 21
-121.3879965593372
 31
0.0
  0
LINE
  5
3A9F
330
A
100
AcDbEntity
  8
0
  6
Continuous
 62
     7
 48
0.024905
100
AcDbLine
 10
234.4644587680878
 20
-122.1880080593369
 30
0.0
 11
234.4644587680878
 21
-120.6937065593369
 31
0.0
  0
LINE
  5
3AA1
330
A
100
AcDbEntity
  8
0
  6
Continuous
 62
     7
 48
0.066669
100
AcDbLine
 10
234.4643447680875
 20
-121.3879965593372
 30
0.0
 11
238.4644667680876
 21
-121.3879965593372
 31
0.0
  0
LINE
  5
3AA3
330
A
100
AcDbEntity
  8
0
  6
Continuous
 62
     7
 48
0.000095
100
AcDbLine
 10
234.4644587680878
 20
-120.6937065593369
 30
0.0
 11
234.4644587680878
 21
-120.6879960593375
 31
0.0
  0
LINE
  5
3AA4
330
A
100
AcDbEntity
  8
0
  6
Continuous
 62
     7
 48
0.005007
100
AcDbLine
 10
234.4644587680878
 20
-120.6879960593375
 30
0.0
 11
237.2644622680875
 21
-120.5358240593371
 31
0.0
  0
LINE
  5
3AA8
330
A
100
AcDbEntity
  8
0
  6
Continuous
 62
     7
 48
0.011181
100
AcDbLine
 10
248.8644677680877
 20
-121.8880005593369
 30
0.0
 11
248.2644542680875
 21
-122.1880080593369
 31
0.0
  0
LINE
  5
3AAC
330
A
100
AcDbEntity
  8
0
  6
Continuous
 62
     7
 48
0.05
100
AcDbLine
 10
447.6645017680876
 20
-95.18799605933736
 30
0.0
 11
444.6645017680878
 21
-95.18799605933736
 31
0.0
  0
LINE
  5
3AAD
330
A
100
AcDbEntity
  8
0
  6
Continuous
 62
     7
 48
0.330499
100
AcDbLine
 10
402.6645017680878
 20
-116.6880000593369
 30
0.0
 11
422.4944582680875
 21
-116.6880000593369
 31
0.0
  0
LINE
  5
3AB1
330
A
100
AcDbEntity
  8
0
  6
Continuous
 62
     7
 48
0.103597
100
AcDbLine
 10
444.6645017680878
 20
-105.1880040593369
 30
0.0
 11
444.6645017680878
 21
-98.97219155933695
 31
0.0
  0
LINE
  5
3AB2
330
A
100
AcDbEntity
  8
0
  6
Continuous
 62
     7
 48
0.08
100
AcDbLine
 10
422.9944727680874
 20
-113.4880035593369
 30
0.0
 11
427.7944457680876
 21
-113.4880035593369
 31
0.0
  0
LINE
  5
3AB3
330
A
100
AcDbEntity
  8
0
  6
Continuous
 62
     7
 48
0.08
100
AcDbLine
 10
422.9944727680874
 20
-107.6880000593372
 30
0.0
 11
427.7944457680876
 21
-107.6880000593372
 31
0.0
  0
ARC
  5
3AB4
330
A
100
AcDbEntity
  8
0
  6
Continuous
 62
     7
100
AcDbCircle
 10
422.4944582680875
 20
-116.1879960593375
 30
0.0
 40
0.4999995000000001
100
AcDbArc
 50
270.0000009999997
 51
0.0000100000001922
  0
LINE
  5
3AB5
330
A
100
AcDbEntity
  8
0
  6
Continuous
 62
     7
 48
0.008333
100
AcDbLine
 10
422.9944727680874
 20
-116.1879960593375
 30
0.0
 11
422.9944727680874
 21
-115.6880040593373
 31
0.0
  0
LINE
  5
3AB6
330
A
100
AcDbEntity
  8
0
  6
Continuous
 62
     7
 48
0.228333
100
AcDbLine
 10
428.7944762680877
 20
-113.1879960593375
 30
0.0
 11
442.9944887680876
 21
-113.1879960593375
 31
0.0
  0
ARC
  5
3AB7
330
A
100
AcDbEntity
  8
0
  6
Continuous
 62
     7
100
AcDbCircle
 10
428.7944762680877
 20
-112.188000059337
 30
0.0
 40
1.000000499999996
100
AcDbArc
 50
180.0000049999995
 51
270.0000009999997
  0
LINE
  5
3AB8
330
A
100
AcDbEntity
  8
0
  6
Continuous
 62
     7
 48
0.009826
100
AcDbLine
 10
428.3839082680876
 20
-113.0998995593372
 30
0.0
 11
427.7944457680876
 21
-113.1101880593371
 31
0.0
  0
LINE
  5
3AB9
330
A
100
AcDbEntity
  8
0
  6
Continuous
 62
     7
 48
0.021371
100
AcDbLine
 10
427.7944457680876
 20
-113.4880035593369
 30
0.0
 11
427.7944457680876
 21
-112.2057375593372
 31
0.0
  0
LINE
  5
3ABB
330
A
100
AcDbEntity
  8
0
  6
Continuous
 62
     7
 48
0.01146
100
AcDbLine
 10
443.6819582680875
 20
-107.9720415593371
 30
0.0
 11
442.9944887680876
 21
-107.9840355593371
 31
0.0
  0
LINE
  5
3ABC
330
A
100
AcDbEntity
  8
0
  6
Continuous
 62
     7
 48
0.011458
100
AcDbLine
 10
443.6819582680875
 20
-105.1880040593369
 30
0.0
 11
442.9944887680876
 21
-105.1880040593369
 31
0.0
  0
ARC
  5
3ABD
330
A
100
AcDbEntity
  8
0
  6
Continuous
 62
     7
100
AcDbCircle
 10
443.6644712680878
 20
-106.9721940593369
 30
0.0
 40
1.000000499999996
100
AcDbArc
 50
270.9999950000002
 51
0.0000100000001922
  0
LINE
  5
3ABE
330
A
100
AcDbEntity
  8
0
  6
Continuous
 62
     7
 48
0.016376
100
AcDbLine
 10
444.6645017680878
 20
-105.1880040593369
 30
0.0
 11
443.6819582680875
 21
-105.1880040593369
 31
0.0
  0
LINE
  5
3ABF
330
A
100
AcDbEntity
  8
0
  6
Continuous
 62
     7
 48
0.029737
100
AcDbLine
 10
444.6645017680878
 20
-105.1880040593369
 30
0.0
 11
444.6645017680878
 21
-106.9721940593369
 31
0.0
  0
LINE
  5
3AC0
330
A
100
AcDbEntity
  8
0
  6
Continuous
 62
     7
 48
0.013749
100
AcDbLine
 10
442.9257317680876
 20
-105.1880040593369
 30
0.0
 11
443.7506672680874
 21
-105.1880040593369
 31
0.0
  0
LINE
  5
3AC1
330
A
100
AcDbEntity
  8
0
  6
Continuous
 62
     7
 48
0.05
100
AcDbLine
 10
444.6645017680878
 20
-95.18799605933736
 30
0.0
 11
444.6645017680878
 21
-92.18799605933737
 31
0.0
  0
LINE
  5
3AC2
330
A
100
AcDbEntity
  8
0
  6
Continuous
 62
     7
 48
0.06307
100
AcDbLine
 10
444.6645017680878
 20
-98.97219155933695
 30
0.0
 11
444.6645017680878
 21
-95.18799605933736
 31
0.0
  0
LINE
  5
3AC3
330
A
100
AcDbEntity
  8
0
  6
Continuous
 62
     7
 48
0.01146
100
AcDbLine
 10
443.6819582680875
 20
-99.97203905933695
 30
0.0
 11
442.9944887680876
 21
-99.98403155933708
 31
0.0
  0
ARC
  5
3AC4
330
A
100
AcDbEntity
  8
0
  6
Continuous
 62
     7
100
AcDbCircle
 10
443.6644712680878
 20
-98.97219155933695
 30
0.0
 40
1.000000499999996
100
AcDbArc
 50
270.9999950000002
 51
0.0000100000001922
  0
LINE
  5
3AC5
330
A
100
AcDbEntity
  8
0
  6
Continuous
 62
     7
 48
0.15
100
AcDbLine
 10
444.9644747680871
 20
-92.18799605933737
 30
0.0
 11
444.9644747680871
 21
-83.18800805933717
 31
0.0
  0
LINE
  5
3AC6
330
A
100
AcDbEntity
  8
0
  6
Continuous
 62
     7
 48
0.15
100
AcDbLine
 10
444.6645017680878
 20
-92.18799605933737
 30
0.0
 11
444.6645017680878
 21
-83.18800805933717
 31
0.0
  0
LINE
  5
3AC7
330
A
100
AcDbEntity
  8
0
  6
Continuous
 62
     7
 48
0.005
100
AcDbLine
 10
444.6645017680878
 20
-88.08800105933753
 30
0.0
 11
444.9644747680871
 21
-88.08800105933753
 31
0.0
  0
LINE
  5
3AC8
330
A
100
AcDbEntity
  8
0
  6
Continuous
 62
     7
 48
0.005
100
AcDbLine
 10
444.6645017680878
 20
-87.28799105933706
 30
0.0
 11
444.9644747680871
 21
-87.28799105933706
 31
0.0
  0
LINE
  5
3AC9
330
A
100
AcDbEntity
  8
0
  6
Continuous
 62
     7
 48
0.005
100
AcDbLine
 10
444.6645017680878
 20
-92.18799605933737
 30
0.0
 11
444.9644747680871
 21
-92.18799605933737
 31
0.0
  0
LINE
  5
3ACA
330
A
100
AcDbEntity
  8
0
  6
Continuous
 62
     7
 48
0.005
100
AcDbLine
 10
444.9644747680871
 20
-83.18800805933717
 30
0.0
 11
444.6645017680878
 21
-83.18800805933717
 31
0.0
  0
LINE
  5
3ACB
330
A
100
AcDbEntity
  8
0
  6
Continuous
 62
     7
 48
0.048591
100
AcDbLine
 10
449.1645017680879
 20
-92.68800005933726
 30
0.0
 11
447.6645017680876
 21
-95.18799605933736
 31
0.0
  0
LINE
  5
3ACC
330
A
100
AcDbEntity
  8
0
  6
Continuous
 62
     7
 48
0.189999
100
AcDbLine
 10
459.0644642680878
 20
-95.18799605933736
 30
0.0
 11
447.6645017680876
 21
-95.18799605933736
 31
0.0
  0
LINE
  5
3ACD
330
A
100
AcDbEntity
  8
0
  6
Continuous
 62
     7
 48
0.042091
100
AcDbLine
 10
462.3530387680873
 20
-94.75599305933727
 30
0.0
 11
460.0644947680875
 21
-93.68799605933736
 31
0.0
  0
LINE
  5
3ACE
330
A
100
AcDbEntity
  8
0
  6
Continuous
 62
     7
 48
0.030047
100
AcDbLine
 10
460.0644947680875
 20
-93.68799605933736
 30
0.0
 11
459.0644642680878
 21
-95.18799605933736
 31
0.0
  0
ARC
  5
3ACF
330
A
100
AcDbEntity
  8
0
  6
Continuous
 62
     7
100
AcDbCircle
 10
462.5644802680875
 20
-94.30289855933695
 30
0.0
 40
0.4999995000000001
100
AcDbArc
 50
244.9830949999998
 51
0.0000100000001922
  0
LINE
  5
3AD0
330
A
100
AcDbEntity
  8
0
  6
Continuous
 62
     7
 48
0.166667
100
AcDbLine
 10
454.1644712680875
 20
-82.68799205933715
 30
0.0
 11
454.1644712680875
 21
-92.68800005933726
 31
0.0
  0
LINE
  5
3AD1
330
A
100
AcDbEntity
  8
0
  6
Continuous
 62
     7
 48
0.083333
100
AcDbLine
 10
454.1644712680875
 20
-92.68800005933726
 30
0.0
 11
449.1645017680879
 21
-92.68800005933726
 31
0.0
  0
LINE
  5
3AD2
330
A
100
AcDbEntity
  8
0
  6
Continuous
 62
     7
 48
0.083333
100
AcDbLine
 10
449.1645017680879
 20
-82.68799205933715
 30
0.0
 11
454.1644712680875
 21
-82.68799205933715
 31
0.0
  0
LINE
  5
3AD4
330
A
100
AcDbEntity
  8
0
  6
Continuous
 62
     7
100
AcDbLine
 10
248.8644677680877
 20
18.31199994066303
 30
0.0
 11
402.6645017680878
 21
18.31199994066303
 31
0.0
  0
LINE
  5
3AD5
330
A
100
AcDbEntity
  8
0
  6
Continuous
 62
     7
100
AcDbLine
 10
237.2644622680875
 20
-26.68800005933704
 30
0.0
 11
237.2644622680875
 21
20.15983194066294
 31
0.0
  0
LINE
  5
3AD6
330
A
100
AcDbEntity
  8
0
  6
Continuous
 62
     7
100
AcDbLine
 10
232.2644687680877
 20
-66.69993155933707
 30
0.0
 11
232.2644687680877
 21
-29.67605255933705
 31
0.0
  0
ARC
  5
3AD7
330
A
100
AcDbEntity
  8
0
  6
Continuous
 62
     7
100
AcDbCircle
 10
234.2644622680874
 20
-66.69993155933707
 30
0.0
 40
1.999999499999999
100
AcDbArc
 50
179.9999230000002
 51
253.3006530000001
  0
LINE
  5
3AD8
330
A
100
AcDbEntity
  8
0
  6
Continuous
 62
     7
 48
0.02
100
AcDbLine
 10
238.4644667680876
 20
-69.68800805933716
 30
0.0
 11
237.2644622680875
 21
-69.68800805933716
 31
0.0
  0
LINE
  5
3AD9
330
A
100
AcDbEntity
  8
0
  6
Continuous
 62
     7
 48
0.043501
100
AcDbLine
 10
237.2644622680875
 20
-69.68800805933716
 30
0.0
 11
234.7644542680878
 21
-68.93800805933697
 31
0.0
  0
LINE
  5
3ADA
330
A
100
AcDbEntity
  8
0
  6
Continuous
 62
     7
 48
0.0187
100
AcDbLine
 10
234.7644542680878
 20
-68.93800805933697
 30
0.0
 11
233.6897627680877
 21
-68.61558155933707
 31
0.0
  0
ARC
  5
3ADB
330
A
100
AcDbEntity
  8
0
  6
Continuous
 62
     7
100
AcDbCircle
 10
234.2644622680874
 20
-29.67605255933705
 30
0.0
 40
1.999996499999999
100
AcDbArc
 50
106.6991579999998
 51
179.9999499999998
  0
LINE
  5
3ADC
330
A
100
AcDbEntity
  8
0
  6
Continuous
 62
     7
 48
0.02
100
AcDbLine
 10
238.4644667680876
 20
-26.68800005933704
 30
0.0
 11
237.2644622680875
 21
-26.68800005933704
 31
0.0
  0
LINE
  5
3ADD
330
A
100
AcDbEntity
  8
0
  6
Continuous
 62
     7
 48
0.0187
100
AcDbLine
 10
233.6897627680877
 20
-27.76040255933716
 30
0.0
 11
234.7644542680878
 21
-27.43800005933698
 31
0.0
  0
LINE
  5
3ADE
330
A
100
AcDbEntity
  8
0
  6
Continuous
 62
     7
 48
0.043501
100
AcDbLine
 10
237.2644622680875
 20
-26.68800005933704
 30
0.0
 11
234.7644542680878
 21
-27.43800005933698
 31
0.0
  0
LINE
  5
3ADF
330
A
100
AcDbEntity
  8
0
  6
Continuous
 62
     7
 48
0.225
100
AcDbLine
 10
234.7644542680878
 20
21.81199194066303
 30
0.0
 11
248.2644542680875
 21
21.81199194066303
 31
0.0
  0
LINE
  5
3AE1
330
A
100
AcDbEntity
  8
0
  6
Continuous
 62
     7
 48
0.004591
100
AcDbLine
 10
223.2898982680876
 20
21.86200344066284
 30
0.0
 11
223.0144622680878
 21
21.86200344066284
 31
0.0
  0
LINE
  5
3AE2
330
A
100
AcDbEntity
  8
0
  6
Continuous
 62
     7
 48
0.028602
100
AcDbLine
 10
222.4253432680878
 20
20.75872344066294
 30
0.0
 11
224.1349532680875
 21
20.90827494066302
 31
0.0
  0
LINE
  5
3AE3
330
A
100
AcDbEntity
  8
0
  6
Continuous
 62
     7
 48
0.041667
100
AcDbLine
 10
225.2644622680874
 20
21.01200444066296
 30
0.0
 11
222.7644542680876
 21
21.01200444066296
 31
0.0
  0
LINE
  5
3AE4
330
A
100
AcDbEntity
  8
0
  6
Continuous
 62
     7
 48
0.041667
100
AcDbLine
 10
225.2644622680874
 20
21.81199194066303
 30
0.0
 11
222.7644542680876
 21
21.81199194066303
 31
0.0
  0
LINE
  5
3AE5
330
A
100
AcDbEntity
  8
0
  6
Continuous
 62
     7
 48
0.033343
100
AcDbLine
 10
222.5138282680873
 20
15.89397744066294
 30
0.0
 11
221.0564012680875
 21
17.26447644066293
 31
0.0
  0
LWPOLYLINE
  5
3AE6
330
A
100
AcDbEntity
  8
0
  6
Continuous
 62
     7
100
AcDbPolyline
 90
        3
 70
     0
 43
0.0
 10
222.4767272680878
 20
17.38610394066284
 10
222.5038727680878
 20
16.76457594066283
 10
222.5138747680878
 20
15.91395894066303
  0
LINE
  5
3AE7
330
A
100
AcDbEntity
  8
0
  6
Continuous
 62
     7
 48
0.001331
100
AcDbLine
 10
222.5136002680876
 20
15.81634194066302
 30
0.0
 11
222.4802747680877
 21
15.88889694066295
 31
0.0
  0
LINE
  5
3AE8
330
A
100
AcDbEntity
  8
0
  6
Continuous
 62
     7
 48
0.000609
100
AcDbLine
 10
222.4802282680876
 20
15.92506044066293
 30
0.0
 11
222.4802522680877
 21
15.88850844066283
 31
0.0
  0
LINE
  5
3AE9
330
A
100
AcDbEntity
  8
0
  6
Continuous
 62
     7
 48
0.001179
100
AcDbLine
 10
223.0644722680875
 20
21.81196944066282
 30
0.0
 11
223.0144622680878
 21
21.86200344066284
 31
0.0
  0
ARC
  5
3AEA
330
A
100
AcDbEntity
  8
0
  6
Continuous
 62
     7
100
AcDbCircle
 10
222.5569952680876
 20
19.26359994066302
 30
0.0
 40
1.500935999999995
100
AcDbArc
 50
95.02715799999972
 51
179.968996
  0
LINE
  5
3AEB
330
A
100
AcDbEntity
  8
0
  6
Continuous
 62
     7
 48
0.033332
100
AcDbLine
 10
221.0561252680876
 20
17.26449894066294
 30
0.0
 11
221.0561252680876
 21
19.26442344066282
 31
0.0
  0
LINE
  5
3AEC
330
A
100
AcDbEntity
  8
0
  6
Continuous
 62
     7
 48
0.023762
100
AcDbLine
 10
221.0561252680876
 20
17.26449894066294
 30
0.0
 11
222.4764527680876
 21
17.38869144066305
 31
0.0
  0
LINE
  5
3AED
330
A
100
AcDbEntity
  8
0
  6
Continuous
 62
     7
 48
0.000052
100
AcDbLine
 10
222.4767032680877
 20
17.38539444066285
 30
0.0
 11
222.4764527680876
 21
17.38850844066293
 31
0.0
  0
LINE
  5
3AEE
330
A
100
AcDbEntity
  8
0
  6
Continuous
 62
     7
 48
0.013333
100
AcDbLine
 10
222.7644542680876
 20
21.01200444066296
 30
0.0
 11
222.7644542680876
 21
21.81199194066303
 31
0.0
  0
LINE
  5
3AEF
330
A
100
AcDbEntity
  8
0
  6
Continuous
 62
     7
 48
0.157564
100
AcDbLine
 10
225.0465662680876
 20
20.98804044066283
 30
0.0
 11
234.4644587680878
 21
21.81199194066303
 31
0.0
  0
LINE
  5
3AF0
330
A
100
AcDbEntity
  8
0
  6
Continuous
 62
     7
 48
0.158333
100
AcDbLine
 10
225.2644622680874
 20
21.81199194066303
 30
0.0
 11
234.7644542680878
 21
21.81199194066303
 31
0.0
  0
LINE
  5
3AF1
330
A
100
AcDbEntity
  8
0
  6
Continuous
 62
     7
 48
0.002761
100
AcDbLine
 10
223.9816022680876
 20
20.89486344066294
 30
0.0
 11
223.8644597680875
 21
21.01200444066296
 31
0.0
  0
LINE
  5
3AF2
330
A
100
AcDbEntity
  8
0
  6
Continuous
 62
     7
 48
0.001179
100
AcDbLine
 10
227.4644507680875
 20
21.81199194066303
 30
0.0
 11
227.5144622680874
 21
21.86200344066284
 31
0.0
  0
LINE
  5
3AF3
330
A
100
AcDbEntity
  8
0
  6
Continuous
 62
     7
 48
0.070409
100
AcDbLine
 10
227.5144622680874
 20
21.86200344066284
 30
0.0
 11
223.2898982680876
 21
21.86200344066284
 31
0.0
  0
LINE
  5
3AF4
330
A
100
AcDbEntity
  8
0
  6
Continuous
 62
     7
 48
0.015252
100
AcDbLine
 10
224.1349532680875
 20
20.90827494066302
 30
0.0
 11
225.0465662680876
 21
20.98804044066283
 31
0.0
  0
LINE
  5
3AF5
330
A
100
AcDbEntity
  8
0
  6
Continuous
 62
     7
 48
0.00095
100
AcDbLine
 10
225.2644622680874
 20
21.01200444066296
 30
0.0
 11
225.3214757680876
 21
21.01200444066296
 31
0.0
  0
LINE
  5
3AF7
330
A
100
AcDbEntity
  8
0
  6
Continuous
 62
     7
 48
0.02003
100
AcDbLine
 10
238.4644667680876
 20
20.09459994066304
 30
0.0
 11
237.2644622680875
 21
20.15983194066294
 31
0.0
  0
LINE
  5
3AF8
330
A
100
AcDbEntity
  8
0
  6
Continuous
 62
     7
 48
0.061667
100
AcDbLine
 10
238.4644667680876
 20
21.01200444066296
 30
0.0
 11
234.4644587680878
 21
21.01200444066296
 31
0.0
  0
LINE
  5
3AF9
330
A
100
AcDbEntity
  8
0
  6
Continuous
 62
     7
 48
0.000095
100
AcDbLine
 10
234.4644587680878
 20
20.31199194066303
 30
0.0
 11
234.4644587680878
 21
20.31771444066305
 31
0.0
  0
LINE
  5
3AFA
330
A
100
AcDbEntity
  8
0
  6
Continuous
 62
     7
 48
0.024905
100
AcDbLine
 10
234.4644587680878
 20
20.31771444066305
 30
0.0
 11
234.4644587680878
 21
21.81199194066303
 31
0.0
  0
LINE
  5
3AFB
330
A
100
AcDbEntity
  8
0
  6
Continuous
 62
     7
 48
0.005007
100
AcDbLine
 10
234.7644542680878
 20
20.29569594066271
 30
0.0
 11
234.4644587680878
 21
20.31199194066303
 31
0.0
  0
LINE
  5
3AFC
330
A
100
AcDbEntity
  8
0
  6
Continuous
 62
     7
 48
0.041728
100
AcDbLine
 10
237.2644622680875
 20
20.15983194066294
 30
0.0
 11
234.7644542680878
 21
20.29569594066271
 31
0.0
  0
LINE
  5
3AFD
330
A
100
AcDbEntity
  8
0
  6
Continuous
 62
     7
 48
0.013332
100
AcDbLine
 10
233.9644667680875
 20
21.81199194066303
 30
0.0
 11
234.7643627680875
 21
21.81199194066303
 31
0.0
  0
LINE
  5
3AFE
330
A
100
AcDbEntity
  8
0
  6
Continuous
 62
     7
 48
0.011181
100
AcDbLine
 10
248.8644677680877
 20
21.51199644066295
 30
0.0
 11
248.2644542680875
 21
21.81199194066303
 31
0.0
  0
LINE
  5
3AFF
330
A
100
AcDbEntity
  8
0
  6
Continuous
 62
     7
 48
0.005
100
AcDbLine
 10
248.8644677680877
 20
21.21200244066284
 30
0.0
 11
248.8644677680877
 21
21.51199644066295
 31
0.0
  0
LINE
  5
3B00
330
A
100
AcDbEntity
  8
0
  6
Continuous
 62
     7
 48
0.005
100
AcDbLine
 10
248.8644677680877
 20
21.21200244066284
 30
0.0
 11
248.8644677680877
 21
21.51199644066295
 31
0.0
  0
LINE
  5
3B01
330
A
100
AcDbEntity
  8
0
  6
Continuous
 62
     7
 48
0.048335
100
AcDbLine
 10
248.8644677680877
 20
18.31190844066273
 30
0.0
 11
248.8644677680877
 21
21.21200244066284
 31
0.0
  0
ARC
  5
3B03
330
A
100
AcDbEntity
  8
0
  6
Continuous
 62
     7
100
AcDbCircle
 10
446.6644712680875
 20
11.31199194066303
 30
0.0
 40
1.000000499999996
100
AcDbArc
 50
0.0
 51
90.00000300000015
  0
LINE
  5
3B04
330
A
100
AcDbEntity
  8
0
  6
Continuous
 62
     7
 48
0.056904
100
AcDbLine
 10
447.3715787680876
 20
-20.48088455933704
 30
0.0
 11
444.9573782680873
 21
-22.89510755933696
 31
0.0
  0
ARC
  5
3B05
330
A
100
AcDbEntity
  8
0
  6
Continuous
 62
     7
100
AcDbCircle
 10
446.6644712680875
 20
-15.68800805933696
 30
0.0
 40
1.000000499999996
100
AcDbArc
 50
270.0000009999997
 51
0.0000100000001922
  0
LINE
  5
3B06
330
A
100
AcDbEntity
  8
0
  6
Continuous
 62
     7
 48
0.05
100
AcDbLine
 10
444.6645017680878
 20
-80.18800805933697
 30
0.0
 11
447.6645017680876
 21
-80.18800805933697
 31
0.0
  0
LINE
  5
3B07
330
A
100
AcDbEntity
  8
0
  6
Continuous
 62
     7
 48
0.05
100
AcDbLine
 10
444.6645017680878
 20
-52.68799205933746
 30
0.0
 11
447.6645017680876
 21
-52.68799205933746
 31
0.0
  0
LINE
  5
3B08
330
A
100
AcDbEntity
  8
0
  6
Continuous
 62
     7
 48
0.05
100
AcDbLine
 10
447.6645017680876
 20
-67.68799205933706
 30
0.0
 11
444.6645017680878
 21
-67.68799205933706
 31
0.0
  0
LINE
  5
3B09
330
A
100
AcDbEntity
  8
0
  6
Continuous
 62
     7
 48
0.041667
100
AcDbLine
 10
445.1644712680876
 20
-22.68799205933702
 30
0.0
 11
447.6645017680876
 21
-22.68799205933702
 31
0.0
  0
LINE
  5
3B0A
330
A
100
AcDbEntity
  8
0
  6
Continuous
 62
     7
 48
0.05
100
AcDbLine
 10
447.6645017680876
 20
-37.68799205933717
 30
0.0
 11
444.6645017680878
 21
-37.68799205933717
 31
0.0
  0
ARC
  5
3B0C
330
A
100
AcDbEntity
  8
0
  6
Continuous
 62
     7
100
AcDbCircle
 10
421.6644857680877
 20
-34.18800005933703
 30
0.0
 40
1.000000499999996
100
AcDbArc
 50
270.0000009999997
 51
0.0000100000001922
  0
LINE
  5
3B0D
330
A
100
AcDbEntity
  8
0
  6
Continuous
 62
     7
100
AcDbLine
 10
402.6645017680878
 20
11.31199194066303
 30
0.0
 11
402.6645017680878
 21
-42.68800805933696
 31
0.0
  0
LINE
  5
3B0E
330
A
100
AcDbEntity
  8
0
  6
Continuous
 62
     7
 48
0.05
100
AcDbLine
 10
444.6645017680878
 20
-37.68799205933717
 30
0.0
 11
444.6645017680878
 21
-34.68799205933716
 31
0.0
  0
LINE
  5
3B0F
330
A
100
AcDbEntity
  8
0
  6
Continuous
 62
     7
 48
0.025
100
AcDbLine
 10
406.6644857680874
 20
-37.03799105933696
 30
0.0
 11
405.1644857680874
 21
-37.03799105933696
 31
0.0
  0
LINE
  5
3B10
330
A
100
AcDbEntity
  8
0
  6
Continuous
 62
     7
 48
0.025
100
AcDbLine
 10
406.6644857680874
 20
-42.33800105933716
 30
0.0
 11
405.1644857680874
 21
-42.33800105933716
 31
0.0
  0
LINE
  5
3B11
330
A
100
AcDbEntity
  8
0
  6
Continuous
 62
     7
 48
0.275
100
AcDbLine
 10
421.6644857680877
 20
-35.18800805933696
 30
0.0
 11
405.1644857680874
 21
-35.18800805933696
 31
0.0
  0
LINE
  5
3B12
330
A
100
AcDbEntity
  8
0
  6
Continuous
 62
     7
 48
0.275
100
AcDbLine
 10
421.6644857680877
 20
-43.68799205933739
 30
0.0
 11
405.1644857680874
 21
-43.68799205933739
 31
0.0
  0
LINE
  5
3B13
330
A
100
AcDbEntity
  8
0
  6
Continuous
 62
     7
 48
0.330499
100
AcDbLine
 10
402.6645017680878
 20
-47.18800805933695
 30
0.0
 11
422.4944582680875
 21
-47.18800805933695
 31
0.0
  0
LINE
  5
3B15
330
A
100
AcDbEntity
  8
0
  6
Continuous
 62
     7
 48
0.082927
100
AcDbLine
 10
405.1644857680874
 20
-35.18800805933696
 30
0.0
 11
405.1644857680874
 21
-43.68799205933739
 31
0.0
  0
LINE
  5
3B18
330
A
100
AcDbEntity
  8
0
  6
Continuous
 62
     7
 48
0.041666
100
AcDbLine
 10
402.6645017680878
 20
-43.68799205933739
 30
0.0
 11
405.1644857680874
 21
-43.68799205933739
 31
0.0
  0
LINE
  5
3B1B
330
A
100
AcDbEntity
  8
0
  6
Continuous
 62
     7
 48
0.041666
100
AcDbLine
 10
402.6645017680878
 20
-42.68800805933696
 30
0.0
 11
405.1644857680874
 21
-42.68800805933696
 31
0.0
  0
LINE
  5
3B1C
330
A
100
AcDbEntity
  8
0
  6
Continuous
 62
     7
 48
0.15
100
AcDbLine
 10
444.9644747680871
 20
-64.68799205933739
 30
0.0
 11
444.9644747680871
 21
-55.68799205933718
 31
0.0
  0
LINE
  5
3B1D
330
A
100
AcDbEntity
  8
0
  6
Continuous
 62
     7
 48
0.15
100
AcDbLine
 10
444.6645017680878
 20
-64.68799205933739
 30
0.0
 11
444.6645017680878
 21
-55.68799205933718
 31
0.0
  0
LINE
  5
3B1E
330
A
100
AcDbEntity
  8
0
  6
Continuous
 62
     7
 48
0.205892
100
AcDbLine
 10
440.5150112680876
 20
-55.58586455933696
 30
0.0
 11
442.9944887680876
 21
-67.68799205933706
 31
0.0
  0
LINE
  5
3B1F
330
A
100
AcDbEntity
  8
0
  6
Continuous
 62
     7
 48
0.058333
100
AcDbLine
 10
434.5944782680876
 20
-60.18799205933738
 30
0.0
 11
434.5944782680876
 21
-56.68800005933704
 31
0.0
  0
LINE
  5
3B20
330
A
100
AcDbEntity
  8
0
  6
Continuous
 62
     7
 48
0.058333
100
AcDbLine
 10
431.5944782680876
 20
-56.68800005933704
 30
0.0
 11
431.5944782680876
 21
-60.18799205933738
 31
0.0
  0
ARC
  5
3B21
330
A
100
AcDbEntity
  8
0
  6
Continuous
 62
     7
100
AcDbCircle
 10
433.0944782680876
 20
-56.68800005933704
 30
0.0
 40
9.0
100
AcDbArc
 50
180.0000049999995
 51
233.9217929999994
  0
LINE
  5
3B22
330
A
100
AcDbEntity
  8
0
  6
Continuous
 62
     7
 48
0.2
100
AcDbLine
 10
444.3644837680876
 20
-79.93800005933706
 30
0.0
 11
444.3644837680876
 21
-67.93800005933707
 31
0.0
  0
LINE
  5
3B23
330
A
100
AcDbEntity
  8
0
  6
Continuous
 62
     7
 48
0.2
100
AcDbLine
 10
444.4144712680875
 20
-79.93800005933706
 30
0.0
 11
444.4144712680875
 21
-67.93800005933707
 31
0.0
  0
LINE
  5
3B24
330
A
100
AcDbEntity
  8
0
  6
Continuous
 62
     7
 48
0.206667
100
AcDbLine
 10
444.3644837680876
 20
-80.13799655933715
 30
0.0
 11
444.3644837680876
 21
-67.73800355933714
 31
0.0
  0
LINE
  5
3B25
330
A
100
AcDbEntity
  8
0
  6
Continuous
 62
     7
 48
0.000833
100
AcDbLine
 10
444.4144712680875
 20
-79.93800005933706
 30
0.0
 11
444.3644837680876
 21
-79.93800005933706
 31
0.0
  0
LINE
  5
3B26
330
A
100
AcDbEntity
  8
0
  6
Continuous
 62
     7
 48
0.000834
100
AcDbLine
 10
444.6645017680878
 20
-80.18800805933697
 30
0.0
 11
444.6645017680878
 21
-80.13799655933715
 31
0.0
  0
LINE
  5
3B27
330
A
100
AcDbEntity
  8
0
  6
Continuous
 62
     7
 48
0.005
100
AcDbLine
 10
444.3644837680876
 20
-80.13799655933715
 30
0.0
 11
444.6645017680878
 21
-80.13799655933715
 31
0.0
  0
ARC
  5
3B28
330
A
100
AcDbEntity
  8
0
  6
Continuous
 62
     7
100
AcDbCircle
 10
433.0944782680876
 20
-60.18799205933738
 30
0.0
 40
1.5
100
AcDbArc
 50
180.0000049999995
 51
0.0000100000001922
  0
LINE
  5
3B29
330
A
100
AcDbEntity
  8
0
  6
Continuous
 62
     7
 48
0.05
100
AcDbLine
 10
444.6645017680878
 20
-67.68799205933706
 30
0.0
 11
444.6645017680878
 21
-64.68799205933739
 31
0.0
  0
LINE
  5
3B2A
330
A
100
AcDbEntity
  8
0
  6
Continuous
 62
     7
 48
0.005
100
AcDbLine
 10
444.6645017680878
 20
-64.68799205933739
 30
0.0
 11
444.9644747680871
 21
-64.68799205933739
 31
0.0
  0
LINE
  5
3B2B
330
A
100
AcDbEntity
  8
0
  6
Continuous
 62
     7
 48
0.000833
100
AcDbLine
 10
444.4144712680875
 20
-67.93800005933707
 30
0.0
 11
444.3644837680876
 21
-67.93800005933707
 31
0.0
  0
LINE
  5
3B2C
330
A
100
AcDbEntity
  8
0
  6
Continuous
 62
     7
 48
0.000834
100
AcDbLine
 10
444.6645017680878
 20
-67.73800355933714
 30
0.0
 11
444.6645017680878
 21
-67.68799205933706
 31
0.0
  0
LINE
  5
3B2D
330
A
100
AcDbEntity
  8
0
  6
Continuous
 62
     7
 48
0.005
100
AcDbLine
 10
444.6645017680878
 20
-67.73800355933714
 30
0.0
 11
444.3644837680876
 21
-67.73800355933714
 31
0.0
  0
LINE
  5
3B2E
330
A
100
AcDbEntity
  8
0
  6
Continuous
 62
     7
 48
0.005
100
AcDbLine
 10
444.6645017680878
 20
-60.58800905933697
 30
0.0
 11
444.9644747680871
 21
-60.58800905933697
 31
0.0
  0
LINE
  5
3B2F
330
A
100
AcDbEntity
  8
0
  6
Continuous
 62
     7
 48
0.005
100
AcDbLine
 10
444.6645017680878
 20
-59.78799755933727
 30
0.0
 11
444.9644747680871
 21
-59.78799755933727
 31
0.0
  0
ARC
  5
3B30
330
A
100
AcDbEntity
  8
0
  6
Continuous
 62
     7
100
AcDbCircle
 10
425.1944852680876
 20
-54.18799205933741
 30
0.0
 40
1.999999499999999
100
AcDbArc
 50
270.0000009999997
 51
0.0000100000001922
  0
LINE
  5
3B31
330
A
100
AcDbEntity
  8
0
  6
Continuous
 62
     7
 48
0.018333
100
AcDbLine
 10
425.1944852680876
 20
-56.18800805933759
 30
0.0
 11
424.0944782680871
 21
-56.18800805933759
 31
0.0
  0
LINE
  5
3B32
330
A
100
AcDbEntity
  8
0
  6
Continuous
 62
     7
 48
0.018333
100
AcDbLine
 10
422.9944727680874
 20
-56.18800805933759
 30
0.0
 11
424.0944782680871
 21
-56.18800805933759
 31
0.0
  0
LINE
  5
3B33
330
A
100
AcDbEntity
  8
0
  6
Continuous
 62
     7
 48
0.008333
100
AcDbLine
 10
424.0944782680871
 20
-56.68800005933704
 30
0.0
 11
424.0944782680871
 21
-56.18800805933759
 31
0.0
  0
ARC
  5
3B34
330
A
100
AcDbEntity
  8
0
  6
Continuous
 62
     7
100
AcDbCircle
 10
422.4944582680875
 20
-47.68800005933704
 30
0.0
 40
0.4999995000000001
100
AcDbArc
 50
0.0
 51
90.00000300000015
  0
LINE
  5
3B35
330
A
100
AcDbEntity
  8
0
  6
Continuous
 62
     7
 48
0.008333
100
AcDbLine
 10
422.9944727680874
 20
-48.18799205933739
 30
0.0
 11
422.9944727680874
 21
-47.68800005933704
 31
0.0
  0
LINE
  5
3B36
330
A
100
AcDbEntity
  8
0
  6
Continuous
 62
     7
 48
0.06728
100
AcDbLine
 10
407.1645017680878
 20
-37.53800555933715
 30
0.0
 11
407.1645017680878
 21
-41.57479505933696
 31
0.0
  0
ARC
  5
3B37
330
A
100
AcDbEntity
  8
0
  6
Continuous
 62
     7
100
AcDbCircle
 10
406.6644857680874
 20
-41.83800905933696
 30
0.0
 40
0.4999995000000001
100
AcDbArc
 50
269.9999969999998
 51
0.0
  0
LINE
  5
3B38
330
A
100
AcDbEntity
  8
0
  6
Continuous
 62
     7
 48
0.004387
100
AcDbLine
 10
407.1645017680878
 20
-41.57479505933696
 30
0.0
 11
407.1645017680878
 21
-41.83800905933696
 31
0.0
  0
ARC
  5
3B39
330
A
100
AcDbEntity
  8
0
  6
Continuous
 62
     7
100
AcDbCircle
 10
406.6644857680874
 20
-37.53800555933715
 30
0.0
 40
0.4999995000000001
100
AcDbArc
 50
0.0
 51
90.00000300000015
  0
LINE
  5
3B3A
330
A
100
AcDbEntity
  8
0
  6
Continuous
 62
     7
 48
0.05
100
AcDbLine
 10
422.6644862680878
 20
-34.18799988480403
 30
0.0
 11
422.6644712680878
 21
-42.68800805933696
 31
0.0
  0
ARC
  5
3B3B
330
A
100
AcDbEntity
  8
0
  6
Continuous
 62
     7
100
AcDbCircle
 10
421.6644857680877
 20
-42.68800805933696
 30
0.0
 40
1.000000499999996
100
AcDbArc
 50
327.9869950000001
 51
0.0
  0
ARC
  5
3B3C
330
A
100
AcDbEntity
  8
0
  6
Continuous
 62
     7
100
AcDbCircle
 10
421.6644857680877
 20
-42.68800805933696
 30
0.0
 40
1.000000499999996
100
AcDbArc
 50
270.0000009999997
 51
327.9869950000001
  0
LINE
  5
3B3D
330
A
100
AcDbEntity
  8
0
  6
Continuous
 62
     7
 48
0.25
100
AcDbLine
 10
444.6645017680878
 20
-52.68799205933746
 30
0.0
 11
444.6645017680878
 21
-37.68799205933717
 31
0.0
  0
LINE
  5
3B3E
330
A
100
AcDbEntity
  8
0
  6
Continuous
 62
     7
 48
0.01636
100
AcDbLine
 10
436.5944942680878
 20
-53.18800805933705
 30
0.0
 11
437.5760762680878
 21
-53.18800805933705
 31
0.0
  0
ARC
  5
3B3F
330
A
100
AcDbEntity
  8
0
  6
Continuous
 62
     7
100
AcDbCircle
 10
432.7944602680878
 20
-54.68800805933696
 30
0.0
 40
1.999999499999999
100
AcDbArc
 50
0.0
 51
90.00000300000015
  0
LINE
  5
3B40
330
A
100
AcDbEntity
  8
0
  6
Continuous
 62
     7
 48
0.052915
100
AcDbLine
 10
431.8394747680875
 20
-55.43301755933697
 30
0.0
 11
429.5944637680873
 21
-53.18800805933705
 31
0.0
  0
ARC
  5
3B41
330
A
100
AcDbEntity
  8
0
  6
Continuous
 62
     7
100
AcDbCircle
 10
433.0944782680876
 20
-56.68800005933704
 30
0.0
 40
1.5
100
AcDbArc
 50
144.5940669999993
 51
180.0000049999995
  0
ARC
  5
3B42
330
A
100
AcDbEntity
  8
0
  6
Continuous
 62
     7
100
AcDbCircle
 10
433.0944782680876
 20
-56.68800005933704
 30
0.0
 40
1.5
100
AcDbArc
 50
35.41110900000001
 51
0.0000100000001922
  0
LINE
  5
3B43
330
A
100
AcDbEntity
  8
0
  6
Continuous
 62
     7
 48
0.085
100
AcDbLine
 10
432.7944602680878
 20
-52.68799205933746
 30
0.0
 11
427.6944692680872
 21
-52.68799205933746
 31
0.0
  0
ARC
  5
3B44
330
A
100
AcDbEntity
  8
0
  6
Continuous
 62
     7
100
AcDbCircle
 10
429.2944457680875
 20
-54.68800805933696
 30
0.0
 40
1.5
100
AcDbArc
 50
90.00000300000015
 51
180.0000049999995
  0
LINE
  5
3B45
330
A
100
AcDbEntity
  8
0
  6
Continuous
 62
     7
 48
0.005
100
AcDbLine
 10
429.5944637680873
 20
-53.18800805933705
 30
0.0
 11
429.2944457680875
 21
-53.18800805933705
 31
0.0
  0
ARC
  5
3B46
330
A
100
AcDbEntity
  8
0
  6
Continuous
 62
     7
100
AcDbCircle
 10
427.6944692680872
 20
-53.18800805933705
 30
0.0
 40
0.4999995000000001
100
AcDbArc
 50
90.00000300000015
 51
180.0000049999995
  0
LINE
  5
3B47
330
A
100
AcDbEntity
  8
0
  6
Continuous
 62
     7
 48
0.016666
100
AcDbLine
 10
427.1944997680876
 20
-53.18800805933705
 30
0.0
 11
427.1944997680876
 21
-54.18799205933741
 31
0.0
  0
LINE
  5
3B48
330
A
100
AcDbEntity
  8
0
  6
Continuous
 62
     7
 48
0.011785
100
AcDbLine
 10
436.5944942680878
 20
-53.18800805933705
 30
0.0
 11
436.0944782680876
 21
-53.68800005933704
 31
0.0
  0
LINE
  5
3B49
330
A
100
AcDbEntity
  8
0
  6
Continuous
 62
     7
 48
0.041131
100
AcDbLine
 10
436.0944782680876
 20
-53.68800005933704
 30
0.0
 11
434.3494382680876
 21
-55.43301755933697
 31
0.0
  0
ARC
  5
3B4A
330
A
100
AcDbEntity
  8
0
  6
Continuous
 62
     7
100
AcDbCircle
 10
431.6273462680873
 20
-55.64514605933727
 30
0.0
 40
0.3
100
AcDbArc
 50
324.5940569999997
 51
45.00000000000028
  0
ARC
  5
3B4B
330
A
100
AcDbEntity
  8
0
  6
Continuous
 62
     7
100
AcDbCircle
 10
434.5616117680878
 20
-55.64514605933727
 30
0.0
 40
0.3
100
AcDbArc
 50
134.9999999999996
 51
215.4059289999999
  0
ARC
  5
3B4C
330
A
100
AcDbEntity
  8
0
  6
Continuous
 62
     7
100
AcDbCircle
 10
433.0944782680876
 20
-56.68800005933704
 30
0.0
 40
1.5
100
AcDbArc
 50
0.0
 51
35.405929
  0
LINE
  5
3B4D
330
A
100
AcDbEntity
  8
0
  6
Continuous
 62
     7
 48
0.005
100
AcDbLine
 10
434.7944762680876
 20
-54.98800355933699
 30
0.0
 11
434.7944762680876
 21
-54.68800805933696
 31
0.0
  0
ARC
  5
3B4E
330
A
100
AcDbEntity
  8
0
  6
Continuous
 62
     7
100
AcDbCircle
 10
437.5760762680878
 20
-56.18800805933759
 30
0.0
 40
3.0
100
AcDbArc
 50
11.57842199999971
 51
90.00000300000015
  0
LINE
  5
3B4F
330
A
100
AcDbEntity
  8
0
  6
Continuous
 62
     7
 48
0.005
100
AcDbLine
 10
444.9644747680871
 20
-55.68799205933718
 30
0.0
 11
444.6645017680878
 21
-55.68799205933718
 31
0.0
  0
LINE
  5
3B50
330
A
100
AcDbEntity
  8
0
  6
Continuous
 62
     7
 48
0.05
100
AcDbLine
 10
444.6645017680878
 20
-55.68799205933718
 30
0.0
 11
444.6645017680878
 21
-52.68799205933746
 31
0.0
  0
LINE
  5
3B51
330
A
100
AcDbEntity
  8
0
  6
Continuous
 62
     7
 48
0.359763
100
AcDbLine
 10
444.2502707680875
 20
-23.18800805933696
 30
0.0
 11
422.6644712680878
 21
-23.18800805933696
 31
0.0
  0
LINE
  5
3B52
330
A
100
AcDbEntity
  8
0
  6
Continuous
 62
     7
100
AcDbLine
 10
446.6644712680875
 20
-16.68799205933703
 30
0.0
 11
411.6645017680879
 21
-16.68799205933703
 31
0.0
  0
LINE
  5
3B53
330
A
100
AcDbEntity
  8
0
  6
Continuous
 62
     7
 48
0.225
100
AcDbLine
 10
422.6644712680878
 20
-34.18800005933703
 30
0.0
 11
422.6644712680878
 21
-20.68800005933704
 31
0.0
  0
LINE
  5
3B54
330
A
100
AcDbEntity
  8
0
  6
Continuous
 62
     7
 48
0.166666
100
AcDbLine
 10
422.6644712680878
 20
-20.68800005933704
 30
0.0
 11
411.6645017680879
 21
-20.68800005933704
 31
0.0
  0
LINE
  5
3B55
330
A
100
AcDbEntity
  8
0
  6
Continuous
 62
     7
 48
0.083333
100
AcDbLine
 10
411.6645017680879
 20
-16.68799205933703
 30
0.0
 11
411.6645017680879
 21
-20.68800005933704
 31
0.0
  0
LINE
  5
3B57
330
A
100
AcDbEntity
  8
0
  6
Continuous
 62
     7
 48
0.043163
100
AcDbLine
 10
444.6645017680878
 20
-25.68799205933697
 30
0.0
 11
444.6645017680878
 21
-23.09819405933705
 31
0.0
  0
LINE
  5
3B58
330
A
100
AcDbEntity
  8
0
  6
Continuous
 62
     7
 48
0.15
100
AcDbLine
 10
444.9644747680871
 20
-34.68799205933716
 30
0.0
 11
444.9644747680871
 21
-25.68799205933697
 31
0.0
  0
LINE
  5
3B59
330
A
100
AcDbEntity
  8
0
  6
Continuous
 62
     7
 48
0.15
100
AcDbLine
 10
444.6645017680878
 20
-34.68799205933716
 30
0.0
 11
444.6645017680878
 21
-25.68799205933697
 31
0.0
  0
LINE
  5
3B5A
330
A
100
AcDbEntity
  8
0
  6
Continuous
 62
     7
 48
0.005
100
AcDbLine
 10
444.6645017680878
 20
-30.58800905933697
 30
0.0
 11
444.9644747680871
 21
-30.58800905933697
 31
0.0
  0
LINE
  5
3B5B
330
A
100
AcDbEntity
  8
0
  6
Continuous
 62
     7
 48
0.005
100
AcDbLine
 10
444.6645017680878
 20
-29.78799755933716
 30
0.0
 11
444.9644747680871
 21
-29.78799755933716
 31
0.0
  0
LINE
  5
3B5C
330
A
100
AcDbEntity
  8
0
  6
Continuous
 62
     7
 48
0.005
100
AcDbLine
 10
444.6645017680878
 20
-34.68799205933716
 30
0.0
 11
444.9644747680871
 21
-34.68799205933716
 31
0.0
  0
LINE
  5
3B5D
330
A
100
AcDbEntity
  8
0
  6
Continuous
 62
     7
 48
0.005
100
AcDbLine
 10
444.9644747680871
 20
-25.68799205933697
 30
0.0
 11
444.6645017680878
 21
-25.68799205933697
 31
0.0
  0
ARC
  5
3B5E
330
A
100
AcDbEntity
  8
0
  6
Continuous
 62
     7
100
AcDbCircle
 10
444.2502707680875
 20
-22.18800005933704
 30
0.0
 40
1.000000499999996
100
AcDbArc
 50
270.0000009999997
 51
314.9999890000003
  0
LINE
  5
3B5F
330
A
100
AcDbEntity
  8
0
  6
Continuous
 62
     7
 48
0.166667
100
AcDbLine
 10
454.1644712680875
 20
-25.18800005933698
 30
0.0
 11
454.1644712680875
 21
-35.18800805933696
 31
0.0
  0
LINE
  5
3B60
330
A
100
AcDbEntity
  8
0
  6
Continuous
 62
     7
 48
0.220497
100
AcDbLine
 10
463.0644947680874
 20
-23.57310155933697
 30
0.0
 11
463.0644947680874
 21
-36.80290655933706
 31
0.0
  0
LINE
  5
3B61
330
A
100
AcDbEntity
  8
0
  6
Continuous
 62
     7
 48
0.166667
100
AcDbLine
 10
454.1644712680875
 20
-55.18800005933704
 30
0.0
 11
454.1644712680875
 21
-65.18800805933697
 31
0.0
  0
LINE
  5
3B62
330
A
100
AcDbEntity
  8
0
  6
Continuous
 62
     7
 48
0.220497
100
AcDbLine
 10
463.0644947680874
 20
-53.57310155933706
 30
0.0
 11
463.0644947680874
 21
-66.80290655933696
 31
0.0
  0
LINE
  5
3B63
330
A
100
AcDbEntity
  8
0
  6
Continuous
 62
     7
 48
0.189999
100
AcDbLine
 10
447.6645017680876
 20
-80.18800805933697
 30
0.0
 11
459.0644642680878
 21
-80.18800805933697
 31
0.0
  0
ARC
  5
3B64
330
A
100
AcDbEntity
  8
0
  6
Continuous
 62
     7
100
AcDbCircle
 10
462.5644802680875
 20
-81.07309355933697
 30
0.0
 40
0.4999995000000001
100
AcDbArc
 50
0.0
 51
115.0168869999999
  0
LINE
  5
3B65
330
A
100
AcDbEntity
  8
0
  6
Continuous
 62
     7
 48
0.189999
100
AcDbLine
 10
459.0644642680878
 20
-67.68799205933706
 30
0.0
 11
447.6645017680876
 21
-67.68799205933706
 31
0.0
  0
LINE
  5
3B66
330
A
100
AcDbEntity
  8
0
  6
Continuous
 62
     7
 48
0.083333
100
AcDbLine
 10
454.1644712680875
 20
-65.18800805933697
 30
0.0
 11
449.1645017680879
 21
-65.18800805933697
 31
0.0
  0
LINE
  5
3B67
330
A
100
AcDbEntity
  8
0
  6
Continuous
 62
     7
 48
0.048591
100
AcDbLine
 10
449.1645017680879
 20
-65.18800805933697
 30
0.0
 11
447.6645017680876
 21
-67.68799205933706
 31
0.0
  0
LINE
  5
3B68
330
A
100
AcDbEntity
  8
0
  6
Continuous
 62
     7
 48
0.042091
100
AcDbLine
 10
462.3530387680873
 20
-67.25600105933715
 30
0.0
 11
460.0644947680875
 21
-66.18799205933718
 31
0.0
  0
LINE
  5
3B69
330
A
100
AcDbEntity
  8
0
  6
Continuous
 62
     7
 48
0.030047
100
AcDbLine
 10
460.0644947680875
 20
-66.18799205933718
 30
0.0
 11
459.0644642680878
 21
-67.68799205933706
 31
0.0
  0
ARC
  5
3B6A
330
A
100
AcDbEntity
  8
0
  6
Continuous
 62
     7
100
AcDbCircle
 10
462.5644802680875
 20
-66.80290655933696
 30
0.0
 40
0.4999995000000001
100
AcDbArc
 50
244.9830949999998
 51
0.0000100000001922
  0
LINE
  5
3B6B
330
A
100
AcDbEntity
  8
0
  6
Continuous
 62
     7
 48
0.189999
100
AcDbLine
 10
447.6645017680876
 20
-52.68799205933746
 30
0.0
 11
459.0644642680878
 21
-52.68799205933746
 31
0.0
  0
LINE
  5
3B6C
330
A
100
AcDbEntity
  8
0
  6
Continuous
 62
     7
 48
0.083333
100
AcDbLine
 10
449.1645017680879
 20
-55.18800005933704
 30
0.0
 11
454.1644712680875
 21
-55.18800005933704
 31
0.0
  0
LINE
  5
3B6D
330
A
100
AcDbEntity
  8
0
  6
Continuous
 62
     7
 48
0.048591
100
AcDbLine
 10
447.6645017680876
 20
-52.68799205933746
 30
0.0
 11
449.1645017680879
 21
-55.18800005933704
 31
0.0
  0
LINE
  5
3B6E
330
A
100
AcDbEntity
  8
0
  6
Continuous
 62
     7
 48
0.042091
100
AcDbLine
 10
460.0644947680875
 20
-54.18799205933741
 30
0.0
 11
462.3530387680873
 21
-53.12000705933694
 31
0.0
  0
LINE
  5
3B6F
330
A
100
AcDbEntity
  8
0
  6
Continuous
 62
     7
 48
0.030047
100
AcDbLine
 10
459.0644642680878
 20
-52.68799205933746
 30
0.0
 11
460.0644947680875
 21
-54.18799205933741
 31
0.0
  0
ARC
  5
3B70
330
A
100
AcDbEntity
  8
0
  6
Continuous
 62
     7
100
AcDbCircle
 10
462.5644802680875
 20
-53.57310155933706
 30
0.0
 40
0.4999995000000001
100
AcDbArc
 50
0.0
 51
115.0168869999999
  0
LINE
  5
3B71
330
A
100
AcDbEntity
  8
0
  6
Continuous
 62
     7
 48
0.189999
100
AcDbLine
 10
459.0644642680878
 20
-37.68799205933717
 30
0.0
 11
447.6645017680876
 21
-37.68799205933717
 31
0.0
  0
LINE
  5
3B72
330
A
100
AcDbEntity
  8
0
  6
Continuous
 62
     7
 48
0.083333
100
AcDbLine
 10
454.1644712680875
 20
-35.18800805933696
 30
0.0
 11
449.1645017680879
 21
-35.18800805933696
 31
0.0
  0
LINE
  5
3B73
330
A
100
AcDbEntity
  8
0
  6
Continuous
 62
     7
 48
0.048591
100
AcDbLine
 10
449.1645017680879
 20
-35.18800805933696
 30
0.0
 11
447.6645017680876
 21
-37.68799205933717
 31
0.0
  0
LINE
  5
3B74
330
A
100
AcDbEntity
  8
0
  6
Continuous
 62
     7
 48
0.042091
100
AcDbLine
 10
462.3530387680873
 20
-37.25600105933716
 30
0.0
 11
460.0644947680875
 21
-36.18799205933717
 31
0.0
  0
LINE
  5
3B75
330
A
100
AcDbEntity
  8
0
  6
Continuous
 62
     7
 48
0.030047
100
AcDbLine
 10
460.0644947680875
 20
-36.18799205933717
 30
0.0
 11
459.0644642680878
 21
-37.68799205933717
 31
0.0
  0
ARC
  5
3B76
330
A
100
AcDbEntity
  8
0
  6
Continuous
 62
     7
100
AcDbCircle
 10
462.5644802680875
 20
-36.80290655933706
 30
0.0
 40
0.4999995000000001
100
AcDbArc
 50
244.9830949999998
 51
0.0000100000001922
  0
LINE
  5
3B77
330
A
100
AcDbEntity
  8
0
  6
Continuous
 62
     7
 48
0.45
100
AcDbLine
 10
447.6645017680876
 20
-15.68800805933696
 30
0.0
 11
447.6645017680876
 21
11.31199194066303
 31
0.0
  0
LINE
  5
3B78
330
A
100
AcDbEntity
  8
0
  6
Continuous
 62
     7
 48
0.048591
100
AcDbLine
 10
447.6645017680876
 20
-22.68799205933702
 30
0.0
 11
449.1645017680879
 21
-25.18800005933698
 31
0.0
  0
LINE
  5
3B79
330
A
100
AcDbEntity
  8
0
  6
Continuous
 62
     7
 48
0.030047
100
AcDbLine
 10
459.0644642680878
 20
-22.68799205933702
 30
0.0
 11
460.0644947680875
 21
-24.18799205933703
 31
0.0
  0
LINE
  5
3B7A
330
A
100
AcDbEntity
  8
0
  6
Continuous
 62
     7
 48
0.042091
100
AcDbLine
 10
460.0644947680875
 20
-24.18799205933703
 30
0.0
 11
462.3530387680873
 21
-23.12000705933714
 31
0.0
  0
ARC
  5
3B7B
330
A
100
AcDbEntity
  8
0
  6
Continuous
 62
     7
100
AcDbCircle
 10
462.5644802680875
 20
-23.57310155933697
 30
0.0
 40
0.4999995000000001
100
AcDbArc
 50
0.0
 51
115.0168869999999
  0
LINE
  5
3B7C
330
A
100
AcDbEntity
  8
0
  6
Continuous
 62
     7
 48
0.083333
100
AcDbLine
 10
449.1645017680879
 20
-25.18800005933698
 30
0.0
 11
454.1644712680875
 21
-25.18800005933698
 31
0.0
  0
LINE
  5
3B7D
330
A
100
AcDbEntity
  8
0
  6
Continuous
 62
     7
 48
0.189999
100
AcDbLine
 10
447.6645017680876
 20
-22.68799205933702
 30
0.0
 11
459.0644642680878
 21
-22.68799205933702
 31
0.0
  0
LINE
  5
3B7E
330
A
100
AcDbEntity
  8
0
  6
Continuous
 62
     7
 48
0.041666
100
AcDbLine
 10
447.6645017680876
 20
-18.18799205933717
 30
0.0
 11
447.6645017680876
 21
-15.68800805933696
 31
0.0
  0
ARC
  5
3B7F
330
A
100
AcDbEntity
  8
0
  6
Continuous
 62
     7
100
AcDbCircle
 10
446.6644712680875
 20
-19.77377705933696
 30
0.0
 40
1.000000499999996
100
AcDbArc
 50
314.9999890000003
 51
0.0000100000001922
  0
LINE
  5
3B80
330
A
100
AcDbEntity
  8
0
  6
Continuous
 62
     7
 48
0.02643
100
AcDbLine
 10
447.6645017680876
 20
-18.18799205933717
 30
0.0
 11
447.6645017680876
 21
-19.77377705933696
 31
0.0
  0
LINE
  5
3B81
330
A
100
AcDbEntity
  8
0
  6
Continuous
 62
     7
 48
0.151667
100
AcDbLine
 10
462.6645017680877
 20
-2.488003559336988
 30
0.0
 11
462.6645017680877
 21
6.611995440663037
 31
0.0
  0
LINE
  5
3B82
330
A
100
AcDbEntity
  8
0
  6
Continuous
 62
     7
 48
0.151667
100
AcDbLine
 10
455.6644712680873
 20
6.611995440663037
 30
0.0
 11
455.6644712680873
 21
-2.488003559336988
 31
0.0
  0
LINE
  5
3B83
330
A
100
AcDbEntity
  8
0
  6
Continuous
 62
     7
 48
0.116667
100
AcDbLine
 10
462.6645017680877
 20
-2.488003559336988
 30
0.0
 11
455.6644712680873
 21
-2.488003559336988
 31
0.0
  0
LINE
  5
3B84
330
A
100
AcDbEntity
  8
0
  6
Continuous
 62
     7
 48
0.153333
100
AcDbLine
 10
453.6645017680879
 20
-11.68800005933694
 30
0.0
 11
453.6645017680879
 21
-2.488003559336988
 31
0.0
  0
LINE
  5
3B85
330
A
100
AcDbEntity
  8
0
  6
Continuous
 62
     7
 48
0.153333
100
AcDbLine
 10
447.6645017680876
 20
-2.488003559336988
 30
0.0
 11
447.6645017680876
 21
-11.68800005933694
 31
0.0
  0
LINE
  5
3B86
330
A
100
AcDbEntity
  8
0
  6
Continuous
 62
     7
 48
0.1
100
AcDbLine
 10
453.6645017680879
 20
-11.68800005933694
 30
0.0
 11
447.6645017680876
 21
-11.68800005933694
 31
0.0
  0
LINE
  5
3B87
330
A
100
AcDbEntity
  8
0
  6
Continuous
 62
     7
 48
0.133333
100
AcDbLine
 10
455.6644712680873
 20
-2.488003559336988
 30
0.0
 11
447.6645017680876
 21
-2.488003559336988
 31
0.0
  0
LINE
  5
3B88
330
A
100
AcDbEntity
  8
0
  6
Continuous
 62
     7
 48
0.116667
100
AcDbLine
 10
462.6645017680877
 20
6.611995440663037
 30
0.0
 11
455.6644712680873
 21
6.611995440663037
 31
0.0
  0
LINE
  5
3B89
330
A
100
AcDbEntity
  8
0
  6
Continuous
 62
     7
 48
0.250001
100
AcDbLine
 10
462.6645017680877
 20
7.811999940663043
 30
0.0
 11
447.6644552680879
 21
7.811999940663043
 31
0.0
  0
LINE
  5
3B8A
330
A
100
AcDbEntity
  8
0
  6
Continuous
 62
     7
 48
0.02
100
AcDbLine
 10
462.6645017680877
 20
6.611995440663037
 30
0.0
 11
462.6645017680877
 21
7.811999940663043
 31
0.0
  0
LINE
  5
3B8D
330
A
100
AcDbEntity
  8
0
  6
Continuous
 62
     7
100
AcDbLine
 10
402.6645017680878
 20
12.31199994066304
 30
0.0
 11
446.6644712680875
 21
12.31199994066304
 31
0.0
  0
LINE
  5
3B8E
330
A
100
AcDbEntity
  8
0
  6
Continuous
 62
     7
 48
0.198668
100
AcDbLine
 10
402.6644102680871
 20
13.21200894066294
 30
0.0
 11
414.5844842680878
 21
13.21200894066294
 31
0.0
  0
LINE
  5
3B90
330
A
100
AcDbEntity
  8
0
  6
Continuous
 62
     7
 48
0.003333
100
AcDbLine
 10
405.6645017680876
 20
12.61199544066294
 30
0.0
 11
405.6645017680876
 21
12.31199994066304
 31
0.0
  0
LINE
  5
3B93
330
A
100
AcDbEntity
  8
0
  6
Continuous
 62
     7
 48
0.133334
100
AcDbLine
 10
421.6644857680877
 20
12.61199544066294
 30
0.0
 11
405.6645017680876
 21
12.61199544066294
 31
0.0
  0
LINE
  5
3B95
330
A
100
AcDbEntity
  8
0
  6
Continuous
 62
     7
 48
0.011181
100
AcDbLine
 10
414.5844842680878
 20
13.21200894066294
 30
0.0
 11
414.8845022680878
 21
12.61195044066303
 31
0.0
  0
LINE
  5
3B96
330
A
100
AcDbEntity
  8
0
  6
Continuous
 62
     7
 48
0.001667
100
AcDbLine
 10
421.6644857680877
 20
12.31199994066304
 30
0.0
 11
421.6644857680877
 21
12.61199544066294
 31
0.0
  0
LINE
  5
3B99
330
A
100
AcDbEntity
  8
0
  6
DASHED
 62
     4
100
AcDbLine
 10
275.1218503576582
 20
33.61353497956203
 30
0.0
 11
372.4070552680876
 21
33.61352844066273
 31
0.0
  0
VIEWPORT
  5
3878
330
B
100
AcDbEntity
 67
     1
  8
0
  6
Continuous
 62
     7
100
AcDbViewport
 10
0.0
 20
0.0
 30
0.0
 40
1000.0
 41
1000.0
 68
     1
 69
     1
 12
0.0
 22
0.0
 13
0.0
 23
0.0
 14
1.0
 24
1.0
 15
1.0
 25
1.0
 16
0.0
 26
0.0
 36
1.0
 17
0.0
 27
0.0
 37
0.0
 42
50.0
 43
0.0
 44
0.0
 45
1000.0
 50
0.0
 51
0.0
 72
   100
 90
    32800
  1

281
     0
 71
     1
 74
     0
110
0.0
120
0.0
130
0.0
111
1.0
121
0.0
131
0.0
112
0.0
122
1.0
132
0.0
 79
     0
146
0.0
  0
ENDSEC
  0
SECTION
  2
OBJECTS
  0
DICTIONARY
  5
19
330
0
100
AcDbDictionary
281
     1
  3
ACAD_GROUP
350
1A
  3
ACAD_LAYOUT
350
387F
  3
ACAD_MLINESTYLE
350
1B
  3
ACAD_PLOTSETTINGS
350
3880
  3
ACAD_PLOTSTYLENAME
350
387D
  0
DICTIONARY
  5
1A
102
{ACAD_REACTORS
330
19
102
}
330
19
100
AcDbDictionary
281
     1
  0
DICTIONARY
  5
387F
102
{ACAD_REACTORS
330
19
102
}
330
19
100
AcDbDictionary
281
     1
  3
Model
350
3881
  3
ﾚｲｱｳﾄ1
350
3882
  0
DICTIONARY
  5
1B
102
{ACAD_REACTORS
330
19
102
}
330
19
100
AcDbDictionary
281
     1
  3
STANDARD
350
1C
  0
DICTIONARY
  5
3880
102
{ACAD_REACTORS
330
19
102
}
330
19
100
AcDbDictionary
281
     1
  0
ACDBDICTIONARYWDFLT
  5
387D
102
{ACAD_REACTORS
330
19
102
}
330
19
100
AcDbDictionary
281
     1
  3
Normal
350
387E
100
AcDbDictionaryWithDefault
340
387E
  0
LAYOUT
  5
3881
102
{ACAD_REACTORS
330
387F
102
}
330
387F
100
AcDbPlotSettings
  1

  2
Canon iR-ADV C5030/5035 LIPSLX
  4

  6

 40
0.0
 41
0.0
 42
0.0
 43
0.0
 44
0.0
 45
0.0
 46
0.0
 47
0.0
 48
0.0
 49
0.0
140
0.0
141
0.0
142
1.0
143
1.0
 70
  1712
 72
     0
 73
     0
 74
     0
  7

 75
     0
147
1.0
148
0.0
149
0.0
100
AcDbLayout
  1
Model
 70
     1
 71
     0
 10
0.0
 20
0.0
 11
12.0
 21
9.0
 12
0.0
 22
0.0
 32
0.0
 14
0.0
 24
0.0
 34
0.0
 15
0.0
 25
0.0
 35
0.0
146
0.0
 13
0.0
 23
0.0
 33
0.0
 16
1.0
 26
0.0
 36
0.0
 17
0.0
 27
1.0
 37
0.0
 76
     0
330
A
  0
LAYOUT
  5
3882
102
{ACAD_REACTORS
330
387F
102
}
330
387F
100
AcDbPlotSettings
  1

  2
Canon iR-ADV C5030/5035 LIPSLX
  4

  6

 40
0.0
 41
0.0
 42
0.0
 43
0.0
 44
0.0
 45
0.0
 46
0.0
 47
0.0
 48
0.0
 49
0.0
140
0.0
141
0.0
142
1.0
143
1.0
 70
   688
 72
     0
 73
     0
 74
     5
  7

 75
    16
147
1.0
148
0.0
149
0.0
100
AcDbLayout
  1
ﾚｲｱｳﾄ1
 70
     1
 71
     1
 10
0.0
 20
0.0
 11
420.0
 21
297.0
 12
0.0
 22
0.0
 32
0.0
 14
0.0
 24
0.0
 34
0.0
 15
401.4999999999998
 25
275.0
 35
2.0
146
0.0
 13
0.0
 23
0.0
 33
0.0
 16
1.0
 26
0.0
 36
0.0
 17
0.0
 27
1.0
 37
0.0
 76
     0
330
B
331
3878
  0
MLINESTYLE
  5
1C
102
{ACAD_REACTORS
330
1B
102
}
330
1B
100
AcDbMlineStyle
  2
STANDARD
 70
     0
  3

 62
     0
 51
90.0
 52
90.0
 71
     2
 49
0.5
 62
   256
  6
BYLAYER
 49
-0.5
 62
   256
  6
BYLAYER
  0
ACDBPLACEHOLDER
  5
387E
102
{ACAD_REACTORS
330
387D
102
}
330
387D
  0
ENDSEC
  0
EOF
