  0
SECTION
  2
HEADER
  9
$ACADVER
  1
AC1015
  9
$ACADMAINTVER
 70
    10
  9
$DWGCODEPAGE
  3
ANSI_932
  9
$INSBASE
 10
0.0
 20
0.0
 30
0.0
  9
$EXTMIN
 10
40.77570445690912
 20
127.1973398384541
 30
0.0
  9
$EXTMAX
 10
577.5499170663684
 20
273.164240684468
 30
0.0
  9
$LIMMIN
 10
0.0
 20
0.0
  9
$LIMMAX
 10
420.0
 20
297.0
  9
$ORTHOMODE
 70
     0
  9
$REGENMODE
 70
     1
  9
$FILLMODE
 70
     1
  9
$QTEXTMODE
 70
     0
  9
$MIRRTEXT
 70
     1
  9
$LTSCALE
 40
1.0
  9
$ATTMODE
 70
     1
  9
$TEXTSIZE
 40
0.0
  9
$TRACEWID
 40
1.0
  9
$TEXTSTYLE
  7
STANDARD
  9
$CLAYER
  8
0
  9
$CELTYPE
  6
BYLAYER
  9
$CECOLOR
 62
   256
  9
$CELTSCALE
 40
1.0
  9
$DISPSILH
 70
     0
  9
$DIMSCALE
 40
1.0
  9
$DIMASZ
 40
2.5
  9
$DIMEXO
 40
0.625
  9
$DIMDLI
 40
3.75
  9
$DIMRND
 40
0.0
  9
$DIMDLE
 40
0.0
  9
$DIMEXE
 40
1.25
  9
$DIMTP
 40
0.0
  9
$DIMTM
 40
0.0
  9
$DIMTXT
 40
2.5
  9
$DIMCEN
 40
2.5
  9
$DIMTSZ
 40
0.0
  9
$DIMTOL
 70
     0
  9
$DIMLIM
 70
     0
  9
$DIMTIH
 70
     0
  9
$DIMTOH
 70
     0
  9
$DIMSE1
 70
     0
  9
$DIMSE2
 70
     0
  9
$DIMTAD
 70
     1
  9
$DIMZIN
 70
     8
  9
$DIMBLK
  1

  9
$DIMASO
 70
     1
  9
$DIMSHO
 70
     1
  9
$DIMPOST
  1

  9
$DIMAPOST
  1

  9
$DIMALT
 70
     0
  9
$DIMALTD
 70
     3
  9
$DIMALTF
 40
0.03937
  9
$DIMLFAC
 40
1.0
  9
$DIMTOFL
 70
     1
  9
$DIMTVP
 40
0.0
  9
$DIMTIX
 70
     0
  9
$DIMSOXD
 70
     0
  9
$DIMSAH
 70
     0
  9
$DIMBLK1
  1

  9
$DIMBLK2
  1

  9
$DIMSTYLE
  2
STANDARD
  9
$DIMCLRD
 70
     0
  9
$DIMCLRE
 70
     0
  9
$DIMCLRT
 70
     0
  9
$DIMTFAC
 40
1.0
  9
$DIMGAP
 40
0.625
  9
$DIMJUST
 70
     0
  9
$DIMSD1
 70
     0
  9
$DIMSD2
 70
     0
  9
$DIMTOLJ
 70
     0
  9
$DIMTZIN
 70
     8
  9
$DIMALTZ
 70
     0
  9
$DIMALTTZ
 70
     0
  9
$DIMUPT
 70
     0
  9
$DIMDEC
 70
     2
  9
$DIMTDEC
 70
     2
  9
$DIMALTU
 70
     2
  9
$DIMALTTD
 70
     3
  9
$DIMTXSTY
  7
STANDARD
  9
$DIMAUNIT
 70
     0
  9
$DIMADEC
 70
     0
  9
$DIMALTRND
 40
0.0
  9
$DIMAZIN
 70
     0
  9
$DIMDSEP
 70
    46
  9
$DIMATFIT
 70
     3
  9
$DIMFRAC
 70
     0
  9
$DIMLDRBLK
  1

  9
$DIMLUNIT
 70
     2
  9
$DIMLWD
 70
    -2
  9
$DIMLWE
 70
    -2
  9
$DIMTMOVE
 70
     0
  9
$LUNITS
 70
     2
  9
$LUPREC
 70
     4
  9
$SKETCHINC
 40
1.0
  9
$FILLETRAD
 40
2.5
  9
$AUNITS
 70
     0
  9
$AUPREC
 70
     0
  9
$MENU
  1
.
  9
$ELEVATION
 40
0.0
  9
$PELEVATION
 40
0.0
  9
$THICKNESS
 40
0.0
  9
$LIMCHECK
 70
     0
  9
$CHAMFERA
 40
2.5
  9
$CHAMFERB
 40
2.5
  9
$CHAMFERC
 40
0.0
  9
$CHAMFERD
 40
0.0
  9
$SKPOLY
 70
     0
  9
$TDCREATE
 40
2312275.082422708
  9
$TDUCREATE
 40
2312274.707422708
  9
$TDUPDATE
 40
2456493.788616134
  9
$TDUUPDATE
 40
2456493.413616134
  9
$TDINDWG
 40
0.2658430903
  9
$TDUSRTIMER
 40
0.2658423727
  9
$USRTIMER
 70
     1
  9
$ANGBASE
 50
0.0
  9
$ANGDIR
 70
     0
  9
$PDMODE
 70
     0
  9
$PDSIZE
 40
0.0
  9
$PLINEWID
 40
0.0
  9
$SPLFRAME
 70
     0
  9
$SPLINETYPE
 70
     6
  9
$SPLINESEGS
 70
     8
  9
$HANDSEED
  5
4E0E
  9
$SURFTAB1
 70
     6
  9
$SURFTAB2
 70
     6
  9
$SURFTYPE
 70
     6
  9
$SURFU
 70
     6
  9
$SURFV
 70
     6
  9
$UCSBASE
  2

  9
$UCSNAME
  2

  9
$UCSORG
 10
0.0
 20
0.0
 30
0.0
  9
$UCSXDIR
 10
1.0
 20
0.0
 30
0.0
  9
$UCSYDIR
 10
0.0
 20
1.0
 30
0.0
  9
$UCSORTHOREF
  2

  9
$UCSORTHOVIEW
 70
     0
  9
$UCSORGTOP
 10
0.0
 20
0.0
 30
0.0
  9
$UCSORGBOTTOM
 10
0.0
 20
0.0
 30
0.0
  9
$UCSORGLEFT
 10
0.0
 20
0.0
 30
0.0
  9
$UCSORGRIGHT
 10
0.0
 20
0.0
 30
0.0
  9
$UCSORGFRONT
 10
0.0
 20
0.0
 30
0.0
  9
$UCSORGBACK
 10
0.0
 20
0.0
 30
0.0
  9
$PUCSBASE
  2

  9
$PUCSNAME
  2

  9
$PUCSORG
 10
0.0
 20
0.0
 30
0.0
  9
$PUCSXDIR
 10
1.0
 20
0.0
 30
0.0
  9
$PUCSYDIR
 10
0.0
 20
1.0
 30
0.0
  9
$PUCSORTHOREF
  2

  9
$PUCSORTHOVIEW
 70
     0
  9
$PUCSORGTOP
 10
0.0
 20
0.0
 30
0.0
  9
$PUCSORGBOTTOM
 10
0.0
 20
0.0
 30
0.0
  9
$PUCSORGLEFT
 10
0.0
 20
0.0
 30
0.0
  9
$PUCSORGRIGHT
 10
0.0
 20
0.0
 30
0.0
  9
$PUCSORGFRONT
 10
0.0
 20
0.0
 30
0.0
  9
$PUCSORGBACK
 10
0.0
 20
0.0
 30
0.0
  9
$USERI1
 70
     0
  9
$USERI2
 70
     0
  9
$USERI3
 70
     0
  9
$USERI4
 70
     0
  9
$USERI5
 70
     0
  9
$USERR1
 40
0.0
  9
$USERR2
 40
0.0
  9
$USERR3
 40
0.0
  9
$USERR4
 40
0.0
  9
$USERR5
 40
0.0
  9
$WORLDVIEW
 70
     1
  9
$SHADEDGE
 70
     3
  9
$SHADEDIF
 70
    70
  9
$TILEMODE
 70
     1
  9
$MAXACTVP
 70
    48
  9
$PINSBASE
 10
0.0
 20
0.0
 30
0.0
  9
$PLIMCHECK
 70
     0
  9
$PEXTMIN
 10
0.0
 20
0.0
 30
0.0
  9
$PEXTMAX
 10
401.4999999999998
 20
275.0
 30
2.0
  9
$PLIMMIN
 10
0.0
 20
0.0
  9
$PLIMMAX
 10
420.0
 20
297.0
  9
$UNITMODE
 70
     0
  9
$VISRETAIN
 70
     0
  9
$PLINEGEN
 70
     0
  9
$PSLTSCALE
 70
     1
  9
$TREEDEPTH
 70
  3020
  9
$CMLSTYLE
  2
STANDARD
  9
$CMLJUST
 70
     0
  9
$CMLSCALE
 40
20.0
  9
$PROXYGRAPHICS
 70
     1
  9
$MEASUREMENT
 70
     1
  9
$CELWEIGHT
370
    -1
  9
$ENDCAPS
280
     0
  9
$JOINSTYLE
280
     0
  9
$LWDISPLAY
290
     0
  9
$INSUNITS
 70
     0
  9
$HYPERLINKBASE
  1

  9
$STYLESHEET
  1

  9
$XEDIT
290
     1
  9
$CEPSNTYPE
380
     0
  9
$PSTYLEMODE
290
     1
  9
$FINGERPRINTGUID
  2
{25BC9852-0A50-4F88-B240-B5CEF14A885C}
  9
$VERSIONGUID
  2
{861BB460-D8D8-4E2D-9E45-30274EA0A005}
  9
$EXTNAMES
290
     1
  9
$PSVPSCALE
 40
0.0
  9
$OLESTARTUP
290
     0
  0
ENDSEC
  0
SECTION
  2
CLASSES
  0
CLASS
  1
LWPOLYLINE
  2
AcDbPolyline
  3
AutoCAD 2000
 90
    32768
280
     0
281
     1
  0
CLASS
  1
IMAGE
  2
AcDbRasterImage
  3
ISM
 90
    32895
280
     0
281
     1
  0
CLASS
  1
OLE2FRAME
  2
AcDbOle2Frame
  3
AutoCAD 2000
 90
    32768
280
     0
281
     1
  0
CLASS
  1
HATCH
  2
AcDbHatch
  3
AutoCAD 2000
 90
    32768
280
     0
281
     1
  0
CLASS
  1
DICTIONARYVAR
  2
AcDbDictionaryVar
  3
AutoCAD 2000
 90
    32768
280
     0
281
     0
  0
CLASS
  1
RASTERVARIABLES
  2
AcDbRasterVariables
  3
ISM
 90
    32768
280
     0
281
     0
  0
CLASS
  1
IMAGEDEF
  2
AcDbRasterImageDef
  3
ISM
 90
    32768
280
     0
281
     0
  0
CLASS
  1
IMAGEDEF_REACTOR
  2
AcDbRasterImageDefReactor
  3
ISM
 90
    32769
280
     0
281
     0
  0
CLASS
  1
IDBUFFER
  2
AcDbIdBuffer
  3
AutoCAD 2000
 90
    32768
280
     0
281
     0
  0
CLASS
  1
SPATIAL_FILTER
  2
AcDbSpatialFilter
  3
AutoCAD 2000
 90
    32768
280
     0
281
     0
  0
CLASS
  1
XRECORD
  2
AcDbXrecord
  3
AutoCAD 2000
 90
    32768
280
     0
281
     0
  0
CLASS
  1
SORTENTSTABLE
  2
AcDbSortentsTable
  3
AutoCAD 2000
 90
    32768
280
     0
281
     0
  0
CLASS
  1
LAYER_INDEX
  2
AcDbLayerIndex
  3
AutoCAD 2000
 90
    32768
280
     0
281
     0
  0
CLASS
  1
SPATIAL_INDEX
  2
AcDbSpatialIndex
  3
AutoCAD 2000
 90
    32768
280
     0
281
     0
  0
CLASS
  1
OBJECT_PTR
  2
CAseDLPNTableRecord
  3
"ASE-LPNTableRecord"
 90
    32769
280
     0
281
     0
  0
CLASS
  1
LAYOUT
  2
AcDbLayout
  3
AutoCAD 2000
 90
        0
280
     0
281
     0
  0
CLASS
  1
PLOTSETTINGS
  2
AcDbPlotSettings
  3
AutoCAD 2000
 90
    32768
280
     0
281
     0
  0
CLASS
  1
ACDBDICTIONARYWDFLT
  2
AcDbDictionaryWithDefault
  3
AutoCAD 2000
 90
        0
280
     0
281
     0
  0
CLASS
  1
ACDBPLACEHOLDER
  2
AcDbPlaceHolder
  3
AutoCAD 2000
 90
        0
280
     0
281
     0
  0
CLASS
  1
VBA_PROJECT
  2
AcDbVbaProject
  3
"acadvba"
 90
    32768
280
     0
281
     0
  0
CLASS
  1
WIPEOUT
  2
AcDbWipeout
  3
WipeOut|AutoCAD Express Tool|expresstools@autodesk.com
 90
    32895
280
     0
281
     1
  0
CLASS
  1
WIPEOUTVARIABLES
  2
AcDbWipeoutVariables
  3
WipeOut|AutoCAD Express Tool|expresstools@autodesk.com
 90
    32768
280
     0
281
     0
  0
CLASS
  1
RTEXT
  2
RText
  3
RText|AutoCAD Express Tool|expresstools@autodesk.com
 90
    32768
280
     0
281
     1
  0
CLASS
  1
ARCALIGNEDTEXT
  2
AcDbArcAlignedText
  3
ATEXT|AutoCAD Express Tool|expresstools@autodesk.com
 90
    32768
280
     0
281
     1
  0
ENDSEC
  0
SECTION
  2
TABLES
  0
TABLE
  2
VPORT
  5
7
330
0
100
AcDbSymbolTable
 70
     2
  0
VPORT
  5
4E0D
330
7
100
AcDbSymbolTableRecord
100
AcDbViewportTableRecord
  2
*Active
 70
     0
 10
0.0
 20
0.0
 11
1.0
 21
1.0
 12
255.4306384646794
 22
195.3762173179186
 13
0.0
 23
0.0
 14
1.0
 24
1.0
 15
0.0
 25
0.0
 16
0.0
 26
0.0
 36
1.0
 17
0.0
 27
0.0
 37
0.0
 40
252.6077126497213
 41
1.90204081632653
 42
50.0
 43
0.0
 44
0.0
 50
0.0
 51
0.0
 71
     0
 72
   100
 73
     1
 74
     1
 75
     0
 76
     0
 77
     0
 78
     0
281
     0
 65
     1
110
0.0
120
0.0
130
0.0
111
1.0
121
0.0
131
0.0
112
0.0
122
1.0
132
0.0
 79
     0
146
0.0
  0
ENDTAB
  0
TABLE
  2
LTYPE
  5
4
330
0
100
AcDbSymbolTable
 70
     1
  0
LTYPE
  5
11
330
4
100
AcDbSymbolTableRecord
100
AcDbLinetypeTableRecord
  2
BYBLOCK
 70
     0
  3

 72
    65
 73
     0
 40
0.0
  0
LTYPE
  5
12
330
4
100
AcDbSymbolTableRecord
100
AcDbLinetypeTableRecord
  2
BYLAYER
 70
     0
  3

 72
    65
 73
     0
 40
0.0
  0
LTYPE
  5
13
330
4
100
AcDbSymbolTableRecord
100
AcDbLinetypeTableRecord
  2
CONTINUOUS
 70
     0
  3
Solid line
 72
    65
 73
     0
 40
0.0
  0
ENDTAB
  0
TABLE
  2
LAYER
  5
2
330
0
100
AcDbSymbolTable
 70
     1
  0
LAYER
  5
14
330
2
100
AcDbSymbolTableRecord
100
AcDbLayerTableRecord
  2
0
 70
     0
 62
     7
  6
CONTINUOUS
370
    -3
390
4C43
  0
ENDTAB
  0
TABLE
  2
STYLE
  5
3
330
0
100
AcDbSymbolTable
 70
     1
  0
STYLE
  5
17
330
3
100
AcDbSymbolTableRecord
100
AcDbTextStyleTableRecord
  2
STANDARD
 70
     0
 40
0.0
 41
1.0
 50
0.0
 71
     0
 42
0.0
  3
txt
  4

  0
ENDTAB
  0
TABLE
  2
VIEW
  5
5
330
0
100
AcDbSymbolTable
 70
     0
  0
ENDTAB
  0
TABLE
  2
UCS
  5
6
330
0
100
AcDbSymbolTable
 70
     0
  0
ENDTAB
  0
TABLE
  2
APPID
  5
8
330
0
100
AcDbSymbolTable
 70
     1
  0
APPID
  5
16
330
8
100
AcDbSymbolTableRecord
100
AcDbRegAppTableRecord
  2
ACAD
 70
     0
  0
ENDTAB
  0
TABLE
  2
DIMSTYLE
  5
9
330
0
100
AcDbSymbolTable
 70
     1
100
AcDbDimStyleTable
 71
     1
340
18
  0
DIMSTYLE
105
18
330
9
100
AcDbSymbolTableRecord
100
AcDbDimStyleTableRecord
  2
STANDARD
 70
     0
340
17
  0
ENDTAB
  0
TABLE
  2
BLOCK_RECORD
  5
1
330
0
100
AcDbSymbolTable
 70
     1
  0
BLOCK_RECORD
  5
A
330
1
100
AcDbSymbolTableRecord
100
AcDbBlockTableRecord
  2
*MODEL_SPACE
340
4C46
  0
BLOCK_RECORD
  5
B
330
1
100
AcDbSymbolTableRecord
100
AcDbBlockTableRecord
  2
*PAPER_SPACE
340
4C47
  0
ENDTAB
  0
ENDSEC
  0
SECTION
  2
BLOCKS
  0
BLOCK
  5
D
330
A
100
AcDbEntity
  8
0
100
AcDbBlockBegin
  2
*MODEL_SPACE
 70
     0
 10
0.0
 20
0.0
 30
0.0
  3
*MODEL_SPACE
  1

  0
ENDBLK
  5
E
330
A
100
AcDbEntity
  8
0
100
AcDbBlockEnd
  0
BLOCK
  5
F
330
B
100
AcDbEntity
 67
     1
  8
0
100
AcDbBlockBegin
  2
*PAPER_SPACE
 70
     0
 10
0.0
 20
0.0
 30
0.0
  3
*PAPER_SPACE
  1

  0
ENDBLK
  5
10
330
B
100
AcDbEntity
 67
     1
  8
0
100
AcDbBlockEnd
  0
ENDSEC
  0
SECTION
  2
ENTITIES
  0
LINE
  5
4490
330
A
100
AcDbEntity
  8
0
  6
Continuous
 62
     7
100
AcDbLine
 10
384.7615823294742
 20
131.6807843133283
 30
0.0
 11
384.7615823294743
 21
268.6807775424958
 31
0.0
  0
LINE
  5
4492
330
A
100
AcDbEntity
  8
0
  6
Continuous
 62
     7
 48
0.02
100
AcDbLine
 10
384.7615823294742
 20
268.6807775424958
 30
0.0
 11
383.7615974336395
 21
268.6807775424958
 31
0.0
  0
LINE
  5
4493
330
A
100
AcDbEntity
  8
0
  6
Continuous
 62
     7
 48
0.02
100
AcDbLine
 10
384.7615823294742
 20
268.3807900737447
 30
0.0
 11
383.7615974336395
 21
268.3807900737447
 31
0.0
  0
LINE
  5
4494
330
A
100
AcDbEntity
  8
0
  6
Continuous
 62
     7
100
AcDbLine
 10
383.7615974336395
 20
268.3807900737447
 30
0.0
 11
383.7615974336395
 21
131.9807905320776
 31
0.0
  0
LINE
  5
4495
330
A
100
AcDbEntity
  8
0
  6
Continuous
 62
     7
 48
0.02
100
AcDbLine
 10
384.7615823294742
 20
131.9807905320776
 30
0.0
 11
383.7615974336395
 21
131.9807905320776
 31
0.0
  0
LINE
  5
4496
330
A
100
AcDbEntity
  8
0
  6
Continuous
 62
     7
 48
0.02
100
AcDbLine
 10
384.7615823294742
 20
131.6807843133283
 30
0.0
 11
383.7615974336395
 21
131.6807843133283
 31
0.0
  0
LINE
  5
44A9
330
A
100
AcDbEntity
  8
0
  6
Continuous
 62
     7
 48
0.1
100
AcDbLine
 10
384.7615823294742
 20
231.8007838841614
 30
0.0
 11
389.7615818086409
 21
231.8007838841614
 31
0.0
  0
LINE
  5
44BF
330
A
100
AcDbEntity
  8
0
  6
Continuous
 62
     7
 48
0.02
100
AcDbLine
 10
389.7615818086409
 20
231.8007838841614
 30
0.0
 11
390.7616042044721
 21
231.8007838841614
 31
0.0
  0
LINE
  5
44C8
330
A
100
AcDbEntity
  8
0
  6
Continuous
 62
     7
100
AcDbLine
 10
247.8615903398901
 20
268.6807775424958
 30
0.0
 11
383.7615974336395
 21
268.6807775424958
 31
0.0
  0
LINE
  5
44CA
330
A
100
AcDbEntity
  8
0
  6
Continuous
 62
     7
 48
0.14
100
AcDbLine
 10
336.761594829473
 20
212.1807871779115
 30
0.0
 11
336.761594829473
 21
219.1807939487441
 31
0.0
  0
LINE
  5
44CB
330
A
100
AcDbEntity
  8
0
  6
Continuous
 62
     7
 48
0.14
100
AcDbLine
 10
286.7616000378058
 20
212.1807871779115
 30
0.0
 11
286.7616000378058
 21
219.1807939487441
 31
0.0
  0
LINE
  5
44CC
330
A
100
AcDbEntity
  8
0
  6
Continuous
 62
     7
 48
0.04
100
AcDbLine
 10
273.2615976940562
 20
193.680785354995
 30
0.0
 11
273.2615976940562
 21
195.6807926466608
 31
0.0
  0
LINE
  5
44CD
330
A
100
AcDbEntity
  8
0
  6
Continuous
 62
     7
 48
0.14
100
AcDbLine
 10
280.2615844648908
 20
193.680785354995
 30
0.0
 11
273.2615976940562
 21
193.680785354995
 31
0.0
  0
ARC
  5
44CE
330
A
100
AcDbEntity
  8
0
  6
Continuous
 62
     7
100
AcDbCircle
 10
280.2615844648908
 20
200.6807921258273
 30
0.0
 40
7.000000520833281
100
AcDbArc
 50
270.000001
 51
89.99999200000003
  0
LINE
  5
44CF
330
A
100
AcDbEntity
  8
0
  6
Continuous
 62
     7
 48
0.14
100
AcDbLine
 10
273.2615976940562
 20
207.6807801466622
 30
0.0
 11
280.2615844648908
 21
207.6807801466622
 31
0.0
  0
LINE
  5
44D0
330
A
100
AcDbEntity
  8
0
  6
Continuous
 62
     7
 48
0.04
100
AcDbLine
 10
273.2615976940562
 20
205.6807916049942
 30
0.0
 11
273.2615976940562
 21
207.6807801466622
 31
0.0
  0
LINE
  5
44D1
330
A
100
AcDbEntity
  8
0
  6
Continuous
 62
     7
 48
0.04
100
AcDbLine
 10
254.481597150306
 20
181.4807928758276
 30
0.0
 11
254.481597150306
 21
183.4807814174954
 31
0.0
  0
LINE
  5
44D2
330
A
100
AcDbEntity
  8
0
  6
Continuous
 62
     7
 48
0.14
100
AcDbLine
 10
261.4815839211408
 20
181.4807928758276
 30
0.0
 11
254.481597150306
 21
181.4807928758276
 31
0.0
  0
ARC
  5
44D3
330
A
100
AcDbEntity
  8
0
  6
Continuous
 62
     7
100
AcDbCircle
 10
261.4815839211408
 20
188.4807808966621
 30
0.0
 40
7.000000520833281
100
AcDbArc
 50
270.000001
 51
89.99999200000003
  0
LINE
  5
44D4
330
A
100
AcDbEntity
  8
0
  6
Continuous
 62
     7
 48
0.14
100
AcDbLine
 10
254.481597150306
 20
195.4807876674949
 30
0.0
 11
261.4815839211408
 21
195.4807876674949
 31
0.0
  0
LINE
  5
44D5
330
A
100
AcDbEntity
  8
0
  6
Continuous
 62
     7
 48
0.04
100
AcDbLine
 10
254.481597150306
 20
193.4807803758289
 30
0.0
 11
254.481597150306
 21
195.4807876674949
 31
0.0
  0
LINE
  5
44D6
330
A
100
AcDbEntity
  8
0
  6
Continuous
 62
     7
 48
0.01
100
AcDbLine
 10
273.5616039128054
 20
205.6807916049942
 30
0.0
 11
274.0615963607229
 21
205.6807916049942
 31
0.0
  0
LINE
  5
44D7
330
A
100
AcDbEntity
  8
0
  6
Continuous
 62
     7
 48
0.006
100
AcDbLine
 10
273.5616039128054
 20
205.6807916049942
 30
0.0
 11
273.2615976940562
 21
205.6807916049942
 31
0.0
  0
LINE
  5
44D8
330
A
100
AcDbEntity
  8
0
  6
Continuous
 62
     7
 48
0.006
100
AcDbLine
 10
254.481597150306
 20
193.4807803758289
 30
0.0
 11
254.7815846190573
 21
193.4807803758289
 31
0.0
  0
LINE
  5
44D9
330
A
100
AcDbEntity
  8
0
  6
Continuous
 62
     7
 48
0.01
100
AcDbLine
 10
254.7815846190573
 20
193.4807803758289
 30
0.0
 11
255.2815770669749
 21
193.4807803758289
 31
0.0
  0
LINE
  5
44DA
330
A
100
AcDbEntity
  8
0
  6
Continuous
 62
     7
 48
0.2
100
AcDbLine
 10
274.0615963607229
 20
195.6807926466608
 30
0.0
 11
274.0615963607229
 21
205.6807916049942
 31
0.0
  0
LINE
  5
44DB
330
A
100
AcDbEntity
  8
0
  6
Continuous
 62
     7
 48
0.2
100
AcDbLine
 10
255.2815770669749
 20
183.4807814174954
 30
0.0
 11
255.2815770669749
 21
193.4807803758289
 31
0.0
  0
LINE
  5
44E6
330
A
100
AcDbEntity
  8
0
  6
Continuous
 62
     7
 48
0.01
100
AcDbLine
 10
255.2815770669749
 20
183.4807814174954
 30
0.0
 11
254.7815846190573
 21
183.4807814174954
 31
0.0
  0
LINE
  5
44E8
330
A
100
AcDbEntity
  8
0
  6
Continuous
 62
     7
 48
0.01
100
AcDbLine
 10
274.0615963607229
 20
195.6807926466608
 30
0.0
 11
273.5616039128054
 21
195.6807926466608
 31
0.0
  0
LINE
  5
44EA
330
A
100
AcDbEntity
  8
0
  6
Continuous
 62
     7
 48
0.006
100
AcDbLine
 10
254.7815846190573
 20
183.4807814174954
 30
0.0
 11
254.481597150306
 21
183.4807814174954
 31
0.0
  0
LINE
  5
44EB
330
A
100
AcDbEntity
  8
0
  6
Continuous
 62
     7
 48
0.006
100
AcDbLine
 10
273.2615976940562
 20
195.6807926466608
 30
0.0
 11
273.5616039128054
 21
195.6807926466608
 31
0.0
  0
LINE
  5
44EC
330
A
100
AcDbEntity
  8
0
  6
Continuous
 62
     7
100
AcDbLine
 10
296.7615989961393
 20
176.3807921570776
 30
0.0
 11
334.3615775794749
 21
176.3807921570776
 31
0.0
  0
ARC
  5
44ED
330
A
100
AcDbEntity
  8
0
  6
Continuous
 62
     7
100
AcDbCircle
 10
334.3615775794749
 20
175.1807835320785
 30
0.0
 40
1.19999987500001
100
AcDbArc
 50
270.000001
 51
89.99999200000003
  0
LINE
  5
44EE
330
A
100
AcDbEntity
  8
0
  6
Continuous
 62
     7
100
AcDbLine
 10
334.3615775794749
 20
173.9807936570774
 30
0.0
 11
296.7615989961393
 21
173.9807936570774
 31
0.0
  0
ARC
  5
44EF
330
A
100
AcDbEntity
  8
0
  6
Continuous
 62
     7
100
AcDbCircle
 10
296.7615989961393
 20
175.1807835320785
 30
0.0
 40
1.19999987500001
100
AcDbArc
 50
90.00000300000001
 51
270.000001
  0
LINE
  5
44F0
330
A
100
AcDbEntity
  8
0
  6
Continuous
 62
     7
100
AcDbLine
 10
296.7615989961393
 20
181.3807916362442
 30
0.0
 11
334.3615775794749
 21
181.3807916362442
 31
0.0
  0
ARC
  5
44F1
330
A
100
AcDbEntity
  8
0
  6
Continuous
 62
     7
100
AcDbCircle
 10
334.3615775794749
 20
180.180783011245
 30
0.0
 40
1.19999987500001
100
AcDbArc
 50
270.000001
 51
89.99999200000003
  0
LINE
  5
44F2
330
A
100
AcDbEntity
  8
0
  6
Continuous
 62
     7
100
AcDbLine
 10
334.3615775794749
 20
178.980793136244
 30
0.0
 11
296.7615989961393
 21
178.980793136244
 31
0.0
  0
ARC
  5
44F3
330
A
100
AcDbEntity
  8
0
  6
Continuous
 62
     7
100
AcDbCircle
 10
296.7615989961393
 20
180.180783011245
 30
0.0
 40
1.19999987500001
100
AcDbArc
 50
90.00000300000001
 51
270.000001
  0
LINE
  5
44F4
330
A
100
AcDbEntity
  8
0
  6
Continuous
 62
     7
100
AcDbLine
 10
296.7615989961393
 20
186.3807911154109
 30
0.0
 11
334.3615775794749
 21
186.3807911154109
 31
0.0
  0
ARC
  5
44F5
330
A
100
AcDbEntity
  8
0
  6
Continuous
 62
     7
100
AcDbCircle
 10
334.3615775794749
 20
185.1807824904119
 30
0.0
 40
1.19999987500001
100
AcDbArc
 50
270.000001
 51
89.99999200000003
  0
LINE
  5
44F6
330
A
100
AcDbEntity
  8
0
  6
Continuous
 62
     7
100
AcDbLine
 10
334.3615775794749
 20
183.9807926154109
 30
0.0
 11
296.7615989961393
 21
183.9807926154109
 31
0.0
  0
ARC
  5
44F7
330
A
100
AcDbEntity
  8
0
  6
Continuous
 62
     7
100
AcDbCircle
 10
296.7615989961393
 20
185.1807824904119
 30
0.0
 40
1.19999987500001
100
AcDbArc
 50
90.00000300000001
 51
270.000001
  0
LINE
  5
44F8
330
A
100
AcDbEntity
  8
0
  6
Continuous
 62
     7
100
AcDbLine
 10
296.7615989961393
 20
191.3807905945778
 30
0.0
 11
334.3615775794749
 21
191.3807905945778
 31
0.0
  0
ARC
  5
44F9
330
A
100
AcDbEntity
  8
0
  6
Continuous
 62
     7
100
AcDbCircle
 10
334.3615775794749
 20
190.1807819695788
 30
0.0
 40
1.19999987500001
100
AcDbArc
 50
270.000001
 51
89.99999200000003
  0
LINE
  5
44FA
330
A
100
AcDbEntity
  8
0
  6
Continuous
 62
     7
100
AcDbLine
 10
334.3615775794749
 20
188.9807920945774
 30
0.0
 11
296.7615989961393
 21
188.9807920945774
 31
0.0
  0
ARC
  5
44FB
330
A
100
AcDbEntity
  8
0
  6
Continuous
 62
     7
100
AcDbCircle
 10
296.7615989961393
 20
190.1807819695788
 30
0.0
 40
1.19999987500001
100
AcDbArc
 50
90.00000300000001
 51
270.000001
  0
LINE
  5
44FC
330
A
100
AcDbEntity
  8
0
  6
Continuous
 62
     7
100
AcDbLine
 10
296.7615989961393
 20
196.3807900737445
 30
0.0
 11
334.3615775794749
 21
196.3807900737445
 31
0.0
  0
ARC
  5
44FD
330
A
100
AcDbEntity
  8
0
  6
Continuous
 62
     7
100
AcDbCircle
 10
334.3615775794749
 20
195.1807814487455
 30
0.0
 40
1.19999987500001
100
AcDbArc
 50
270.000001
 51
89.99999200000003
  0
LINE
  5
44FE
330
A
100
AcDbEntity
  8
0
  6
Continuous
 62
     7
100
AcDbLine
 10
334.3615775794749
 20
193.9807915737443
 30
0.0
 11
296.7615989961393
 21
193.9807915737443
 31
0.0
  0
ARC
  5
44FF
330
A
100
AcDbEntity
  8
0
  6
Continuous
 62
     7
100
AcDbCircle
 10
296.7615989961393
 20
195.1807814487455
 30
0.0
 40
1.19999987500001
100
AcDbArc
 50
90.00000300000001
 51
270.000001
  0
LINE
  5
4500
330
A
100
AcDbEntity
  8
0
  6
Continuous
 62
     7
100
AcDbLine
 10
296.7615989961393
 20
226.3807869487449
 30
0.0
 11
334.3615775794749
 21
226.3807869487449
 31
0.0
  0
ARC
  5
4501
330
A
100
AcDbEntity
  8
0
  6
Continuous
 62
     7
100
AcDbCircle
 10
334.3615775794749
 20
225.1807783237458
 30
0.0
 40
1.19999987500001
100
AcDbArc
 50
270.000001
 51
89.99999200000003
  0
LINE
  5
4502
330
A
100
AcDbEntity
  8
0
  6
Continuous
 62
     7
100
AcDbLine
 10
334.3615775794749
 20
223.9807884487447
 30
0.0
 11
296.7615989961393
 21
223.9807884487447
 31
0.0
  0
ARC
  5
4503
330
A
100
AcDbEntity
  8
0
  6
Continuous
 62
     7
100
AcDbCircle
 10
296.7615989961393
 20
225.1807783237458
 30
0.0
 40
1.19999987500001
100
AcDbArc
 50
90.00000300000001
 51
270.000001
  0
LINE
  5
4504
330
A
100
AcDbEntity
  8
0
  6
Continuous
 62
     7
100
AcDbLine
 10
296.7615989961393
 20
231.3807864279115
 30
0.0
 11
334.3615775794749
 21
231.3807864279115
 31
0.0
  0
ARC
  5
4505
330
A
100
AcDbEntity
  8
0
  6
Continuous
 62
     7
100
AcDbCircle
 10
334.3615775794749
 20
230.1807778029124
 30
0.0
 40
1.19999987500001
100
AcDbArc
 50
270.000001
 51
89.99999200000003
  0
LINE
  5
4506
330
A
100
AcDbEntity
  8
0
  6
Continuous
 62
     7
100
AcDbLine
 10
334.3615775794749
 20
228.9807879279113
 30
0.0
 11
296.7615989961393
 21
228.9807879279113
 31
0.0
  0
ARC
  5
4507
330
A
100
AcDbEntity
  8
0
  6
Continuous
 62
     7
100
AcDbCircle
 10
296.7615989961393
 20
230.1807778029124
 30
0.0
 40
1.19999987500001
100
AcDbArc
 50
90.00000300000001
 51
270.000001
  0
LINE
  5
4508
330
A
100
AcDbEntity
  8
0
  6
Continuous
 62
     7
100
AcDbLine
 10
296.7615989961393
 20
236.3807859070783
 30
0.0
 11
334.3615775794749
 21
236.3807859070783
 31
0.0
  0
ARC
  5
4509
330
A
100
AcDbEntity
  8
0
  6
Continuous
 62
     7
100
AcDbCircle
 10
334.3615775794749
 20
235.180777282079
 30
0.0
 40
1.19999987500001
100
AcDbArc
 50
270.000001
 51
89.99999200000003
  0
LINE
  5
450A
330
A
100
AcDbEntity
  8
0
  6
Continuous
 62
     7
100
AcDbLine
 10
334.3615775794749
 20
233.9807874070781
 30
0.0
 11
296.7615989961393
 21
233.9807874070781
 31
0.0
  0
ARC
  5
450B
330
A
100
AcDbEntity
  8
0
  6
Continuous
 62
     7
100
AcDbCircle
 10
296.7615989961393
 20
235.180777282079
 30
0.0
 40
1.19999987500001
100
AcDbArc
 50
90.00000300000001
 51
270.000001
  0
LINE
  5
450C
330
A
100
AcDbEntity
  8
0
  6
Continuous
 62
     7
100
AcDbLine
 10
296.7615989961393
 20
241.380785386245
 30
0.0
 11
334.3615775794749
 21
241.380785386245
 31
0.0
  0
ARC
  5
450D
330
A
100
AcDbEntity
  8
0
  6
Continuous
 62
     7
100
AcDbCircle
 10
334.3615775794749
 20
240.1807767612459
 30
0.0
 40
1.19999987500001
100
AcDbArc
 50
270.000001
 51
89.99999200000003
  0
LINE
  5
450E
330
A
100
AcDbEntity
  8
0
  6
Continuous
 62
     7
100
AcDbLine
 10
334.3615775794749
 20
238.9807868862448
 30
0.0
 11
296.7615989961393
 21
238.9807868862448
 31
0.0
  0
ARC
  5
450F
330
A
100
AcDbEntity
  8
0
  6
Continuous
 62
     7
100
AcDbCircle
 10
296.7615989961393
 20
240.1807767612459
 30
0.0
 40
1.19999987500001
100
AcDbArc
 50
90.00000300000001
 51
270.000001
  0
LINE
  5
4510
330
A
100
AcDbEntity
  8
0
  6
Continuous
 62
     7
100
AcDbLine
 10
296.7615989961393
 20
246.3807848654116
 30
0.0
 11
334.3615775794749
 21
246.3807848654116
 31
0.0
  0
ARC
  5
4511
330
A
100
AcDbEntity
  8
0
  6
Continuous
 62
     7
100
AcDbCircle
 10
334.3615775794749
 20
245.1807762404127
 30
0.0
 40
1.19999987500001
100
AcDbArc
 50
270.000001
 51
89.99999200000003
  0
LINE
  5
4512
330
A
100
AcDbEntity
  8
0
  6
Continuous
 62
     7
100
AcDbLine
 10
334.3615775794749
 20
243.9807863654116
 30
0.0
 11
296.7615989961393
 21
243.9807863654116
 31
0.0
  0
ARC
  5
4513
330
A
100
AcDbEntity
  8
0
  6
Continuous
 62
     7
100
AcDbCircle
 10
296.7615989961393
 20
245.1807762404127
 30
0.0
 40
1.19999987500001
100
AcDbArc
 50
90.00000300000001
 51
270.000001
  0
LINE
  5
4514
330
A
100
AcDbEntity
  8
0
  6
Continuous
 62
     7
100
AcDbLine
 10
296.7615989961393
 20
251.3807843445785
 30
0.0
 11
334.3615775794749
 21
251.3807843445785
 31
0.0
  0
ARC
  5
4515
330
A
100
AcDbEntity
  8
0
  6
Continuous
 62
     7
100
AcDbCircle
 10
334.3615775794749
 20
250.1807944695774
 30
0.0
 40
1.19999987500001
100
AcDbArc
 50
270.000001
 51
89.99999200000003
  0
LINE
  5
4516
330
A
100
AcDbEntity
  8
0
  6
Continuous
 62
     7
100
AcDbLine
 10
334.3615775794749
 20
248.9807858445781
 30
0.0
 11
296.7615989961393
 21
248.9807858445781
 31
0.0
  0
ARC
  5
4517
330
A
100
AcDbEntity
  8
0
  6
Continuous
 62
     7
100
AcDbCircle
 10
296.7615989961393
 20
250.1807944695774
 30
0.0
 40
1.19999987500001
100
AcDbArc
 50
90.00000300000001
 51
270.000001
  0
ARC
  5
4518
330
A
100
AcDbEntity
  8
0
  6
Continuous
 62
     7
100
AcDbCircle
 10
334.3615775794749
 20
260.1807934279109
 30
0.0
 40
1.19999987500001
100
AcDbArc
 50
270.000001
 51
89.99999200000003
  0
LINE
  5
4519
330
A
100
AcDbEntity
  8
0
  6
Continuous
 62
     7
100
AcDbLine
 10
334.3615775794749
 20
258.9807848029118
 30
0.0
 11
296.7615989961393
 21
258.9807848029118
 31
0.0
  0
ARC
  5
451A
330
A
100
AcDbEntity
  8
0
  6
Continuous
 62
     7
100
AcDbCircle
 10
296.7615989961393
 20
260.1807934279109
 30
0.0
 40
1.19999987500001
100
AcDbArc
 50
90.00000300000001
 51
270.000001
  0
LINE
  5
451B
330
A
100
AcDbEntity
  8
0
  6
Continuous
 62
     7
100
AcDbLine
 10
296.7615989961393
 20
261.3807833029119
 30
0.0
 11
334.3615775794749
 21
261.3807833029119
 31
0.0
  0
LINE
  5
451C
330
A
100
AcDbEntity
  8
0
  6
Continuous
 62
     7
100
AcDbLine
 10
296.7615989961393
 20
256.3807838237452
 30
0.0
 11
334.3615775794749
 21
256.3807838237452
 31
0.0
  0
ARC
  5
451D
330
A
100
AcDbEntity
  8
0
  6
Continuous
 62
     7
100
AcDbCircle
 10
334.3615775794749
 20
255.180793948744
 30
0.0
 40
1.19999987500001
100
AcDbArc
 50
270.000001
 51
89.99999200000003
  0
LINE
  5
451E
330
A
100
AcDbEntity
  8
0
  6
Continuous
 62
     7
100
AcDbLine
 10
334.3615775794749
 20
253.980785323745
 30
0.0
 11
296.7615989961393
 21
253.980785323745
 31
0.0
  0
ARC
  5
451F
330
A
100
AcDbEntity
  8
0
  6
Continuous
 62
     7
100
AcDbCircle
 10
296.7615989961393
 20
255.180793948744
 30
0.0
 40
1.19999987500001
100
AcDbArc
 50
90.00000300000001
 51
270.000001
  0
ARC
  5
4520
330
A
100
AcDbEntity
  8
0
  6
Continuous
 62
     7
100
AcDbCircle
 10
334.3615775794749
 20
205.1807804070788
 30
0.0
 40
1.19999987500001
100
AcDbArc
 50
270.000001
 51
89.99999200000003
  0
LINE
  5
4521
330
A
100
AcDbEntity
  8
0
  6
Continuous
 62
     7
100
AcDbLine
 10
334.3615775794749
 20
203.9807905320778
 30
0.0
 11
296.7615989961393
 21
203.9807905320778
 31
0.0
  0
ARC
  5
4522
330
A
100
AcDbEntity
  8
0
  6
Continuous
 62
     7
100
AcDbCircle
 10
296.7615989961393
 20
205.1807804070788
 30
0.0
 40
1.19999987500001
100
AcDbArc
 50
90.00000300000001
 51
270.000001
  0
LINE
  5
4523
330
A
100
AcDbEntity
  8
0
  6
Continuous
 62
     7
100
AcDbLine
 10
296.7615989961393
 20
206.380789032078
 30
0.0
 11
334.3615775794749
 21
206.380789032078
 31
0.0
  0
LINE
  5
4524
330
A
100
AcDbEntity
  8
0
  6
Continuous
 62
     7
100
AcDbLine
 10
296.7615989961393
 20
201.3807895529111
 30
0.0
 11
334.3615775794749
 21
201.3807895529111
 31
0.0
  0
ARC
  5
4525
330
A
100
AcDbEntity
  8
0
  6
Continuous
 62
     7
100
AcDbCircle
 10
334.3615775794749
 20
200.180780927912
 30
0.0
 40
1.19999987500001
100
AcDbArc
 50
270.000001
 51
89.99999200000003
  0
LINE
  5
4526
330
A
100
AcDbEntity
  8
0
  6
Continuous
 62
     7
100
AcDbLine
 10
334.3615775794749
 20
198.9807910529111
 30
0.0
 11
296.7615989961393
 21
198.9807910529111
 31
0.0
  0
ARC
  5
4527
330
A
100
AcDbEntity
  8
0
  6
Continuous
 62
     7
100
AcDbCircle
 10
296.7615989961393
 20
200.180780927912
 30
0.0
 40
1.19999987500001
100
AcDbArc
 50
90.00000300000001
 51
270.000001
  0
LINE
  5
4528
330
A
100
AcDbEntity
  8
0
  6
Continuous
 62
     7
 48
0.16
100
AcDbLine
 10
286.7616000378058
 20
212.1807871779115
 30
0.0
 11
278.7615883711404
 21
212.1807871779115
 31
0.0
  0
LINE
  5
4529
330
A
100
AcDbEntity
  8
0
  6
Continuous
 62
     7
 48
0.14
100
AcDbLine
 10
278.7615883711404
 20
219.1807939487441
 30
0.0
 11
278.7615883711404
 21
212.1807871779115
 31
0.0
  0
LINE
  5
452A
330
A
100
AcDbEntity
  8
0
  6
Continuous
 62
     7
 48
0.16
100
AcDbLine
 10
278.7615883711404
 20
219.1807939487441
 30
0.0
 11
286.7616000378058
 21
219.1807939487441
 31
0.0
  0
LINE
  5
452B
330
A
100
AcDbEntity
  8
0
  6
Continuous
 62
     7
 48
0.16
100
AcDbLine
 10
328.7616031628055
 20
219.1807939487441
 30
0.0
 11
336.761594829473
 21
219.1807939487441
 31
0.0
  0
LINE
  5
452C
330
A
100
AcDbEntity
  8
0
  6
Continuous
 62
     7
 48
0.16
100
AcDbLine
 10
336.761594829473
 20
212.1807871779115
 30
0.0
 11
328.7616031628055
 21
212.1807871779115
 31
0.0
  0
LINE
  5
452D
330
A
100
AcDbEntity
  8
0
  6
Continuous
 62
     7
 48
0.14
100
AcDbLine
 10
328.7616031628055
 20
219.1807939487441
 30
0.0
 11
328.7616031628055
 21
212.1807871779115
 31
0.0
  0
LINE
  5
452E
330
A
100
AcDbEntity
  8
0
  6
Continuous
 62
     7
100
AcDbLine
 10
247.8615903398901
 20
131.6807843133283
 30
0.0
 11
383.7615974336395
 21
131.6807843133283
 31
0.0
  0
LINE
  5
452F
330
A
100
AcDbEntity
  8
0
  6
Continuous
 62
     7
100
AcDbLine
 10
383.7615974336395
 20
268.6807775424958
 30
0.0
 11
383.7615974336395
 21
131.6807843133283
 31
0.0
  0
LINE
  5
453F
330
A
100
AcDbEntity
  8
0
  6
Continuous
 62
     7
100
AcDbLine
 10
247.8615903398901
 20
272.1807809279121
 30
0.0
 11
247.8615903398901
 21
128.1807809279121
 31
0.0
  0
LINE
  5
4542
330
A
100
AcDbEntity
  8
0
  6
Continuous
 62
     7
100
AcDbLine
 10
247.2615966523894
 20
272.4807871466615
 30
0.0
 11
247.2615966523894
 21
127.8807922091609
 31
0.0
  0
LINE
  5
4549
330
A
100
AcDbEntity
  8
0
  6
Continuous
 62
     7
 48
0.013416
100
AcDbLine
 10
247.8615903398901
 20
272.1807809279121
 30
0.0
 11
247.2615966523894
 21
272.4807871466615
 31
0.0
  0
LINE
  5
454D
330
A
100
AcDbEntity
  8
0
  6
Continuous
 62
     7
100
AcDbLine
 10
245.7616005586391
 20
272.4807871466615
 30
0.0
 11
245.7616005586391
 21
127.8807922091609
 31
0.0
  0
LINE
  5
454F
330
A
100
AcDbEntity
  8
0
  6
Continuous
 62
     7
 48
0.013416
100
AcDbLine
 10
247.8615903398901
 20
128.1807809279121
 30
0.0
 11
247.2615966523894
 21
127.8807922091609
 31
0.0
  0
LINE
  5
4550
330
A
100
AcDbEntity
  8
0
  6
Continuous
 62
     7
 48
0.03
100
AcDbLine
 10
247.2615966523894
 20
272.4807871466615
 30
0.0
 11
245.7616005586391
 21
272.4807871466615
 31
0.0
  0
LINE
  5
4552
330
A
100
AcDbEntity
  8
0
  6
Continuous
 62
     7
 48
0.03
100
AcDbLine
 10
247.2615966523894
 20
127.8807922091609
 30
0.0
 11
245.7616005586391
 21
127.8807922091609
 31
0.0
  0
LINE
  5
4558
330
A
100
AcDbEntity
  8
0
  6
Continuous
 62
     7
 48
0.01
100
AcDbLine
 10
216.8321785721205
 20
162.438361109414
 30
0.0
 11
216.8321785721205
 21
161.9383686614966
 31
0.0
  0
LINE
  5
4559
330
A
100
AcDbEntity
  8
0
  6
Continuous
 62
     7
 48
0.007412
100
AcDbLine
 10
216.8321785721205
 20
162.438361109414
 30
0.0
 11
216.4615811107243
 21
162.438361109414
 31
0.0
  0
LINE
  5
455A
330
A
100
AcDbEntity
  8
0
  6
Continuous
 62
     7
 48
0.01
100
AcDbLine
 10
216.4615811107243
 20
162.438361109414
 30
0.0
 11
216.4615811107243
 21
161.9383686614966
 31
0.0
  0
LINE
  5
455B
330
A
100
AcDbEntity
  8
0
  6
Continuous
 62
     7
 48
0.002588
100
AcDbLine
 10
216.9615923086399
 20
162.438361109414
 30
0.0
 11
216.8321785721205
 21
162.438361109414
 31
0.0
  0
LINE
  5
455C
330
A
100
AcDbEntity
  8
0
  6
Continuous
 62
     7
 48
0.01
100
AcDbLine
 10
217.2615997773891
 20
162.038351151082
 30
0.0
 11
216.9615923086399
 21
162.438361109414
 31
0.0
  0
LINE
  5
455D
330
A
100
AcDbEntity
  8
0
  6
Continuous
 62
     7
 48
0.01
100
AcDbLine
 10
217.5615872461404
 20
162.438361109414
 30
0.0
 11
217.2615997773891
 21
162.038351151082
 31
0.0
  0
LINE
  5
455E
330
A
100
AcDbEntity
  8
0
  6
Continuous
 62
     7
 48
0.01
100
AcDbLine
 10
217.8615747148918
 20
162.038351151082
 30
0.0
 11
217.5615872461404
 21
162.438361109414
 31
0.0
  0
LINE
  5
455F
330
A
100
AcDbEntity
  8
0
  6
Continuous
 62
     7
 48
0.01
100
AcDbLine
 10
218.1615821836409
 20
162.438361109414
 30
0.0
 11
217.8615747148918
 21
162.038351151082
 31
0.0
  0
LINE
  5
4560
330
A
100
AcDbEntity
  8
0
  6
Continuous
 62
     7
 48
0.01
100
AcDbLine
 10
218.4615884023901
 20
162.038351151082
 30
0.0
 11
218.1615821836409
 21
162.438361109414
 31
0.0
  0
LINE
  5
4561
330
A
100
AcDbEntity
  8
0
  6
Continuous
 62
     7
 48
0.01
100
AcDbLine
 10
218.7615946211398
 20
162.438361109414
 30
0.0
 11
218.4615884023901
 21
162.038351151082
 31
0.0
  0
LINE
  5
4562
330
A
100
AcDbEntity
  8
0
  6
Continuous
 62
     7
 48
0.01
100
AcDbLine
 10
219.0616020898889
 20
162.038351151082
 30
0.0
 11
218.7615946211398
 21
162.438361109414
 31
0.0
  0
LINE
  5
4563
330
A
100
AcDbEntity
  8
0
  6
Continuous
 62
     7
 48
0.01
100
AcDbLine
 10
219.36158955864
 20
162.438361109414
 30
0.0
 11
219.0616020898889
 21
162.038351151082
 31
0.0
  0
LINE
  5
4564
330
A
100
AcDbEntity
  8
0
  6
Continuous
 62
     7
 48
0.01
100
AcDbLine
 10
219.6615970273894
 20
162.038351151082
 30
0.0
 11
219.36158955864
 21
162.438361109414
 31
0.0
  0
LINE
  5
4565
330
A
100
AcDbEntity
  8
0
  6
Continuous
 62
     7
 48
0.01
100
AcDbLine
 10
219.9615844961408
 20
162.438361109414
 30
0.0
 11
219.6615970273894
 21
162.038351151082
 31
0.0
  0
LINE
  5
4566
330
A
100
AcDbEntity
  8
0
  6
Continuous
 62
     7
 48
0.01
100
AcDbLine
 10
221.4615993398891
 20
162.038351151082
 30
0.0
 11
221.1615931211399
 21
162.438361109414
 31
0.0
  0
LINE
  5
4567
330
A
100
AcDbEntity
  8
0
  6
Continuous
 62
     7
 48
0.01
100
AcDbLine
 10
221.1615931211399
 20
162.438361109414
 30
0.0
 11
220.8615856523906
 21
162.038351151082
 31
0.0
  0
LINE
  5
4568
330
A
100
AcDbEntity
  8
0
  6
Continuous
 62
     7
 48
0.01
100
AcDbLine
 10
220.8615856523906
 20
162.038351151082
 30
0.0
 11
220.5615981836394
 21
162.438361109414
 31
0.0
  0
LINE
  5
4569
330
A
100
AcDbEntity
  8
0
  6
Continuous
 62
     7
 48
0.01
100
AcDbLine
 10
220.5615981836394
 20
162.438361109414
 30
0.0
 11
220.2615907148901
 21
162.038351151082
 31
0.0
  0
LINE
  5
456A
330
A
100
AcDbEntity
  8
0
  6
Continuous
 62
     7
 48
0.01
100
AcDbLine
 10
220.2615907148901
 20
162.038351151082
 30
0.0
 11
219.9615844961408
 21
162.438361109414
 31
0.0
  0
LINE
  5
456D
330
A
100
AcDbEntity
  8
0
  6
Continuous
 62
     7
 48
0.01
100
AcDbLine
 10
221.7615868086406
 20
162.438361109414
 30
0.0
 11
221.4615993398891
 21
162.038351151082
 31
0.0
  0
LINE
  5
456F
330
A
100
AcDbEntity
  8
0
  6
Continuous
 62
     7
 48
0.004
100
AcDbLine
 10
221.5615830794742
 20
137.5970161970543
 30
0.0
 11
221.7615868086406
 21
137.5970161970543
 31
0.0
  0
LINE
  5
4577
330
A
100
AcDbEntity
  8
0
  6
Continuous
 62
     7
 48
0.1
100
AcDbLine
 10
219.0616020898889
 20
145.2527503995819
 30
0.0
 11
219.0616020898889
 21
150.2527498787486
 31
0.0
  0
LINE
  5
4578
330
A
100
AcDbEntity
  8
0
  6
Continuous
 62
     7
 48
0.002
100
AcDbLine
 10
218.9615996003058
 20
150.2527498787486
 30
0.0
 11
219.0616020898889
 21
150.2527498787486
 31
0.0
  0
LINE
  5
4579
330
A
100
AcDbEntity
  8
0
  6
Continuous
 62
     7
 48
0.1
100
AcDbLine
 10
218.9615996003058
 20
150.2527498787486
 30
0.0
 11
218.9615996003058
 21
145.2527503995819
 31
0.0
  0
LINE
  5
457A
330
A
100
AcDbEntity
  8
0
  6
Continuous
 62
     7
 48
0.01
100
AcDbLine
 10
219.0616020898889
 20
159.9383613698308
 30
0.0
 11
219.0616020898889
 21
160.4383538177478
 31
0.0
  0
LINE
  5
457B
330
A
100
AcDbEntity
  8
0
  6
Continuous
 62
     7
 48
0.009561
100
AcDbLine
 10
219.0616020898889
 20
160.9164112679505
 30
0.0
 11
219.0616020898889
 21
160.4383538177478
 31
0.0
  0
LINE
  5
457C
330
A
100
AcDbEntity
  8
0
  6
Continuous
 62
     7
 48
0.01
100
AcDbLine
 10
219.5615945378063
 20
161.9383486614988
 30
0.0
 11
219.0616020898889
 21
161.9383486614988
 31
0.0
  0
LINE
  5
457D
330
A
100
AcDbEntity
  8
0
  6
Continuous
 62
     7
 48
0.020439
100
AcDbLine
 10
219.0616020898889
 20
161.9383486614988
 30
0.0
 11
219.0616020898889
 21
160.9164112679505
 31
0.0
  0
LINE
  5
457E
330
A
100
AcDbEntity
  8
0
  6
Continuous
 62
     7
 48
0.03
100
AcDbLine
 10
219.5615945378063
 20
160.4383538177478
 30
0.0
 11
219.5615945378063
 21
161.9383486614988
 31
0.0
  0
LINE
  5
457F
330
A
100
AcDbEntity
  8
0
  6
Continuous
 62
     7
 48
0.048473
100
AcDbLine
 10
216.6747648385179
 20
160.8592100239091
 30
0.0
 11
219.0616020898889
 21
160.4383538177478
 31
0.0
  0
LINE
  5
4580
330
A
100
AcDbEntity
  8
0
  6
Continuous
 62
     7
 48
0.049364
100
AcDbLine
 10
219.0616020898889
 20
161.9383486614988
 30
0.0
 11
216.5934173469914
 21
161.9383486614988
 31
0.0
  0
LINE
  5
4581
330
A
100
AcDbEntity
  8
0
  6
Continuous
 62
     7
 48
0.03
100
AcDbLine
 10
219.5615945378063
 20
161.9383486614988
 30
0.0
 11
221.0615906315569
 21
161.9383486614988
 31
0.0
  0
LINE
  5
4582
330
A
100
AcDbEntity
  8
0
  6
Continuous
 62
     7
 48
0.01
100
AcDbLine
 10
221.5616018294723
 20
161.9383486614988
 30
0.0
 11
221.0615906315569
 21
161.9383486614988
 31
0.0
  0
LINE
  5
4583
330
A
100
AcDbEntity
  8
0
  6
Continuous
 62
     7
 48
0.006636
100
AcDbLine
 10
216.5934173469914
 20
161.9383486614988
 30
0.0
 11
216.2615948815564
 21
161.9383486614988
 31
0.0
  0
LINE
  5
4584
330
A
100
AcDbEntity
  8
0
  6
Continuous
 62
     7
 48
0.011734
100
AcDbLine
 10
216.2615948815564
 20
161.9383486614988
 30
0.0
 11
216.2615948815564
 21
161.3516299726153
 31
0.0
  0
ARC
  5
4585
330
A
100
AcDbEntity
  8
0
  6
Continuous
 62
     7
100
AcDbCircle
 10
224.5615940169729
 20
132.0671367730834
 30
0.0
 40
2.999999687500033
100
AcDbArc
 50
210.1301529999999
 51
271.179684
  0
LINE
  5
4586
330
A
100
AcDbEntity
  8
0
  6
Continuous
 62
     7
 48
0.013741
100
AcDbLine
 10
219.7167195216473
 20
134.4383515260815
 30
0.0
 11
220.0616057357219
 21
133.8441365879792
 31
0.0
  0
LINE
  5
4587
330
A
100
AcDbEntity
  8
0
  6
Continuous
 62
     7
 48
0.004
100
AcDbLine
 10
221.7615868086406
 20
137.5671287001674
 30
0.0
 11
221.5616018294723
 21
137.5671287001674
 31
0.0
  0
ARC
  5
4588
330
A
100
AcDbEntity
  8
0
  6
Continuous
 62
     7
100
AcDbCircle
 10
216.7615873294739
 20
161.3516299726153
 30
0.0
 40
0.4999999479166725
100
AcDbArc
 50
180.000005
 51
260.0000029999999
  0
LINE
  5
458B
330
A
100
AcDbEntity
  8
0
  6
Continuous
 62
     7
 48
0.4474250000000001
100
AcDbLine
 10
221.5616018294723
 20
159.9383613698308
 30
0.0
 11
221.5616018294723
 21
137.5671287001674
 31
0.0
  0
LINE
  5
458E
330
A
100
AcDbEntity
  8
0
  6
Continuous
 62
     7
 48
0.036072
100
AcDbLine
 10
221.0615906315569
 20
132.1211330174587
 30
0.0
 11
221.9669330372504
 21
130.5612281799489
 31
0.0
  0
LINE
  5
458F
330
A
100
AcDbEntity
  8
0
  6
Continuous
 62
     7
 48
0.039843
100
AcDbLine
 10
220.0616057357219
 20
133.8441365879792
 30
0.0
 11
221.0615906315569
 21
132.1211330174587
 31
0.0
  0
LINE
  5
4591
330
A
100
AcDbEntity
  8
0
  6
Continuous
 62
     7
 48
0.016568
100
AcDbLine
 10
221.0615906315569
 20
161.9383486614988
 30
0.0
 11
220.475805692576
 21
161.3525649725179
 31
0.0
  0
LINE
  5
4593
330
A
100
AcDbEntity
  8
0
  6
Continuous
 62
     7
 48
0.04
100
AcDbLine
 10
221.5616018294723
 20
159.9383613698308
 30
0.0
 11
221.5616018294723
 21
161.9383486614988
 31
0.0
  0
LINE
  5
4595
330
A
100
AcDbEntity
  8
0
  6
Continuous
 62
     7
 48
0.014142
100
AcDbLine
 10
218.6615933815565
 20
143.252743107916
 30
0.0
 11
218.1615821836409
 21
143.7527543058314
 31
0.0
  0
LINE
  5
4596
330
A
100
AcDbEntity
  8
0
  6
Continuous
 62
     7
 48
0.16
100
AcDbLine
 10
218.1615821836409
 20
143.7527543058314
 30
0.0
 11
218.1615821836409
 21
151.7527459724988
 31
0.0
  0
LINE
  5
4597
330
A
100
AcDbEntity
  8
0
  6
Continuous
 62
     7
 48
0.014142
100
AcDbLine
 10
218.1615821836409
 20
151.7527459724988
 30
0.0
 11
218.6615933815565
 21
152.2527384204165
 31
0.0
  0
LINE
  5
4598
330
A
100
AcDbEntity
  8
0
  6
Continuous
 62
     7
 48
0.002
100
AcDbLine
 10
218.9615996003058
 20
145.2527503995819
 30
0.0
 11
219.0616020898889
 21
145.2527503995819
 31
0.0
  0
LINE
  5
4599
330
A
100
AcDbEntity
  8
0
  6
Continuous
 62
     7
 48
0.153712
100
AcDbLine
 10
218.6615933815565
 20
135.567140158499
 30
0.0
 11
218.6615933815565
 21
143.252743107916
 31
0.0
  0
LINE
  5
459A
330
A
100
AcDbEntity
  8
0
  6
Continuous
 62
     7
 48
0.153712
100
AcDbLine
 10
218.6615933815565
 20
152.2527384204165
 30
0.0
 11
218.6615933815565
 21
159.9383613698308
 31
0.0
  0
LINE
  5
459B
330
A
100
AcDbEntity
  8
0
  6
Continuous
 62
     7
 48
0.008
100
AcDbLine
 10
219.0616020898889
 20
135.567140158499
 30
0.0
 11
218.6615933815565
 21
135.567140158499
 31
0.0
  0
LINE
  5
459C
330
A
100
AcDbEntity
  8
0
  6
Continuous
 62
     7
 48
0.193712
100
AcDbLine
 10
219.0616020898889
 20
135.567140158499
 30
0.0
 11
219.0616020898889
 21
145.2527503995819
 31
0.0
  0
LINE
  5
459D
330
A
100
AcDbEntity
  8
0
  6
Continuous
 62
     7
 48
0.193712
100
AcDbLine
 10
219.0616020898889
 20
150.2527498787486
 30
0.0
 11
219.0616020898889
 21
159.9383613698308
 31
0.0
  0
LINE
  5
459E
330
A
100
AcDbEntity
  8
0
  6
Continuous
 62
     7
 48
0.008
100
AcDbLine
 10
219.0616020898889
 20
159.9383613698308
 30
0.0
 11
218.6615933815565
 21
159.9383613698308
 31
0.0
  0
LINE
  5
459F
330
A
100
AcDbEntity
  8
0
  6
Continuous
 62
     7
 48
0.026102
100
AcDbLine
 10
219.0616020898889
 20
135.567140158499
 30
0.0
 11
219.7167195216473
 21
134.4383515260815
 31
0.0
  0
LINE
  5
45A0
330
A
100
AcDbEntity
  8
0
  6
Continuous
 62
     7
 48
0.04
100
AcDbLine
 10
220.475805692576
 20
161.3525649725179
 30
0.0
 11
219.0616020898889
 21
159.9383613698308
 31
0.0
  0
LINE
  5
45A1
330
A
100
AcDbEntity
  8
0
  6
Continuous
 62
     7
 48
0.004
100
AcDbLine
 10
219.0365970924935
 20
145.4527366287501
 30
0.0
 11
219.0365970924935
 21
145.2527503995819
 31
0.0
  0
LINE
  5
45A2
330
A
100
AcDbEntity
  8
0
  6
Continuous
 62
     7
 48
0.0005
100
AcDbLine
 10
219.0616020898889
 20
145.4527366287501
 30
0.0
 11
219.0365970924935
 21
145.4527366287501
 31
0.0
  0
LINE
  5
45A3
330
A
100
AcDbEntity
  8
0
  6
Continuous
 62
     7
 48
0.0005
100
AcDbLine
 10
219.0616020898889
 20
150.0527461495821
 30
0.0
 11
219.0365970924935
 21
150.0527461495821
 31
0.0
  0
LINE
  5
45A4
330
A
100
AcDbEntity
  8
0
  6
Continuous
 62
     7
 48
0.092
100
AcDbLine
 10
219.0365970924935
 20
150.0527461495821
 30
0.0
 11
219.0365970924935
 21
145.4527366287501
 31
0.0
  0
LINE
  5
45A5
330
A
100
AcDbEntity
  8
0
  6
Continuous
 62
     7
 48
0.004
100
AcDbLine
 10
219.0365970924935
 20
150.2527498787486
 30
0.0
 11
219.0365970924935
 21
150.0527461495821
 31
0.0
  0
LINE
  5
45A6
330
A
100
AcDbEntity
  8
0
  6
Continuous
 62
     7
 48
0.042952
100
AcDbLine
 10
224.5001202733766
 20
129.0785508343944
 30
0.0
 11
226.6395550505186
 21
128.8913821038912
 31
0.0
  0
LINE
  5
45A7
330
A
100
AcDbEntity
  8
0
  6
Continuous
 62
     7
 48
0.163061
100
AcDbLine
 10
226.6395550505186
 20
128.8913821038912
 30
0.0
 11
234.7615979544726
 21
128.1807809279121
 31
0.0
  0
LINE
  5
45A8
330
A
100
AcDbEntity
  8
0
  6
Continuous
 62
     7
 48
0.22
100
AcDbLine
 10
234.7615979544726
 20
128.1807809279121
 30
0.0
 11
245.7616005586391
 21
128.1807809279121
 31
0.0
  0
ARC
  5
45AF
330
A
100
AcDbEntity
  8
0
  6
Continuous
 62
     7
100
AcDbCircle
 10
224.7615989961393
 20
132.0671367730834
 30
0.0
 40
2.999999687500033
100
AcDbArc
 50
242.615123
 51
265.0000019999999
  0
LINE
  5
45B0
330
A
100
AcDbEntity
  8
0
  6
Continuous
 62
     7
100
AcDbLine
 10
221.7615868086406
 20
132.0671367730834
 30
0.0
 11
221.7615868086406
 21
268.2944438327389
 31
0.0
  0
LINE
  5
45BA
330
A
100
AcDbEntity
  8
0
  6
Continuous
 62
     7
 48
0.22
100
AcDbLine
 10
234.7615979544726
 20
272.1807809279121
 30
0.0
 11
245.7616005586391
 21
272.1807809279121
 31
0.0
  0
ARC
  5
45BE
330
A
100
AcDbEntity
  8
0
  6
Continuous
 62
     7
100
AcDbCircle
 10
224.7615989961393
 20
268.2944438327389
 30
0.0
 40
2.999999687500033
100
AcDbArc
 50
95.00000099999999
 51
117.3807339999999
  0
LINE
  5
45C0
330
A
100
AcDbEntity
  8
0
  6
Continuous
 62
     7
 48
0.163061
100
AcDbLine
 10
234.7615979544726
 20
272.1807809279121
 30
0.0
 11
226.6395550505186
 21
271.4701985019313
 31
0.0
  0
LINE
  5
45C3
330
A
100
AcDbEntity
  8
0
  6
Continuous
 62
     7
 48
0.042952
100
AcDbLine
 10
226.6395550505186
 20
271.4701985019313
 30
0.0
 11
224.5001202733766
 21
271.283029771428
 31
0.0
  0
ARC
  5
45C5
330
A
100
AcDbEntity
  8
0
  6
Continuous
 62
     7
100
AcDbCircle
 10
224.7615989961393
 20
132.0671367730834
 30
0.0
 40
2.999999687500033
100
AcDbArc
 50
179.9999949999999
 51
242.592818
  0
ARC
  5
45C6
330
A
100
AcDbEntity
  8
0
  6
Continuous
 62
     7
100
AcDbCircle
 10
224.7615989961393
 20
268.2944438327389
 30
0.0
 40
2.999999687500033
100
AcDbArc
 50
117.382483
 51
180.000005
  0
LINE
  5
45EC
330
A
100
AcDbEntity
  8
0
  6
Continuous
 62
     7
 48
0.14
100
AcDbLine
 10
279.2616008190555
 20
219.1807939487441
 30
0.0
 11
279.2616008190555
 21
212.1807871779115
 31
0.0
  0
LINE
  5
46D6
330
A
100
AcDbEntity
  8
0
  6
Continuous
 62
     7
 48
0.19
100
AcDbLine
 10
396.4815898586402
 20
266.6807890008281
 30
0.0
 11
405.981596369056
 21
266.6807890008281
 31
0.0
  0
LINE
  5
46D7
330
A
100
AcDbEntity
  8
0
  6
Continuous
 62
     7
 48
0.09
100
AcDbLine
 10
396.4815898586402
 20
254.180790302911
 30
0.0
 11
400.9815968898894
 21
254.180790302911
 31
0.0
  0
LINE
  5
46D8
330
A
100
AcDbEntity
  8
0
  6
Continuous
 62
     7
 48
0.2
100
AcDbLine
 10
400.9815968898894
 20
254.180790302911
 30
0.0
 11
400.9815968898894
 21
264.1807892612445
 31
0.0
  0
LINE
  5
46D9
330
A
100
AcDbEntity
  8
0
  6
Continuous
 62
     7
 48
0.09
100
AcDbLine
 10
400.9815968898894
 20
264.1807892612445
 30
0.0
 11
396.4815898586402
 21
264.1807892612445
 31
0.0
  0
LINE
  5
46DA
330
A
100
AcDbEntity
  8
0
  6
Continuous
 62
     7
 48
0.19
100
AcDbLine
 10
405.981596369056
 20
251.6807905633275
 30
0.0
 11
396.4815898586402
 21
251.6807905633275
 31
0.0
  0
LINE
  5
46DB
330
A
100
AcDbEntity
  8
0
  6
Continuous
 62
     7
 48
0.043864
100
AcDbLine
 10
405.981596369056
 20
266.6807890008281
 30
0.0
 11
406.8815975253063
 21
264.6807817091619
 31
0.0
  0
LINE
  5
46DC
330
A
100
AcDbEntity
  8
0
  6
Continuous
 62
     7
 48
0.08382
100
AcDbLine
 10
409.8815897128067
 20
265.3717753871836
 30
0.0
 11
409.8815897128067
 21
261.1807783237458
 31
0.0
  0
ARC
  5
46DD
330
A
100
AcDbEntity
  8
0
  6
Continuous
 62
     7
100
AcDbCircle
 10
409.3815972648895
 20
265.3717753871836
 30
0.0
 40
0.4999999479166725
100
AcDbArc
 50
0.0
 51
116.5650469999998
  0
LINE
  5
46DE
330
A
100
AcDbEntity
  8
0
  6
Continuous
 62
     7
 48
0.050901
100
AcDbLine
 10
406.8815975253063
 20
264.6807817091619
 30
0.0
 11
409.1579797881832
 21
265.8189728406004
 31
0.0
  0
LINE
  5
46DF
330
A
100
AcDbEntity
  8
0
  6
Continuous
 62
     7
 48
0.178
100
AcDbLine
 10
409.8815897128067
 20
261.1807783237458
 30
0.0
 11
400.9815968898894
 21
261.1807783237458
 31
0.0
  0
LINE
  5
46E0
330
A
100
AcDbEntity
  8
0
  6
Continuous
 62
     7
 48
0.043863
100
AcDbLine
 10
406.8815975253063
 20
253.6807791049955
 30
0.0
 11
405.981596369056
 21
251.6807905633275
 31
0.0
  0
LINE
  5
46E1
330
A
100
AcDbEntity
  8
0
  6
Continuous
 62
     7
 48
0.050901
100
AcDbLine
 10
409.1579797881832
 20
252.5425879735572
 30
0.0
 11
406.8815975253063
 21
253.6807791049955
 31
0.0
  0
ARC
  5
46E2
330
A
100
AcDbEntity
  8
0
  6
Continuous
 62
     7
100
AcDbCircle
 10
409.3815972648895
 20
252.9898041769722
 30
0.0
 40
0.4999999479166725
100
AcDbArc
 50
243.434937
 51
0.00001
  0
LINE
  5
46E3
330
A
100
AcDbEntity
  8
0
  6
Continuous
 62
     7
 48
0.08382
100
AcDbLine
 10
409.8815897128067
 20
257.1807824904118
 30
0.0
 11
409.8815897128067
 21
252.9898041769722
 31
0.0
  0
LINE
  5
46E4
330
A
100
AcDbEntity
  8
0
  6
Continuous
 62
     7
 48
0.178
100
AcDbLine
 10
409.8815897128067
 20
257.1807824904118
 30
0.0
 11
400.9815968898894
 21
257.1807824904118
 31
0.0
  0
LINE
  5
46E5
330
A
100
AcDbEntity
  8
0
  6
Continuous
 62
     7
 48
0.08
100
AcDbLine
 10
409.8815897128067
 20
261.1807783237458
 30
0.0
 11
409.8815897128067
 21
257.1807824904118
 31
0.0
  0
ARC
  5
46E6
330
A
100
AcDbEntity
  8
0
  6
Continuous
 62
     7
100
AcDbCircle
 10
395.4816049628054
 20
237.1807845737448
 30
0.0
 40
0.9999998958333446
100
AcDbArc
 50
270.000001
 51
0.00001
  0
ARC
  5
46E7
330
A
100
AcDbEntity
  8
0
  6
Continuous
 62
     7
100
AcDbCircle
 10
395.4816049628054
 20
267.680792646661
 30
0.0
 40
0.9999998958333446
100
AcDbArc
 50
0.0
 51
90.00000300000001
  0
LINE
  5
46EB
330
A
100
AcDbEntity
  8
0
  6
Continuous
 62
     7
100
AcDbLine
 10
396.4815898586402
 20
237.1807845737448
 30
0.0
 11
396.4815898586402
 21
267.680792646661
 31
0.0
  0
LINE
  5
46EC
330
A
100
AcDbEntity
  8
0
  6
Continuous
 62
     7
 48
0.198
100
AcDbLine
 10
396.4815898586402
 20
239.6807843133283
 30
0.0
 11
406.3815675773926
 21
239.6807843133283
 31
0.0
  0
LINE
  5
46F1
330
A
100
AcDbEntity
  8
0
  6
Continuous
 62
     7
 48
0.2144
100
AcDbLine
 10
395.4816049628054
 20
236.1807809279121
 30
0.0
 11
384.7615823294742
 21
236.1807809279121
 31
0.0
  0
LINE
  5
46F2
330
A
100
AcDbEntity
  8
0
  6
Continuous
 62
     7
 48
0.2144
100
AcDbLine
 10
384.7615823294742
 20
268.6807775424958
 30
0.0
 11
395.4816049628054
 21
268.6807775424958
 31
0.0
  0
LINE
  5
46F5
330
A
100
AcDbEntity
  8
0
  6
Continuous
 62
     7
100
AcDbLine
 10
384.7615823294742
 20
267.680792646661
 30
0.0
 11
384.7615823294742
 21
237.1807845737448
 31
0.0
  0
ARC
  5
46F7
330
A
100
AcDbEntity
  8
0
  6
Continuous
 62
     7
100
AcDbCircle
 10
406.3815675773926
 20
240.6807879591614
 30
0.0
 40
0.9999998958333446
100
AcDbArc
 50
270.000001
 51
0.00001
  0
LINE
  5
46F9
330
A
100
AcDbEntity
  8
0
  6
Continuous
 62
     7
 48
0.255
100
AcDbLine
 10
407.3815899732236
 20
240.6807879591614
 30
0.0
 11
407.3815899732236
 21
253.4307828810369
 31
0.0
  0
LINE
  5
46FB
330
A
100
AcDbEntity
  8
0
  6
Continuous
 62
     7
 48
0.02
100
AcDbLine
 10
384.7615823294742
 20
236.1807809279121
 30
0.0
 11
384.7615823294742
 21
237.1807845737448
 31
0.0
  0
LINE
  5
4A28
330
A
100
AcDbEntity
  8
0
  6
Continuous
 62
     7
100
AcDbLine
 10
186.059153027644
 20
269.1807887404114
 30
0.0
 11
186.059153027644
 21
131.1807918654108
 31
0.0
  0
ARC
  5
4A29
330
A
100
AcDbEntity
  8
0
  6
Continuous
 62
     7
100
AcDbCircle
 10
182.759153371394
 20
269.1807887404114
 30
0.0
 40
3.299999656250037
100
AcDbArc
 50
0.00001
 51
89.99999200000003
  0
ARC
  5
4A2A
330
A
100
AcDbEntity
  8
0
  6
Continuous
 62
     7
100
AcDbCircle
 10
182.759153371394
 20
131.1807918654108
 30
0.0
 40
3.299999656250037
100
AcDbArc
 50
270.000001
 51
0.00001
  0
ARC
  5
4A2B
330
A
100
AcDbEntity
  8
0
  6
Continuous
 62
     7
100
AcDbCircle
 10
44.7591564963937
 20
269.1807887404114
 30
0.0
 40
3.299999656250037
100
AcDbArc
 50
90.00000300000001
 51
180.000005
  0
LINE
  5
4A2C
330
A
100
AcDbEntity
  8
0
  6
Continuous
 62
     7
100
AcDbLine
 10
44.7591564963937
 20
272.4807871466615
 30
0.0
 11
182.759153371394
 21
272.4807871466615
 31
0.0
  0
LINE
  5
4A2D
330
A
100
AcDbEntity
  8
0
  6
Continuous
 62
     7
100
AcDbLine
 10
182.759153371394
 20
127.8807922091609
 30
0.0
 11
44.7591564963937
 21
127.8807922091609
 31
0.0
  0
ARC
  5
4A2E
330
A
100
AcDbEntity
  8
0
  6
Continuous
 62
     7
100
AcDbCircle
 10
44.7591564963937
 20
131.1807918654108
 30
0.0
 40
3.299999656250037
100
AcDbArc
 50
180.000005
 51
270.000001
  0
LINE
  5
4A2F
330
A
100
AcDbEntity
  8
0
  6
Continuous
 62
     7
100
AcDbLine
 10
41.45915309014403
 20
131.1807918654108
 30
0.0
 11
41.45915309014403
 21
269.1807887404114
 31
0.0
  0
LINE
  5
4A32
330
A
100
AcDbEntity
  8
0
  6
Continuous
 62
     7
 48
0.02
100
AcDbLine
 10
49.45915350681064
 20
138.0671398980827
 30
0.0
 11
50.459153402644
 21
138.0671398980827
 31
0.0
  0
LINE
  5
4A33
330
A
100
AcDbEntity
  8
0
  6
Continuous
 62
     7
 48
0.487424
100
AcDbLine
 10
49.45915350681064
 20
162.438361109414
 30
0.0
 11
49.45915350681064
 21
138.0671398980827
 31
0.0
  0
LINE
  5
4A35
330
A
100
AcDbEntity
  8
0
  6
Continuous
 62
     7
 48
0.02
100
AcDbLine
 10
178.0591613609764
 20
138.0671398980827
 30
0.0
 11
177.0591577151433
 21
138.0671398980827
 31
0.0
  0
LINE
  5
4A36
330
A
100
AcDbEntity
  8
0
  6
Continuous
 62
     7
 48
0.487424
100
AcDbLine
 10
178.0591613609764
 20
162.438361109414
 30
0.0
 11
178.0591613609764
 21
138.0671398980827
 31
0.0
  0
LINE
  5
4A37
330
A
100
AcDbEntity
  8
0
  6
Continuous
 62
     7
100
AcDbLine
 10
121.7591559755602
 20
162.438361109414
 30
0.0
 11
178.0591613609764
 21
162.438361109414
 31
0.0
  0
LINE
  5
4A38
330
A
100
AcDbEntity
  8
0
  6
Continuous
 62
     7
 48
0.0302
100
AcDbLine
 10
121.7591559755602
 20
160.9283700167049
 30
0.0
 11
121.7591559755602
 21
162.438361109414
 31
0.0
  0
ELLIPSE
  5
4A39
330
A
100
AcDbEntity
  8
0
  6
Continuous
 62
     7
100
AcDbEllipse
 10
121.2415110294817
 20
160.9405775154333
 30
0.0
 11
0.4902743782510423
 21
-0.1726341067731401
 31
0.0
210
0.0
220
0.0
230
1.0
 40
0.9619369999999999
 41
5.063305854797363
 42
6.60978364944458
  0
ELLIPSE
  5
4A3A
330
A
100
AcDbEntity
  8
0
  6
Continuous
 62
     7
100
AcDbEllipse
 10
106.276788838307
 20
160.9405775154333
 30
0.0
 11
0.4902743782510423
 21
0.1726341067731401
 31
0.0
210
0.0
220
0.0
230
1.0
 40
0.9619369999999999
 41
2.81499433517456
 42
4.361472129821776
  0
LINE
  5
4A3B
330
A
100
AcDbEntity
  8
0
  6
Continuous
 62
     7
 48
0.0302
100
AcDbLine
 10
105.7591538922272
 20
160.9283700167049
 30
0.0
 11
105.7591538922272
 21
162.438361109414
 31
0.0
  0
LINE
  5
4A3C
330
A
100
AcDbEntity
  8
0
  6
Continuous
 62
     7
100
AcDbLine
 10
49.45915350681064
 20
162.438361109414
 30
0.0
 11
105.7591538922272
 21
162.438361109414
 31
0.0
  0
LINE
  5
4A3E
330
A
100
AcDbEntity
  8
0
  6
Continuous
 62
     7
100
AcDbLine
 10
50.459153402644
 20
129.0671258355843
 30
0.0
 11
177.0591577151433
 21
129.0671258355843
 31
0.0
  0
ELLIPSE
  5
4A3F
330
A
100
AcDbEntity
  8
0
  6
Continuous
 62
     7
100
AcDbEllipse
 10
107.5629524543316
 20
161.3934012182641
 30
0.0
 11
-0.1660442179332197
 21
0.4716300473074173
 31
0.0
210
0.0
220
0.0
230
1.0
 40
0.9619399999999998
 41
1.244241356849667
 42
2.790726423263548
  0
LINE
  5
4A42
330
A
100
AcDbEntity
  8
0
  6
Continuous
 62
     7
 48
0.027538
100
AcDbLine
 10
107.5629524543316
 20
160.8956212701162
 30
0.0
 11
106.2642100896171
 21
160.4383538177478
 31
0.0
  0
LINE
  5
4A43
330
A
100
AcDbEntity
  8
0
  6
Continuous
 62
     7
 48
0.028006
100
AcDbLine
 10
107.0799837546408
 20
161.3934012182641
 30
0.0
 11
105.7591538922272
 21
160.9283700167049
 31
0.0
  0
ELLIPSE
  5
4A45
330
A
100
AcDbEntity
  8
0
  6
Continuous
 62
     7
100
AcDbEllipse
 10
119.9553574134559
 20
161.3934012182641
 30
0.0
 11
0.1660442179332197
 21
0.4716300473074173
 31
0.0
210
0.0
220
0.0
230
1.0
 40
0.9619399999999998
 41
3.492459058761596
 42
5.038943767547608
  0
LINE
  5
4A47
330
A
100
AcDbEntity
  8
0
  6
Continuous
 62
     7
 48
0.020899
100
AcDbLine
 10
120.4383173631476
 20
162.438361109414
 30
0.0
 11
120.4383173631476
 21
161.3934012182641
 31
0.0
  0
LINE
  5
4A48
330
A
100
AcDbEntity
  8
0
  6
Continuous
 62
     7
 48
0.009659
100
AcDbLine
 10
120.4383173631476
 20
162.438361109414
 30
0.0
 11
119.9553574134559
 21
162.438361109414
 31
0.0
  0
LINE
  5
4A4A
330
A
100
AcDbEntity
  8
0
  6
Continuous
 62
     7
 48
0.247848
100
AcDbLine
 10
107.5629524543316
 20
162.438361109414
 30
0.0
 11
119.9553574134559
 21
162.438361109414
 31
0.0
  0
LINE
  5
4A4B
330
A
100
AcDbEntity
  8
0
  6
Continuous
 62
     7
 48
0.000694
100
AcDbLine
 10
120.4729936095356
 20
162.438361109414
 30
0.0
 11
120.4383173631476
 21
162.438361109414
 31
0.0
  0
LINE
  5
4A4C
330
A
100
AcDbEntity
  8
0
  6
Continuous
 62
     7
 48
0.000694
100
AcDbLine
 10
107.0453075082526
 20
162.438361109414
 30
0.0
 11
107.0799837546408
 21
162.438361109414
 31
0.0
  0
LINE
  5
4A4D
330
A
100
AcDbEntity
  8
0
  6
Continuous
 62
     7
 48
0.009659
100
AcDbLine
 10
107.5629524543316
 20
162.438361109414
 30
0.0
 11
107.0799837546408
 21
162.438361109414
 31
0.0
  0
LINE
  5
4A4E
330
A
100
AcDbEntity
  8
0
  6
Continuous
 62
     7
 48
0.00816
100
AcDbLine
 10
106.9649225166263
 20
162.038351151082
 30
0.0
 11
107.0453075082526
 21
162.438361109414
 31
0.0
  0
LINE
  5
4A4F
330
A
100
AcDbEntity
  8
0
  6
Continuous
 62
     7
 48
0.00816
100
AcDbLine
 10
120.5533786011619
 20
162.038351151082
 30
0.0
 11
120.4729936095356
 21
162.438361109414
 31
0.0
  0
LINE
  5
4A50
330
A
100
AcDbEntity
  8
0
  6
Continuous
 62
     7
 48
0.00816
100
AcDbLine
 10
106.8845375249997
 20
162.438361109414
 30
0.0
 11
106.9649225166263
 21
162.038351151082
 31
0.0
  0
LINE
  5
4A51
330
A
100
AcDbEntity
  8
0
  6
Continuous
 62
     7
 48
0.00816
100
AcDbLine
 10
120.6337635927887
 20
162.438361109414
 30
0.0
 11
120.5533786011619
 21
162.038351151082
 31
0.0
  0
LINE
  5
4A52
330
A
100
AcDbEntity
  8
0
  6
Continuous
 62
     7
 48
0.003215
100
AcDbLine
 10
120.6337635927887
 20
162.438361109414
 30
0.0
 11
120.4729936095356
 21
162.438361109414
 31
0.0
  0
LINE
  5
4A53
330
A
100
AcDbEntity
  8
0
  6
Continuous
 62
     7
 48
0.003215
100
AcDbLine
 10
107.0453075082526
 20
162.438361109414
 30
0.0
 11
106.8845375249997
 21
162.438361109414
 31
0.0
  0
LINE
  5
4A54
330
A
100
AcDbEntity
  8
0
  6
Continuous
 62
     7
 48
0.00816
100
AcDbLine
 10
106.8041525333732
 20
162.038351151082
 30
0.0
 11
106.8845375249997
 21
162.438361109414
 31
0.0
  0
LINE
  5
4A55
330
A
100
AcDbEntity
  8
0
  6
Continuous
 62
     7
 48
0.00816
100
AcDbLine
 10
120.7141485844152
 20
162.038351151082
 30
0.0
 11
120.6337635927887
 21
162.438361109414
 31
0.0
  0
LINE
  5
4A56
330
A
100
AcDbEntity
  8
0
  6
Continuous
 62
     7
 48
0.00816
100
AcDbLine
 10
106.7237675417467
 20
162.438361109414
 30
0.0
 11
106.8041525333732
 21
162.038351151082
 31
0.0
  0
LINE
  5
4A57
330
A
100
AcDbEntity
  8
0
  6
Continuous
 62
     7
 48
0.00816
100
AcDbLine
 10
120.7945335760415
 20
162.438361109414
 30
0.0
 11
120.7141485844152
 21
162.038351151082
 31
0.0
  0
LINE
  5
4A58
330
A
100
AcDbEntity
  8
0
  6
Continuous
 62
     7
 48
0.003215
100
AcDbLine
 10
120.7945335760415
 20
162.438361109414
 30
0.0
 11
120.6337635927887
 21
162.438361109414
 31
0.0
  0
LINE
  5
4A59
330
A
100
AcDbEntity
  8
0
  6
Continuous
 62
     7
 48
0.003215
100
AcDbLine
 10
106.8845375249997
 20
162.438361109414
 30
0.0
 11
106.7237675417467
 21
162.438361109414
 31
0.0
  0
LINE
  5
4A5A
330
A
100
AcDbEntity
  8
0
  6
Continuous
 62
     7
 48
0.00816
100
AcDbLine
 10
106.64338130012
 20
162.038351151082
 30
0.0
 11
106.7237675417467
 21
162.438361109414
 31
0.0
  0
LINE
  5
4A5B
330
A
100
AcDbEntity
  8
0
  6
Continuous
 62
     7
 48
0.00816
100
AcDbLine
 10
120.8749185676682
 20
162.038351151082
 30
0.0
 11
120.7945335760415
 21
162.438361109414
 31
0.0
  0
LINE
  5
4A5C
330
A
100
AcDbEntity
  8
0
  6
Continuous
 62
     7
 48
0.00816
100
AcDbLine
 10
106.5630063084925
 20
162.438361109414
 30
0.0
 11
106.64338130012
 21
162.038351151082
 31
0.0
  0
LINE
  5
4A5D
330
A
100
AcDbEntity
  8
0
  6
Continuous
 62
     7
 48
0.00816
100
AcDbLine
 10
120.9553048092949
 20
162.438361109414
 30
0.0
 11
120.8749185676682
 21
162.038351151082
 31
0.0
  0
LINE
  5
4A5E
330
A
100
AcDbEntity
  8
0
  6
Continuous
 62
     7
 48
0.003215
100
AcDbLine
 10
120.9553048092949
 20
162.438361109414
 30
0.0
 11
120.7945335760415
 21
162.438361109414
 31
0.0
  0
LINE
  5
4A5F
330
A
100
AcDbEntity
  8
0
  6
Continuous
 62
     7
 48
0.003215
100
AcDbLine
 10
106.7237675417467
 20
162.438361109414
 30
0.0
 11
106.5630063084925
 21
162.438361109414
 31
0.0
  0
LINE
  5
4A60
330
A
100
AcDbEntity
  8
0
  6
Continuous
 62
     7
 48
0.00816
100
AcDbLine
 10
106.482611316867
 20
162.038351151082
 30
0.0
 11
106.5630063084925
 21
162.438361109414
 31
0.0
  0
LINE
  5
4A61
330
A
100
AcDbEntity
  8
0
  6
Continuous
 62
     7
 48
0.00816
100
AcDbLine
 10
121.0356898009212
 20
162.038351151082
 30
0.0
 11
120.9553048092949
 21
162.438361109414
 31
0.0
  0
LINE
  5
4A62
330
A
100
AcDbEntity
  8
0
  6
Continuous
 62
     7
 48
0.00816
100
AcDbLine
 10
106.4022363252395
 20
162.438361109414
 30
0.0
 11
106.482611316867
 21
162.038351151082
 31
0.0
  0
LINE
  5
4A63
330
A
100
AcDbEntity
  8
0
  6
Continuous
 62
     7
 48
0.00816
100
AcDbLine
 10
121.116074792548
 20
162.438361109414
 30
0.0
 11
121.0356898009212
 21
162.038351151082
 31
0.0
  0
LINE
  5
4A64
330
A
100
AcDbEntity
  8
0
  6
Continuous
 62
     7
 48
0.003215
100
AcDbLine
 10
121.116074792548
 20
162.438361109414
 30
0.0
 11
120.9553048092949
 21
162.438361109414
 31
0.0
  0
LINE
  5
4A65
330
A
100
AcDbEntity
  8
0
  6
Continuous
 62
     7
 48
0.003215
100
AcDbLine
 10
106.5629963084937
 20
162.438361109414
 30
0.0
 11
106.4022363252395
 21
162.438361109414
 31
0.0
  0
LINE
  5
4A66
330
A
100
AcDbEntity
  8
0
  6
Continuous
 62
     7
 48
0.00816
100
AcDbLine
 10
106.3218413336139
 20
162.038351151082
 30
0.0
 11
106.4022363252395
 21
162.438361109414
 31
0.0
  0
LINE
  5
4A67
330
A
100
AcDbEntity
  8
0
  6
Continuous
 62
     7
 48
0.00816
100
AcDbLine
 10
121.1964597841745
 20
162.038351151082
 30
0.0
 11
121.116074792548
 21
162.438361109414
 31
0.0
  0
LINE
  5
4A68
330
A
100
AcDbEntity
  8
0
  6
Continuous
 62
     7
 48
0.00816
100
AcDbLine
 10
106.2414650919865
 20
162.438361109414
 30
0.0
 11
106.3218413336139
 21
162.038351151082
 31
0.0
  0
LINE
  5
4A69
330
A
100
AcDbEntity
  8
0
  6
Continuous
 62
     7
 48
0.00816
100
AcDbLine
 10
121.276844775801
 20
162.438361109414
 30
0.0
 11
121.1964597841745
 21
162.038351151082
 31
0.0
  0
LINE
  5
4A6A
330
A
100
AcDbEntity
  8
0
  6
Continuous
 62
     7
 48
0.003215
100
AcDbLine
 10
121.276844775801
 20
162.438361109414
 30
0.0
 11
121.116074792548
 21
162.438361109414
 31
0.0
  0
LINE
  5
4A6B
330
A
100
AcDbEntity
  8
0
  6
Continuous
 62
     7
 48
0.003215
100
AcDbLine
 10
106.4022363252395
 20
162.438361109414
 30
0.0
 11
106.2414650919865
 21
162.438361109414
 31
0.0
  0
LINE
  5
4A6C
330
A
100
AcDbEntity
  8
0
  6
Continuous
 62
     7
 48
0.00816
100
AcDbLine
 10
105.8395388838538
 20
162.038351151082
 30
0.0
 11
105.91992512548
 21
162.438361109414
 31
0.0
  0
LINE
  5
4A6D
330
A
100
AcDbEntity
  8
0
  6
Continuous
 62
     7
 48
0.003215
100
AcDbLine
 10
106.0806951087334
 20
162.438361109414
 30
0.0
 11
105.91992512548
 21
162.438361109414
 31
0.0
  0
LINE
  5
4A6E
330
A
100
AcDbEntity
  8
0
  6
Continuous
 62
     7
 48
0.00816
100
AcDbLine
 10
105.91992512548
 20
162.438361109414
 30
0.0
 11
106.0003101171067
 21
162.038351151082
 31
0.0
  0
LINE
  5
4A6F
330
A
100
AcDbEntity
  8
0
  6
Continuous
 62
     7
 48
0.00816
100
AcDbLine
 10
106.0003101171067
 20
162.038351151082
 30
0.0
 11
106.0806951087334
 21
162.438361109414
 31
0.0
  0
LINE
  5
4A70
330
A
100
AcDbEntity
  8
0
  6
Continuous
 62
     7
 48
0.003215
100
AcDbLine
 10
106.2414650919865
 20
162.438361109414
 30
0.0
 11
106.0806951087334
 21
162.438361109414
 31
0.0
  0
LINE
  5
4A71
330
A
100
AcDbEntity
  8
0
  6
Continuous
 62
     7
 48
0.00816
100
AcDbLine
 10
106.0806951087334
 20
162.438361109414
 30
0.0
 11
106.1610801003598
 21
162.038351151082
 31
0.0
  0
LINE
  5
4A72
330
A
100
AcDbEntity
  8
0
  6
Continuous
 62
     7
 48
0.003215
100
AcDbLine
 10
121.598385992307
 20
162.438361109414
 30
0.0
 11
121.4376160090542
 21
162.438361109414
 31
0.0
  0
LINE
  5
4A73
330
A
100
AcDbEntity
  8
0
  6
Continuous
 62
     7
 48
0.00816
100
AcDbLine
 10
121.6787609839348
 20
162.038351151082
 30
0.0
 11
121.598385992307
 21
162.438361109414
 31
0.0
  0
LINE
  5
4A74
330
A
100
AcDbEntity
  8
0
  6
Continuous
 62
     7
 48
0.00816
100
AcDbLine
 10
121.598385992307
 20
162.438361109414
 30
0.0
 11
121.5180010006805
 21
162.038351151082
 31
0.0
  0
LINE
  5
4A75
330
A
100
AcDbEntity
  8
0
  6
Continuous
 62
     7
 48
0.003215
100
AcDbLine
 10
121.4376160090542
 20
162.438361109414
 30
0.0
 11
121.276844775801
 21
162.438361109414
 31
0.0
  0
LINE
  5
4A76
330
A
100
AcDbEntity
  8
0
  6
Continuous
 62
     7
 48
0.00816
100
AcDbLine
 10
121.5180010006805
 20
162.038351151082
 30
0.0
 11
121.4376160090542
 21
162.438361109414
 31
0.0
  0
LINE
  5
4A77
330
A
100
AcDbEntity
  8
0
  6
Continuous
 62
     7
 48
0.00816
100
AcDbLine
 10
121.4376160090542
 20
162.438361109414
 30
0.0
 11
121.3572297674277
 21
162.038351151082
 31
0.0
  0
LINE
  5
4A78
330
A
100
AcDbEntity
  8
0
  6
Continuous
 62
     7
 48
0.00816
100
AcDbLine
 10
106.1610801003598
 20
162.038351151082
 30
0.0
 11
106.2414650919865
 21
162.438361109414
 31
0.0
  0
LINE
  5
4A79
330
A
100
AcDbEntity
  8
0
  6
Continuous
 62
     7
 48
0.00816
100
AcDbLine
 10
121.3572297674277
 20
162.038351151082
 30
0.0
 11
121.276844775801
 21
162.438361109414
 31
0.0
  0
LINE
  5
4A7A
330
A
100
AcDbEntity
  8
0
  6
Continuous
 62
     7
 48
0.00816
100
AcDbLine
 10
105.7591538922272
 20
162.438361109414
 30
0.0
 11
105.8395388838538
 21
162.038351151082
 31
0.0
  0
LINE
  5
4A7B
330
A
100
AcDbEntity
  8
0
  6
Continuous
 62
     7
 48
0.020899
100
AcDbLine
 10
107.0799837546408
 20
162.438361109414
 30
0.0
 11
107.0799837546408
 21
161.3934012182641
 31
0.0
  0
LINE
  5
4A7E
330
A
100
AcDbEntity
  8
0
  6
Continuous
 62
     7
 48
0.247848
100
AcDbLine
 10
107.5629524543316
 20
160.8956212701162
 30
0.0
 11
119.9553574134559
 21
160.8956212701162
 31
0.0
  0
LINE
  5
4A7F
330
A
100
AcDbEntity
  8
0
  6
Continuous
 62
     7
 48
0.027538
100
AcDbLine
 10
119.9553574134559
 20
160.8956212701162
 30
0.0
 11
121.2540997781702
 21
160.4383538177478
 31
0.0
  0
LINE
  5
4A83
330
A
100
AcDbEntity
  8
0
  6
Continuous
 62
     7
 48
0.028006
100
AcDbLine
 10
120.4383173631476
 20
161.3934012182641
 30
0.0
 11
121.7591559755602
 21
160.9283700167049
 31
0.0
  0
LINE
  5
4A84
330
A
100
AcDbEntity
  8
0
  6
Continuous
 62
     7
 48
0.00816
100
AcDbLine
 10
121.7591559755602
 20
162.438361109414
 30
0.0
 11
121.6787609839348
 21
162.038351151082
 31
0.0
  0
LINE
  5
4A85
330
A
100
AcDbEntity
  8
0
  6
Continuous
 62
     7
 48
0.003215
100
AcDbLine
 10
121.7591559755602
 20
162.438361109414
 30
0.0
 11
121.598385992307
 21
162.438361109414
 31
0.0
  0
LINE
  5
4A86
330
A
100
AcDbEntity
  8
0
  6
Continuous
 62
     7
 48
0.003215
100
AcDbLine
 10
105.91992512548
 20
162.438361109414
 30
0.0
 11
105.7591538922272
 21
162.438361109414
 31
0.0
  0
ELLIPSE
  5
4A95
330
A
100
AcDbEntity
  8
0
  6
Continuous
 62
     7
100
AcDbEllipse
 10
135.2282220725327
 20
160.9460700148609
 30
0.0
 11
0.4825877640614963
 21
-0.2382659663915661
 31
0.0
210
0.0
220
0.0
230
1.0
 40
0.9290169999999998
 41
5.200893402099608
 42
6.713244438171386
  0
LINE
  5
4A96
330
A
100
AcDbEntity
  8
0
  6
Continuous
 62
     7
 48
0.200003
100
AcDbLine
 10
125.2590743609854
 20
160.4383538177478
 30
0.0
 11
135.259234569302
 21
160.4383538177478
 31
0.0
  0
ELLIPSE
  5
4A97
330
A
100
AcDbEntity
  8
0
  6
Continuous
 62
     7
100
AcDbEllipse
 10
125.290086857755
 20
160.9460700148609
 30
0.0
 11
0.4825877640614963
 21
0.2382659663915661
 31
0.0
210
0.0
220
0.0
230
1.0
 40
0.9290169999999998
 41
2.711533308029173
 42
4.223884582519531
  0
LINE
  5
4A9B
330
A
100
AcDbEntity
  8
0
  6
Continuous
 62
     7
 48
0.01
100
AcDbLine
 10
136.2591532151437
 20
161.9383486614988
 30
0.0
 11
135.7591507672275
 21
161.9383486614988
 31
0.0
  0
LINE
  5
4A9C
330
A
100
AcDbEntity
  8
0
  6
Continuous
 62
     7
 48
0.020439
100
AcDbLine
 10
135.7591507672275
 20
161.9383486614988
 30
0.0
 11
135.7591507672275
 21
160.9164112679505
 31
0.0
  0
ARC
  5
4A9D
330
A
100
AcDbEntity
  8
0
  6
Continuous
 62
     7
100
AcDbCircle
 10
135.7591507672275
 20
160.4383538177478
 30
0.0
 40
0.4999999479166725
100
AcDbArc
 50
269.999991
 51
359.9999629999998
  0
LINE
  5
4A9E
330
A
100
AcDbEntity
  8
0
  6
Continuous
 62
     7
 48
0.03
100
AcDbLine
 10
136.2591532151437
 20
160.4383538177478
 30
0.0
 11
136.2591532151437
 21
161.9383486614988
 31
0.0
  0
LINE
  5
4A9F
330
A
100
AcDbEntity
  8
0
  6
Continuous
 62
     7
 48
0.019013
100
AcDbLine
 10
125.2590743609854
 20
160.4383538177478
 30
0.0
 11
126.1115155221895
 21
160.8592100239091
 31
0.0
  0
LINE
  5
4AA0
330
A
100
AcDbEntity
  8
0
  6
Continuous
 62
     7
 48
0.165906
100
AcDbLine
 10
134.406793408098
 20
160.8592100239091
 30
0.0
 11
126.1115155221895
 21
160.8592100239091
 31
0.0
  0
LINE
  5
4AA1
330
A
100
AcDbEntity
  8
0
  6
Continuous
 62
     7
 48
0.019013
100
AcDbLine
 10
134.406793408098
 20
160.8592100239091
 30
0.0
 11
135.259234569302
 21
160.4383538177478
 31
0.0
  0
ARC
  5
4AA2
330
A
100
AcDbEntity
  8
0
  6
Continuous
 62
     7
100
AcDbCircle
 10
124.75915816306
 20
160.4383538177478
 30
0.0
 40
0.4999999479166725
100
AcDbArc
 50
180.000036
 51
270.0000109999999
  0
LINE
  5
4AA3
330
A
100
AcDbEntity
  8
0
  6
Continuous
 62
     7
 48
0.020439
100
AcDbLine
 10
124.75915816306
 20
161.9383486614988
 30
0.0
 11
124.75915816306
 21
160.9164112679505
 31
0.0
  0
LINE
  5
4AA4
330
A
100
AcDbEntity
  8
0
  6
Continuous
 62
     7
 48
0.01
100
AcDbLine
 10
124.75915816306
 20
161.9383486614988
 30
0.0
 11
124.2591557151434
 21
161.9383486614988
 31
0.0
  0
LINE
  5
4AA5
330
A
100
AcDbEntity
  8
0
  6
Continuous
 62
     7
 48
0.03
100
AcDbLine
 10
124.2591557151434
 20
160.4383538177478
 30
0.0
 11
124.2591557151434
 21
161.9383486614988
 31
0.0
  0
LINE
  5
4AA7
330
A
100
AcDbEntity
  8
0
  6
Continuous
 62
     7
 48
0.01763
100
AcDbLine
 10
135.7591507672275
 20
161.9383486614988
 30
0.0
 11
134.8776608590493
 21
161.9383486614988
 31
0.0
  0
LINE
  5
4AA8
330
A
100
AcDbEntity
  8
0
  6
Continuous
 62
     7
100
AcDbLine
 10
175.0591504234774
 20
161.9383486614988
 30
0.0
 11
136.2591532151437
 21
161.9383486614988
 31
0.0
  0
LINE
  5
4AA9
330
A
100
AcDbEntity
  8
0
  6
Continuous
 62
     7
 48
0.03
100
AcDbLine
 10
124.2591557151434
 20
161.9383486614988
 30
0.0
 11
122.7591508713943
 21
161.9383486614988
 31
0.0
  0
LINE
  5
4AAA
330
A
100
AcDbEntity
  8
0
  6
Continuous
 62
     7
 48
0.01763
100
AcDbLine
 10
125.6406393212392
 20
161.9383486614988
 30
0.0
 11
124.75915816306
 21
161.9383486614988
 31
0.0
  0
LINE
  5
4AAB
330
A
100
AcDbEntity
  8
0
  6
Continuous
 62
     7
 48
0.009418
100
AcDbLine
 10
126.1115155221895
 20
161.9383486614988
 30
0.0
 11
125.6406393212392
 21
161.9383486614988
 31
0.0
  0
LINE
  5
4AAC
330
A
100
AcDbEntity
  8
0
  6
Continuous
 62
     7
 48
0.165906
100
AcDbLine
 10
134.406793408098
 20
161.9383486614988
 30
0.0
 11
126.1115155221895
 21
161.9383486614988
 31
0.0
  0
LINE
  5
4AAD
330
A
100
AcDbEntity
  8
0
  6
Continuous
 62
     7
 48
0.009417
100
AcDbLine
 10
134.8776608590493
 20
161.9383486614988
 30
0.0
 11
134.406793408098
 21
161.9383486614988
 31
0.0
  0
LINE
  5
4AB7
330
A
100
AcDbEntity
  8
0
  6
Continuous
 62
     7
 48
0.03
100
AcDbLine
 10
104.7591502463941
 20
160.4383538177478
 30
0.0
 11
104.7591502463941
 21
161.9383486614988
 31
0.0
  0
ELLIPSE
  5
4AB9
330
A
100
AcDbEntity
  8
0
  6
Continuous
 62
     7
100
AcDbEllipse
 10
134.406793408098
 20
161.3516299726153
 30
0.0
 11
0.2213477857808297
 21
0.4483413229266855
 31
0.0
210
0.0
220
0.0
230
1.0
 40
0.9290209999999998
 41
3.630072116851806
 42
5.142430782318115
  0
LINE
  5
4ABB
330
A
100
AcDbEntity
  8
0
  6
Continuous
 62
     7
 48
0.039843
100
AcDbLine
 10
52.45915069431095
 20
135.567140158499
 30
0.0
 11
50.459153402644
 21
132.1211330174587
 31
0.0
  0
LINE
  5
4AC1
330
A
100
AcDbEntity
  8
0
  6
Continuous
 62
     7
 48
0.029882
100
AcDbLine
 10
51.45915204847745
 20
129.0671258355843
 30
0.0
 11
51.45915204847746
 21
133.8441365879792
 31
0.0
  0
ELLIPSE
  5
4AC4
330
A
100
AcDbEntity
  8
0
  6
Continuous
 62
     7
100
AcDbEllipse
 10
126.1115155221895
 20
161.3516299726153
 30
0.0
 11
-0.2213477857808297
 21
0.4483413229266855
 31
0.0
210
0.0
220
0.0
230
1.0
 40
0.9290209999999998
 41
1.140754342079162
 42
2.653113126754759
  0
LINE
  5
4AC7
330
A
100
AcDbEntity
  8
0
  6
Continuous
 62
     7
 48
0.36
100
AcDbLine
 10
122.7591508713943
 20
160.4383538177478
 30
0.0
 11
104.7591502463941
 21
160.4383538177478
 31
0.0
  0
LINE
  5
4AC8
330
A
100
AcDbEntity
  8
0
  6
Continuous
 62
     7
100
AcDbLine
 10
104.7591502463941
 20
161.9383486614988
 30
0.0
 11
52.45915069431095
 21
161.9383486614988
 31
0.0
  0
ARC
  5
4AC9
330
A
100
AcDbEntity
  8
0
  6
Continuous
 62
     7
100
AcDbCircle
 10
52.45915069431095
 20
159.9383613698308
 30
0.0
 40
1.999999791666688
100
AcDbArc
 50
90.00000300000001
 51
180.000005
  0
LINE
  5
4ACA
330
A
100
AcDbEntity
  8
0
  6
Continuous
 62
     7
100
AcDbLine
 10
50.459153402644
 20
129.0671258355843
 30
0.0
 11
50.459153402644
 21
159.9383613698308
 31
0.0
  0
LINE
  5
4ACB
330
A
100
AcDbEntity
  8
0
  6
Continuous
 62
     7
100
AcDbLine
 10
177.0591577151433
 20
129.0671258355843
 30
0.0
 11
177.0591577151433
 21
159.9383613698308
 31
0.0
  0
LINE
  5
4ACD
330
A
100
AcDbEntity
  8
0
  6
Continuous
 62
     7
 48
0.065658
100
AcDbLine
 10
176.0591540693104
 20
133.8441365879792
 30
0.0
 11
176.0591540693104
 21
129.0671258355843
 31
0.0
  0
LINE
  5
4ACF
330
A
100
AcDbEntity
  8
0
  6
Continuous
 62
     7
 48
0.011734
100
AcDbLine
 10
134.8776608590493
 20
161.9383486614988
 30
0.0
 11
134.8776608590493
 21
161.3516299726153
 31
0.0
  0
LINE
  5
4AD0
330
A
100
AcDbEntity
  8
0
  6
Continuous
 62
     7
 48
0.011734
100
AcDbLine
 10
125.6406393212392
 20
161.9383486614988
 30
0.0
 11
125.6406393212392
 21
161.3516299726153
 31
0.0
  0
LINE
  5
4AD1
330
A
100
AcDbEntity
  8
0
  6
Continuous
 62
     7
 48
0.03
100
AcDbLine
 10
122.7591508713943
 20
161.9383486614988
 30
0.0
 11
122.7591508713943
 21
160.4383538177478
 31
0.0
  0
ARC
  5
4AD2
330
A
100
AcDbEntity
  8
0
  6
Continuous
 62
     7
100
AcDbCircle
 10
175.0591504234774
 20
159.9383613698308
 30
0.0
 40
1.999999791666688
100
AcDbArc
 50
0.0
 51
90.00000300000001
  0
LINE
  5
4AD3
330
A
100
AcDbEntity
  8
0
  6
Continuous
 62
     7
 48
0.019661
100
AcDbLine
 10
124.75915816306
 20
160.9164112679505
 30
0.0
 11
125.6406393212392
 21
161.3516299726153
 31
0.0
  0
LINE
  5
4AD4
330
A
100
AcDbEntity
  8
0
  6
Continuous
 62
     7
 48
0.019662
100
AcDbLine
 10
134.8776608590493
 20
161.3516299726153
 30
0.0
 11
135.7591507672275
 21
160.9164112679505
 31
0.0
  0
LINE
  5
4AEA
330
A
100
AcDbEntity
  8
0
  6
Continuous
 62
     7
100
AcDbLine
 10
175.0591504234774
 20
135.567140158499
 30
0.0
 11
52.45915069431095
 21
135.567140158499
 31
0.0
  0
LINE
  5
4AEB
330
A
100
AcDbEntity
  8
0
  6
Continuous
 62
     7
 48
0.153712
100
AcDbLine
 10
175.0591504234774
 20
135.567140158499
 30
0.0
 11
175.0591504234774
 21
159.9383613698308
 31
0.0
  0
LINE
  5
4AEF
330
A
100
AcDbEntity
  8
0
  6
Continuous
 62
     7
 48
0.153712
100
AcDbLine
 10
52.45915069431095
 20
159.9383613698308
 30
0.0
 11
52.45915069431095
 21
135.567140158499
 31
0.0
  0
LINE
  5
4AF2
330
A
100
AcDbEntity
  8
0
  6
Continuous
 62
     7
100
AcDbLine
 10
52.45915069431095
 20
159.9383613698308
 30
0.0
 11
175.0591504234774
 21
159.9383613698308
 31
0.0
  0
LINE
  5
4AF6
330
A
100
AcDbEntity
  8
0
  6
Continuous
 62
     7
 48
0.026102
100
AcDbLine
 10
175.0591504234774
 20
135.567140158499
 30
0.0
 11
177.0591577151433
 21
132.1210560005354
 31
0.0
  0
LINE
  5
4AF7
330
A
100
AcDbEntity
  8
0
  6
Continuous
 62
     7
 48
0.04
100
AcDbLine
 10
176.4733727761624
 20
161.3525649725179
 30
0.0
 11
175.0591504234774
 21
159.9383613698308
 31
0.0
  0
LINE
  5
4AF8
330
A
100
AcDbEntity
  8
0
  6
Continuous
 62
     7
 48
0.04
100
AcDbLine
 10
51.04493834162479
 20
161.3525649725179
 30
0.0
 11
52.45915069431095
 21
159.9383613698308
 31
0.0
  0
LINE
  5
4B10
330
A
100
AcDbEntity
  8
0
  6
Continuous
 62
     7
 48
0.12
100
AcDbLine
 10
177.2591426943118
 20
138.0671398980827
 30
0.0
 11
177.2591426943118
 21
128.1807734425639
 31
0.0
  0
LINE
  5
4B18
330
A
100
AcDbEntity
  8
0
  6
Continuous
 62
     7
 48
0.12
100
AcDbLine
 10
50.25915342347737
 20
138.0671398980827
 30
0.0
 11
50.25915342347737
 21
128.1817909278069
 31
0.0
  0
LINE
  5
4B1C
330
A
100
AcDbEntity
  8
0
  6
Continuous
 62
     7
100
AcDbLine
 10
177.2591426943118
 20
128.1817909278069
 30
0.0
 11
50.25915342347737
 21
128.1817909278069
 31
0.0
  0
LINE
  5
4B1D
330
A
100
AcDbEntity
  8
0
  6
Continuous
 62
     7
 48
0.02
100
AcDbLine
 10
177.2591426943118
 20
128.7494571186748
 30
0.0
 11
178.2591463401448
 21
128.7494571186748
 31
0.0
  0
LINE
  5
4B27
330
A
100
AcDbEntity
  8
0
  6
Continuous
 62
     7
 48
0.02
100
AcDbLine
 10
49.25915477764386
 20
128.7494571186748
 30
0.0
 11
50.25915342347737
 21
128.7494571186748
 31
0.0
  0
LINE
  5
4B30
330
A
100
AcDbEntity
  8
0
  6
Continuous
 62
     7
100
AcDbLine
 10
49.25915477764386
 20
162.7387873281195
 30
0.0
 11
49.25915477764386
 21
128.7494571186748
 31
0.0
  0
LINE
  5
4B43
330
A
100
AcDbEntity
  8
0
  6
Continuous
 62
     7
100
AcDbLine
 10
178.2591463401448
 20
128.7494571186748
 30
0.0
 11
178.2591463401448
 21
162.7387873281195
 31
0.0
  0
LINE
  5
4B44
330
A
100
AcDbEntity
  8
0
  6
Continuous
 62
     7
100
AcDbLine
 10
49.25915477764386
 20
162.7387873281195
 30
0.0
 11
178.2591463401448
 21
162.7387873281195
 31
0.0
  0
LINE
  5
4B48
330
A
100
AcDbEntity
  8
0
  6
Continuous
 62
     7
 48
0.14
100
AcDbLine
 10
51.25915206931082
 20
170.6807952508269
 30
0.0
 11
51.25915206931082
 21
163.6807884799944
 31
0.0
  0
LINE
  5
4B49
330
A
100
AcDbEntity
  8
0
  6
Continuous
 62
     7
100
AcDbLine
 10
51.25915206931082
 20
170.6807952508269
 30
0.0
 11
176.2591390484788
 21
170.6807952508269
 31
0.0
  0
LINE
  5
4B4A
330
A
100
AcDbEntity
  8
0
  6
Continuous
 62
     7
 48
0.14
100
AcDbLine
 10
176.2591390484788
 20
163.6807884799944
 30
0.0
 11
176.2591390484788
 21
170.6807952508269
 31
0.0
  0
LINE
  5
4B4B
330
A
100
AcDbEntity
  8
0
  6
Continuous
 62
     7
100
AcDbLine
 10
176.2591390484788
 20
163.6807884799944
 30
0.0
 11
51.25915206931082
 21
163.6807884799944
 31
0.0
  0
LWPOLYLINE
  5
4B4C
330
A
100
AcDbEntity
  8
0
  6
Continuous
 62
     7
100
AcDbPolyline
 90
        8
 70
     0
 43
0.0
 10
50.98684459767618
 20
172.8977637698931
 10
51.014043344843
 20
172.6210262987198
 10
51.07356708864257
 20
172.4306350685523
 10
51.17612957795899
 20
172.2528125870753
 10
51.38992955568816
 20
172.055458857633
 10
51.59073578477081
 20
171.9575176178352
 10
51.84038825876537
 20
171.8962913742129
 10
52.10249073146304
 20
171.8780188761165
  0
LINE
  5
4B56
330
A
100
AcDbEntity
  8
0
  6
Continuous
 62
     7
100
AcDbLine
 10
50.98684459767618
 20
172.8977637698931
 30
0.0
 11
50.98684459767618
 21
264.9638129296794
 31
0.0
  0
ELLIPSE
  5
4B57
330
A
100
AcDbEntity
  8
0
  6
Continuous
 62
     7
100
AcDbEllipse
 10
54.93075043685265
 20
262.3786881989635
 30
0.0
 11
3.71534308832689
 21
-3.278178827224208
 31
0.0
210
0.0
220
0.0
230
1.0
 40
0.4036080000000001
 41
2.712574958801269
 42
3.483713150024412
  0
LINE
  5
4B58
330
A
100
AcDbEntity
  8
0
  6
Continuous
 62
     7
100
AcDbLine
 10
52.10249073146304
 20
265.9835578234559
 30
0.0
 11
175.4158053863259
 21
265.9835578234559
 31
0.0
  0
LWPOLYLINE
  5
4B59
330
A
100
AcDbEntity
  8
0
  6
Continuous
 62
     7
100
AcDbPolyline
 90
        8
 70
     0
 43
0.0
 10
176.5314515201129
 20
264.9638129296794
 10
176.5042715229441
 20
265.2405316508548
 10
176.4447240291469
 20
265.4309416310204
 10
176.3421665398301
 20
265.608745362499
 10
176.1283715621001
 20
265.8060978419416
 10
175.9275653330177
 20
265.9040403317394
 10
175.677912859023
 20
265.9652853253596
 10
175.4158053863259
 20
265.9835578234559
  0
LINE
  5
4B63
330
A
100
AcDbEntity
  8
0
  6
Continuous
 62
     7
100
AcDbLine
 10
176.5314515201129
 20
172.8977637698931
 30
0.0
 11
176.5314515201129
 21
264.9638129296794
 31
0.0
  0
ELLIPSE
  5
4B64
330
A
100
AcDbEntity
  8
0
  6
Continuous
 62
     7
100
AcDbEllipse
 10
172.5875506809358
 20
175.4828885006093
 30
0.0
 11
3.71534308832689
 21
-3.278178827224208
 31
0.0
210
0.0
220
0.0
230
1.0
 40
0.4036080000000001
 41
5.854167461395262
 42
6.625305652618407
  0
LINE
  5
4B65
330
A
100
AcDbEntity
  8
0
  6
Continuous
 62
     7
100
AcDbLine
 10
175.4158053863259
 20
171.8780188761165
 30
0.0
 11
52.10249073146304
 21
171.8780188761165
 31
0.0
  0
LINE
  5
4B81
330
A
100
AcDbEntity
  8
0
  6
Continuous
 62
     7
100
AcDbLine
 10
170.3591571630603
 20
262.680793167494
 30
0.0
 11
55.65915286097737
 21
262.680793167494
 31
0.0
  0
LINE
  5
4B82
330
A
100
AcDbEntity
  8
0
  6
Continuous
 62
     7
 48
0.01
100
AcDbLine
 10
170.8591496109775
 20
262.680793167494
 30
0.0
 11
170.3591571630603
 21
262.680793167494
 31
0.0
  0
ARC
  5
4B83
330
A
100
AcDbEntity
  8
0
  6
Continuous
 62
     7
100
AcDbCircle
 10
55.65915286097737
 20
261.6807895216612
 30
0.0
 40
0.9999998958333446
100
AcDbArc
 50
90.00000300000001
 51
180.000005
  0
LINE
  5
4B84
330
A
100
AcDbEntity
  8
0
  6
Continuous
 62
     7
100
AcDbLine
 10
54.65915296514404
 20
176.1807871779113
 30
0.0
 11
54.65915296514404
 21
261.6807895216612
 31
0.0
  0
ARC
  5
4B85
330
A
100
AcDbEntity
  8
0
  6
Continuous
 62
     7
100
AcDbCircle
 10
55.65915286097737
 20
176.1807871779113
 30
0.0
 40
0.9999998958333446
100
AcDbArc
 50
180.000005
 51
270.000001
  0
LINE
  5
4B86
330
A
100
AcDbEntity
  8
0
  6
Continuous
 62
     7
100
AcDbLine
 10
55.65915286097737
 20
175.1807835320785
 30
0.0
 11
170.3591571630603
 21
175.1807835320785
 31
0.0
  0
LINE
  5
4B87
330
A
100
AcDbEntity
  8
0
  6
Continuous
 62
     7
 48
0.01
100
AcDbLine
 10
170.8591496109775
 20
175.1807835320785
 30
0.0
 11
170.3591571630603
 21
175.1807835320785
 31
0.0
  0
LINE
  5
4BBE
330
A
100
AcDbEntity
  8
0
  6
Continuous
 62
     7
 48
0.02
100
AcDbLine
 10
170.8591496109775
 20
262.680793167494
 30
0.0
 11
171.8591532568106
 21
262.680793167494
 31
0.0
  0
LINE
  5
4BBF
330
A
100
AcDbEntity
  8
0
  6
Continuous
 62
     7
 48
0.008844
100
AcDbLine
 10
171.8591532568106
 20
262.680793167494
 30
0.0
 11
172.30133446075
 21
262.680793167494
 31
0.0
  0
LINE
  5
4BC3
330
A
100
AcDbEntity
  8
0
  6
Continuous
 62
     7
 48
0.02
100
AcDbLine
 10
171.8591532568106
 20
175.1807835320785
 30
0.0
 11
170.8591496109775
 21
175.1807835320785
 31
0.0
  0
LINE
  5
4BC6
330
A
100
AcDbEntity
  8
0
  6
Continuous
 62
     7
 48
0.008844
100
AcDbLine
 10
172.30133446075
 20
175.1807835320785
 30
0.0
 11
171.8591532568106
 21
175.1807835320785
 31
0.0
  0
ELLIPSE
  5
4BC8
330
A
100
AcDbEntity
  8
0
  6
Continuous
 62
     7
100
AcDbEllipse
 10
170.8868446080929
 20
260.8780058552845
 30
0.0
 11
-1.858024403623759
 21
-1.639442273072418
 31
0.0
210
0.0
220
0.0
230
1.0
 40
0.4035670000000002
 41
2.799504041671751
 42
3.570563554763792
  0
LINE
  5
4BC9
330
A
100
AcDbEntity
  8
0
  6
Continuous
 62
     7
100
AcDbLine
 10
172.8591569026435
 20
262.1709019706079
 30
0.0
 11
172.8591569026435
 21
175.6906559789669
 31
0.0
  0
ELLIPSE
  5
4BCB
330
A
100
AcDbEntity
  8
0
  6
Continuous
 62
     7
100
AcDbEllipse
 10
170.8868446080929
 20
176.98355209429
 30
0.0
 11
-1.858024403623759
 21
1.639442273072418
 31
0.0
210
0.0
220
0.0
230
1.0
 40
0.4035670000000002
 41
2.71262175241579
 42
3.483681265507831
  0
LINE
  5
4BCC
330
A
100
AcDbEntity
  8
0
  6
Continuous
 62
     7
 48
0.136
100
AcDbLine
 10
51.35915455889389
 20
170.5807927612443
 30
0.0
 11
51.35915455889389
 21
163.7807909695778
 31
0.0
  0
LINE
  5
4BCD
330
A
100
AcDbEntity
  8
0
  6
Continuous
 62
     7
100
AcDbLine
 10
176.1591565588933
 20
163.7807909695778
 30
0.0
 11
51.35915455889389
 21
163.7807909695778
 31
0.0
  0
LINE
  5
4BCE
330
A
100
AcDbEntity
  8
0
  6
Continuous
 62
     7
 48
0.136
100
AcDbLine
 10
176.1591565588933
 20
163.7807909695778
 30
0.0
 11
176.1591565588933
 21
170.5807927612443
 31
0.0
  0
LINE
  5
4BCF
330
A
100
AcDbEntity
  8
0
  6
Continuous
 62
     7
100
AcDbLine
 10
51.35915455889389
 20
170.5807927612443
 30
0.0
 11
176.1591565588933
 21
170.5807927612443
 31
0.0
  0
ARC
  5
4C98
330
A
100
AcDbEntity
  8
0
  6
Continuous
 62
     7
100
AcDbCircle
 10
182.776033284872
 20
131.1642558622664
 30
0.0
 40
2.983123668810018
100
AcDbArc
 50
269.9019570000004
 51
0.0980429999994999
  0
LINE
  5
4C99
330
A
100
AcDbEntity
  8
0
  6
Continuous
 62
     7
100
AcDbLine
 10
182.7709407722073
 20
128.1807734425639
 30
0.0
 11
44.74774126862192
 21
128.1807734425639
 31
0.0
  0
LINE
  5
4C9A
330
A
100
AcDbEntity
  8
0
  6
Continuous
 62
     7
100
AcDbLine
 10
185.7595157045743
 20
269.192552878529
 30
0.0
 11
185.7595157045743
 21
131.1693671249778
 31
0.0
  0
ARC
  5
4C9B
330
A
100
AcDbEntity
  8
0
  6
Continuous
 62
     7
100
AcDbCircle
 10
182.776033284872
 20
269.1976641412404
 30
0.0
 40
2.983123668810018
100
AcDbArc
 50
359.9019570000005
 51
90.09804299999952
  0
LINE
  5
4C9C
330
A
100
AcDbEntity
  8
0
  6
Continuous
 62
     7
100
AcDbLine
 10
44.74774126862192
 20
272.1811465609425
 30
0.0
 11
182.7709407722073
 21
272.1811465609425
 31
0.0
  0
ARC
  5
4C9D
330
A
100
AcDbEntity
  8
0
  6
Continuous
 62
     7
100
AcDbCircle
 10
44.74263875593232
 20
269.1976641412404
 30
0.0
 40
2.983123668810018
100
AcDbArc
 50
89.90195499999966
 51
180.0980459999999
  0
LINE
  5
4C9E
330
A
100
AcDbEntity
  8
0
  6
Continuous
 62
     7
100
AcDbLine
 10
41.75915258622082
 20
131.1693671249778
 30
0.0
 11
41.75915258622082
 21
269.192552878529
 31
0.0
  0
ARC
  5
4C9F
330
A
100
AcDbEntity
  8
0
  6
Continuous
 62
     7
100
AcDbCircle
 10
44.74263875593232
 20
131.1642558622664
 30
0.0
 40
2.983123668810018
100
AcDbArc
 50
179.9019509999995
 51
270.0980549999997
  0
LINE
  5
4D68
330
A
100
AcDbEntity
  8
0
 62
     7
 48
0.225
100
AcDbLine
 10
430.8616094787795
 20
186.1807819070781
 30
0.0
 11
430.8616094787795
 21
204.180785782079
 31
0.0
  0
LINE
  5
4D69
330
A
100
AcDbEntity
  8
0
 62
     7
 48
0.232145
100
AcDbLine
 10
452.9615902364143
 20
187.2807881438849
 30
0.0
 11
452.9615902364143
 21
224.5453221661111
 31
0.0
  0
LINE
  5
4D6A
330
A
100
AcDbEntity
  8
0
 62
     7
 48
0.225895
100
AcDbLine
 10
430.8616094787795
 20
187.7807882515237
 30
0.0
 11
430.8616094787795
 21
235.6807925633305
 31
0.0
  0
LINE
  5
4D6B
330
A
100
AcDbEntity
  8
0
 62
     7
 48
0.21875
100
AcDbLine
 10
397.3616022669724
 20
204.6807858897178
 30
0.0
 11
397.3616022669724
 21
187.180782122356
 31
0.0
  0
LINE
  5
4D6C
330
A
100
AcDbEntity
  8
0
 62
     7
 48
0.21875
100
AcDbLine
 10
452.4615901025953
 20
186.7807880362455
 30
0.0
 11
431.8616096940574
 21
186.7807880362456
 31
0.0
  0
LINE
  5
4D6D
330
A
100
AcDbEntity
  8
0
 62
     7
 48
0.137372
100
AcDbLine
 10
443.3513812507517
 20
182.2807961786094
 30
0.0
 11
427.7615960516973
 21
182.2807961786094
 31
0.0
  0
LINE
  5
4D6E
330
A
100
AcDbEntity
  8
0
 62
     7
 48
0.23125
100
AcDbLine
 10
427.7615960516973
 20
159.5092152763942
 30
0.0
 11
449.861576809332
 21
159.5092152763942
 31
0.0
  0
LINE
  5
4D6F
330
A
100
AcDbEntity
  8
0
 62
     7
 48
0.181908
100
AcDbLine
 10
449.8615768093318
 20
172.1350419944541
 30
0.0
 11
431.7089849014821
 21
172.1350419944541
 31
0.0
  0
LINE
  5
4D70
330
A
100
AcDbEntity
  8
0
 62
     7
 48
0.155781
100
AcDbLine
 10
431.7089849014821
 20
177.4265471335977
 30
0.0
 11
447.845776203543
 21
177.4265471335976
 31
0.0
  0
LINE
  5
4D71
330
A
100
AcDbEntity
  8
0
 62
     7
 48
0.21875
100
AcDbLine
 10
449.3615766755131
 20
134.7807859529125
 30
0.0
 11
428.7615962669751
 21
134.7807859529126
 31
0.0
  0
LINE
  5
4D72
330
A
100
AcDbEntity
  8
0
 62
     7
 48
0.23125
100
AcDbLine
 10
427.7615960516973
 20
153.8523540585979
 30
0.0
 11
449.861576809332
 21
153.8523540585979
 31
0.0
  0
LINE
  5
4D73
330
A
100
AcDbEntity
  8
0
 62
     7
 48
0.252
100
AcDbLine
 10
384.7615823294742
 20
195.6807926466604
 30
0.0
 11
397.3616022669724
 21
195.6807926466604
 31
0.0
  0
LINE
  5
4D74
330
A
100
AcDbEntity
  8
0
 62
     7
 48
0.09
100
AcDbLine
 10
394.2615888398902
 20
173.6809586883097
 30
0.0
 11
389.761581808641
 21
173.6809586883097
 31
0.0
  0
LINE
  5
4D75
330
A
100
AcDbEntity
  8
0
 62
     7
 48
0.09
100
AcDbLine
 10
394.2615888398902
 20
177.3007820612448
 30
0.0
 11
389.761581808641
 21
177.3007820612448
 31
0.0
  0
LINE
  5
4D76
330
A
100
AcDbEntity
  8
0
 62
     7
 48
0.09
100
AcDbLine
 10
394.2615888398902
 20
177.1807908237439
 30
0.0
 11
389.761581808641
 21
177.1807908237439
 31
0.0
  0
LINE
  5
4D77
330
A
100
AcDbEntity
  8
0
 62
     7
 48
0.252
100
AcDbLine
 10
384.7615823294742
 20
187.6807822299948
 30
0.0
 11
397.3616022669724
 21
187.6807822299948
 31
0.0
  0
LINE
  5
4D78
330
A
100
AcDbEntity
  8
0
 62
     7
 48
0.252
100
AcDbLine
 10
384.7615823294742
 20
187.6807822299948
 30
0.0
 11
397.3616022669724
 21
187.6807822299948
 31
0.0
  0
LINE
  5
4D79
330
A
100
AcDbEntity
  8
0
 62
     7
 48
0.2
100
AcDbLine
 10
384.7615823294742
 20
160.1807850945778
 30
0.0
 11
394.7615812878077
 21
160.1807850945778
 31
0.0
  0
LINE
  5
4D7A
330
A
100
AcDbEntity
  8
0
 62
     7
 48
0.2
100
AcDbLine
 10
384.7615823294742
 20
153.1807970737433
 30
0.0
 11
394.7615812878077
 21
153.1807970737433
 31
0.0
  0
LINE
  5
4D7B
330
A
100
AcDbEntity
  8
0
 62
     7
 48
0.189999
100
AcDbLine
 10
384.7615823294742
 20
153.1807970737433
 30
0.0
 11
394.2615125898985
 21
153.1807970737433
 31
0.0
  0
LINE
  5
4D7C
330
A
100
AcDbEntity
  8
0
 62
     7
 48
0.09
100
AcDbLine
 10
394.2615888398902
 20
162.4007861133277
 30
0.0
 11
389.761581808641
 21
162.4007861133277
 31
0.0
  0
LINE
  5
4D7D
330
A
100
AcDbEntity
  8
0
 62
     7
 48
0.09
100
AcDbLine
 10
394.2615888398902
 20
163.4007897591608
 30
0.0
 11
389.761581808641
 21
163.4007897591608
 31
0.0
  0
LINE
  5
4D7E
330
A
100
AcDbEntity
  8
0
 62
     7
 48
0.19
100
AcDbLine
 10
384.7615823294742
 20
135.6807801466618
 30
0.0
 11
394.2615888398902
 21
135.6807801466618
 31
0.0
  0
LINE
  5
4D7F
330
A
100
AcDbEntity
  8
0
 62
     7
 48
0.19
100
AcDbLine
 10
384.7615823294742
 20
135.6807801466618
 30
0.0
 11
394.2615888398902
 21
135.6807801466618
 31
0.0
  0
LINE
  5
4D80
330
A
100
AcDbEntity
  8
0
 62
     7
 48
0.19
100
AcDbLine
 10
384.7615823294742
 20
143.680790563327
 30
0.0
 11
394.2615888398902
 21
143.680790563327
 31
0.0
  0
LINE
  5
4D81
330
A
100
AcDbEntity
  8
0
 62
     7
 48
0.318
100
AcDbLine
 10
389.761581808641
 20
161.9007936654103
 30
0.0
 11
389.761581808641
 21
177.8007932591603
 31
0.0
  0
LINE
  5
4D82
330
A
100
AcDbEntity
  8
0
 62
     7
 48
0.1
100
AcDbLine
 10
384.7615823294742
 20
161.9007936654103
 30
0.0
 11
389.761581808641
 21
161.9007936654103
 31
0.0
  0
LINE
  5
4D83
330
A
100
AcDbEntity
  8
0
 62
     7
 48
0.034399
100
AcDbLine
 10
389.761581808641
 20
161.9007936654103
 30
0.0
 11
389.761581808641
 21
160.1808225945738
 31
0.0
  0
LINE
  5
4D84
330
A
100
AcDbEntity
  8
0
 62
     7
 48
0.1
100
AcDbLine
 10
384.7615823294742
 20
179.8007818008282
 30
0.0
 11
389.761581808641
 21
179.8007818008282
 31
0.0
  0
LINE
  5
4D85
330
A
100
AcDbEntity
  8
0
 62
     7
 48
0.1
100
AcDbLine
 10
384.7615823294742
 20
177.8007932591603
 30
0.0
 11
389.761581808641
 21
177.8007932591603
 31
0.0
  0
LINE
  5
4D86
330
A
100
AcDbEntity
  8
0
 62
     7
 48
0.04
100
AcDbLine
 10
389.761581808641
 20
179.8007818008282
 30
0.0
 11
389.761581808641
 21
177.8007932591603
 31
0.0
  0
LINE
  5
4D87
330
A
100
AcDbEntity
  8
0
 62
     7
 48
0.225895
100
AcDbLine
 10
427.7615960516973
 20
135.7807861681907
 30
0.0
 11
427.7615960516973
 21
183.6807904799974
 31
0.0
  0
LINE
  5
4D88
330
A
100
AcDbEntity
  8
0
 62
     7
 48
0.26875
100
AcDbLine
 10
394.2615888398902
 20
182.1807901570806
 30
0.0
 11
394.2615888398902
 21
160.6807855286075
 31
0.0
  0
LINE
  5
4D89
330
A
100
AcDbEntity
  8
0
 62
     7
 48
0.3875
100
AcDbLine
 10
396.2615892704459
 20
133.6807797161062
 30
0.0
 11
427.2615959440583
 21
133.6807797161062
 31
0.0
  0
LINE
  5
4D8A
330
A
100
AcDbEntity
  8
0
 62
     7
 48
0.34375
100
AcDbLine
 10
399.7615900239182
 20
152.180783698746
 30
0.0
 11
427.7615960516973
 21
152.180783698746
 31
0.0
  0
LINE
  5
4D8B
330
A
100
AcDbEntity
  8
0
 62
     7
 48
0.34375
100
AcDbLine
 10
427.7615960516973
 20
161.1807856362462
 30
0.0
 11
399.7615900239182
 21
161.1807856362462
 31
0.0
  0
LINE
  5
4D8C
330
A
100
AcDbEntity
  8
0
 62
     7
 48
0.21875
100
AcDbLine
 10
394.2615888398902
 20
152.6807838063847
 30
0.0
 11
394.2615888398902
 21
135.1807800390229
 31
0.0
  0
LINE
  5
4D8D
330
A
100
AcDbEntity
  8
0
 62
     7
 48
0.001289
100
AcDbLine
 10
395.4686810997504
 20
133.9736557791552
 30
0.0
 11
395.5416191154522
 21
133.9007817634675
 31
0.0
  0
LINE
  5
4D8E
330
A
100
AcDbEntity
  8
0
 62
     7
 48
0.002121
100
AcDbLine
 10
395.6616131412843
 20
133.780785737635
 30
0.0
 11
395.5416191154522
 21
133.9007817634675
 31
0.0
  0
LINE
  5
4D8F
330
A
100
AcDbEntity
  8
0
 62
     7
 48
0.001768
100
AcDbLine
 10
395.761589162807
 20
133.6807797161062
 30
0.0
 11
395.6616131412843
 21
133.780785737635
 31
0.0
  0
LINE
  5
4D90
330
A
100
AcDbEntity
  8
0
 62
     7
 48
0.00625
100
AcDbLine
 10
396.2615892704459
 20
133.6807797161062
 30
0.0
 11
395.761589162807
 21
133.6807797161062
 31
0.0
  0
LINE
  5
4D91
330
A
100
AcDbEntity
  8
0
 62
     7
 48
0.021339
100
AcDbLine
 10
394.2615888398902
 20
135.1807800390229
 30
0.0
 11
395.4686810997504
 21
133.9736557791552
 31
0.0
  0
LINE
  5
4D92
330
A
100
AcDbEntity
  8
0
 62
     7
 48
0.1
100
AcDbLine
 10
394.7615889475291
 20
160.6807855286075
 30
0.0
 11
394.7615889475291
 21
152.6807838063847
 31
0.0
  0
LINE
  5
4D93
330
A
100
AcDbEntity
  8
0
 62
     7
 48
0.019522
100
AcDbLine
 10
400.2615901315571
 20
160.6807855286075
 30
0.0
 11
400.2615901315571
 21
152.6807838063847
 31
0.0
  0
LINE
  5
4D94
330
A
100
AcDbEntity
  8
0
 62
     7
 48
0.1125
100
AcDbLine
 10
399.7615900239182
 20
152.180783698746
 30
0.0
 11
399.7615900239182
 21
161.1807856362462
 31
0.0
  0
LINE
  5
4D95
330
A
100
AcDbEntity
  8
0
 62
     7
 48
0.044382
100
AcDbLine
 10
402.261614562118
 20
159.0807791841616
 30
0.0
 11
402.2615905621128
 21
154.2807901508304
 31
0.0
  0
LINE
  5
4D96
330
A
100
AcDbEntity
  8
0
 62
     7
 48
0.006252
100
AcDbLine
 10
394.2615888398902
 20
153.1809059140496
 30
0.0
 11
394.2615888398902
 21
152.6807838063847
 31
0.0
  0
LINE
  5
4D97
330
A
100
AcDbEntity
  8
0
 62
     7
 48
0.00625
100
AcDbLine
 10
394.2615888398902
 20
152.6807838063847
 30
0.0
 11
394.7615889475291
 21
152.6807838063847
 31
0.0
  0
ARC
  5
4D98
330
A
100
AcDbEntity
  8
0
 62
     7
100
AcDbCircle
 10
401.6616144329514
 20
154.2807901508304
 30
0.0
 40
0.6000001291666948
100
AcDbArc
 50
269.9999970000023
 51
0.0
  0
LINE
  5
4D99
330
A
100
AcDbEntity
  8
0
 62
     7
 48
0.008839
100
AcDbLine
 10
400.2615901315571
 20
152.6807838063847
 30
0.0
 11
399.7615900239182
 21
152.180783698746
 31
0.0
  0
LINE
  5
4D9A
330
A
100
AcDbEntity
  8
0
 62
     7
 48
0.0175
100
AcDbLine
 10
401.6616144329514
 20
153.6807840216627
 30
0.0
 11
400.2615901315571
 21
153.6807840216627
 31
0.0
  0
LINE
  5
4D9B
330
A
100
AcDbEntity
  8
0
 62
     7
 48
0.006252
100
AcDbLine
 10
394.2615888398902
 20
160.6807855286075
 30
0.0
 11
394.2615888398902
 21
160.1806334209358
 31
0.0
  0
LINE
  5
4D9C
330
A
100
AcDbEntity
  8
0
 62
     7
 48
0.00625
100
AcDbLine
 10
394.2615888398902
 20
160.6807855286075
 30
0.0
 11
394.7615889475291
 21
160.6807855286075
 31
0.0
  0
ARC
  5
4D9D
330
A
100
AcDbEntity
  8
0
 62
     7
100
AcDbCircle
 10
401.6616144329514
 20
159.0807791841616
 30
0.0
 40
0.6000001291666948
100
AcDbArc
 50
0.0
 51
90.00000299999769
  0
LINE
  5
4D9E
330
A
100
AcDbEntity
  8
0
 62
     7
 48
0.008839
100
AcDbLine
 10
400.2615901315571
 20
160.6807855286075
 30
0.0
 11
399.7615900239182
 21
161.1807856362462
 31
0.0
  0
LINE
  5
4D9F
330
A
100
AcDbEntity
  8
0
 62
     7
 48
0.0175
100
AcDbLine
 10
401.6616144329514
 20
159.6807853133296
 30
0.0
 11
400.2615901315571
 21
159.6807853133296
 31
0.0
  0
LINE
  5
4DA0
330
A
100
AcDbEntity
  8
0
 62
     7
 48
0.225
100
AcDbLine
 10
427.7615960516973
 20
134.180779823745
 30
0.0
 11
427.7615960516973
 21
152.180783698746
 31
0.0
  0
ARC
  5
4DA1
330
A
100
AcDbEntity
  8
0
 62
     7
100
AcDbCircle
 10
428.7615962669751
 20
135.7807861681907
 30
0.0
 40
1.000000215277824
100
AcDbArc
 50
180.0000050000005
 51
270.0000010000014
  0
LINE
  5
4DA2
330
A
100
AcDbEntity
  8
0
 62
     7
 48
0.038625
100
AcDbLine
 10
427.2715439461997
 20
133.6807797161062
 30
0.0
 11
430.3615726114141
 21
133.6807797161062
 31
0.0
  0
ARC
  5
4DA3
330
A
100
AcDbEntity
  8
0
 62
     7
100
AcDbCircle
 10
427.2615959440583
 20
134.180779823745
 30
0.0
 40
0.5000001076389125
100
AcDbArc
 50
270.0000010000014
 51
0.0000100000010064
  0
ARC
  5
4DA4
330
A
100
AcDbEntity
  8
0
 62
     7
100
AcDbCircle
 10
430.3615726114141
 20
134.180779823745
 30
0.0
 40
0.5000001076389125
100
AcDbArc
 50
270.0000010000014
 51
0.0000100000010064
  0
LINE
  5
4DA5
330
A
100
AcDbEntity
  8
0
 62
     7
 48
0.007499
100
AcDbLine
 10
430.8615727190528
 20
134.180779823745
 30
0.0
 11
430.8615727190528
 21
134.7806639528866
 31
0.0
  0
LINE
  5
4DA6
330
A
100
AcDbEntity
  8
0
 62
     7
 48
0.3875
100
AcDbLine
 10
399.3616026975281
 20
185.6807817994392
 30
0.0
 11
430.3616093711406
 21
185.6807817994392
 31
0.0
  0
LINE
  5
4DA7
330
A
100
AcDbEntity
  8
0
 62
     7
 48
0.03875
100
AcDbLine
 10
435.281617670591
 20
183.6807904799974
 30
0.0
 11
395.761589162807
 21
183.6807904799974
 31
0.0
  0
LINE
  5
4DA8
330
A
100
AcDbEntity
  8
0
 62
     7
 48
0.021339
100
AcDbLine
 10
394.2615888398902
 20
182.1807901570806
 30
0.0
 11
395.761589162807
 21
183.6807904799974
 31
0.0
  0
LINE
  5
4DA9
330
A
100
AcDbEntity
  8
0
 62
     7
 48
0.001289
100
AcDbLine
 10
398.5686945268326
 20
185.9736578624882
 30
0.0
 11
398.6416325425344
 21
185.9007838468005
 31
0.0
  0
LINE
  5
4DAA
330
A
100
AcDbEntity
  8
0
 62
     7
 48
0.002121
100
AcDbLine
 10
398.7616265683664
 20
185.7807878209681
 30
0.0
 11
398.6416325425344
 21
185.9007838468005
 31
0.0
  0
LINE
  5
4DAB
330
A
100
AcDbEntity
  8
0
 62
     7
 48
0.001768
100
AcDbLine
 10
398.8616025898891
 20
185.6807817994392
 30
0.0
 11
398.7616265683664
 21
185.7807878209681
 31
0.0
  0
LINE
  5
4DAC
330
A
100
AcDbEntity
  8
0
 62
     7
 48
0.00625
100
AcDbLine
 10
399.3616026975281
 20
185.6807817994392
 30
0.0
 11
398.8616025898891
 21
185.6807817994392
 31
0.0
  0
LINE
  5
4DAD
330
A
100
AcDbEntity
  8
0
 62
     7
 48
0.021339
100
AcDbLine
 10
397.3616022669724
 20
187.180782122356
 30
0.0
 11
398.5686945268326
 21
185.9736578624882
 31
0.0
  0
LINE
  5
4DAE
330
A
100
AcDbEntity
  8
0
 62
     7
 48
0.01875
100
AcDbLine
 10
429.761596482253
 20
181.7807960709706
 30
0.0
 11
429.761596482253
 21
167.7807930570811
 31
0.0
  0
LINE
  5
4DAF
330
A
100
AcDbEntity
  8
0
 62
     7
 48
0.01875
100
AcDbLine
 10
427.7615960516973
 20
167.2807929494422
 30
0.0
 11
429.2615963746142
 21
167.2807929494422
 31
0.0
  0
ARC
  5
4DB0
330
A
100
AcDbEntity
  8
0
 62
     7
100
AcDbCircle
 10
431.1616207836471
 20
172.3807700473541
 30
0.0
 40
0.6000001291666948
100
AcDbArc
 50
269.9999970000023
 51
0.0
  0
LINE
  5
4DB1
330
A
100
AcDbEntity
  8
0
 62
     7
 48
0.0175
100
AcDbLine
 10
431.1616207836471
 20
171.7807939181924
 30
0.0
 11
429.761596482253
 21
171.7807939181924
 31
0.0
  0
ARC
  5
4DB2
330
A
100
AcDbEntity
  8
0
 62
     7
100
AcDbCircle
 10
429.2615963746142
 20
167.7807930570811
 30
0.0
 40
0.5000001076389125
100
AcDbArc
 50
270.0000010000014
 51
0.0000100000010064
  0
LINE
  5
4DB3
330
A
100
AcDbEntity
  8
0
 62
     7
 48
0.0175
100
AcDbLine
 10
431.1616207836471
 20
177.7807952098593
 30
0.0
 11
429.761596482253
 21
177.7807952098593
 31
0.0
  0
ARC
  5
4DB4
330
A
100
AcDbEntity
  8
0
 62
     7
100
AcDbCircle
 10
431.1616207836471
 20
177.1807890806915
 30
0.0
 40
0.6000001291666948
100
AcDbArc
 50
0.0
 51
90.00000299999769
  0
LINE
  5
4DB5
330
A
100
AcDbEntity
  8
0
 62
     7
 48
0.044383
100
AcDbLine
 10
431.7616209128138
 20
177.1807890806915
 30
0.0
 11
431.7615969128087
 21
172.3807700473541
 31
0.0
  0
ARC
  5
4DB6
330
A
100
AcDbEntity
  8
0
 62
     7
100
AcDbCircle
 10
431.8616096940574
 20
187.7807882515237
 30
0.0
 40
1.000000215277824
100
AcDbArc
 50
180.0000050000005
 51
270.0000010000014
  0
LINE
  5
4DB7
330
A
100
AcDbEntity
  8
0
 62
     7
 48
0.038625
100
AcDbLine
 10
430.3715573732818
 20
185.6807817994392
 30
0.0
 11
433.4615860384964
 21
185.6807817994392
 31
0.0
  0
ARC
  5
4DB8
330
A
100
AcDbEntity
  8
0
 62
     7
100
AcDbCircle
 10
430.3616093711406
 20
186.1807819070781
 30
0.0
 40
0.5000001076389125
100
AcDbArc
 50
270.0000010000014
 51
0.0000100000010064
  0
ARC
  5
4DB9
330
A
100
AcDbEntity
  8
0
 62
     7
100
AcDbCircle
 10
433.4615860384964
 20
186.1807819070781
 30
0.0
 40
0.5000001076389125
100
AcDbArc
 50
270.0000010000014
 51
0.0000100000010064
  0
LINE
  5
4DBA
330
A
100
AcDbEntity
  8
0
 62
     7
 48
0.007499
100
AcDbLine
 10
433.9615861461351
 20
186.1807819070781
 30
0.0
 11
433.9615861461351
 21
186.7806660362196
 31
0.0
  0
LINE
  5
4DBB
330
A
100
AcDbEntity
  8
0
 62
     7
 48
0.006
100
AcDbLine
 10
432.7816171323964
 20
182.7607762819386
 30
0.0
 11
432.7816171323964
 21
182.2807961786094
 31
0.0
  0
LINE
  5
4DBC
330
A
100
AcDbEntity
  8
0
 62
     7
 48
0.006
100
AcDbLine
 10
432.6815811108606
 20
182.7607762819386
 30
0.0
 11
432.6815811108606
 21
182.2807961786094
 31
0.0
  0
LINE
  5
4DBD
330
A
100
AcDbEntity
  8
0
 62
     7
 48
0.00125
100
AcDbLine
 10
432.6815811108606
 20
182.7607762819386
 30
0.0
 11
432.7816171323964
 21
182.7607762819386
 31
0.0
  0
ARC
  5
4DBE
330
A
100
AcDbEntity
  8
0
 62
     7
100
AcDbCircle
 10
432.1815810032219
 20
183.1807903723585
 30
0.0
 40
0.5000001076389125
100
AcDbArc
 50
0.0
 51
90.00000299999769
  0
LINE
  5
4DBF
330
A
100
AcDbEntity
  8
0
 62
     7
 48
0.01125
100
AcDbLine
 10
432.6815811108606
 20
183.1807903723585
 30
0.0
 11
432.6815811108606
 21
182.2807961786094
 31
0.0
  0
ARC
  5
4DC0
330
A
100
AcDbEntity
  8
0
 62
     7
100
AcDbCircle
 10
429.2615963746142
 20
181.7807960709706
 30
0.0
 40
0.5000001076389125
100
AcDbArc
 50
0.0
 51
90.00000299999769
  0
ARC
  5
4DC1
330
A
100
AcDbEntity
  8
0
 62
     7
100
AcDbCircle
 10
435.281617670591
 20
183.1807903723585
 30
0.0
 40
0.5000001076389125
100
AcDbArc
 50
0.0
 51
90.00000299999769
  0
LINE
  5
4DC2
330
A
100
AcDbEntity
  8
0
 62
     7
 48
0.006
100
AcDbLine
 10
435.8815937997523
 20
182.7607762819386
 30
0.0
 11
435.8815937997523
 21
182.2807961786094
 31
0.0
  0
LINE
  5
4DC3
330
A
100
AcDbEntity
  8
0
 62
     7
 48
0.006
100
AcDbLine
 10
435.7816177782297
 20
182.7607762819386
 30
0.0
 11
435.7816177782297
 21
182.2807961786094
 31
0.0
  0
LINE
  5
4DC4
330
A
100
AcDbEntity
  8
0
 62
     7
 48
0.00125
100
AcDbLine
 10
435.7816177782297
 20
182.7607762819386
 30
0.0
 11
435.8815937997523
 21
182.7607762819386
 31
0.0
  0
LINE
  5
4DC5
330
A
100
AcDbEntity
  8
0
 62
     7
 48
0.011251
100
AcDbLine
 10
435.7816177782297
 20
183.1807903723585
 30
0.0
 11
435.7816177782297
 21
182.2806741785834
 31
0.0
  0
LINE
  5
4DC6
330
A
100
AcDbEntity
  8
0
 62
     7
 48
0.232145
100
AcDbLine
 10
449.861576809332
 20
135.2807860605518
 30
0.0
 11
449.861576809332
 21
172.545320082778
 31
0.0
  0
ARC
  5
4DC7
330
A
100
AcDbEntity
  8
0
 62
     7
100
AcDbCircle
 10
449.3615767016931
 20
135.2807860605518
 30
0.0
 40
0.5000001076389125
100
AcDbArc
 50
269.9999970000023
 51
0.0
  0
ARC
  5
4DC8
330
A
100
AcDbEntity
  8
0
 62
     7
100
AcDbCircle
 10
443.3513814078314
 20
179.2807955327762
 30
0.0
 40
3.000000645833473
100
AcDbArc
 50
29.48037299999909
 51
90.00000299999769
  0
LINE
  5
4DC9
330
A
100
AcDbEntity
  8
0
 62
     7
 48
0.044291
100
AcDbLine
 10
447.7066683454281
 20
177.6726111865696
 30
0.0
 11
445.9629559700456
 21
180.7571758506079
 31
0.0
  0
LINE
  5
4DCA
330
A
100
AcDbEntity
  8
0
 62
     7
 48
0.037991
100
AcDbLine
 10
449.2023966674251
 20
175.026858616998
 30
0.0
 11
447.7066683454281
 21
177.6726111865696
 31
0.0
  0
ARC
  5
4DCB
330
A
100
AcDbEntity
  8
0
 62
     7
100
AcDbCircle
 10
444.8615757329427
 20
172.545320082778
 30
0.0
 40
5.000001076389123
100
AcDbArc
 50
0.0
 51
29.48037299999909
  0
LINE
  5
4DCC
330
A
100
AcDbEntity
  8
0
 62
     7
 48
0.000301
100
AcDbLine
 10
449.2142366699736
 20
175.0059226124911
 30
0.0
 11
449.2023966674251
 21
175.026858616998
 31
0.0
  0
ARC
  5
4DCD
330
A
100
AcDbEntity
  8
0
 62
     7
100
AcDbCircle
 10
452.4615901287753
 20
187.2807881438849
 30
0.0
 40
0.5000001076389125
100
AcDbArc
 50
269.9999970000023
 51
0.0
  0
LINE
  5
4DCE
330
A
100
AcDbEntity
  8
0
 62
     7
 48
0.137372
100
AcDbLine
 10
446.4513946778338
 20
234.2807982619425
 30
0.0
 11
430.8616094787795
 21
234.2807982619425
 31
0.0
  0
LINE
  5
4DCF
330
A
100
AcDbEntity
  8
0
 62
     7
 48
0.23125
100
AcDbLine
 10
430.8616094787795
 20
211.5092173597272
 30
0.0
 11
452.9615902364143
 21
211.5092173597272
 31
0.0
  0
LINE
  5
4DD0
330
A
100
AcDbEntity
  8
0
 62
     7
 48
0.181908
100
AcDbLine
 10
452.961590236414
 20
224.1350440777871
 30
0.0
 11
434.8089983285643
 21
224.1350440777871
 31
0.0
  0
LINE
  5
4DD1
330
A
100
AcDbEntity
  8
0
 62
     7
 48
0.155781
100
AcDbLine
 10
434.8089983285643
 20
229.4265492169308
 30
0.0
 11
450.9457896306251
 21
229.4265492169306
 31
0.0
  0
LINE
  5
4DD2
330
A
100
AcDbEntity
  8
0
 62
     7
 48
0.23125
100
AcDbLine
 10
430.8616094787795
 20
205.8523561419309
 30
0.0
 11
452.9615902364143
 21
205.8523561419309
 31
0.0
  0
ARC
  5
4DD3
330
A
100
AcDbEntity
  8
0
 62
     7
100
AcDbCircle
 10
390.7616042044722
 20
230.8007802383283
 30
0.0
 40
0.9999998958333446
100
AcDbArc
 50
0.0
 51
90.00000300000095
  0
LINE
  5
4DD4
330
A
100
AcDbEntity
  8
0
 62
     7
 48
0.252
100
AcDbLine
 10
384.7615823294742
 20
205.1807804070785
 30
0.0
 11
397.3615635169764
 21
205.1807804070785
 31
0.0
  0
LINE
  5
4DD5
330
A
100
AcDbEntity
  8
0
 62
     7
 48
0.262
100
AcDbLine
 10
384.7615823294742
 20
205.1807804070785
 30
0.0
 11
397.8615947148899
 21
205.1807804070785
 31
0.0
  0
LINE
  5
4DD6
330
A
100
AcDbEntity
  8
0
 62
     7
 48
0.262
100
AcDbLine
 10
384.7615823294742
 20
212.1807871779111
 30
0.0
 11
397.8615947148899
 21
212.1807871779111
 31
0.0
  0
LINE
  5
4DD7
330
A
100
AcDbEntity
  8
0
 62
     7
 48
0.1
100
AcDbLine
 10
384.7615823294742
 20
231.8007838841614
 30
0.0
 11
389.761581808641
 21
231.8007838841614
 31
0.0
  0
LINE
  5
4DD8
330
A
100
AcDbEntity
  8
0
 62
     7
 48
0.02
100
AcDbLine
 10
389.761581808641
 20
231.8007838841614
 30
0.0
 11
390.7616042044722
 21
231.8007838841614
 31
0.0
  0
ARC
  5
4DD9
330
A
100
AcDbEntity
  8
0
 62
     7
100
AcDbCircle
 10
432.3616098016964
 20
233.7807981543037
 30
0.0
 40
0.5000001076389125
100
AcDbArc
 50
0.0
 51
90.00000299999769
  0
LINE
  5
4DDA
330
A
100
AcDbEntity
  8
0
 62
     7
 48
0.021339
100
AcDbLine
 10
397.3616022669724
 20
234.1807922404137
 30
0.0
 11
398.8616025898891
 21
235.6807925633305
 31
0.0
  0
LINE
  5
4DDB
330
A
100
AcDbEntity
  8
0
 62
     7
 48
0.34375
100
AcDbLine
 10
402.8616034510003
 20
204.180785782079
 30
0.0
 11
430.8616094787795
 21
204.180785782079
 31
0.0
  0
LINE
  5
4DDC
330
A
100
AcDbEntity
  8
0
 62
     7
 48
0.34375
100
AcDbLine
 10
430.8616094787795
 20
213.1807877195793
 30
0.0
 11
402.8616034510003
 21
213.1807877195793
 31
0.0
  0
LINE
  5
4DDD
330
A
100
AcDbEntity
  8
0
 62
     7
 48
0.26875
100
AcDbLine
 10
397.3616022669724
 20
234.1807922404137
 30
0.0
 11
397.3616022669724
 21
212.6807876119405
 31
0.0
  0
LINE
  5
4DDE
330
A
100
AcDbEntity
  8
0
 62
     7
 48
0.318
100
AcDbLine
 10
391.7615891003068
 20
229.8007765924952
 30
0.0
 11
391.7615891003068
 21
213.9007769987455
 31
0.0
  0
LINE
  5
4DDF
330
A
100
AcDbEntity
  8
0
 62
     7
 48
0.0175
100
AcDbLine
 10
404.7616278600335
 20
211.6807873966626
 30
0.0
 11
403.3616035586393
 21
211.6807873966626
 31
0.0
  0
LINE
  5
4DE0
330
A
100
AcDbEntity
  8
0
 62
     7
 48
0.0175
100
AcDbLine
 10
404.7616278600335
 20
205.6807861049958
 30
0.0
 11
403.3616035586393
 21
205.6807861049958
 31
0.0
  0
LINE
  5
4DE1
330
A
100
AcDbEntity
  8
0
 62
     7
 48
0.1
100
AcDbLine
 10
397.8616023746112
 20
212.6807876119405
 30
0.0
 11
397.8616023746112
 21
204.6807858897178
 31
0.0
  0
LINE
  5
4DE2
330
A
100
AcDbEntity
  8
0
 62
     7
 48
0.019522
100
AcDbLine
 10
403.3616035586393
 20
212.6807876119405
 30
0.0
 11
403.3616035586393
 21
204.6807858897178
 31
0.0
  0
LINE
  5
4DE3
330
A
100
AcDbEntity
  8
0
 62
     7
 48
0.1125
100
AcDbLine
 10
402.8616034510003
 20
204.180785782079
 30
0.0
 11
402.8616034510003
 21
213.1807877195793
 31
0.0
  0
LINE
  5
4DE4
330
A
100
AcDbEntity
  8
0
 62
     7
 48
0.008839
100
AcDbLine
 10
403.3616035586393
 20
204.6807858897178
 30
0.0
 11
402.8616034510003
 21
204.180785782079
 31
0.0
  0
LINE
  5
4DE5
330
A
100
AcDbEntity
  8
0
 62
     7
 48
0.006252
100
AcDbLine
 10
397.3616022669724
 20
205.1809079973827
 30
0.0
 11
397.3616022669724
 21
204.6807858897178
 31
0.0
  0
LINE
  5
4DE6
330
A
100
AcDbEntity
  8
0
 62
     7
 48
0.00625
100
AcDbLine
 10
397.3616022669724
 20
204.6807858897178
 30
0.0
 11
397.8616023746112
 21
204.6807858897178
 31
0.0
  0
LINE
  5
4DE7
330
A
100
AcDbEntity
  8
0
 62
     7
 48
0.112
100
AcDbLine
 10
397.3616022669724
 20
215.400791842494
 30
0.0
 11
391.7615891003068
 21
215.400791842494
 31
0.0
  0
LINE
  5
4DE8
330
A
100
AcDbEntity
  8
0
 62
     7
 48
0.112
100
AcDbLine
 10
397.3616022669724
 20
214.400788196661
 30
0.0
 11
391.7615891003068
 21
214.400788196661
 31
0.0
  0
LINE
  5
4DE9
330
A
100
AcDbEntity
  8
0
 62
     7
 48
0.02
100
AcDbLine
 10
391.7615891003068
 20
213.9007769987455
 30
0.0
 11
391.7615891003068
 21
212.9007921029105
 31
0.0
  0
ARC
  5
4DEA
330
A
100
AcDbEntity
  8
0
 62
     7
100
AcDbCircle
 10
390.7616042044722
 20
212.9007921029105
 30
0.0
 40
0.9999998958333446
100
AcDbArc
 50
313.9458459999989
 51
0.0000099999977495
  0
LINE
  5
4DEB
330
A
100
AcDbEntity
  8
0
 62
     7
 48
0.008839
100
AcDbLine
 10
403.3616035586393
 20
212.6807876119405
 30
0.0
 11
402.8616034510003
 21
213.1807877195793
 31
0.0
  0
LINE
  5
4DEC
330
A
100
AcDbEntity
  8
0
 62
     7
 48
0.006252
100
AcDbLine
 10
397.3616022669724
 20
212.6807876119405
 30
0.0
 11
397.3616022669724
 21
212.1806355042688
 31
0.0
  0
LINE
  5
4DED
330
A
100
AcDbEntity
  8
0
 62
     7
 48
0.00625
100
AcDbLine
 10
397.3616022669724
 20
212.6807876119405
 30
0.0
 11
397.8616023746112
 21
212.6807876119405
 31
0.0
  0
LINE
  5
4DEE
330
A
100
AcDbEntity
  8
0
 62
     7
 48
0.044382
100
AcDbLine
 10
405.3616279892001
 20
211.0807812674947
 30
0.0
 11
405.361603989195
 21
206.2807922341634
 31
0.0
  0
ARC
  5
4DEF
330
A
100
AcDbEntity
  8
0
 62
     7
100
AcDbCircle
 10
404.7616278600335
 20
206.2807922341634
 30
0.0
 40
0.6000001291666948
100
AcDbArc
 50
269.9999970000023
 51
0.0
  0
ARC
  5
4DF0
330
A
100
AcDbEntity
  8
0
 62
     7
100
AcDbCircle
 10
404.7616278600335
 20
211.0807812674947
 30
0.0
 40
0.6000001291666948
100
AcDbArc
 50
0.0
 51
90.00000299999769
  0
LINE
  5
4DF1
330
A
100
AcDbEntity
  8
0
 62
     7
 48
0.112
100
AcDbLine
 10
397.3616022669724
 20
229.300784144578
 30
0.0
 11
391.7615891003068
 21
229.300784144578
 31
0.0
  0
LINE
  5
4DF2
330
A
100
AcDbEntity
  8
0
 62
     7
 48
0.112
100
AcDbLine
 10
397.3616022669724
 20
229.1807929070772
 30
0.0
 11
391.7615891003068
 21
229.1807929070772
 31
0.0
  0
LINE
  5
4DF3
330
A
100
AcDbEntity
  8
0
 62
     7
 48
0.112
100
AcDbLine
 10
397.3616022669724
 20
225.680960771643
 30
0.0
 11
391.7615891003068
 21
225.680960771643
 31
0.0
  0
LINE
  5
4DF4
330
A
100
AcDbEntity
  8
0
 62
     7
 48
0.02
100
AcDbLine
 10
391.7615891003068
 20
230.8007802383283
 30
0.0
 11
391.7615891003068
 21
229.8007765924952
 31
0.0
  0
LINE
  5
4DF5
330
A
100
AcDbEntity
  8
0
 62
     7
 48
0.01875
100
AcDbLine
 10
432.8616099093351
 20
233.7807981543037
 30
0.0
 11
432.8616099093351
 21
219.7807951404142
 31
0.0
  0
LINE
  5
4DF6
330
A
100
AcDbEntity
  8
0
 62
     7
 48
0.044383
100
AcDbLine
 10
434.8616343398959
 20
229.1807911640246
 30
0.0
 11
434.8616103398908
 21
224.3807721306871
 31
0.0
  0
LINE
  5
4DF7
330
A
100
AcDbEntity
  8
0
 62
     7
 48
0.0175
100
AcDbLine
 10
434.2616342107292
 20
223.7807960015254
 30
0.0
 11
432.8616099093351
 21
223.7807960015254
 31
0.0
  0
LINE
  5
4DF8
330
A
100
AcDbEntity
  8
0
 62
     7
 48
0.01875
100
AcDbLine
 10
430.8616094787795
 20
219.2807950327752
 30
0.0
 11
432.3616098016964
 21
219.2807950327752
 31
0.0
  0
ARC
  5
4DF9
330
A
100
AcDbEntity
  8
0
 62
     7
100
AcDbCircle
 10
432.3616098016964
 20
219.7807951404142
 30
0.0
 40
0.5000001076389125
100
AcDbArc
 50
270.0000010000014
 51
0.0000100000010064
  0
ARC
  5
4DFA
330
A
100
AcDbEntity
  8
0
 62
     7
100
AcDbCircle
 10
434.2616342107292
 20
224.3807721306871
 30
0.0
 40
0.6000001291666948
100
AcDbArc
 50
269.9999970000023
 51
0.0
  0
LINE
  5
4DFB
330
A
100
AcDbEntity
  8
0
 62
     7
 48
0.0175
100
AcDbLine
 10
434.2616342107292
 20
229.7807972931924
 30
0.0
 11
432.8616099093351
 21
229.7807972931924
 31
0.0
  0
ARC
  5
4DFC
330
A
100
AcDbEntity
  8
0
 62
     7
100
AcDbCircle
 10
434.2616342107292
 20
229.1807911640246
 30
0.0
 40
0.6000001291666948
100
AcDbArc
 50
0.0
 51
90.00000299999769
  0
LINE
  5
4DFD
330
A
100
AcDbEntity
  8
0
 62
     7
 48
0.03875
100
AcDbLine
 10
438.381631097673
 20
235.6807925633305
 30
0.0
 11
398.8616025898891
 21
235.6807925633305
 31
0.0
  0
ARC
  5
4DFE
330
A
100
AcDbEntity
  8
0
 62
     7
100
AcDbCircle
 10
438.381631097673
 20
235.1807924556915
 30
0.0
 40
0.5000001076389125
100
AcDbArc
 50
0.0
 51
90.00000299999769
  0
LINE
  5
4DFF
330
A
100
AcDbEntity
  8
0
 62
     7
 48
0.006
100
AcDbLine
 10
435.8816305594785
 20
234.7607783652716
 30
0.0
 11
435.8816305594785
 21
234.2807982619425
 31
0.0
  0
LINE
  5
4E00
330
A
100
AcDbEntity
  8
0
 62
     7
 48
0.006
100
AcDbLine
 10
435.7815945379428
 20
234.7607783652716
 30
0.0
 11
435.7815945379428
 21
234.2807982619425
 31
0.0
  0
LINE
  5
4E01
330
A
100
AcDbEntity
  8
0
 62
     7
 48
0.00125
100
AcDbLine
 10
435.7815945379428
 20
234.7607783652716
 30
0.0
 11
435.8816305594785
 21
234.7607783652716
 31
0.0
  0
ARC
  5
4E02
330
A
100
AcDbEntity
  8
0
 62
     7
100
AcDbCircle
 10
435.281594430304
 20
235.1807924556915
 30
0.0
 40
0.5000001076389125
100
AcDbArc
 50
0.0
 51
90.00000299999769
  0
LINE
  5
4E03
330
A
100
AcDbEntity
  8
0
 62
     7
 48
0.01125
100
AcDbLine
 10
435.7815945379428
 20
235.1807924556915
 30
0.0
 11
435.7815945379428
 21
234.2807982619425
 31
0.0
  0
LINE
  5
4E04
330
A
100
AcDbEntity
  8
0
 62
     7
 48
0.006
100
AcDbLine
 10
438.9816072268346
 20
234.7607783652716
 30
0.0
 11
438.9816072268346
 21
234.2807982619425
 31
0.0
  0
LINE
  5
4E05
330
A
100
AcDbEntity
  8
0
 62
     7
 48
0.006
100
AcDbLine
 10
438.8816312053119
 20
234.7607783652716
 30
0.0
 11
438.8816312053119
 21
234.2807982619425
 31
0.0
  0
LINE
  5
4E06
330
A
100
AcDbEntity
  8
0
 62
     7
 48
0.00125
100
AcDbLine
 10
438.8816312053119
 20
234.7607783652716
 30
0.0
 11
438.9816072268346
 21
234.7607783652716
 31
0.0
  0
LINE
  5
4E07
330
A
100
AcDbEntity
  8
0
 62
     7
 48
0.011251
100
AcDbLine
 10
438.8816312053119
 20
235.1807924556915
 30
0.0
 11
438.8816312053119
 21
234.2806762619165
 31
0.0
  0
ARC
  5
4E08
330
A
100
AcDbEntity
  8
0
 62
     7
100
AcDbCircle
 10
446.4513948349135
 20
231.2807976161093
 30
0.0
 40
3.000000645833473
100
AcDbArc
 50
29.48037299999909
 51
90.00000299999769
  0
ARC
  5
4E09
330
A
100
AcDbEntity
  8
0
 62
     7
100
AcDbCircle
 10
447.961589160025
 20
224.5453221661111
 30
0.0
 40
5.000001076389123
100
AcDbArc
 50
0.0
 51
29.48037299999909
  0
LINE
  5
4E0A
330
A
100
AcDbEntity
  8
0
 62
     7
 48
0.037991
100
AcDbLine
 10
452.3024100945073
 20
227.026860700331
 30
0.0
 11
450.8066817725103
 21
229.6726132699027
 31
0.0
  0
LINE
  5
4E0B
330
A
100
AcDbEntity
  8
0
 62
     7
 48
0.044291
100
AcDbLine
 10
450.8066817725103
 20
229.6726132699027
 30
0.0
 11
449.0629693971277
 21
232.757177933941
 31
0.0
  0
LINE
  5
4E0C
330
A
100
AcDbEntity
  8
0
 62
     7
 48
0.000301
100
AcDbLine
 10
452.3142500970558
 20
227.0059246958241
 30
0.0
 11
452.3024100945073
 21
227.026860700331
 31
0.0
  0
VIEWPORT
  5
4C3D
330
B
100
AcDbEntity
 67
     1
  8
0
  6
Continuous
 62
     7
100
AcDbViewport
 10
0.0
 20
0.0
 30
0.0
 40
1000.0
 41
1000.0
 68
     1
 69
     1
 12
0.0
 22
0.0
 13
0.0
 23
0.0
 14
1.0
 24
1.0
 15
1.0
 25
1.0
 16
0.0
 26
0.0
 36
1.0
 17
0.0
 27
0.0
 37
0.0
 42
50.0
 43
0.0
 44
0.0
 45
1000.0
 50
0.0
 51
0.0
 72
   100
 90
    32800
  1

281
     0
 71
     1
 74
     0
110
0.0
120
0.0
130
0.0
111
1.0
121
0.0
131
0.0
112
0.0
122
1.0
132
0.0
 79
     0
146
0.0
  0
ENDSEC
  0
SECTION
  2
OBJECTS
  0
DICTIONARY
  5
19
330
0
100
AcDbDictionary
281
     1
  3
ACAD_GROUP
350
1A
  3
ACAD_LAYOUT
350
4C44
  3
ACAD_MLINESTYLE
350
1B
  3
ACAD_PLOTSETTINGS
350
4C45
  3
ACAD_PLOTSTYLENAME
350
4C42
  0
DICTIONARY
  5
1A
102
{ACAD_REACTORS
330
19
102
}
330
19
100
AcDbDictionary
281
     1
  0
DICTIONARY
  5
4C44
102
{ACAD_REACTORS
330
19
102
}
330
19
100
AcDbDictionary
281
     1
  3
Model
350
4C46
  3
ﾚｲｱｳﾄ1
350
4C47
  0
DICTIONARY
  5
1B
102
{ACAD_REACTORS
330
19
102
}
330
19
100
AcDbDictionary
281
     1
  3
STANDARD
350
1C
  0
DICTIONARY
  5
4C45
102
{ACAD_REACTORS
330
19
102
}
330
19
100
AcDbDictionary
281
     1
  0
ACDBDICTIONARYWDFLT
  5
4C42
102
{ACAD_REACTORS
330
19
102
}
330
19
100
AcDbDictionary
281
     1
  3
Normal
350
4C43
100
AcDbDictionaryWithDefault
340
4C43
  0
LAYOUT
  5
4C46
102
{ACAD_REACTORS
330
4C44
102
}
330
4C44
100
AcDbPlotSettings
  1

  2
Canon iR-ADV C5030/5035 LIPSLX
  4

  6

 40
0.0
 41
0.0
 42
0.0
 43
0.0
 44
0.0
 45
0.0
 46
0.0
 47
0.0
 48
0.0
 49
0.0
140
0.0
141
0.0
142
1.0
143
1.0
 70
  1712
 72
     0
 73
     0
 74
     0
  7

 75
     0
147
1.0
148
0.0
149
0.0
100
AcDbLayout
  1
Model
 70
     1
 71
     0
 10
0.0
 20
0.0
 11
12.0
 21
9.0
 12
0.0
 22
0.0
 32
0.0
 14
0.0
 24
0.0
 34
0.0
 15
0.0
 25
0.0
 35
0.0
146
0.0
 13
0.0
 23
0.0
 33
0.0
 16
1.0
 26
0.0
 36
0.0
 17
0.0
 27
1.0
 37
0.0
 76
     0
330
A
  0
LAYOUT
  5
4C47
102
{ACAD_REACTORS
330
4C44
102
}
330
4C44
100
AcDbPlotSettings
  1

  2
Canon iR-ADV C5030/5035 LIPSLX
  4

  6

 40
0.0
 41
0.0
 42
0.0
 43
0.0
 44
0.0
 45
0.0
 46
0.0
 47
0.0
 48
0.0
 49
0.0
140
0.0
141
0.0
142
1.0
143
1.0
 70
   688
 72
     0
 73
     0
 74
     5
  7

 75
    16
147
1.0
148
0.0
149
0.0
100
AcDbLayout
  1
ﾚｲｱｳﾄ1
 70
     1
 71
     1
 10
0.0
 20
0.0
 11
420.0
 21
297.0
 12
0.0
 22
0.0
 32
0.0
 14
0.0
 24
0.0
 34
0.0
 15
401.4999999999998
 25
275.0
 35
2.0
146
0.0
 13
0.0
 23
0.0
 33
0.0
 16
1.0
 26
0.0
 36
0.0
 17
0.0
 27
1.0
 37
0.0
 76
     0
330
B
331
4C3D
  0
MLINESTYLE
  5
1C
102
{ACAD_REACTORS
330
1B
102
}
330
1B
100
AcDbMlineStyle
  2
STANDARD
 70
     0
  3

 62
     0
 51
90.0
 52
90.0
 71
     2
 49
0.5
 62
   256
  6
BYLAYER
 49
-0.5
 62
   256
  6
BYLAYER
  0
ACDBPLACEHOLDER
  5
4C43
102
{ACAD_REACTORS
330
4C42
102
}
330
4C42
  0
ENDSEC
  0
EOF
