  0
SECTION
  2
HEADER
  9
$ACADVER
  1
AC1014
  9
$ACADMAINTVER
 70
     0
  9
$DWGCODEPAGE
  3
ANSI_1252
  9
$INSBASE
 10
0.0
 20
0.0
 30
0.0
  9
$EXTMIN
 10
0.0
 20
0.0
 30
0.0
  9
$EXTMAX
 10
401.5
 20
275.0
 30
2.0
  9
$LIMMIN
 10
0.0
 20
0.0
  9
$LIMMAX
 10
420.0
 20
297.0
  9
$ORTHOMODE
 70
     0
  9
$REGENMODE
 70
     1
  9
$FILLMODE
 70
     1
  9
$QTEXTMODE
 70
     0
  9
$MIRRTEXT
 70
     1
  9
$DRAGMODE
 70
     2
  9
$LTSCALE
 40
1.0
  9
$OSMODE
 70
     0
  9
$ATTMODE
 70
     1
  9
$TEXTSIZE
 40
2.5
  9
$TRACEWID
 40
1.0
  9
$TEXTSTYLE
  7
STANDARD
  9
$CLAYER
  8
0
  9
$CELTYPE
  6
BYLAYER
  9
$CECOLOR
 62
   256
  9
$CELTSCALE
 40
1.0
  9
$DELOBJ
 70
     1
  9
$DISPSILH
 70
     0
  9
$DIMSCALE
 40
1.0
  9
$DIMASZ
 40
2.5
  9
$DIMEXO
 40
0.625
  9
$DIMDLI
 40
3.75
  9
$DIMRND
 40
0.0
  9
$DIMDLE
 40
0.0
  9
$DIMEXE
 40
1.25
  9
$DIMTP
 40
0.0
  9
$DIMTM
 40
0.0
  9
$DIMTXT
 40
2.5
  9
$DIMCEN
 40
2.5
  9
$DIMTSZ
 40
0.0
  9
$DIMTOL
 70
     0
  9
$DIMLIM
 70
     0
  9
$DIMTIH
 70
     0
  9
$DIMTOH
 70
     0
  9
$DIMSE1
 70
     0
  9
$DIMSE2
 70
     0
  9
$DIMTAD
 70
     1
  9
$DIMZIN
 70
     8
  9
$DIMBLK
  1

  9
$DIMASO
 70
     1
  9
$DIMSHO
 70
     1
  9
$DIMPOST
  1

  9
$DIMAPOST
  1

  9
$DIMALT
 70
     0
  9
$DIMALTD
 70
     3
  9
$DIMALTF
 40
0.03937
  9
$DIMLFAC
 40
1.0
  9
$DIMTOFL
 70
     1
  9
$DIMTVP
 40
0.0
  9
$DIMTIX
 70
     0
  9
$DIMSOXD
 70
     0
  9
$DIMSAH
 70
     0
  9
$DIMBLK1
  1

  9
$DIMBLK2
  1

  9
$DIMSTYLE
  2

  9
$DIMCLRD
 70
     0
  9
$DIMCLRE
 70
     0
  9
$DIMCLRT
 70
     0
  9
$DIMTFAC
 40
1.0
  9
$DIMGAP
 40
0.625
  9
$DIMJUST
 70
     0
  9
$DIMSD1
 70
     0
  9
$DIMSD2
 70
     0
  9
$DIMTOLJ
 70
     0
  9
$DIMTZIN
 70
     8
  9
$DIMALTZ
 70
     0
  9
$DIMALTTZ
 70
     0
  9
$DIMFIT
 70
     0
  9
$DIMUPT
 70
     0
  9
$DIMUNIT
 70
     2
  9
$DIMDEC
 70
     2
  9
$DIMTDEC
 70
     2
  9
$DIMALTU
 70
     2
  9
$DIMALTTD
 70
     3
  9
$DIMTXSTY
  7
STANDARD
  9
$DIMAUNIT
 70
     0
  9
$LUNITS
 70
     2
  9
$LUPREC
 70
     4
  9
$SKETCHINC
 40
1.0
  9
$FILLETRAD
 40
2.5
  9
$AUNITS
 70
     0
  9
$AUPREC
 70
     0
  9
$MENU
  1
.
  9
$ELEVATION
 40
0.0
  9
$PELEVATION
 40
0.0
  9
$THICKNESS
 40
0.0
  9
$LIMCHECK
 70
     0
  9
$BLIPMODE
 70
     1
  9
$CHAMFERA
 40
2.5
  9
$CHAMFERB
 40
2.5
  9
$CHAMFERC
 40
0.0
  9
$CHAMFERD
 40
0.0
  9
$SKPOLY
 70
     0
  9
$TDCREATE
 40
0.000000000
  9
$TDUPDATE
 40
0.000000000
  9
$TDINDWG
 40
0.0000000000
  9
$TDUSRTIMER
 40
0.0000000000
  9
$USRTIMER
 70
     1
  9
$ANGBASE
 50
0.0
  9
$ANGDIR
 70
     0
  9
$PDMODE
 70
     0
  9
$PDSIZE
 40
0.0
  9
$PLINEWID
 40
0.0
  9
$COORDS
 70
     0
  9
$SPLFRAME
 70
     0
  9
$SPLINETYPE
 70
     6
  9
$SPLINESEGS
 70
     8
  9
$ATTDIA
 70
     0
  9
$ATTREQ
 70
     1
  9
$HANDLING
 70
     1
  9
$HANDSEED
  5
479
  9
$SURFTAB1
 70
     6
  9
$SURFTAB2
 70
     6
  9
$SURFTYPE
 70
     6
  9
$SURFU
 70
     6
  9
$SURFV
 70
     6
  9
$UCSNAME
  2

  9
$UCSORG
 10
0.0
 20
0.0
 30
0.0
  9
$UCSXDIR
 10
1.0
 20
0.0
 30
0.0
  9
$UCSYDIR
 10
0.0
 20
1.0
 30
0.0
  9
$PUCSNAME
  2

  9
$PUCSORG
 10
0.0
 20
0.0
 30
0.0
  9
$PUCSXDIR
 10
1.0
 20
0.0
 30
0.0
  9
$PUCSYDIR
 10
0.0
 20
1.0
 30
0.0
  9
$USERI1
 70
     0
  9
$USERI2
 70
     0
  9
$USERI3
 70
     0
  9
$USERI4
 70
     0
  9
$USERI5
 70
     0
  9
$USERR1
 40
0.0
  9
$USERR2
 40
0.0
  9
$USERR3
 40
0.0
  9
$USERR4
 40
0.0
  9
$USERR5
 40
0.0
  9
$WORLDVIEW
 70
     1
  9
$SHADEDGE
 70
     3
  9
$SHADEDIF
 70
    70
  9
$TILEMODE
 70
     1
  9
$MAXACTVP
 70
    48
  9
$PINSBASE
 10
0.0
 20
0.0
 30
0.0
  9
$PLIMCHECK
 70
     0
  9
$PEXTMIN
 10
0.0
 20
0.0
 30
0.0
  9
$PEXTMAX
 10
401.5
 20
275.0
 30
2.0
  9
$PLIMMIN
 10
0.0
 20
0.0
  9
$PLIMMAX
 10
420.0
 20
297.0
  9
$UNITMODE
 70
     0
  9
$VISRETAIN
 70
     0
  9
$PLINEGEN
 70
     0
  9
$PSLTSCALE
 70
     1
  9
$TREEDEPTH
 70
  3020
  9
$PICKSTYLE
 70
     1
  9
$CMLSTYLE
  2
STANDARD
  9
$CMLJUST
 70
     0
  9
$CMLSCALE
 40
20.0
  9
$PROXYGRAPHICS
 70
     1
  9
$MEASUREMENT
 70
     1
  0
ENDSEC
  0
SECTION
  2
CLASSES
  0
CLASS
  1
LWPOLYLINE
  2
AcDbPolyline
  3
"AutoCAD"
 90
        0
280
     0
281
     1
  0
CLASS
  1
IMAGE
  2
AcDbRasterImage
  3
ISM
 90
      127
280
     0
281
     1
  0
CLASS
  1
OLE2FRAME
  2
AcDbOle2Frame
  3
""
 90
        0
280
     0
281
     1
  0
CLASS
  1
HATCH
  2
AcDbHatch
  3
"ACAD_SEDONA"
 90
        0
280
     0
281
     1
  0
CLASS
  1
DICTIONARYVAR
  2
AcDbDictionaryVar
  3
"AutoCAD"
 90
        0
280
     0
281
     0
  0
CLASS
  1
RASTERVARIABLES
  2
AcDbRasterVariables
  3
ISM
 90
        0
280
     0
281
     0
  0
CLASS
  1
IMAGEDEF
  2
AcDbRasterImageDef
  3
ISM
 90
        0
280
     0
281
     0
  0
CLASS
  1
IMAGEDEF_REACTOR
  2
AcDbRasterImageDefReactor
  3
ISM
 90
        1
280
     0
281
     0
  0
CLASS
  1
IDBUFFER
  2
AcDbIdBuffer
  3
"Acad"
 90
        0
280
     0
281
     0
  0
CLASS
  1
SPATIAL_FILTER
  2
AcDbSpatialFilter
  3
"Acad"
 90
        0
280
     0
281
     0
  0
CLASS
  1
XRECORD
  2
AcDbXrecord
  3
"<Built In>"
 90
        0
280
     0
281
     0
  0
CLASS
  1
SORTENTSTABLE
  2
AcDbSortentsTable
  3
"AutoCAD"
 90
        0
280
     0
281
     0
  0
CLASS
  1
LAYER_INDEX
  2
AcDbLayerIndex
  3
"Acad"
 90
        0
280
     0
281
     0
  0
CLASS
  1
SPATIAL_INDEX
  2
AcDbSpatialIndex
  3
"Acad"
 90
        0
280
     0
281
     0
  0
CLASS
  1
OBJECT_PTR
  2
CAseDLPNTableRecord
  3
"ASE-LPNTableRecord"
 90
        1
280
     0
281
     0
  0
CLASS
  1
LAYOUT
  2
AcDbLayout
  3
"AutoCAD 2000"
 90
        0
280
     0
281
     0
  0
CLASS
  1
PLOTSETTINGS
  2
AcDbPlotSettings
  3
"AutoCAD 2000"
 90
        0
280
     0
281
     0
  0
CLASS
  1
ACDBDICTIONARYWDFLT
  2
AcDbDictionaryWithDefault
  3
"AutoCAD 2000"
 90
        0
280
     0
281
     0
  0
CLASS
  1
ACDBPLACEHOLDER
  2
AcDbPlaceHolder
  3
"AutoCAD 2000"
 90
        0
280
     0
281
     0
  0
CLASS
  1
VBA_PROJECT
  2
AcDbVbaProject
  3
"acadvba"
 90
        0
280
     0
281
     0
  0
CLASS
  1
WIPEOUT
  2
AcDbWipeout
  3
WipeOut|AutoCAD Express Tool|expresstools@autodesk.com
 90
      127
280
     0
281
     1
  0
CLASS
  1
WIPEOUTVARIABLES
  2
AcDbWipeoutVariables
  3
WipeOut|AutoCAD Express Tool|expresstools@autodesk.com
 90
        0
280
     0
281
     0
  0
CLASS
  1
RTEXT
  2
RText
  3
RText|AutoCAD Express Tool|expresstools@autodesk.com
 90
        0
280
     0
281
     1
  0
CLASS
  1
ARCALIGNEDTEXT
  2
AcDbArcAlignedText
  3
ATEXT|AutoCAD Express Tool|expresstools@autodesk.com
 90
        0
280
     0
281
     1
  0
ENDSEC
  0
SECTION
  2
TABLES
  0
TABLE
  2
VPORT
  5
7
100
AcDbSymbolTable
 70
     1
  0
VPORT
  5
15
100
AcDbSymbolTableRecord
100
AcDbViewportTableRecord
  2
*ACTIVE
 70
     0
 10
0.0
 20
0.0
 11
1.0
 21
1.0
 12
6.591288
 22
4.579184
 13
0.0
 23
0.0
 14
1.0
 24
1.0
 15
0.0
 25
0.0
 16
0.0
 26
0.0
 36
1.0
 17
0.0
 27
0.0
 37
0.0
 40
9.158369
 41
0.688564
 42
50.0
 43
0.0
 44
0.0
 50
0.0
 51
0.0
 71
     0
 72
   100
 73
     1
 74
     1
 75
     0
 76
     0
 77
     0
 78
     0
  0
ENDTAB
  0
TABLE
  2
LTYPE
  5
4
100
AcDbSymbolTable
 70
    10
  0
LTYPE
  5
11
100
AcDbSymbolTableRecord
100
AcDbLinetypeTableRecord
  2
BYBLOCK
 70
    64
  3

 72
    65
 73
     0
 40
0.0
  0
LTYPE
  5
12
100
AcDbSymbolTableRecord
100
AcDbLinetypeTableRecord
  2
BYLAYER
 70
    64
  3

 72
    65
 73
     0
 40
0.0
  0
LTYPE
  5
13
100
AcDbSymbolTableRecord
100
AcDbLinetypeTableRecord
  2
CONTINUOUS
 70
    64
  3
Solid line
 72
    65
 73
     0
 40
0.0
  0
LTYPE
  5
1D
100
AcDbSymbolTableRecord
100
AcDbLinetypeTableRecord
  2
DASHED
 70
     0
  3
__ __ __ __ __ __ __ __ __ __ __ __ __ __ __ __
 72
    65
 73
     2
 40
15.0
 49
12.0
 74
     0
 49
-3.0
 74
     0
  0
LTYPE
  5
1E
100
AcDbSymbolTableRecord
100
AcDbLinetypeTableRecord
  2
DASHDOT
 70
     0
  3
 __ . __ . __ . __ . __ . __ . __ . 
 72
    65
 73
     4
 40
18.5
 49
12.0
 74
     0
 49
-3.0
 74
     0
 49
0.5
 74
     0
 49
-3.0
 74
     0
  0
LTYPE
  5
1F
100
AcDbSymbolTableRecord
100
AcDbLinetypeTableRecord
  2
DOT
 70
     0
  3
 . . . . . . . . . . . . . . . .
 72
    65
 73
     2
 40
3.5
 49
0.5
 74
     0
 49
-3.0
 74
     0
  0
LTYPE
  5
20
100
AcDbSymbolTableRecord
100
AcDbLinetypeTableRecord
  2
DASHSPACE
 70
     0
  3
__    __    __    __    __   
 72
    65
 73
     2
 40
30.0
 49
12.0
 74
     0
 49
-18.0
 74
     0
  0
LTYPE
  5
21
100
AcDbSymbolTableRecord
100
AcDbLinetypeTableRecord
  2
DASHDOT2
 70
     0
  3
__ . . __ . . __ . . __ 
 72
    65
 73
     6
 40
22.0
 49
12.0
 74
     0
 49
-3.0
 74
     0
 49
0.5
 74
     0
 49
-3.0
 74
     0
 49
0.5
 74
     0
 49
-3.0
 74
     0
  0
LTYPE
  5
22
100
AcDbSymbolTableRecord
100
AcDbLinetypeTableRecord
  2
PHANTOM
 70
     0
  3
____________    ____    ____   _
 72
    65
 73
     6
 40
20.0
 49
10.0
 74
     0
 49
-2.0
 74
     0
 49
2.0
 74
     0
 49
-2.0
 74
     0
 49
2.0
 74
     0
 49
-2.0
 74
     0
  0
LTYPE
  5
23
100
AcDbSymbolTableRecord
100
AcDbLinetypeTableRecord
  2
AXES
 70
     0
  3
________  __  ________  __  _____
 72
    65
 73
     4
 40
24.0
 49
15.0
 74
     0
 49
-3.0
 74
     0
 49
3.0
 74
     0
 49
-3.0
 74
     0
  0
ENDTAB
  0
TABLE
  2
LAYER
  5
2
100
AcDbSymbolTable
 70
     1
  0
LAYER
  5
14
100
AcDbSymbolTableRecord
100
AcDbLayerTableRecord
  2
0
 70
     0
 62
     7
  6
CONTINUOUS
  0
ENDTAB
  0
TABLE
  2
STYLE
  5
3
100
AcDbSymbolTable
 70
     1
  0
STYLE
  5
17
100
AcDbSymbolTableRecord
100
AcDbTextStyleTableRecord
  2
STANDARD
 70
     0
 40
0.0
 41
1.0
 50
0.0
 71
     0
 42
0.0
  3
txt
  4

  0
ENDTAB
  0
TABLE
  2
VIEW
  5
5
100
AcDbSymbolTable
 70
     0
  0
ENDTAB
  0
TABLE
  2
UCS
  5
6
100
AcDbSymbolTable
 70
     0
  0
ENDTAB
  0
TABLE
  2
APPID
  5
8
100
AcDbSymbolTable
 70
     1
  0
APPID
  5
16
100
AcDbSymbolTableRecord
100
AcDbRegAppTableRecord
  2
ACAD
 70
     0
  0
ENDTAB
  0
TABLE
  2
DIMSTYLE
  5
9
100
AcDbSymbolTable
 70
     1
  0
DIMSTYLE
105
18
100
AcDbSymbolTableRecord
100
AcDbDimStyleTableRecord
  2
STANDARD
 70
     0
  3

  4

  5

  6

  7

 40
1.0
 41
0.18
 42
0.0625
 43
0.38
 44
0.18
 45
0.0
 46
0.0
 47
0.0
 48
0.0
 71
     0
 72
     0
 73
     1
 74
     1
 75
     0
 76
     0
 77
     0
 78
     0
140
0.18
141
0.09
142
0.0
143
25.4
144
1.0
145
0.0
146
1.0
147
0.09
170
     0
171
     2
172
     0
173
     0
174
     0
175
     0
176
     0
177
     0
178
     0
270
     2
271
     4
272
     4
273
     2
274
     2
275
     0
280
     0
281
     0
282
     0
283
     1
284
     0
285
     0
286
     0
287
     3
288
     0
340
17
  0
ENDTAB
  0
TABLE
  2
BLOCK_RECORD
  5
1
100
AcDbSymbolTable
 70
     0
  0
BLOCK_RECORD
  5
A
100
AcDbSymbolTableRecord
100
AcDbBlockTableRecord
  2
*MODEL_SPACE
  0
BLOCK_RECORD
  5
B
100
AcDbSymbolTableRecord
100
AcDbBlockTableRecord
  2
*PAPER_SPACE
  0
ENDTAB
  0
ENDSEC
  0
SECTION
  2
BLOCKS
  0
BLOCK
  5
D
100
AcDbEntity
  8
0
100
AcDbBlockBegin
  2
*MODEL_SPACE
 70
     0
 10
0.0
 20
0.0
 30
0.0
  3
*MODEL_SPACE
  1

  0
ENDBLK
  5
E
100
AcDbEntity
  8
0
100
AcDbBlockEnd
  0
BLOCK
  5
F
100
AcDbEntity
 67
     1
  8
0
100
AcDbBlockBegin
  2
*PAPER_SPACE
 70
     0
 10
0.0
 20
0.0
 30
0.0
  3
*PAPER_SPACE
  1

  0
ENDBLK
  5
10
100
AcDbEntity
 67
     1
  8
0
100
AcDbBlockEnd
  0
ENDSEC
  0
SECTION
  2
ENTITIES
  0
VIEWPORT
  5
478
100
AcDbEntity
 67
     1
  8
0
 62
     0
 48
0.0
100
AcDbViewport
 10
0.0
 20
0.0
 30
0.0
 40
1000.0
 41
1000.0
 68
     1
 69
     1
1001
ACAD
1000
MVIEW
1002
{
1070
    16
1010
0.0
1020
0.0
1030
0.0
1010
0.0
1020
0.0
1030
1.0
1040
0.0
1040
1000.0
1040
0.0
1040
0.0
1040
50.0
1040
0.0
1040
0.0
1070
     0
1070
   100
1070
     1
1070
     1
1070
     0
1070
     0
1070
     0
1070
     0
1040
0.0
1040
0.0
1040
0.0
1040
1.0
1040
1.0
1040
1.0
1040
1.0
1070
     0
1002
{
1002
}
1002
}
  0
LINE
  5
24
100
AcDbEntity
  8
0
 62
     7
100
AcDbLine
 10
24.5
 20
15.0
 30
0.0
 11
401.5
 21
15.0
 31
0.0
210
0.0
220
0.0
230
1.0
  0
LINE
  5
25
100
AcDbEntity
  8
0
 62
     7
100
AcDbLine
 10
401.5
 20
15.0
 30
0.0
 11
401.5
 21
275.0
 31
0.0
210
0.0
220
0.0
230
1.0
  0
LINE
  5
26
100
AcDbEntity
  8
0
 62
     7
100
AcDbLine
 10
24.5
 20
275.0
 30
0.0
 11
401.5
 21
275.0
 31
0.0
210
0.0
220
0.0
230
1.0
  0
LINE
  5
27
100
AcDbEntity
  8
0
 62
     7
100
AcDbLine
 10
24.5
 20
15.0
 30
0.0
 11
24.5
 21
275.0
 31
0.0
210
0.0
220
0.0
230
1.0
  0
LINE
  5
28
100
AcDbEntity
  8
0
 62
     7
100
AcDbLine
 10
172.51123
 20
186.459412
 30
0.0
 11
172.51123
 21
117.459412
 31
0.0
210
0.0
220
0.0
230
1.0
  0
ARC
  5
29
100
AcDbEntity
  8
0
 62
     7
100
AcDbCircle
 10
170.861221
 20
186.459412
 30
0.0
 40
1.65
210
0.0
220
0.0
230
1.0
100
AcDbArc
 50
0.00001
 51
89.999992
  0
ARC
  5
2A
100
AcDbEntity
  8
0
 62
     7
100
AcDbCircle
 10
170.861221
 20
117.459412
 30
0.0
 40
1.65
210
0.0
220
0.0
230
1.0
100
AcDbArc
 50
270.000001
 51
0.00001
  0
ARC
  5
2B
100
AcDbEntity
  8
0
 62
     7
100
AcDbCircle
 10
101.861221
 20
186.459412
 30
0.0
 40
1.65
210
0.0
220
0.0
230
1.0
100
AcDbArc
 50
90.000003
 51
180.000005
  0
LINE
  5
2C
100
AcDbEntity
  8
0
 62
     7
100
AcDbLine
 10
101.861221
 20
188.109406
 30
0.0
 11
170.861221
 21
188.109406
 31
0.0
210
0.0
220
0.0
230
1.0
  0
LINE
  5
2D
100
AcDbEntity
  8
0
 62
     7
100
AcDbLine
 10
170.861221
 20
115.80941
 30
0.0
 11
101.861221
 21
115.80941
 31
0.0
210
0.0
220
0.0
230
1.0
  0
ARC
  5
2E
100
AcDbEntity
  8
0
 62
     7
100
AcDbCircle
 10
101.861221
 20
117.459412
 30
0.0
 40
1.65
210
0.0
220
0.0
230
1.0
100
AcDbArc
 50
180.000005
 51
270.000001
  0
LINE
  5
2F
100
AcDbEntity
  8
0
 62
     7
100
AcDbLine
 10
100.21122
 20
117.459412
 30
0.0
 11
100.21122
 21
186.459412
 31
0.0
210
0.0
220
0.0
230
1.0
  0
ARC
  5
30
100
AcDbEntity
  8
0
 62
     7
100
AcDbCircle
 10
161.62442
 20
121.859444
 30
0.0
 40
4.86165
210
0.0
220
0.0
230
1.0
100
AcDbArc
 50
269.844426
 51
292.23697
  0
LINE
  5
31
100
AcDbEntity
  8
0
 62
     7
 48
0.00904
100
AcDbLine
 10
161.611221
 20
117.359413
 30
0.0
 11
161.611221
 21
116.997818
 31
0.0
210
0.0
220
0.0
230
1.0
  0
ARC
  5
32
100
AcDbEntity
  8
0
 62
     7
100
AcDbCircle
 10
161.611206
 20
121.802429
 30
0.0
 40
4.8489
210
0.0
220
0.0
230
1.0
100
AcDbArc
 50
270.000182
 51
293.616148
  0
LINE
  5
33
100
AcDbEntity
  8
0
 62
     7
 48
0.001107
100
AcDbLine
 10
161.611221
 20
116.997818
 30
0.0
 11
161.611221
 21
116.953522
 31
0.0
210
0.0
220
0.0
230
1.0
  0
LINE
  5
34
100
AcDbEntity
  8
0
 62
     7
 48
0.001107
100
AcDbLine
 10
111.111221
 20
116.997818
 30
0.0
 11
111.111221
 21
116.953522
 31
0.0
210
0.0
220
0.0
230
1.0
  0
ARC
  5
35
100
AcDbEntity
  8
0
 62
     7
100
AcDbCircle
 10
111.111229
 20
121.802383
 30
0.0
 40
4.848863
210
0.0
220
0.0
230
1.0
100
AcDbArc
 50
246.383743
 51
269.999881
  0
ARC
  5
36
100
AcDbEntity
  8
0
 62
     7
100
AcDbCircle
 10
111.098022
 20
121.859444
 30
0.0
 40
4.86165
210
0.0
220
0.0
230
1.0
100
AcDbArc
 50
247.763033
 51
270.155569
  0
LINE
  5
37
100
AcDbEntity
  8
0
 62
     7
 48
0.00904
100
AcDbLine
 10
111.111221
 20
117.359413
 30
0.0
 11
111.111221
 21
116.997818
 31
0.0
210
0.0
220
0.0
230
1.0
  0
LINE
  5
38
100
AcDbEntity
  8
0
 62
     7
100
AcDbLine
 10
161.611221
 20
116.997818
 30
0.0
 11
111.111221
 21
116.997818
 31
0.0
210
0.0
220
0.0
230
1.0
  0
LINE
  5
39
100
AcDbEntity
  8
0
 62
     7
 48
0.001851
100
AcDbLine
 10
167.361221
 20
116.751549
 30
0.0
 11
167.361221
 21
116.677505
 31
0.0
210
0.0
220
0.0
230
1.0
  0
LINE
  5
3A
100
AcDbEntity
  8
0
 62
     7
 48
0.00625
100
AcDbLine
 10
130.861221
 20
131.959412
 30
0.0
 11
131.111221
 21
131.959412
 31
0.0
210
0.0
220
0.0
230
1.0
  0
LINE
  5
3B
100
AcDbEntity
  8
0
 62
     7
 48
0.00625
100
AcDbLine
 10
141.611221
 20
131.959412
 30
0.0
 11
141.861221
 21
131.959412
 31
0.0
210
0.0
220
0.0
230
1.0
  0
LINE
  5
3C
100
AcDbEntity
  8
0
 62
     7
 48
0.001851
100
AcDbLine
 10
105.361221
 20
116.751549
 30
0.0
 11
105.361221
 21
116.677505
 31
0.0
210
0.0
220
0.0
230
1.0
  0
LINE
  5
3D
100
AcDbEntity
  8
0
 62
     7
 48
0.0025
100
AcDbLine
 10
167.861221
 20
118.486191
 30
0.0
 11
167.761215
 21
118.486191
 31
0.0
210
0.0
220
0.0
230
1.0
  0
LINE
  5
3E
100
AcDbEntity
  8
0
 62
     7
 48
0.0025
100
AcDbLine
 10
142.611221
 20
132.459412
 30
0.0
 11
142.611221
 21
132.359406
 31
0.0
210
0.0
220
0.0
230
1.0
  0
LINE
  5
3F
100
AcDbEntity
  8
0
 62
     7
 48
0.0125
100
AcDbLine
 10
167.861221
 20
116.677505
 30
0.0
 11
167.361221
 21
116.677505
 31
0.0
210
0.0
220
0.0
230
1.0
  0
LINE
  5
40
100
AcDbEntity
  8
0
 62
     7
 48
0.008477
100
AcDbLine
 10
142.611221
 20
132.459412
 30
0.0
 11
142.611221
 21
132.798508
 31
0.0
210
0.0
220
0.0
230
1.0
  0
LINE
  5
41
100
AcDbEntity
  8
0
 62
     7
 48
0.0025
100
AcDbLine
 10
104.861221
 20
118.486191
 30
0.0
 11
104.96122
 21
118.486191
 31
0.0
210
0.0
220
0.0
230
1.0
  0
ARC
  5
42
100
AcDbEntity
  8
0
 62
     7
100
AcDbCircle
 10
167.511215
 20
132.109406
 30
0.0
 40
0.35
210
0.0
220
0.0
230
1.0
100
AcDbArc
 50
0.0
 51
90.000003
  0
LINE
  5
43
100
AcDbEntity
  8
0
 62
     7
100
AcDbLine
 10
142.611221
 20
132.459412
 30
0.0
 11
167.511215
 21
132.459412
 31
0.0
210
0.0
220
0.0
230
1.0
  0
LINE
  5
44
100
AcDbEntity
  8
0
 62
     7
 48
0.358451
100
AcDbLine
 10
167.861221
 20
117.771347
 30
0.0
 11
167.861221
 21
132.109406
 31
0.0
210
0.0
220
0.0
230
1.0
  0
LINE
  5
45
100
AcDbEntity
  8
0
 62
     7
 48
0.025495
100
AcDbLine
 10
167.861221
 20
117.771347
 30
0.0
 11
167.861221
 21
116.751549
 31
0.0
210
0.0
220
0.0
230
1.0
  0
LINE
  5
46
100
AcDbEntity
  8
0
 62
     7
 48
0.011862
100
AcDbLine
 10
167.861221
 20
116.751549
 30
0.0
 11
167.861221
 21
116.277061
 31
0.0
210
0.0
220
0.0
230
1.0
  0
LINE
  5
47
100
AcDbEntity
  8
0
 62
     7
 48
0.007941
100
AcDbLine
 10
167.861221
 20
115.959412
 30
0.0
 11
167.861221
 21
116.277061
 31
0.0
210
0.0
220
0.0
230
1.0
  0
LINE
  5
48
100
AcDbEntity
  8
0
 62
     7
 48
0.358451
100
AcDbLine
 10
104.861221
 20
132.109406
 30
0.0
 11
104.861221
 21
117.771347
 31
0.0
210
0.0
220
0.0
230
1.0
  0
LINE
  5
49
100
AcDbEntity
  8
0
 62
     7
 48
0.025495
100
AcDbLine
 10
104.861221
 20
116.751549
 30
0.0
 11
104.861221
 21
117.771347
 31
0.0
210
0.0
220
0.0
230
1.0
  0
LINE
  5
4A
100
AcDbEntity
  8
0
 62
     7
 48
0.011862
100
AcDbLine
 10
104.861221
 20
116.277061
 30
0.0
 11
104.861221
 21
116.751549
 31
0.0
210
0.0
220
0.0
230
1.0
  0
LINE
  5
4B
100
AcDbEntity
  8
0
 62
     7
 48
0.007941
100
AcDbLine
 10
104.861221
 20
115.959412
 30
0.0
 11
104.861221
 21
116.277061
 31
0.0
210
0.0
220
0.0
230
1.0
  0
ARC
  5
4C
100
AcDbEntity
  8
0
 62
     7
100
AcDbCircle
 10
105.21122
 20
132.109406
 30
0.0
 40
0.35
210
0.0
220
0.0
230
1.0
100
AcDbArc
 50
90.000003
 51
180.000005
  0
LINE
  5
4D
100
AcDbEntity
  8
0
 62
     7
 48
0.021967
100
AcDbLine
 10
103.982544
 20
117.771347
 30
0.0
 11
104.861221
 21
117.771347
 31
0.0
210
0.0
220
0.0
230
1.0
  0
LINE
  5
4E
100
AcDbEntity
  8
0
 62
     7
 48
0.037357
100
AcDbLine
 10
103.982544
 20
116.277061
 30
0.0
 11
103.982544
 21
117.771347
 31
0.0
210
0.0
220
0.0
230
1.0
  0
LINE
  5
4F
100
AcDbEntity
  8
0
 62
     7
 48
0.021967
100
AcDbLine
 10
103.982544
 20
116.277061
 30
0.0
 11
104.861221
 21
116.277061
 31
0.0
210
0.0
220
0.0
230
1.0
  0
LINE
  5
50
100
AcDbEntity
  8
0
 62
     7
 48
0.049761
100
AcDbLine
 10
101.99968
 20
116.103577
 30
0.0
 11
103.982544
 21
116.277061
 31
0.0
210
0.0
220
0.0
230
1.0
  0
LINE
  5
51
100
AcDbEntity
  8
0
 62
     7
 48
0.005097
100
AcDbLine
 10
101.855515
 20
115.959412
 30
0.0
 11
101.99968
 21
116.103577
 31
0.0
210
0.0
220
0.0
230
1.0
  0
LINE
  5
52
100
AcDbEntity
  8
0
 62
     7
 48
0.000143
100
AcDbLine
 10
101.855515
 20
115.959427
 30
0.0
 11
101.861221
 21
115.959412
 31
0.0
210
0.0
220
0.0
230
1.0
  0
LINE
  5
53
100
AcDbEntity
  8
0
 62
     7
 48
0.075
100
AcDbLine
 10
104.861221
 20
115.959412
 30
0.0
 11
101.861221
 21
115.959412
 31
0.0
210
0.0
220
0.0
230
1.0
  0
LINE
  5
54
100
AcDbEntity
  8
0
 62
     7
100
AcDbLine
 10
105.21122
 20
132.459412
 30
0.0
 11
130.111221
 21
132.459412
 31
0.0
210
0.0
220
0.0
230
1.0
  0
LINE
  5
55
100
AcDbEntity
  8
0
 62
     7
 48
0.026517
100
AcDbLine
 10
103.982544
 20
117.771347
 30
0.0
 11
102.921883
 21
117.771347
 31
0.0
210
0.0
220
0.0
230
1.0
  0
ELLIPSE
  5
56
100
AcDbEntity
  8
0
 62
     7
100
AcDbEllipse
 10
103.982544
 20
117.771347
 30
0.0
 11
0.1307373046875
 21
-1.494293212890625
 31
0.0
210
0.0
220
0.0
230
1.0
 40
0.705758
 41
4.650721549987793
 42
6.1598501205444336
  0
ELLIPSE
  5
57
100
AcDbEntity
  8
0
 62
     7
100
AcDbEllipse
 10
101.99968
 20
117.59787
 30
0.0
 11
0.1307373046875
 21
-1.494293212890625
 31
0.0
210
0.0
220
0.0
230
1.0
 40
0.705758
 41
4.650721549987793
 42
6.1598501205444336
  0
LINE
  5
58
100
AcDbEntity
  8
0
 62
     7
 48
0.049761
100
AcDbLine
 10
100.939026
 20
117.59787
 30
0.0
 11
102.921883
 21
117.771347
 31
0.0
210
0.0
220
0.0
230
1.0
  0
ELLIPSE
  5
59
100
AcDbEntity
  8
0
 62
     7
100
AcDbEllipse
 10
101.99968
 20
117.59787
 30
0.0
 11
1.0606536865234375
 21
-1.0606536865234375
 31
0.0
210
0.0
220
0.0
230
1.0
 40
0.992433
 41
3.9307889938354492
 42
5.4939889907836914
  0
LINE
  5
5A
100
AcDbEntity
  8
0
 62
     7
 48
0.005097
100
AcDbLine
 10
100.361221
 20
117.453705
 30
0.0
 11
100.505386
 21
117.59787
 31
0.0
210
0.0
220
0.0
230
1.0
  0
ARC
  5
5B
100
AcDbEntity
  8
0
 62
     7
100
AcDbCircle
 10
101.861221
 20
117.459412
 30
0.0
 40
1.5
210
0.0
220
0.0
230
1.0
100
AcDbArc
 50
180.217618
 51
269.781971
  0
LINE
  5
5C
100
AcDbEntity
  8
0
 62
     7
 48
0.026517
100
AcDbLine
 10
103.982544
 20
186.147476
 30
0.0
 11
102.921883
 21
186.147476
 31
0.0
210
0.0
220
0.0
230
1.0
  0
LINE
  5
5D
100
AcDbEntity
  8
0
 62
     7
100
AcDbLine
 10
102.921883
 20
117.771347
 30
0.0
 11
102.921883
 21
186.147476
 31
0.0
210
0.0
220
0.0
230
1.0
  0
LINE
  5
5E
100
AcDbEntity
  8
0
 62
     7
100
AcDbLine
 10
103.982544
 20
117.771347
 30
0.0
 11
103.982544
 21
186.147476
 31
0.0
210
0.0
220
0.0
230
1.0
  0
LINE
  5
5F
100
AcDbEntity
  8
0
 62
     7
100
AcDbLine
 10
100.939026
 20
186.320953
 30
0.0
 11
100.939026
 21
117.59787
 31
0.0
210
0.0
220
0.0
230
1.0
  0
LINE
  5
60
100
AcDbEntity
  8
0
 62
     7
 48
0.049761
100
AcDbLine
 10
102.921883
 20
186.147476
 30
0.0
 11
100.939026
 21
186.320953
 31
0.0
210
0.0
220
0.0
230
1.0
  0
LINE
  5
61
100
AcDbEntity
  8
0
 62
     7
 48
0.000143
100
AcDbLine
 10
100.361221
 20
186.459412
 30
0.0
 11
100.361237
 21
186.465118
 31
0.0
210
0.0
220
0.0
230
1.0
  0
LINE
  5
62
100
AcDbEntity
  8
0
 62
     7
100
AcDbLine
 10
100.361221
 20
186.459412
 30
0.0
 11
100.361221
 21
117.459412
 31
0.0
210
0.0
220
0.0
230
1.0
  0
LINE
  5
63
100
AcDbEntity
  8
0
 62
     7
 48
0.000142
100
AcDbLine
 10
100.361221
 20
117.45372
 30
0.0
 11
100.361221
 21
117.459412
 31
0.0
210
0.0
220
0.0
230
1.0
  0
LINE
  5
64
100
AcDbEntity
  8
0
 62
     7
100
AcDbLine
 10
100.505386
 20
186.320953
 30
0.0
 11
100.505386
 21
117.59787
 31
0.0
210
0.0
220
0.0
230
1.0
  0
LINE
  5
65
100
AcDbEntity
  8
0
 62
     7
 48
0.005097
100
AcDbLine
 10
100.505386
 20
186.320953
 30
0.0
 11
100.361221
 21
186.465118
 31
0.0
210
0.0
220
0.0
230
1.0
  0
LINE
  5
66
100
AcDbEntity
  8
0
 62
     7
 48
0.037357
100
AcDbLine
 10
103.982544
 20
186.147476
 30
0.0
 11
103.982544
 21
187.641754
 31
0.0
210
0.0
220
0.0
230
1.0
  0
ELLIPSE
  5
67
100
AcDbEntity
  8
0
 62
     7
100
AcDbEllipse
 10
103.982544
 20
186.147476
 30
0.0
 11
0.1307373046875
 21
1.494293212890625
 31
0.0
210
0.0
220
0.0
230
1.0
 40
0.705758
 41
0.123334988951683
 42
1.632463812828064
  0
LINE
  5
68
100
AcDbEntity
  8
0
 62
     7
 48
0.010841
100
AcDbLine
 10
100.505386
 20
117.59787
 30
0.0
 11
100.939026
 21
117.59787
 31
0.0
210
0.0
220
0.0
230
1.0
  0
LINE
  5
69
100
AcDbEntity
  8
0
 62
     7
 48
0.010841
100
AcDbLine
 10
100.505386
 20
186.320953
 30
0.0
 11
100.939026
 21
186.320953
 31
0.0
210
0.0
220
0.0
230
1.0
  0
LINE
  5
6A
100
AcDbEntity
  8
0
 62
     7
 48
0.049761
100
AcDbLine
 10
103.982544
 20
187.641754
 30
0.0
 11
101.99968
 21
187.815247
 31
0.0
210
0.0
220
0.0
230
1.0
  0
ELLIPSE
  5
6B
100
AcDbEntity
  8
0
 62
     7
100
AcDbEllipse
 10
101.99968
 20
186.320953
 30
0.0
 11
0.1307373046875
 21
1.494293212890625
 31
0.0
210
0.0
220
0.0
230
1.0
 40
0.705758
 41
0.123334988951683
 42
1.632463812828064
  0
LINE
  5
6C
100
AcDbEntity
  8
0
 62
     7
 48
0.037357
100
AcDbLine
 10
168.739899
 20
186.147476
 30
0.0
 11
168.739899
 21
187.641754
 31
0.0
210
0.0
220
0.0
230
1.0
  0
LINE
  5
6D
100
AcDbEntity
  8
0
 62
     7
100
AcDbLine
 10
103.982544
 20
187.641754
 30
0.0
 11
168.739899
 21
187.641754
 31
0.0
210
0.0
220
0.0
230
1.0
  0
LINE
  5
6E
100
AcDbEntity
  8
0
 62
     7
100
AcDbLine
 10
103.982544
 20
186.147476
 30
0.0
 11
168.739899
 21
186.147476
 31
0.0
210
0.0
220
0.0
230
1.0
  0
LINE
  5
6F
100
AcDbEntity
  8
0
 62
     7
 48
0.005097
100
AcDbLine
 10
170.722763
 20
187.815247
 30
0.0
 11
170.866928
 21
187.959412
 31
0.0
210
0.0
220
0.0
230
1.0
  0
LINE
  5
70
100
AcDbEntity
  8
0
 62
     7
 48
0.000143
100
AcDbLine
 10
170.861221
 20
187.959412
 30
0.0
 11
170.866928
 21
187.959396
 31
0.0
210
0.0
220
0.0
230
1.0
  0
LINE
  5
71
100
AcDbEntity
  8
0
 62
     7
100
AcDbLine
 10
170.861221
 20
187.959412
 30
0.0
 11
101.861221
 21
187.959412
 31
0.0
210
0.0
220
0.0
230
1.0
  0
LINE
  5
72
100
AcDbEntity
  8
0
 62
     7
 48
0.000142
100
AcDbLine
 10
101.85553
 20
187.959396
 30
0.0
 11
101.861221
 21
187.959412
 31
0.0
210
0.0
220
0.0
230
1.0
  0
LINE
  5
73
100
AcDbEntity
  8
0
 62
     7
 48
0.005097
100
AcDbLine
 10
101.99968
 20
187.815247
 30
0.0
 11
101.855515
 21
187.959412
 31
0.0
210
0.0
220
0.0
230
1.0
  0
LINE
  5
74
100
AcDbEntity
  8
0
 62
     7
 48
0.049761
100
AcDbLine
 10
168.739899
 20
187.641754
 30
0.0
 11
170.722763
 21
187.815247
 31
0.0
210
0.0
220
0.0
230
1.0
  0
LINE
  5
75
100
AcDbEntity
  8
0
 62
     7
 48
0.026517
100
AcDbLine
 10
168.739899
 20
186.147476
 30
0.0
 11
169.800568
 21
186.147476
 31
0.0
210
0.0
220
0.0
230
1.0
  0
ELLIPSE
  5
76
100
AcDbEntity
  8
0
 62
     7
100
AcDbEllipse
 10
168.739899
 20
186.147476
 30
0.0
 11
0.1307373046875
 21
-1.494293212890625
 31
0.0
210
0.0
220
0.0
230
1.0
 40
0.705758
 41
1.5091288089752197
 42
3.0182576179504395
  0
LINE
  5
77
100
AcDbEntity
  8
0
 62
     7
 48
0.049761
100
AcDbLine
 10
169.800568
 20
186.147476
 30
0.0
 11
171.783417
 21
186.320953
 31
0.0
210
0.0
220
0.0
230
1.0
  0
ELLIPSE
  5
78
100
AcDbEntity
  8
0
 62
     7
100
AcDbEllipse
 10
170.722763
 20
186.320953
 30
0.0
 11
0.1307373046875
 21
-1.494293212890625
 31
0.0
210
0.0
220
0.0
230
1.0
 40
0.705758
 41
1.5091288089752197
 42
3.0182576179504395
  0
LINE
  5
79
100
AcDbEntity
  8
0
 62
     7
100
AcDbLine
 10
169.800568
 20
117.771347
 30
0.0
 11
169.800568
 21
186.147476
 31
0.0
210
0.0
220
0.0
230
1.0
  0
LINE
  5
7A
100
AcDbEntity
  8
0
 62
     7
100
AcDbLine
 10
168.739899
 20
117.771347
 30
0.0
 11
168.739899
 21
186.147476
 31
0.0
210
0.0
220
0.0
230
1.0
  0
LINE
  5
7B
100
AcDbEntity
  8
0
 62
     7
 48
0.026517
100
AcDbLine
 10
168.739899
 20
117.771347
 30
0.0
 11
169.800568
 21
117.771347
 31
0.0
210
0.0
220
0.0
230
1.0
  0
LINE
  5
7C
100
AcDbEntity
  8
0
 62
     7
 48
0.049761
100
AcDbLine
 10
171.783417
 20
117.59787
 30
0.0
 11
169.800568
 21
117.771347
 31
0.0
210
0.0
220
0.0
230
1.0
  0
LINE
  5
7D
100
AcDbEntity
  8
0
 62
     7
100
AcDbLine
 10
171.783417
 20
186.320953
 30
0.0
 11
171.783417
 21
117.59787
 31
0.0
210
0.0
220
0.0
230
1.0
  0
ELLIPSE
  5
7E
100
AcDbEntity
  8
0
 62
     7
100
AcDbEllipse
 10
168.739899
 20
117.771347
 30
0.0
 11
-0.1307373046875
 21
-1.494293212890625
 31
0.0
210
0.0
220
0.0
230
1.0
 40
0.705758
 41
0.123334988951683
 42
1.632463812828064
  0
LINE
  5
7F
100
AcDbEntity
  8
0
 62
     7
 48
0.037357
100
AcDbLine
 10
168.739899
 20
116.277061
 30
0.0
 11
168.739899
 21
117.771347
 31
0.0
210
0.0
220
0.0
230
1.0
  0
LINE
  5
80
100
AcDbEntity
  8
0
 62
     7
 48
0.014219
100
AcDbLine
 10
141.292465
 20
131.959412
 30
0.0
 11
141.861221
 21
131.959412
 31
0.0
210
0.0
220
0.0
230
1.0
  0
LINE
  5
81
100
AcDbEntity
  8
0
 62
     7
 48
0.163764
100
AcDbLine
 10
133.085938
 20
131.959412
 30
0.0
 11
139.63649
 21
131.959412
 31
0.0
210
0.0
220
0.0
230
1.0
  0
LINE
  5
82
100
AcDbEntity
  8
0
 62
     7
 48
0.014219
100
AcDbLine
 10
130.861221
 20
131.959412
 30
0.0
 11
131.429962
 21
131.959412
 31
0.0
210
0.0
220
0.0
230
1.0
  0
ARC
  5
83
100
AcDbEntity
  8
0
 62
     7
100
AcDbCircle
 10
170.861221
 20
117.459412
 30
0.0
 40
1.5
210
0.0
220
0.0
230
1.0
100
AcDbArc
 50
270.217614
 51
330.0
  0
LINE
  5
84
100
AcDbEntity
  8
0
 62
     7
 48
0.000142
100
AcDbLine
 10
170.861221
 20
115.959412
 30
0.0
 11
170.866913
 21
115.959412
 31
0.0
210
0.0
220
0.0
230
1.0
  0
LINE
  5
85
100
AcDbEntity
  8
0
 62
     7
 48
0.000143
100
AcDbLine
 10
172.361206
 20
117.453705
 30
0.0
 11
172.361221
 21
117.459412
 31
0.0
210
0.0
220
0.0
230
1.0
  0
ARC
  5
86
100
AcDbEntity
  8
0
 62
     7
100
AcDbCircle
 10
170.861221
 20
117.459412
 30
0.0
 40
1.5
210
0.0
220
0.0
230
1.0
100
AcDbArc
 50
354.260829
 51
359.781973
  0
ARC
  5
87
100
AcDbEntity
  8
0
 62
     7
100
AcDbCircle
 10
170.861221
 20
117.459412
 30
0.0
 40
1.5
210
0.0
220
0.0
230
1.0
100
AcDbArc
 50
329.999989
 51
354.26082
  0
LINE
  5
88
100
AcDbEntity
  8
0
 62
     7
 48
0.05
100
AcDbLine
 10
170.861221
 20
115.959412
 30
0.0
 11
168.861221
 21
115.959412
 31
0.0
210
0.0
220
0.0
230
1.0
  0
LINE
  5
89
100
AcDbEntity
  8
0
 62
     7
 48
0.005097
100
AcDbLine
 10
172.361221
 20
117.453705
 30
0.0
 11
172.217056
 21
117.59787
 31
0.0
210
0.0
220
0.0
230
1.0
  0
ELLIPSE
  5
8A
100
AcDbEntity
  8
0
 62
     7
100
AcDbEllipse
 10
170.722763
 20
117.59787
 30
0.0
 11
-1.0606536865234375
 21
-1.0606536865234375
 31
0.0
210
0.0
220
0.0
230
1.0
 40
0.992433
 41
0.789196252822876
 42
2.3523964881896973
  0
LINE
  5
8B
100
AcDbEntity
  8
0
 62
     7
 48
0.001231
100
AcDbLine
 10
170.757568
 20
116.068771
 30
0.0
 11
170.722763
 21
116.103577
 31
0.0
210
0.0
220
0.0
230
1.0
  0
ARC
  5
8C
100
AcDbEntity
  8
0
 62
     7
100
AcDbCircle
 10
170.757584
 20
117.573334
 30
0.0
 40
1.504565
210
0.0
220
0.0
230
1.0
100
AcDbArc
 50
269.999554
 51
273.949917
  0
LINE
  5
8D
100
AcDbEntity
  8
0
 62
     7
 48
0.002681
100
AcDbLine
 10
170.861221
 20
115.965118
 30
0.0
 11
170.861221
 21
116.072342
 31
0.0
210
0.0
220
0.0
230
1.0
  0
LINE
  5
8E
100
AcDbEntity
  8
0
 62
     7
 48
0.000202
100
AcDbLine
 10
170.866928
 20
115.959412
 30
0.0
 11
170.861221
 21
115.965118
 31
0.0
210
0.0
220
0.0
230
1.0
  0
LINE
  5
8F
100
AcDbEntity
  8
0
 62
     7
 48
0.00438
100
AcDbLine
 10
171.985077
 20
116.709412
 30
0.0
 11
172.160263
 21
116.709412
 31
0.0
210
0.0
220
0.0
230
1.0
  0
ARC
  5
90
100
AcDbEntity
  8
0
 62
     7
100
AcDbCircle
 10
170.757751
 20
117.561104
 30
0.0
 40
1.493909
210
0.0
220
0.0
230
1.0
100
AcDbArc
 50
325.241749
 51
350.300649
  0
LINE
  5
91
100
AcDbEntity
  8
0
 62
     7
 48
0.003085
100
AcDbLine
 10
172.230316
 20
117.30941
 30
0.0
 11
172.353699
 21
117.30941
 31
0.0
210
0.0
220
0.0
230
1.0
  0
LINE
  5
92
100
AcDbEntity
  8
0
 62
     7
 48
0.000143
100
AcDbLine
 10
170.861221
 20
115.959412
 30
0.0
 11
170.861221
 21
115.965118
 31
0.0
210
0.0
220
0.0
230
1.0
  0
LINE
  5
93
100
AcDbEntity
  8
0
 62
     7
100
AcDbLine
 10
172.361221
 20
186.459412
 30
0.0
 11
172.361221
 21
117.459412
 31
0.0
210
0.0
220
0.0
230
1.0
  0
LINE
  5
94
100
AcDbEntity
  8
0
 62
     7
 48
0.005097
100
AcDbLine
 10
172.217056
 20
186.320953
 30
0.0
 11
172.361221
 21
186.465118
 31
0.0
210
0.0
220
0.0
230
1.0
  0
LINE
  5
95
100
AcDbEntity
  8
0
 62
     7
100
AcDbLine
 10
172.217056
 20
186.320953
 30
0.0
 11
172.217056
 21
117.59787
 31
0.0
210
0.0
220
0.0
230
1.0
  0
LINE
  5
96
100
AcDbEntity
  8
0
 62
     7
 48
0.000143
100
AcDbLine
 10
172.361221
 20
186.459412
 30
0.0
 11
172.361221
 21
186.465118
 31
0.0
210
0.0
220
0.0
230
1.0
  0
ARC
  5
97
100
AcDbEntity
  8
0
 62
     7
100
AcDbCircle
 10
165.411224
 20
138.009415
 30
0.0
 40
0.5
210
0.0
220
0.0
230
1.0
100
AcDbArc
 50
269.999997
 51
359.999879
  0
ARC
  5
98
100
AcDbEntity
  8
0
 62
     7
100
AcDbCircle
 10
107.311218
 20
181.709412
 30
0.0
 40
0.5
210
0.0
220
0.0
230
1.0
100
AcDbArc
 50
89.999852
 51
180.000005
  0
LINE
  5
99
100
AcDbEntity
  8
0
 62
     7
100
AcDbLine
 10
106.811218
 20
138.009415
 30
0.0
 11
106.811218
 21
181.709412
 31
0.0
210
0.0
220
0.0
230
1.0
  0
ARC
  5
9A
100
AcDbEntity
  8
0
 62
     7
100
AcDbCircle
 10
107.311218
 20
138.009415
 30
0.0
 40
0.5
210
0.0
220
0.0
230
1.0
100
AcDbArc
 50
179.999995
 51
269.999827
  0
LINE
  5
9B
100
AcDbEntity
  8
0
 62
     7
 48
0.00265
100
AcDbLine
 10
165.305206
 20
137.509415
 30
0.0
 11
165.411224
 21
137.509415
 31
0.0
210
0.0
220
0.0
230
1.0
  0
LINE
  5
9C
100
AcDbEntity
  8
0
 62
     7
 48
0.002651
100
AcDbLine
 10
107.311218
 20
137.509415
 30
0.0
 11
107.417244
 21
137.509415
 31
0.0
210
0.0
220
0.0
230
1.0
  0
LINE
  5
9D
100
AcDbEntity
  8
0
 62
     7
100
AcDbLine
 10
107.417244
 20
137.509415
 30
0.0
 11
165.305206
 21
137.509415
 31
0.0
210
0.0
220
0.0
230
1.0
  0
LINE
  5
9E
100
AcDbEntity
  8
0
 62
     7
100
AcDbLine
 10
165.911224
 20
181.709412
 30
0.0
 11
165.911224
 21
138.009415
 31
0.0
210
0.0
220
0.0
230
1.0
  0
LINE
  5
9F
100
AcDbEntity
  8
0
 62
     7
100
AcDbLine
 10
165.305206
 20
182.209412
 30
0.0
 11
107.417244
 21
182.209412
 31
0.0
210
0.0
220
0.0
230
1.0
  0
LINE
  5
A0
100
AcDbEntity
  8
0
 62
     7
 48
0.002651
100
AcDbLine
 10
107.311218
 20
182.209412
 30
0.0
 11
107.417244
 21
182.209412
 31
0.0
210
0.0
220
0.0
230
1.0
  0
LINE
  5
A1
100
AcDbEntity
  8
0
 62
     7
 48
0.00265
100
AcDbLine
 10
165.305206
 20
182.209412
 30
0.0
 11
165.411224
 21
182.209412
 31
0.0
210
0.0
220
0.0
230
1.0
  0
ARC
  5
A2
100
AcDbEntity
  8
0
 62
     7
100
AcDbCircle
 10
165.411224
 20
181.709412
 30
0.0
 40
0.5
210
0.0
220
0.0
230
1.0
100
AcDbArc
 50
0.0
 51
89.999825
  0
LINE
  5
A3
100
AcDbEntity
  8
0
 62
     7
 48
0.041851
100
AcDbLine
 10
105.811218
 20
182.681778
 30
0.0
 11
107.417244
 21
182.209412
 31
0.0
210
0.0
220
0.0
230
1.0
  0
LINE
  5
A4
100
AcDbEntity
  8
0
 62
     7
 48
0.041851
100
AcDbLine
 10
166.911224
 20
182.681778
 30
0.0
 11
165.305206
 21
182.209412
 31
0.0
210
0.0
220
0.0
230
1.0
  0
LINE
  5
A5
100
AcDbEntity
  8
0
 62
     7
100
AcDbLine
 10
166.911224
 20
182.681778
 30
0.0
 11
105.811218
 21
182.681778
 31
0.0
210
0.0
220
0.0
230
1.0
  0
LINE
  5
A6
100
AcDbEntity
  8
0
 62
     7
 48
0.044287
100
AcDbLine
 10
105.134689
 20
182.358978
 30
0.0
 11
106.834167
 21
181.859131
 31
0.0
210
0.0
220
0.0
230
1.0
  0
ELLIPSE
  5
A7
100
AcDbEntity
  8
0
 62
     7
100
AcDbEllipse
 10
106.26738
 20
182.100388
 30
0.0
 11
1.1240692138671875
 21
-0.3306121826171875
 31
0.0
210
0.0
220
0.0
230
1.0
 40
0.42674
 41
2.1100702285766602
 42
3.2851493358612061
  0
LINE
  5
A8
100
AcDbEntity
  8
0
 62
     7
100
AcDbLine
 10
105.134689
 20
182.358978
 30
0.0
 11
105.134689
 21
137.359848
 31
0.0
210
0.0
220
0.0
230
1.0
  0
LINE
  5
A9
100
AcDbEntity
  8
0
 62
     7
 48
0.044287
100
AcDbLine
 10
105.134689
 20
137.359848
 30
0.0
 11
106.834167
 21
137.859695
 31
0.0
210
0.0
220
0.0
230
1.0
  0
LINE
  5
AA
100
AcDbEntity
  8
0
 62
     7
 48
0.041851
100
AcDbLine
 10
105.811218
 20
137.037048
 30
0.0
 11
107.417244
 21
137.509415
 31
0.0
210
0.0
220
0.0
230
1.0
  0
ELLIPSE
  5
AB
100
AcDbEntity
  8
0
 62
     7
100
AcDbEllipse
 10
106.267372
 20
137.618423
 30
0.0
 11
1.124053955078125
 21
0.330596923828125
 31
0.0
210
0.0
220
0.0
230
1.0
 40
0.426741
 41
2.9980361461639404
 42
4.1731185913085937
  0
LINE
  5
AC
100
AcDbEntity
  8
0
 62
     7
 48
0.041851
100
AcDbLine
 10
166.911224
 20
137.037048
 30
0.0
 11
165.305206
 21
137.509415
 31
0.0
210
0.0
220
0.0
230
1.0
  0
LINE
  5
AD
100
AcDbEntity
  8
0
 62
     7
100
AcDbLine
 10
166.911224
 20
137.037048
 30
0.0
 11
105.811218
 21
137.037048
 31
0.0
210
0.0
220
0.0
230
1.0
  0
LINE
  5
AE
100
AcDbEntity
  8
0
 62
     7
 48
0.044287
100
AcDbLine
 10
167.587753
 20
137.359848
 30
0.0
 11
165.888275
 21
137.859695
 31
0.0
210
0.0
220
0.0
230
1.0
  0
ELLIPSE
  5
AF
100
AcDbEntity
  8
0
 62
     7
100
AcDbEllipse
 10
166.455063
 20
137.618423
 30
0.0
 11
1.1240692138671875
 21
-0.3306121826171875
 31
0.0
210
0.0
220
0.0
230
1.0
 40
0.42674
 41
5.2516627311706543
 42
6.4267420768737793
  0
LINE
  5
B0
100
AcDbEntity
  8
0
 62
     7
100
AcDbLine
 10
167.587753
 20
137.359848
 30
0.0
 11
167.587753
 21
182.358978
 31
0.0
210
0.0
220
0.0
230
1.0
  0
LINE
  5
B1
100
AcDbEntity
  8
0
 62
     7
 48
0.044287
100
AcDbLine
 10
167.587753
 20
182.358978
 30
0.0
 11
165.888275
 21
181.859131
 31
0.0
210
0.0
220
0.0
230
1.0
  0
ELLIPSE
  5
B2
100
AcDbEntity
  8
0
 62
     7
100
AcDbEllipse
 10
166.455078
 20
182.100403
 30
0.0
 11
1.124053955078125
 21
0.330596923828125
 31
0.0
210
0.0
220
0.0
230
1.0
 40
0.426741
 41
6.1396288871765137
 42
7.3147115707397461
  0
LINE
  5
B3
100
AcDbEntity
  8
0
 62
     7
 48
0.047409
100
AcDbLine
 10
168.861221
 20
116.068771
 30
0.0
 11
170.757568
 21
116.068771
 31
0.0
210
0.0
220
0.0
230
1.0
  0
LINE
  5
B4
100
AcDbEntity
  8
0
 62
     7
 48
0.010841
100
AcDbLine
 10
171.783417
 20
117.59787
 30
0.0
 11
172.217056
 21
117.59787
 31
0.0
210
0.0
220
0.0
230
1.0
  0
ELLIPSE
  5
B5
100
AcDbEntity
  8
0
 62
     7
100
AcDbEllipse
 10
170.722763
 20
117.59787
 30
0.0
 11
-0.1307373046875
 21
-1.494293212890625
 31
0.0
210
0.0
220
0.0
230
1.0
 40
0.705758
 41
0.123334988951683
 42
1.632463812828064
  0
LINE
  5
B6
100
AcDbEntity
  8
0
 62
     7
 48
0.002734
100
AcDbLine
 10
168.861221
 20
115.959412
 30
0.0
 11
168.861221
 21
116.068771
 31
0.0
210
0.0
220
0.0
230
1.0
  0
LINE
  5
B7
100
AcDbEntity
  8
0
 62
     7
 48
0.0875
100
AcDbLine
 10
167.861221
 20
132.859406
 30
0.0
 11
167.861221
 21
136.359406
 31
0.0
210
0.0
220
0.0
230
1.0
  0
LINE
  5
B8
100
AcDbEntity
  8
0
 62
     7
100
AcDbLine
 10
104.861221
 20
136.359406
 30
0.0
 11
167.861221
 21
136.359406
 31
0.0
210
0.0
220
0.0
230
1.0
  0
LINE
  5
B9
100
AcDbEntity
  8
0
 62
     7
 48
0.0875
100
AcDbLine
 10
104.861221
 20
136.359406
 30
0.0
 11
104.861221
 21
132.859406
 31
0.0
210
0.0
220
0.0
230
1.0
  0
LINE
  5
BA
100
AcDbEntity
  8
0
 62
     7
100
AcDbLine
 10
167.861221
 20
132.859406
 30
0.0
 11
104.861221
 21
132.859406
 31
0.0
210
0.0
220
0.0
230
1.0
  0
LINE
  5
BB
100
AcDbEntity
  8
0
 62
     7
 48
0.002236
100
AcDbLine
 10
166.911224
 20
182.681778
 30
0.0
 11
166.911224
 21
182.77121
 31
0.0
210
0.0
220
0.0
230
1.0
  0
LINE
  5
BC
100
AcDbEntity
  8
0
 62
     7
100
AcDbLine
 10
166.911224
 20
182.77121
 30
0.0
 11
105.811218
 21
182.77121
 31
0.0
210
0.0
220
0.0
230
1.0
  0
LINE
  5
BD
100
AcDbEntity
  8
0
 62
     7
 48
0.002236
100
AcDbLine
 10
105.811218
 20
182.681778
 30
0.0
 11
105.811218
 21
182.77121
 31
0.0
210
0.0
220
0.0
230
1.0
  0
ELLIPSE
  5
BE
100
AcDbEntity
  8
0
 62
     7
100
AcDbEllipse
 10
106.267365
 20
182.100403
 30
0.0
 11
1.17120361328125
 21
-0.3444671630859375
 31
0.0
210
0.0
220
0.0
230
1.0
 40
0.491474
 41
2.1100645065307617
 42
3.2851488590240479
  0
LINE
  5
BF
100
AcDbEntity
  8
0
 62
     7
 48
0.001267
100
AcDbLine
 10
105.134689
 20
182.358978
 30
0.0
 11
105.083992
 21
182.358978
 31
0.0
210
0.0
220
0.0
230
1.0
  0
LINE
  5
C0
100
AcDbEntity
  8
0
 62
     7
100
AcDbLine
 10
105.083992
 20
182.358978
 30
0.0
 11
105.083992
 21
137.359848
 31
0.0
210
0.0
220
0.0
230
1.0
  0
LINE
  5
C1
100
AcDbEntity
  8
0
 62
     7
 48
0.001267
100
AcDbLine
 10
105.134689
 20
137.359848
 30
0.0
 11
105.083992
 21
137.359848
 31
0.0
210
0.0
220
0.0
230
1.0
  0
ELLIPSE
  5
C2
100
AcDbEntity
  8
0
 62
     7
100
AcDbEllipse
 10
106.26738
 20
137.618423
 30
0.0
 11
1.1712188720703125
 21
0.3444671630859375
 31
0.0
210
0.0
220
0.0
230
1.0
 40
0.491473
 41
2.9980361461639404
 42
4.1731162071228027
  0
LINE
  5
C3
100
AcDbEntity
  8
0
 62
     7
 48
0.002236
100
AcDbLine
 10
105.811218
 20
137.037048
 30
0.0
 11
105.811218
 21
136.947601
 31
0.0
210
0.0
220
0.0
230
1.0
  0
LINE
  5
C4
100
AcDbEntity
  8
0
 62
     7
100
AcDbLine
 10
166.911224
 20
136.947601
 30
0.0
 11
105.811218
 21
136.947601
 31
0.0
210
0.0
220
0.0
230
1.0
  0
LINE
  5
C5
100
AcDbEntity
  8
0
 62
     7
 48
0.002236
100
AcDbLine
 10
166.911224
 20
137.037048
 30
0.0
 11
166.911224
 21
136.947601
 31
0.0
210
0.0
220
0.0
230
1.0
  0
ELLIPSE
  5
C6
100
AcDbEntity
  8
0
 62
     7
100
AcDbEllipse
 10
166.455078
 20
137.618423
 30
0.0
 11
1.17120361328125
 21
-0.3444671630859375
 31
0.0
210
0.0
220
0.0
230
1.0
 40
0.491474
 41
5.2516570091247559
 42
6.4267416000366211
  0
LINE
  5
C7
100
AcDbEntity
  8
0
 62
     7
 48
0.001268
100
AcDbLine
 10
167.587753
 20
137.359848
 30
0.0
 11
167.638458
 21
137.359848
 31
0.0
210
0.0
220
0.0
230
1.0
  0
LINE
  5
C8
100
AcDbEntity
  8
0
 62
     7
100
AcDbLine
 10
167.638458
 20
137.359848
 30
0.0
 11
167.638458
 21
182.358978
 31
0.0
210
0.0
220
0.0
230
1.0
  0
LINE
  5
C9
100
AcDbEntity
  8
0
 62
     7
 48
0.001268
100
AcDbLine
 10
167.587753
 20
182.358978
 30
0.0
 11
167.638458
 21
182.358978
 31
0.0
210
0.0
220
0.0
230
1.0
  0
ELLIPSE
  5
CA
100
AcDbEntity
  8
0
 62
     7
100
AcDbEllipse
 10
166.455063
 20
182.100403
 30
0.0
 11
1.1712188720703125
 21
0.3444671630859375
 31
0.0
210
0.0
220
0.0
230
1.0
 40
0.491473
 41
6.1396288871765137
 42
7.3147087097167969
  0
LINE
  5
CB
100
AcDbEntity
  8
0
 62
     7
 48
0.049761
100
AcDbLine
 10
170.722763
 20
116.103577
 30
0.0
 11
168.739899
 21
116.277061
 31
0.0
210
0.0
220
0.0
230
1.0
  0
LINE
  5
CC
100
AcDbEntity
  8
0
 62
     7
 48
0.010841
100
AcDbLine
 10
171.783417
 20
186.320953
 30
0.0
 11
172.217056
 21
186.320953
 31
0.0
210
0.0
220
0.0
230
1.0
  0
ELLIPSE
  5
CD
100
AcDbEntity
  8
0
 62
     7
100
AcDbEllipse
 10
170.722763
 20
186.320953
 30
0.0
 11
1.0606536865234375
 21
-1.0606536865234375
 31
0.0
210
0.0
220
0.0
230
1.0
 40
0.992433
 41
0.789196252822876
 42
2.3523964881896973
  0
ARC
  5
CE
100
AcDbEntity
  8
0
 62
     7
100
AcDbCircle
 10
170.861221
 20
186.459412
 30
0.0
 40
1.5
210
0.0
220
0.0
230
1.0
100
AcDbArc
 50
0.217615
 51
89.781976
  0
ELLIPSE
  5
CF
100
AcDbEntity
  8
0
 62
     7
100
AcDbEllipse
 10
101.99968
 20
186.320953
 30
0.0
 11
1.0606536865234375
 21
1.0606536865234375
 31
0.0
210
0.0
220
0.0
230
1.0
 40
0.992433
 41
0.789196252822876
 42
2.3523964881896973
  0
ARC
  5
D0
100
AcDbEntity
  8
0
 62
     7
100
AcDbCircle
 10
101.861221
 20
186.459412
 30
0.0
 40
1.5
210
0.0
220
0.0
230
1.0
100
AcDbArc
 50
90.217612
 51
179.781972
  0
LINE
  5
D1
100
AcDbEntity
  8
0
 62
     7
 48
0.021967
100
AcDbLine
 10
167.861221
 20
117.771347
 30
0.0
 11
168.739899
 21
117.771347
 31
0.0
210
0.0
220
0.0
230
1.0
  0
LINE
  5
D2
100
AcDbEntity
  8
0
 62
     7
 48
0.021967
100
AcDbLine
 10
167.861221
 20
116.277061
 30
0.0
 11
168.739899
 21
116.277061
 31
0.0
210
0.0
220
0.0
230
1.0
  0
LINE
  5
D3
100
AcDbEntity
  8
0
 62
     7
 48
0.025
100
AcDbLine
 10
168.861221
 20
115.959412
 30
0.0
 11
167.861221
 21
115.959412
 31
0.0
210
0.0
220
0.0
230
1.0
  0
LINE
  5
D4
100
AcDbEntity
  8
0
 62
     7
 48
0.0125
100
AcDbLine
 10
105.361221
 20
115.959412
 30
0.0
 11
104.861221
 21
115.959412
 31
0.0
210
0.0
220
0.0
230
1.0
  0
LINE
  5
D5
100
AcDbEntity
  8
0
 62
     7
100
AcDbLine
 10
167.361221
 20
115.959412
 30
0.0
 11
105.361221
 21
115.959412
 31
0.0
210
0.0
220
0.0
230
1.0
  0
LINE
  5
D6
100
AcDbEntity
  8
0
 62
     7
 48
0.0125
100
AcDbLine
 10
167.861221
 20
115.959412
 30
0.0
 11
167.361221
 21
115.959412
 31
0.0
210
0.0
220
0.0
230
1.0
  0
LINE
  5
D7
100
AcDbEntity
  8
0
 62
     7
 48
0.3125
100
AcDbLine
 10
130.111221
 20
132.798508
 30
0.0
 11
142.611221
 21
132.798508
 31
0.0
210
0.0
220
0.0
230
1.0
  0
LINE
  5
D8
100
AcDbEntity
  8
0
 62
     7
 48
0.008477
100
AcDbLine
 10
130.111221
 20
132.459412
 30
0.0
 11
130.111221
 21
132.798508
 31
0.0
210
0.0
220
0.0
230
1.0
  0
LINE
  5
D9
100
AcDbEntity
  8
0
 62
     7
 48
0.0125
100
AcDbLine
 10
104.861221
 20
116.677505
 30
0.0
 11
105.361221
 21
116.677505
 31
0.0
210
0.0
220
0.0
230
1.0
  0
LINE
  5
DA
100
AcDbEntity
  8
0
 62
     7
 48
0.0025
100
AcDbLine
 10
130.111221
 20
132.459412
 30
0.0
 11
130.111221
 21
132.359406
 31
0.0
210
0.0
220
0.0
230
1.0
  0
LINE
  5
DB
100
AcDbEntity
  8
0
 62
     7
100
AcDbLine
 10
111.111221
 20
116.953522
 30
0.0
 11
161.611221
 21
116.953522
 31
0.0
210
0.0
220
0.0
230
1.0
  0
LINE
  5
DC
100
AcDbEntity
  8
0
 62
     7
 48
0.0025
100
AcDbLine
 10
104.861221
 20
116.959412
 30
0.0
 11
104.96122
 21
116.959412
 31
0.0
210
0.0
220
0.0
230
1.0
  0
LINE
  5
DD
100
AcDbEntity
  8
0
 62
     7
 48
0.0025
100
AcDbLine
 10
167.761215
 20
116.959412
 30
0.0
 11
167.861221
 21
116.959412
 31
0.0
210
0.0
220
0.0
230
1.0
  0
LINE
  5
DE
100
AcDbEntity
  8
0
 62
     7
 48
0.002002
100
AcDbLine
 10
106.311218
 20
116.277061
 30
0.0
 11
106.311218
 21
116.35714
 31
0.0
210
0.0
220
0.0
230
1.0
  0
LINE
  5
DF
100
AcDbEntity
  8
0
 62
     7
 48
0.001337
100
AcDbLine
 10
106.311218
 20
116.223587
 30
0.0
 11
106.311218
 21
116.277061
 31
0.0
210
0.0
220
0.0
230
1.0
  0
LINE
  5
E0
100
AcDbEntity
  8
0
 62
     7
 48
0.01875
100
AcDbLine
 10
105.561218
 20
116.223587
 30
0.0
 11
106.311218
 21
116.223587
 31
0.0
210
0.0
220
0.0
230
1.0
  0
LINE
  5
E1
100
AcDbEntity
  8
0
 62
     7
 48
0.011862
100
AcDbLine
 10
105.561218
 20
116.277061
 30
0.0
 11
105.561218
 21
116.751549
 31
0.0
210
0.0
220
0.0
230
1.0
  0
LINE
  5
E2
100
AcDbEntity
  8
0
 62
     7
 48
0.001337
100
AcDbLine
 10
105.561218
 20
116.277061
 30
0.0
 11
105.561218
 21
116.223587
 31
0.0
210
0.0
220
0.0
230
1.0
  0
LINE
  5
E3
100
AcDbEntity
  8
0
 62
     7
 48
0.011862
100
AcDbLine
 10
167.161224
 20
116.751549
 30
0.0
 11
167.161224
 21
116.277061
 31
0.0
210
0.0
220
0.0
230
1.0
  0
LINE
  5
E4
100
AcDbEntity
  8
0
 62
     7
 48
0.001337
100
AcDbLine
 10
167.161224
 20
116.277061
 30
0.0
 11
167.161224
 21
116.223587
 31
0.0
210
0.0
220
0.0
230
1.0
  0
LINE
  5
E5
100
AcDbEntity
  8
0
 62
     7
 48
0.01875
100
AcDbLine
 10
166.411224
 20
116.223587
 30
0.0
 11
167.161224
 21
116.223587
 31
0.0
210
0.0
220
0.0
230
1.0
  0
LINE
  5
E6
100
AcDbEntity
  8
0
 62
     7
 48
0.001337
100
AcDbLine
 10
166.411224
 20
116.223587
 30
0.0
 11
166.411224
 21
116.277061
 31
0.0
210
0.0
220
0.0
230
1.0
  0
LINE
  5
E7
100
AcDbEntity
  8
0
 62
     7
 48
0.002002
100
AcDbLine
 10
166.411224
 20
116.35714
 30
0.0
 11
166.411224
 21
116.277061
 31
0.0
210
0.0
220
0.0
230
1.0
  0
LINE
  5
E8
100
AcDbEntity
  8
0
 62
     7
 48
0.03875
100
AcDbLine
 10
107.861221
 20
116.35714
 30
0.0
 11
106.311218
 21
116.35714
 31
0.0
210
0.0
220
0.0
230
1.0
  0
LINE
  5
E9
100
AcDbEntity
  8
0
 62
     7
 48
0.03875
100
AcDbLine
 10
166.411224
 20
116.35714
 30
0.0
 11
164.861221
 21
116.35714
 31
0.0
210
0.0
220
0.0
230
1.0
  0
LINE
  5
EA
100
AcDbEntity
  8
0
 62
     7
 48
0.01875
100
AcDbLine
 10
167.161224
 20
116.277061
 30
0.0
 11
166.411224
 21
116.277061
 31
0.0
210
0.0
220
0.0
230
1.0
  0
LINE
  5
EB
100
AcDbEntity
  8
0
 62
     7
 48
0.015
100
AcDbLine
 10
167.761215
 20
116.751549
 30
0.0
 11
167.161224
 21
116.751549
 31
0.0
210
0.0
220
0.0
230
1.0
  0
LINE
  5
EC
100
AcDbEntity
  8
0
 62
     7
 48
0.025495
100
AcDbLine
 10
167.761215
 20
116.751549
 30
0.0
 11
167.761215
 21
117.771347
 31
0.0
210
0.0
220
0.0
230
1.0
  0
LINE
  5
ED
100
AcDbEntity
  8
0
 62
     7
100
AcDbLine
 10
167.761215
 20
117.771347
 30
0.0
 11
104.96122
 21
117.771347
 31
0.0
210
0.0
220
0.0
230
1.0
  0
LINE
  5
EE
100
AcDbEntity
  8
0
 62
     7
 48
0.025495
100
AcDbLine
 10
104.96122
 20
117.771347
 30
0.0
 11
104.96122
 21
116.751549
 31
0.0
210
0.0
220
0.0
230
1.0
  0
LINE
  5
EF
100
AcDbEntity
  8
0
 62
     7
 48
0.015
100
AcDbLine
 10
105.561218
 20
116.751549
 30
0.0
 11
104.96122
 21
116.751549
 31
0.0
210
0.0
220
0.0
230
1.0
  0
LINE
  5
F0
100
AcDbEntity
  8
0
 62
     7
 48
0.01875
100
AcDbLine
 10
106.311218
 20
116.277061
 30
0.0
 11
105.561218
 21
116.277061
 31
0.0
210
0.0
220
0.0
230
1.0
  0
LINE
  5
F1
100
AcDbEntity
  8
0
 62
     7
 48
0.012557
100
AcDbLine
 10
107.861221
 20
116.859413
 30
0.0
 11
107.861221
 21
116.35714
 31
0.0
210
0.0
220
0.0
230
1.0
  0
ARC
  5
F2
100
AcDbEntity
  8
0
 62
     7
100
AcDbCircle
 10
108.361221
 20
116.859413
 30
0.0
 40
0.5
210
0.0
220
0.0
230
1.0
100
AcDbArc
 50
90.000003
 51
180.000005
  0
LINE
  5
F3
100
AcDbEntity
  8
0
 62
     7
100
AcDbLine
 10
108.361221
 20
117.359413
 30
0.0
 11
164.361221
 21
117.359413
 31
0.0
210
0.0
220
0.0
230
1.0
  0
ARC
  5
F4
100
AcDbEntity
  8
0
 62
     7
100
AcDbCircle
 10
164.361221
 20
116.859413
 30
0.0
 40
0.5
210
0.0
220
0.0
230
1.0
100
AcDbArc
 50
0.0
 51
90.000003
  0
LINE
  5
F5
100
AcDbEntity
  8
0
 62
     7
 48
0.012557
100
AcDbLine
 10
164.861221
 20
116.35714
 30
0.0
 11
164.861221
 21
116.859413
 31
0.0
210
0.0
220
0.0
230
1.0
  0
LINE
  5
F6
100
AcDbEntity
  8
0
 62
     7
 48
0.358451
100
AcDbLine
 10
167.761215
 20
117.771347
 30
0.0
 11
167.761215
 21
132.109406
 31
0.0
210
0.0
220
0.0
230
1.0
  0
LINE
  5
F7
100
AcDbEntity
  8
0
 62
     7
100
AcDbLine
 10
142.111221
 20
132.359406
 30
0.0
 11
167.511215
 21
132.359406
 31
0.0
210
0.0
220
0.0
230
1.0
  0
ARC
  5
F8
100
AcDbEntity
  8
0
 62
     7
100
AcDbCircle
 10
142.111221
 20
132.109406
 30
0.0
 40
0.25
210
0.0
220
0.0
230
1.0
100
AcDbArc
 50
90.000003
 51
180.000005
  0
LINE
  5
F9
100
AcDbEntity
  8
0
 62
     7
 48
0.05625
100
AcDbLine
 10
141.861221
 20
132.109406
 30
0.0
 11
141.861221
 21
129.859406
 31
0.0
210
0.0
220
0.0
230
1.0
  0
LINE
  5
FA
100
AcDbEntity
  8
0
 62
     7
 48
0.275
100
AcDbLine
 10
130.861221
 20
129.859406
 30
0.0
 11
141.861221
 21
129.859406
 31
0.0
210
0.0
220
0.0
230
1.0
  0
LINE
  5
FB
100
AcDbEntity
  8
0
 62
     7
 48
0.05625
100
AcDbLine
 10
130.861221
 20
132.109406
 30
0.0
 11
130.861221
 21
129.859406
 31
0.0
210
0.0
220
0.0
230
1.0
  0
ARC
  5
FC
100
AcDbEntity
  8
0
 62
     7
100
AcDbCircle
 10
130.611221
 20
132.109406
 30
0.0
 40
0.25
210
0.0
220
0.0
230
1.0
100
AcDbArc
 50
0.0
 51
90.000003
  0
LINE
  5
FD
100
AcDbEntity
  8
0
 62
     7
100
AcDbLine
 10
105.21122
 20
132.359406
 30
0.0
 11
130.611221
 21
132.359406
 31
0.0
210
0.0
220
0.0
230
1.0
  0
ARC
  5
FE
100
AcDbEntity
  8
0
 62
     7
100
AcDbCircle
 10
105.21122
 20
132.109406
 30
0.0
 40
0.25
210
0.0
220
0.0
230
1.0
100
AcDbArc
 50
90.000003
 51
180.000005
  0
LINE
  5
FF
100
AcDbEntity
  8
0
 62
     7
 48
0.358451
100
AcDbLine
 10
104.96122
 20
132.109406
 30
0.0
 11
104.96122
 21
117.771347
 31
0.0
210
0.0
220
0.0
230
1.0
  0
ARC
  5
100
100
AcDbEntity
  8
0
 62
     7
100
AcDbCircle
 10
167.511215
 20
132.109406
 30
0.0
 40
0.25
210
0.0
220
0.0
230
1.0
100
AcDbArc
 50
0.0
 51
90.000003
  0
LINE
  5
101
100
AcDbEntity
  8
0
 62
     7
 48
0.01875
100
AcDbLine
 10
141.461227
 20
130.609421
 30
0.0
 11
141.461227
 21
129.859406
 31
0.0
210
0.0
220
0.0
230
1.0
  0
LINE
  5
102
100
AcDbEntity
  8
0
 62
     7
 48
0.000063
100
AcDbLine
 10
141.45871
 20
130.609406
 30
0.0
 11
141.461227
 21
130.609421
 31
0.0
210
0.0
220
0.0
230
1.0
  0
LINE
  5
103
100
AcDbEntity
  8
0
 62
     7
 48
0.102437
100
AcDbLine
 10
137.361221
 20
130.609406
 30
0.0
 11
141.45871
 21
130.609406
 31
0.0
210
0.0
220
0.0
230
1.0
  0
LINE
  5
104
100
AcDbEntity
  8
0
 62
     7
 48
0.05
100
AcDbLine
 10
135.361221
 20
130.609406
 30
0.0
 11
137.361221
 21
130.609406
 31
0.0
210
0.0
220
0.0
230
1.0
  0
LINE
  5
105
100
AcDbEntity
  8
0
 62
     7
 48
0.102437
100
AcDbLine
 10
131.263733
 20
130.609406
 30
0.0
 11
135.361221
 21
130.609406
 31
0.0
210
0.0
220
0.0
230
1.0
  0
LINE
  5
106
100
AcDbEntity
  8
0
 62
     7
 48
0.000063
100
AcDbLine
 10
131.261215
 20
130.609421
 30
0.0
 11
131.263733
 21
130.609406
 31
0.0
210
0.0
220
0.0
230
1.0
  0
LINE
  5
107
100
AcDbEntity
  8
0
 62
     7
 48
0.01875
100
AcDbLine
 10
131.261215
 20
130.609421
 30
0.0
 11
131.261215
 21
129.859406
 31
0.0
210
0.0
220
0.0
230
1.0
  0
LINE
  5
108
100
AcDbEntity
  8
0
 62
     7
 48
0.00375
100
AcDbLine
 10
141.711227
 20
131.609406
 30
0.0
 11
141.861221
 21
131.609406
 31
0.0
210
0.0
220
0.0
230
1.0
  0
LINE
  5
109
100
AcDbEntity
  8
0
 62
     7
 48
0.020311
100
AcDbLine
 10
131.011215
 20
130.67186
 30
0.0
 11
131.011215
 21
129.859406
 31
0.0
210
0.0
220
0.0
230
1.0
  0
POLYLINE
  5
10A
100
AcDbEntity
  8
0
 62
     7
100
AcDb2dPolyline
 66
     1
 10
0.0
 20
0.0
 30
0.0
 71
     9
  0
VERTEX
  5
10B
100
AcDbEntity
  8
0
100
AcDbVertex
100
AcDb2dVertex
 10
131.261215
 20
130.609421
 30
0.0
  0
VERTEX
  5
10C
100
AcDbEntity
  8
0
100
AcDbVertex
100
AcDb2dVertex
 10
131.208389
 20
130.614517
 30
0.0
  0
VERTEX
  5
10D
100
AcDbEntity
  8
0
100
AcDbVertex
100
AcDb2dVertex
 10
131.113052
 20
130.645203
 30
0.0
  0
VERTEX
  5
10E
100
AcDbEntity
  8
0
100
AcDbVertex
100
AcDb2dVertex
 10
131.037827
 20
130.682846
 30
0.0
  0
VERTEX
  5
10F
100
AcDbEntity
  8
0
100
AcDbVertex
100
AcDb2dVertex
 10
131.024155
 20
130.686447
 30
0.0
  0
VERTEX
  5
110
100
AcDbEntity
  8
0
100
AcDbVertex
100
AcDb2dVertex
 10
131.018967
 20
130.685944
 30
0.0
  0
VERTEX
  5
111
100
AcDbEntity
  8
0
100
AcDbVertex
100
AcDb2dVertex
 10
131.013687
 20
130.682037
 30
0.0
  0
VERTEX
  5
112
100
AcDbEntity
  8
0
100
AcDbVertex
100
AcDb2dVertex
 10
131.012299
 20
130.679184
 30
0.0
  0
VERTEX
  5
113
100
AcDbEntity
  8
0
100
AcDbVertex
100
AcDb2dVertex
 10
131.011215
 20
130.67186
 30
0.0
  0
SEQEND
  5
114
100
AcDbEntity
  8
0
  0
LINE
  5
115
100
AcDbEntity
  8
0
 62
     7
 48
0.00433
100
AcDbLine
 10
141.711227
 20
131.609406
 30
0.0
 11
141.711227
 21
131.436203
 31
0.0
210
0.0
220
0.0
230
1.0
  0
LINE
  5
116
100
AcDbEntity
  8
0
 62
     7
 48
0.014524
100
AcDbLine
 10
141.711227
 20
131.436203
 30
0.0
 11
141.711227
 21
130.855225
 31
0.0
210
0.0
220
0.0
230
1.0
  0
LINE
  5
117
100
AcDbEntity
  8
0
 62
     7
 48
0.004584
100
AcDbLine
 10
141.711227
 20
130.67186
 30
0.0
 11
141.711227
 21
130.855225
 31
0.0
210
0.0
220
0.0
230
1.0
  0
LINE
  5
118
100
AcDbEntity
  8
0
 62
     7
 48
0.020311
100
AcDbLine
 10
141.711227
 20
130.67186
 30
0.0
 11
141.711227
 21
129.859406
 31
0.0
210
0.0
220
0.0
230
1.0
  0
LINE
  5
119
100
AcDbEntity
  8
0
 62
     7
 48
0.014524
100
AcDbLine
 10
131.011215
 20
131.436203
 30
0.0
 11
131.011215
 21
130.855225
 31
0.0
210
0.0
220
0.0
230
1.0
  0
LINE
  5
11A
100
AcDbEntity
  8
0
 62
     7
 48
0.00433
100
AcDbLine
 10
131.011215
 20
131.609406
 30
0.0
 11
131.011215
 21
131.436203
 31
0.0
210
0.0
220
0.0
230
1.0
  0
LINE
  5
11B
100
AcDbEntity
  8
0
 62
     7
 48
0.004584
100
AcDbLine
 10
131.011215
 20
130.67186
 30
0.0
 11
131.011215
 21
130.855225
 31
0.0
210
0.0
220
0.0
230
1.0
  0
LINE
  5
11C
100
AcDbEntity
  8
0
 62
     7
 48
0.002187
100
AcDbLine
 10
141.711227
 20
131.436203
 30
0.0
 11
141.698715
 21
131.349609
 31
0.0
210
0.0
220
0.0
230
1.0
  0
LINE
  5
11D
100
AcDbEntity
  8
0
 62
     7
 48
0.00125
100
AcDbLine
 10
141.711227
 20
131.609406
 30
0.0
 11
141.661224
 21
131.609406
 31
0.0
210
0.0
220
0.0
230
1.0
  0
LINE
  5
11E
100
AcDbEntity
  8
0
 62
     7
 48
0.00125
100
AcDbLine
 10
131.061218
 20
131.609406
 30
0.0
 11
131.011215
 21
131.609406
 31
0.0
210
0.0
220
0.0
230
1.0
  0
LINE
  5
11F
100
AcDbEntity
  8
0
 62
     7
 48
0.002187
100
AcDbLine
 10
131.011215
 20
131.436203
 30
0.0
 11
131.023727
 21
131.349609
 31
0.0
210
0.0
220
0.0
230
1.0
  0
LINE
  5
120
100
AcDbEntity
  8
0
 62
     7
 48
0.000625
100
AcDbLine
 10
141.361221
 20
131.609406
 30
0.0
 11
141.336227
 21
131.609406
 31
0.0
210
0.0
220
0.0
230
1.0
  0
LINE
  5
121
100
AcDbEntity
  8
0
 62
     7
 48
0.012597
100
AcDbLine
 10
141.273727
 20
132.109406
 30
0.0
 11
141.336227
 21
131.609406
 31
0.0
210
0.0
220
0.0
230
1.0
  0
LINE
  5
122
100
AcDbEntity
  8
0
 62
     7
 48
0.005445
100
AcDbLine
 10
141.273727
 20
132.109406
 30
0.0
 11
141.055908
 21
132.109406
 31
0.0
210
0.0
220
0.0
230
1.0
  0
LINE
  5
123
100
AcDbEntity
  8
0
 62
     7
 48
0.025893
100
AcDbLine
 10
141.055908
 20
131.073669
 30
0.0
 11
141.055908
 21
132.109406
 31
0.0
210
0.0
220
0.0
230
1.0
  0
LINE
  5
124
100
AcDbEntity
  8
0
 62
     7
 48
0.017269
100
AcDbLine
 10
141.711227
 20
130.855225
 30
0.0
 11
141.055908
 21
131.073669
 31
0.0
210
0.0
220
0.0
230
1.0
  0
LINE
  5
125
100
AcDbEntity
  8
0
 62
     7
 48
0.006562
100
AcDbLine
 10
141.698715
 20
131.349609
 30
0.0
 11
141.661224
 21
131.609406
 31
0.0
210
0.0
220
0.0
230
1.0
  0
LINE
  5
126
100
AcDbEntity
  8
0
 62
     7
 48
0.006562
100
AcDbLine
 10
141.661224
 20
131.609406
 30
0.0
 11
141.623718
 21
131.349609
 31
0.0
210
0.0
220
0.0
230
1.0
  0
LINE
  5
127
100
AcDbEntity
  8
0
 62
     7
 48
0.006562
100
AcDbLine
 10
141.623718
 20
131.349609
 30
0.0
 11
141.586227
 21
131.609406
 31
0.0
210
0.0
220
0.0
230
1.0
  0
LINE
  5
128
100
AcDbEntity
  8
0
 62
     7
 48
0.006562
100
AcDbLine
 10
141.586227
 20
131.609406
 30
0.0
 11
141.548721
 21
131.349609
 31
0.0
210
0.0
220
0.0
230
1.0
  0
LINE
  5
129
100
AcDbEntity
  8
0
 62
     7
 48
0.006562
100
AcDbLine
 10
141.548721
 20
131.349609
 30
0.0
 11
141.511215
 21
131.609406
 31
0.0
210
0.0
220
0.0
230
1.0
  0
LINE
  5
12A
100
AcDbEntity
  8
0
 62
     7
 48
0.006562
100
AcDbLine
 10
141.511215
 20
131.609406
 30
0.0
 11
141.473724
 21
131.349609
 31
0.0
210
0.0
220
0.0
230
1.0
  0
LINE
  5
12B
100
AcDbEntity
  8
0
 62
     7
 48
0.006562
100
AcDbLine
 10
141.473724
 20
131.349609
 30
0.0
 11
141.436218
 21
131.609406
 31
0.0
210
0.0
220
0.0
230
1.0
  0
LINE
  5
12C
100
AcDbEntity
  8
0
 62
     7
 48
0.006562
100
AcDbLine
 10
141.436218
 20
131.609406
 30
0.0
 11
141.398727
 21
131.349609
 31
0.0
210
0.0
220
0.0
230
1.0
  0
LINE
  5
12D
100
AcDbEntity
  8
0
 62
     7
 48
0.006562
100
AcDbLine
 10
141.398727
 20
131.349609
 30
0.0
 11
141.361221
 21
131.609406
 31
0.0
210
0.0
220
0.0
230
1.0
  0
LINE
  5
12E
100
AcDbEntity
  8
0
 62
     7
 48
0.00375
100
AcDbLine
 10
130.861221
 20
131.609406
 30
0.0
 11
131.011215
 21
131.609406
 31
0.0
210
0.0
220
0.0
230
1.0
  0
LINE
  5
12F
100
AcDbEntity
  8
0
 62
     7
 48
0.000625
100
AcDbLine
 10
131.361221
 20
131.609406
 30
0.0
 11
131.386215
 21
131.609406
 31
0.0
210
0.0
220
0.0
230
1.0
  0
LINE
  5
130
100
AcDbEntity
  8
0
 62
     7
 48
0.012127
100
AcDbLine
 10
141.055908
 20
132.109406
 30
0.0
 11
140.570831
 21
132.109406
 31
0.0
210
0.0
220
0.0
230
1.0
  0
LINE
  5
131
100
AcDbEntity
  8
0
 62
     7
 48
0.025499
100
AcDbLine
 10
140.570831
 20
131.089447
 30
0.0
 11
140.570831
 21
132.109406
 31
0.0
210
0.0
220
0.0
230
1.0
  0
ELLIPSE
  5
132
100
AcDbEntity
  8
0
 62
     7
100
AcDbEllipse
 10
140.570831
 20
131.068604
 30
0.0
 11
0.5
 21
0.0
 31
0.0
210
0.0
220
0.0
230
1.0
 40
0.041667
 41
0.2449805587530136
 42
1.5707894563674927
  0
LINE
  5
133
100
AcDbEntity
  8
0
 62
     7
 48
0.001875
100
AcDbLine
 10
141.661224
 20
131.609406
 30
0.0
 11
141.586227
 21
131.609406
 31
0.0
210
0.0
220
0.0
230
1.0
  0
LINE
  5
134
100
AcDbEntity
  8
0
 62
     7
 48
0.001875
100
AcDbLine
 10
131.136215
 20
131.609406
 30
0.0
 11
131.061218
 21
131.609406
 31
0.0
210
0.0
220
0.0
230
1.0
  0
LINE
  5
135
100
AcDbEntity
  8
0
 62
     7
 48
0.006562
100
AcDbLine
 10
131.061218
 20
131.609406
 30
0.0
 11
131.098724
 21
131.349609
 31
0.0
210
0.0
220
0.0
230
1.0
  0
LINE
  5
136
100
AcDbEntity
  8
0
 62
     7
 48
0.001875
100
AcDbLine
 10
141.586227
 20
131.609406
 30
0.0
 11
141.511215
 21
131.609406
 31
0.0
210
0.0
220
0.0
230
1.0
  0
LINE
  5
137
100
AcDbEntity
  8
0
 62
     7
 48
0.001875
100
AcDbLine
 10
131.211227
 20
131.609406
 30
0.0
 11
131.136215
 21
131.609406
 31
0.0
210
0.0
220
0.0
230
1.0
  0
LINE
  5
138
100
AcDbEntity
  8
0
 62
     7
 48
0.006562
100
AcDbLine
 10
131.098724
 20
131.349609
 30
0.0
 11
131.136215
 21
131.609406
 31
0.0
210
0.0
220
0.0
230
1.0
  0
LINE
  5
139
100
AcDbEntity
  8
0
 62
     7
 48
0.006562
100
AcDbLine
 10
131.136215
 20
131.609406
 30
0.0
 11
131.173721
 21
131.349609
 31
0.0
210
0.0
220
0.0
230
1.0
  0
LINE
  5
13A
100
AcDbEntity
  8
0
 62
     7
 48
0.001875
100
AcDbLine
 10
141.511215
 20
131.609406
 30
0.0
 11
141.436218
 21
131.609406
 31
0.0
210
0.0
220
0.0
230
1.0
  0
LINE
  5
13B
100
AcDbEntity
  8
0
 62
     7
 48
0.001875
100
AcDbLine
 10
131.286224
 20
131.609406
 30
0.0
 11
131.211227
 21
131.609406
 31
0.0
210
0.0
220
0.0
230
1.0
  0
LINE
  5
13C
100
AcDbEntity
  8
0
 62
     7
 48
0.006562
100
AcDbLine
 10
131.173721
 20
131.349609
 30
0.0
 11
131.211227
 21
131.609406
 31
0.0
210
0.0
220
0.0
230
1.0
  0
LINE
  5
13D
100
AcDbEntity
  8
0
 62
     7
 48
0.006562
100
AcDbLine
 10
131.211227
 20
131.609406
 30
0.0
 11
131.248718
 21
131.349609
 31
0.0
210
0.0
220
0.0
230
1.0
  0
LINE
  5
13E
100
AcDbEntity
  8
0
 62
     7
 48
0.001875
100
AcDbLine
 10
141.436218
 20
131.609406
 30
0.0
 11
141.361221
 21
131.609406
 31
0.0
210
0.0
220
0.0
230
1.0
  0
LINE
  5
13F
100
AcDbEntity
  8
0
 62
     7
 48
0.001875
100
AcDbLine
 10
131.361221
 20
131.609406
 30
0.0
 11
131.286224
 21
131.609406
 31
0.0
210
0.0
220
0.0
230
1.0
  0
LINE
  5
140
100
AcDbEntity
  8
0
 62
     7
 48
0.006562
100
AcDbLine
 10
131.248718
 20
131.349609
 30
0.0
 11
131.286224
 21
131.609406
 31
0.0
210
0.0
220
0.0
230
1.0
  0
LINE
  5
141
100
AcDbEntity
  8
0
 62
     7
 48
0.006562
100
AcDbLine
 10
131.286224
 20
131.609406
 30
0.0
 11
131.323715
 21
131.349609
 31
0.0
210
0.0
220
0.0
230
1.0
  0
LINE
  5
142
100
AcDbEntity
  8
0
 62
     7
 48
0.006562
100
AcDbLine
 10
131.323715
 20
131.349609
 30
0.0
 11
131.361221
 21
131.609406
 31
0.0
210
0.0
220
0.0
230
1.0
  0
LINE
  5
143
100
AcDbEntity
  8
0
 62
     7
 48
0.007612
100
AcDbLine
 10
132.4561
 20
132.109406
 30
0.0
 11
132.151611
 21
132.109406
 31
0.0
210
0.0
220
0.0
230
1.0
  0
LINE
  5
144
100
AcDbEntity
  8
0
 62
     7
 48
0.025499
100
AcDbLine
 10
132.151611
 20
131.089447
 30
0.0
 11
132.151611
 21
132.109406
 31
0.0
210
0.0
220
0.0
230
1.0
  0
LINE
  5
145
100
AcDbEntity
  8
0
 62
     7
 48
0.21048
100
AcDbLine
 10
140.570831
 20
131.089447
 30
0.0
 11
132.151611
 21
131.089447
 31
0.0
210
0.0
220
0.0
230
1.0
  0
LINE
  5
146
100
AcDbEntity
  8
0
 62
     7
 48
0.007612
100
AcDbLine
 10
140.570831
 20
132.109406
 30
0.0
 11
140.266342
 21
132.109406
 31
0.0
210
0.0
220
0.0
230
1.0
  0
ARC
  5
147
100
AcDbEntity
  8
0
 62
     7
100
AcDbCircle
 10
136.361221
 20
147.109406
 30
0.0
 40
15.5
210
0.0
220
0.0
230
1.0
100
AcDbArc
 50
255.407438
 51
284.592562
  0
LINE
  5
148
100
AcDbEntity
  8
0
 62
     7
 48
0.012127
100
AcDbLine
 10
132.151611
 20
132.109406
 30
0.0
 11
131.666534
 21
132.109406
 31
0.0
210
0.0
220
0.0
230
1.0
  0
LINE
  5
149
100
AcDbEntity
  8
0
 62
     7
 48
0.025893
100
AcDbLine
 10
131.666534
 20
131.073669
 30
0.0
 11
131.666534
 21
132.109406
 31
0.0
210
0.0
220
0.0
230
1.0
  0
ELLIPSE
  5
14A
100
AcDbEntity
  8
0
 62
     7
100
AcDbEllipse
 10
132.151596
 20
131.068604
 30
0.0
 11
0.4999847412109375
 21
0.0
 31
0.0
210
0.0
220
0.0
230
1.0
 40
0.041666
 41
1.5707738399505615
 42
2.8966159820556641
  0
LINE
  5
14B
100
AcDbEntity
  8
0
 62
     7
 48
0.00875
100
AcDbLine
 10
141.611221
 20
131.959412
 30
0.0
 11
141.611221
 21
131.609406
 31
0.0
210
0.0
220
0.0
230
1.0
  0
LINE
  5
14C
100
AcDbEntity
  8
0
 62
     7
 48
0.00875
100
AcDbLine
 10
131.111221
 20
131.959412
 30
0.0
 11
131.111221
 21
131.609406
 31
0.0
210
0.0
220
0.0
230
1.0
  0
LINE
  5
14D
100
AcDbEntity
  8
0
 62
     7
 48
0.006229
100
AcDbLine
 10
132.151611
 20
130.840302
 30
0.0
 11
132.151611
 21
131.089447
 31
0.0
210
0.0
220
0.0
230
1.0
  0
ELLIPSE
  5
14E
100
AcDbEntity
  8
0
 62
     7
100
AcDbEllipse
 10
131.909073
 20
131.073669
 30
0.0
 11
0.0790557861328125
 21
-0.2371673583984375
 31
0.0
210
0.0
220
0.0
230
1.0
 40
0.966988
 41
4.4005746841430664
 42
5.951228141784668
  0
ELLIPSE
  5
14F
100
AcDbEntity
  8
0
 62
     7
100
AcDbEllipse
 10
132.151611
 20
130.819473
 30
0.0
 11
0.25
 21
0.0
 31
0.0
210
0.0
220
0.0
230
1.0
 40
0.083334
 41
1.5708084106445313
 42
2.8966119289398193
  0
LINE
  5
150
100
AcDbEntity
  8
0
 62
     7
 48
0.006229
100
AcDbLine
 10
140.570831
 20
130.840302
 30
0.0
 11
140.570831
 21
131.089447
 31
0.0
210
0.0
220
0.0
230
1.0
  0
LINE
  5
151
100
AcDbEntity
  8
0
 62
     7
 48
0.21048
100
AcDbLine
 10
140.570831
 20
130.840302
 30
0.0
 11
132.151611
 21
130.840302
 31
0.0
210
0.0
220
0.0
230
1.0
  0
LINE
  5
152
100
AcDbEntity
  8
0
 62
     7
 48
0.005445
100
AcDbLine
 10
131.666534
 20
132.109406
 30
0.0
 11
131.448715
 21
132.109406
 31
0.0
210
0.0
220
0.0
230
1.0
  0
ELLIPSE
  5
153
100
AcDbEntity
  8
0
 62
     7
100
AcDbEllipse
 10
140.81337
 20
131.073669
 30
0.0
 11
-0.0790557861328125
 21
-0.2371673583984375
 31
0.0
210
0.0
220
0.0
230
1.0
 40
0.966988
 41
0.3319571912288666
 42
1.8826106786727905
  0
ELLIPSE
  5
154
100
AcDbEntity
  8
0
 62
     7
100
AcDbEllipse
 10
140.570831
 20
130.819473
 30
0.0
 11
0.25
 21
0.0
 31
0.0
210
0.0
220
0.0
230
1.0
 40
0.083333
 41
0.2449789941310883
 42
1.5708011388778687
  0
LINE
  5
155
100
AcDbEntity
  8
0
 62
     7
 48
0.012597
100
AcDbLine
 10
131.448715
 20
132.109406
 30
0.0
 11
131.386215
 21
131.609406
 31
0.0
210
0.0
220
0.0
230
1.0
  0
LINE
  5
156
100
AcDbEntity
  8
0
 62
     7
 48
0.006562
100
AcDbLine
 10
131.023727
 20
131.349609
 30
0.0
 11
131.061218
 21
131.609406
 31
0.0
210
0.0
220
0.0
230
1.0
  0
LINE
  5
157
100
AcDbEntity
  8
0
 62
     7
 48
0.017269
100
AcDbLine
 10
131.011215
 20
130.855225
 30
0.0
 11
131.666534
 21
131.073669
 31
0.0
210
0.0
220
0.0
230
1.0
  0
POLYLINE
  5
158
100
AcDbEntity
  8
0
 62
     7
100
AcDb2dPolyline
 66
     1
 10
0.0
 20
0.0
 30
0.0
 71
     9
  0
VERTEX
  5
159
100
AcDbEntity
  8
0
100
AcDbVertex
100
AcDb2dVertex
 10
141.461227
 20
130.609421
 30
0.0
  0
VERTEX
  5
15A
100
AcDbEntity
  8
0
100
AcDbVertex
100
AcDb2dVertex
 10
141.514053
 20
130.614517
 30
0.0
  0
VERTEX
  5
15B
100
AcDbEntity
  8
0
100
AcDbVertex
100
AcDb2dVertex
 10
141.60939
 20
130.645203
 30
0.0
  0
VERTEX
  5
15C
100
AcDbEntity
  8
0
100
AcDbVertex
100
AcDb2dVertex
 10
141.684616
 20
130.682846
 30
0.0
  0
VERTEX
  5
15D
100
AcDbEntity
  8
0
100
AcDbVertex
100
AcDb2dVertex
 10
141.698288
 20
130.686447
 30
0.0
  0
VERTEX
  5
15E
100
AcDbEntity
  8
0
100
AcDbVertex
100
AcDb2dVertex
 10
141.703476
 20
130.685944
 30
0.0
  0
VERTEX
  5
15F
100
AcDbEntity
  8
0
100
AcDbVertex
100
AcDb2dVertex
 10
141.708755
 20
130.682037
 30
0.0
  0
VERTEX
  5
160
100
AcDbEntity
  8
0
100
AcDbVertex
100
AcDb2dVertex
 10
141.710144
 20
130.679184
 30
0.0
  0
VERTEX
  5
161
100
AcDbEntity
  8
0
100
AcDbVertex
100
AcDb2dVertex
 10
141.711227
 20
130.67186
 30
0.0
  0
SEQEND
  5
162
100
AcDbEntity
  8
0
  0
LINE
  5
163
100
AcDbEntity
  8
0
 62
     7
 48
0.017006
100
AcDbLine
 10
141.45871
 20
130.609406
 30
0.0
 11
140.81337
 21
130.824524
 31
0.0
210
0.0
220
0.0
230
1.0
  0
LINE
  5
164
100
AcDbEntity
  8
0
 62
     7
 48
0.017006
100
AcDbLine
 10
131.263733
 20
130.609406
 30
0.0
 11
131.909073
 21
130.824524
 31
0.0
210
0.0
220
0.0
230
1.0
  0
LINE
  5
165
100
AcDbEntity
  8
0
 62
     7
100
AcDbLine
 10
167.611221
 20
136.309418
 30
0.0
 11
105.111221
 21
136.309418
 31
0.0
210
0.0
220
0.0
230
1.0
  0
LINE
  5
166
100
AcDbEntity
  8
0
 62
     7
 48
0.085
100
AcDbLine
 10
167.611221
 20
132.909409
 30
0.0
 11
167.611221
 21
136.309418
 31
0.0
210
0.0
220
0.0
230
1.0
  0
LINE
  5
167
100
AcDbEntity
  8
0
 62
     7
100
AcDbLine
 10
105.111221
 20
132.909409
 30
0.0
 11
167.611221
 21
132.909409
 31
0.0
210
0.0
220
0.0
230
1.0
  0
LINE
  5
168
100
AcDbEntity
  8
0
 62
     7
 48
0.085
100
AcDbLine
 10
105.111221
 20
136.309418
 30
0.0
 11
105.111221
 21
132.909409
 31
0.0
210
0.0
220
0.0
230
1.0
  0
LINE
  5
169
100
AcDbEntity
  8
0
 62
     7
 48
0.02
100
AcDbLine
 10
129.661224
 20
188.109406
 30
0.0
 11
129.661224
 21
188.909409
 31
0.0
210
0.0
220
0.0
230
1.0
  0
LINE
  5
16A
100
AcDbEntity
  8
0
 62
     7
 48
0.335
100
AcDbLine
 10
143.061218
 20
188.909409
 30
0.0
 11
129.661224
 21
188.909409
 31
0.0
210
0.0
220
0.0
230
1.0
  0
LINE
  5
16B
100
AcDbEntity
  8
0
 62
     7
 48
0.02
100
AcDbLine
 10
143.061218
 20
188.909409
 30
0.0
 11
143.061218
 21
188.109406
 31
0.0
210
0.0
220
0.0
230
1.0
  0
LINE
  5
16C
100
AcDbEntity
  8
0
 62
     7
 48
0.03
100
AcDbLine
 10
143.861221
 20
189.309418
 30
0.0
 11
143.861221
 21
188.109406
 31
0.0
210
0.0
220
0.0
230
1.0
  0
ARC
  5
16D
100
AcDbEntity
  8
0
 62
     7
100
AcDbCircle
 10
143.461227
 20
189.309418
 30
0.0
 40
0.4
210
0.0
220
0.0
230
1.0
100
AcDbArc
 50
0.0
 51
90.000003
  0
LINE
  5
16E
100
AcDbEntity
  8
0
 62
     7
 48
0.355
100
AcDbLine
 10
143.461227
 20
189.709412
 30
0.0
 11
129.261215
 21
189.709412
 31
0.0
210
0.0
220
0.0
230
1.0
  0
ARC
  5
16F
100
AcDbEntity
  8
0
 62
     7
100
AcDbCircle
 10
129.261215
 20
189.309418
 30
0.0
 40
0.4
210
0.0
220
0.0
230
1.0
100
AcDbArc
 50
90.000003
 51
180.000005
  0
LINE
  5
170
100
AcDbEntity
  8
0
 62
     7
 48
0.03
100
AcDbLine
 10
128.861221
 20
189.309418
 30
0.0
 11
128.861221
 21
188.109406
 31
0.0
210
0.0
220
0.0
230
1.0
  0
LINE
  5
171
100
AcDbEntity
  8
0
 62
     7
 48
0.019999
100
AcDbLine
 10
138.381943
 20
188.909409
 30
0.0
 11
138.381943
 21
188.109467
 31
0.0
210
0.0
220
0.0
230
1.0
  0
LINE
  5
172
100
AcDbEntity
  8
0
 62
     7
 48
0.025259
100
AcDbLine
 10
138.381943
 20
188.909409
 30
0.0
 11
137.371582
 21
188.909409
 31
0.0
210
0.0
220
0.0
230
1.0
  0
LINE
  5
173
100
AcDbEntity
  8
0
 62
     7
 48
0.050518
100
AcDbLine
 10
137.371582
 20
188.909409
 30
0.0
 11
135.350861
 21
188.909409
 31
0.0
210
0.0
220
0.0
230
1.0
  0
LINE
  5
174
100
AcDbEntity
  8
0
 62
     7
 48
0.025259
100
AcDbLine
 10
135.350861
 20
188.909409
 30
0.0
 11
134.3405
 21
188.909409
 31
0.0
210
0.0
220
0.0
230
1.0
  0
LINE
  5
175
100
AcDbEntity
  8
0
 62
     7
 48
0.02
100
AcDbLine
 10
138.381943
 20
188.909409
 30
0.0
 11
138.381943
 21
188.109421
 31
0.0
210
0.0
220
0.0
230
1.0
  0
LINE
  5
176
100
AcDbEntity
  8
0
 62
     7
 48
0.02
100
AcDbLine
 10
137.371582
 20
188.909409
 30
0.0
 11
137.371582
 21
188.109421
 31
0.0
210
0.0
220
0.0
230
1.0
  0
LINE
  5
177
100
AcDbEntity
  8
0
 62
     7
 48
0.02
100
AcDbLine
 10
135.350861
 20
188.909409
 30
0.0
 11
135.350861
 21
188.109421
 31
0.0
210
0.0
220
0.0
230
1.0
  0
LINE
  5
178
100
AcDbEntity
  8
0
 62
     7
 48
0.02
100
AcDbLine
 10
134.3405
 20
188.909409
 30
0.0
 11
134.3405
 21
188.109421
 31
0.0
210
0.0
220
0.0
230
1.0
  0
LINE
  5
179
100
AcDbEntity
  8
0
 62
     7
 48
0.000767
100
AcDbLine
 10
141.330536
 20
190.209412
 30
0.0
 11
141.361221
 21
190.209412
 31
0.0
210
0.0
220
0.0
230
1.0
  0
LINE
  5
17A
100
AcDbEntity
  8
0
 62
     7
 48
0.000767
100
AcDbLine
 10
131.361221
 20
190.209412
 30
0.0
 11
131.391907
 21
190.209412
 31
0.0
210
0.0
220
0.0
230
1.0
  0
LINE
  5
17B
100
AcDbEntity
  8
0
 62
     7
 48
0.000015
100
AcDbLine
 10
141.330017
 20
193.209412
 30
0.0
 11
141.330627
 21
193.209412
 31
0.0
210
0.0
220
0.0
230
1.0
  0
LINE
  5
17C
100
AcDbEntity
  8
0
 62
     7
 48
0.0875
100
AcDbLine
 10
141.330017
 20
189.709412
 30
0.0
 11
141.330017
 21
193.209412
 31
0.0
210
0.0
220
0.0
230
1.0
  0
LINE
  5
17D
100
AcDbEntity
  8
0
 62
     7
 48
0.011
100
AcDbLine
 10
141.330017
 20
193.209412
 30
0.0
 11
140.890015
 21
193.209412
 31
0.0
210
0.0
220
0.0
230
1.0
  0
LINE
  5
17E
100
AcDbEntity
  8
0
 62
     7
 48
0.0875
100
AcDbLine
 10
140.890015
 20
189.709412
 30
0.0
 11
140.890015
 21
193.209412
 31
0.0
210
0.0
220
0.0
230
1.0
  0
LINE
  5
17F
100
AcDbEntity
  8
0
 62
     7
 48
0.18897
100
AcDbLine
 10
132.581818
 20
189.709412
 30
0.0
 11
140.140625
 21
189.709412
 31
0.0
210
0.0
220
0.0
230
1.0
  0
ELLIPSE
  5
180
100
AcDbEntity
  8
0
 62
     7
100
AcDbEllipse
 10
140.830429
 20
193.209412
 30
0.0
 11
0.0
 21
-0.5
 31
0.0
210
0.0
220
0.0
230
1.0
 40
0.999201
 41
1.5707963705062866
 42
3.1415927410125732
  0
LINE
  5
181
100
AcDbEntity
  8
0
 62
     7
 48
0.018735
100
AcDbLine
 10
140.140625
 20
193.209412
 30
0.0
 11
140.890015
 21
193.209412
 31
0.0
210
0.0
220
0.0
230
1.0
  0
LINE
  5
182
100
AcDbEntity
  8
0
 62
     7
 48
0.0875
100
AcDbLine
 10
140.140625
 20
189.709412
 30
0.0
 11
140.140625
 21
193.209412
 31
0.0
210
0.0
220
0.0
230
1.0
  0
LINE
  5
183
100
AcDbEntity
  8
0
 62
     7
 48
0.011
100
AcDbLine
 10
140.830429
 20
193.709412
 30
0.0
 11
140.390427
 21
193.709412
 31
0.0
210
0.0
220
0.0
230
1.0
  0
ELLIPSE
  5
184
100
AcDbEntity
  8
0
 62
     7
100
AcDbEllipse
 10
140.390427
 20
193.209412
 30
0.0
 11
0.0
 21
-0.5
 31
0.0
210
0.0
220
0.0
230
1.0
 40
0.999201
 41
1.5707963705062866
 42
3.1415927410125732
  0
LINE
  5
185
100
AcDbEntity
  8
0
 62
     7
 48
0.18897
100
AcDbLine
 10
140.140625
 20
193.209412
 30
0.0
 11
132.581818
 21
193.209412
 31
0.0
210
0.0
220
0.0
230
1.0
  0
LINE
  5
186
100
AcDbEntity
  8
0
 62
     7
 48
0.0875
100
AcDbLine
 10
132.581818
 20
189.709412
 30
0.0
 11
132.581818
 21
193.209412
 31
0.0
210
0.0
220
0.0
230
1.0
  0
LINE
  5
187
100
AcDbEntity
  8
0
 62
     7
 48
0.018735
100
AcDbLine
 10
131.832428
 20
193.209412
 30
0.0
 11
132.581818
 21
193.209412
 31
0.0
210
0.0
220
0.0
230
1.0
  0
LINE
  5
188
100
AcDbEntity
  8
0
 62
     7
 48
0.0875
100
AcDbLine
 10
131.832428
 20
189.709412
 30
0.0
 11
131.832428
 21
193.209412
 31
0.0
210
0.0
220
0.0
230
1.0
  0
LINE
  5
189
100
AcDbEntity
  8
0
 62
     7
 48
0.011
100
AcDbLine
 10
131.832428
 20
193.209412
 30
0.0
 11
131.392426
 21
193.209412
 31
0.0
210
0.0
220
0.0
230
1.0
  0
LINE
  5
18A
100
AcDbEntity
  8
0
 62
     7
 48
0.0875
100
AcDbLine
 10
131.392426
 20
189.709412
 30
0.0
 11
131.392426
 21
193.209412
 31
0.0
210
0.0
220
0.0
230
1.0
  0
LINE
  5
18B
100
AcDbEntity
  8
0
 62
     7
 48
0.000015
100
AcDbLine
 10
131.391815
 20
193.209412
 30
0.0
 11
131.392426
 21
193.209412
 31
0.0
210
0.0
220
0.0
230
1.0
  0
LINE
  5
18C
100
AcDbEntity
  8
0
 62
     7
 48
0.006245
100
AcDbLine
 10
140.140625
 20
193.709412
 30
0.0
 11
140.390427
 21
193.709412
 31
0.0
210
0.0
220
0.0
230
1.0
  0
LINE
  5
18D
100
AcDbEntity
  8
0
 62
     7
 48
0.18897
100
AcDbLine
 10
140.140625
 20
193.709412
 30
0.0
 11
132.581818
 21
193.709412
 31
0.0
210
0.0
220
0.0
230
1.0
  0
LINE
  5
18E
100
AcDbEntity
  8
0
 62
     7
 48
0.006245
100
AcDbLine
 10
132.332016
 20
193.709412
 30
0.0
 11
132.581818
 21
193.709412
 31
0.0
210
0.0
220
0.0
230
1.0
  0
LINE
  5
18F
100
AcDbEntity
  8
0
 62
     7
 48
0.011
100
AcDbLine
 10
132.332016
 20
193.709412
 30
0.0
 11
131.892014
 21
193.709412
 31
0.0
210
0.0
220
0.0
230
1.0
  0
LINE
  5
190
100
AcDbEntity
  8
0
 62
     7
 48
0.0125
100
AcDbLine
 10
140.140625
 20
193.209412
 30
0.0
 11
140.140625
 21
193.709412
 31
0.0
210
0.0
220
0.0
230
1.0
  0
LINE
  5
191
100
AcDbEntity
  8
0
 62
     7
 48
0.0125
100
AcDbLine
 10
132.581818
 20
193.209412
 30
0.0
 11
132.581818
 21
193.709412
 31
0.0
210
0.0
220
0.0
230
1.0
  0
ELLIPSE
  5
192
100
AcDbEntity
  8
0
 62
     7
100
AcDbEllipse
 10
132.332016
 20
193.209412
 30
0.0
 11
0.0
 21
-0.5
 31
0.0
210
0.0
220
0.0
230
1.0
 40
0.999201
 41
3.1415927410125732
 42
4.7123889923095703
  0
ELLIPSE
  5
193
100
AcDbEntity
  8
0
 62
     7
100
AcDbEllipse
 10
131.892014
 20
193.209412
 30
0.0
 11
0.0
 21
-0.5
 31
0.0
210
0.0
220
0.0
230
1.0
 40
0.999201
 41
3.1415927410125732
 42
4.7123889923095703
  0
LINE
  5
194
100
AcDbEntity
  8
0
 62
     7
 48
0.075
100
AcDbLine
 10
141.361221
 20
190.209412
 30
0.0
 11
141.361221
 21
193.209412
 31
0.0
210
0.0
220
0.0
230
1.0
  0
LINE
  5
195
100
AcDbEntity
  8
0
 62
     7
 48
0.000766
100
AcDbLine
 10
140.830597
 20
193.709412
 30
0.0
 11
140.861221
 21
193.709412
 31
0.0
210
0.0
220
0.0
230
1.0
  0
LINE
  5
196
100
AcDbEntity
  8
0
 62
     7
 48
0.000731
100
AcDbLine
 10
131.861221
 20
193.709412
 30
0.0
 11
131.890442
 21
193.709412
 31
0.0
210
0.0
220
0.0
230
1.0
  0
LINE
  5
197
100
AcDbEntity
  8
0
 62
     7
 48
0.000767
100
AcDbLine
 10
141.330536
 20
193.209412
 30
0.0
 11
141.361221
 21
193.209412
 31
0.0
210
0.0
220
0.0
230
1.0
  0
LINE
  5
198
100
AcDbEntity
  8
0
 62
     7
 48
0.000767
100
AcDbLine
 10
131.361221
 20
193.209412
 30
0.0
 11
131.391907
 21
193.209412
 31
0.0
210
0.0
220
0.0
230
1.0
  0
LINE
  5
199
100
AcDbEntity
  8
0
 62
     7
 48
0.075
100
AcDbLine
 10
131.361221
 20
190.209412
 30
0.0
 11
131.361221
 21
193.209412
 31
0.0
210
0.0
220
0.0
230
1.0
  0
ARC
  5
19A
100
AcDbEntity
  8
0
 62
     7
100
AcDbCircle
 10
140.861221
 20
193.209412
 30
0.0
 40
0.5
210
0.0
220
0.0
230
1.0
100
AcDbArc
 50
0.0
 51
90.000003
  0
ARC
  5
19B
100
AcDbEntity
  8
0
 62
     7
100
AcDbCircle
 10
131.861221
 20
193.209412
 30
0.0
 40
0.5
210
0.0
220
0.0
230
1.0
100
AcDbArc
 50
90.000003
 51
180.000005
  0
LINE
  5
19C
100
AcDbEntity
  8
0
 62
     7
 48
0.0875
100
AcDbLine
 10
141.330627
 20
193.209412
 30
0.0
 11
141.330627
 21
189.709412
 31
0.0
210
0.0
220
0.0
230
1.0
  0
ARC
  5
19D
100
AcDbEntity
  8
0
 62
     7
100
AcDbCircle
 10
140.830627
 20
193.209412
 30
0.0
 40
0.5
210
0.0
220
0.0
230
1.0
100
AcDbArc
 50
360.0
 51
90.000003
  0
LINE
  5
19E
100
AcDbEntity
  8
0
 62
     7
 48
0.0875
100
AcDbLine
 10
131.391815
 20
193.209412
 30
0.0
 11
131.391815
 21
189.709412
 31
0.0
210
0.0
220
0.0
230
1.0
  0
ARC
  5
19F
100
AcDbEntity
  8
0
 62
     7
100
AcDbCircle
 10
131.891815
 20
193.209412
 30
0.0
 40
0.5
210
0.0
220
0.0
230
1.0
100
AcDbArc
 50
90.000003
 51
180.000005
  0
LINE
  5
1A0
100
AcDbEntity
  8
0
 62
     7
 48
0.012501
100
AcDbLine
 10
141.330627
 20
190.209442
 30
0.0
 11
141.330627
 21
189.709412
 31
0.0
210
0.0
220
0.0
230
1.0
  0
POLYLINE
  5
1A1
100
AcDbEntity
  8
0
 62
     7
100
AcDb2dPolyline
 66
     1
 10
0.0
 20
0.0
 30
0.0
 71
     8
  0
VERTEX
  5
1A2
100
AcDbEntity
  8
0
100
AcDbVertex
100
AcDb2dVertex
 10
159.844666
 20
111.316002
 30
0.0
  0
VERTEX
  5
1A3
100
AcDbEntity
  8
0
100
AcDbVertex
100
AcDb2dVertex
 10
162.118439
 20
111.299789
 30
0.0
  0
VERTEX
  5
1A4
100
AcDbEntity
  8
0
100
AcDbVertex
100
AcDb2dVertex
 10
163.615326
 20
111.305832
 30
0.0
  0
VERTEX
  5
1A5
100
AcDbEntity
  8
0
100
AcDbVertex
100
AcDb2dVertex
 10
163.751633
 20
111.311111
 30
0.0
  0
VERTEX
  5
1A6
100
AcDbEntity
  8
0
100
AcDbVertex
100
AcDb2dVertex
 10
163.780106
 20
111.314293
 30
0.0
  0
VERTEX
  5
1A7
100
AcDbEntity
  8
0
100
AcDbVertex
100
AcDb2dVertex
 10
163.782654
 20
111.315048
 30
0.0
  0
VERTEX
  5
1A8
100
AcDbEntity
  8
0
100
AcDbVertex
100
AcDb2dVertex
 10
163.783401
 20
111.315422
 30
0.0
  0
VERTEX
  5
1A9
100
AcDbEntity
  8
0
100
AcDbVertex
100
AcDb2dVertex
 10
163.78389
 20
111.315994
 30
0.0
  0
SEQEND
  5
1AA
100
AcDbEntity
  8
0
  0
LINE
  5
1AB
100
AcDbEntity
  8
0
 62
     7
 48
0.114058
100
AcDbLine
 10
163.78389
 20
111.315994
 30
0.0
 11
164.576126
 21
115.80899
 31
0.0
210
0.0
220
0.0
230
1.0
  0
POLYLINE
  5
1AC
100
AcDbEntity
  8
0
 62
     7
100
AcDb2dPolyline
 66
     1
 10
0.0
 20
0.0
 30
0.0
 71
    14
  0
VERTEX
  5
1AD
100
AcDbEntity
  8
0
100
AcDbVertex
100
AcDb2dVertex
 10
159.844666
 20
111.315994
 30
0.0
  0
VERTEX
  5
1AE
100
AcDbEntity
  8
0
100
AcDbVertex
100
AcDb2dVertex
 10
159.92157
 20
111.752174
 30
0.0
  0
VERTEX
  5
1AF
100
AcDbEntity
  8
0
100
AcDbVertex
100
AcDb2dVertex
 10
159.975327
 20
112.042152
 30
0.0
  0
VERTEX
  5
1B0
100
AcDbEntity
  8
0
100
AcDbVertex
100
AcDb2dVertex
 10
160.044067
 20
112.329224
 30
0.0
  0
VERTEX
  5
1B1
100
AcDbEntity
  8
0
100
AcDbVertex
100
AcDb2dVertex
 10
160.155533
 20
112.650749
 30
0.0
  0
VERTEX
  5
1B2
100
AcDbEntity
  8
0
100
AcDbVertex
100
AcDb2dVertex
 10
160.309006
 20
112.958099
 30
0.0
  0
VERTEX
  5
1B3
100
AcDbEntity
  8
0
100
AcDbVertex
100
AcDb2dVertex
 10
160.504288
 20
113.247971
 30
0.0
  0
VERTEX
  5
1B4
100
AcDbEntity
  8
0
100
AcDbVertex
100
AcDb2dVertex
 10
160.819687
 20
113.606064
 30
0.0
  0
VERTEX
  5
1B5
100
AcDbEntity
  8
0
100
AcDbVertex
100
AcDb2dVertex
 10
161.056564
 20
113.828262
 30
0.0
  0
VERTEX
  5
1B6
100
AcDbEntity
  8
0
100
AcDbVertex
100
AcDb2dVertex
 10
161.569748
 20
114.240723
 30
0.0
  0
VERTEX
  5
1B7
100
AcDbEntity
  8
0
100
AcDbVertex
100
AcDb2dVertex
 10
162.297882
 20
114.756813
 30
0.0
  0
VERTEX
  5
1B8
100
AcDbEntity
  8
0
100
AcDbVertex
100
AcDb2dVertex
 10
163.026016
 20
115.272896
 30
0.0
  0
VERTEX
  5
1B9
100
AcDbEntity
  8
0
100
AcDbVertex
100
AcDb2dVertex
 10
163.467392
 20
115.623032
 30
0.0
  0
VERTEX
  5
1BA
100
AcDbEntity
  8
0
100
AcDbVertex
100
AcDb2dVertex
 10
163.675034
 20
115.809242
 30
0.0
  0
SEQEND
  5
1BB
100
AcDbEntity
  8
0
  0
POLYLINE
  5
1BC
100
AcDbEntity
  8
0
 62
     7
100
AcDb2dPolyline
 66
     1
 10
0.0
 20
0.0
 30
0.0
 71
    14
  0
VERTEX
  5
1BD
100
AcDbEntity
  8
0
100
AcDbVertex
100
AcDb2dVertex
 10
159.67778
 20
111.315994
 30
0.0
  0
VERTEX
  5
1BE
100
AcDbEntity
  8
0
100
AcDbVertex
100
AcDb2dVertex
 10
159.59848
 20
111.765732
 30
0.0
  0
VERTEX
  5
1BF
100
AcDbEntity
  8
0
100
AcDbVertex
100
AcDb2dVertex
 10
159.5047
 20
112.230255
 30
0.0
  0
VERTEX
  5
1C0
100
AcDbEntity
  8
0
100
AcDbVertex
100
AcDb2dVertex
 10
159.439178
 20
112.457268
 30
0.0
  0
VERTEX
  5
1C1
100
AcDbEntity
  8
0
100
AcDbVertex
100
AcDb2dVertex
 10
159.30513
 20
112.787132
 30
0.0
  0
VERTEX
  5
1C2
100
AcDbEntity
  8
0
100
AcDbVertex
100
AcDb2dVertex
 10
159.173447
 20
113.024216
 30
0.0
  0
VERTEX
  5
1C3
100
AcDbEntity
  8
0
100
AcDbVertex
100
AcDb2dVertex
 10
159.01593
 20
113.250854
 30
0.0
  0
VERTEX
  5
1C4
100
AcDbEntity
  8
0
100
AcDbVertex
100
AcDb2dVertex
 10
158.701004
 20
113.607826
 30
0.0
  0
VERTEX
  5
1C5
100
AcDbEntity
  8
0
100
AcDbVertex
100
AcDb2dVertex
 10
158.464615
 20
113.829376
 30
0.0
  0
VERTEX
  5
1C6
100
AcDbEntity
  8
0
100
AcDbVertex
100
AcDb2dVertex
 10
157.952698
 20
114.240723
 30
0.0
  0
VERTEX
  5
1C7
100
AcDbEntity
  8
0
100
AcDbVertex
100
AcDb2dVertex
 10
157.224564
 20
114.756813
 30
0.0
  0
VERTEX
  5
1C8
100
AcDbEntity
  8
0
100
AcDbVertex
100
AcDb2dVertex
 10
156.496429
 20
115.272896
 30
0.0
  0
VERTEX
  5
1C9
100
AcDbEntity
  8
0
100
AcDbVertex
100
AcDb2dVertex
 10
156.055023
 20
115.623047
 30
0.0
  0
VERTEX
  5
1CA
100
AcDbEntity
  8
0
100
AcDbVertex
100
AcDb2dVertex
 10
155.847382
 20
115.809265
 30
0.0
  0
SEQEND
  5
1CB
100
AcDbEntity
  8
0
  0
LINE
  5
1CC
100
AcDbEntity
  8
0
 62
     7
 48
0.004172
100
AcDbLine
 10
159.67778
 20
111.315994
 30
0.0
 11
159.844666
 21
111.315994
 31
0.0
210
0.0
220
0.0
230
1.0
  0
LINE
  5
1CD
100
AcDbEntity
  8
0
 62
     7
 48
0.11406
100
AcDbLine
 10
155.738556
 20
111.315994
 30
0.0
 11
154.946304
 21
115.809097
 31
0.0
210
0.0
220
0.0
230
1.0
  0
LINE
  5
1CE
100
AcDbEntity
  8
0
 62
     7
 48
0.092326
100
AcDbLine
 10
159.844666
 20
111.109413
 30
0.0
 11
163.537689
 21
111.109413
 31
0.0
210
0.0
220
0.0
230
1.0
  0
LINE
  5
1CF
100
AcDbEntity
  8
0
 62
     7
 48
0.004172
100
AcDbLine
 10
159.67778
 20
111.109413
 30
0.0
 11
159.844666
 21
111.109413
 31
0.0
210
0.0
220
0.0
230
1.0
  0
LINE
  5
1D0
100
AcDbEntity
  8
0
 62
     7
 48
0.092326
100
AcDbLine
 10
155.984756
 20
111.109413
 30
0.0
 11
159.67778
 21
111.109413
 31
0.0
210
0.0
220
0.0
230
1.0
  0
POLYLINE
  5
1D1
100
AcDbEntity
  8
0
 62
     7
100
AcDb2dPolyline
 66
     1
 10
0.0
 20
0.0
 30
0.0
 71
     7
  0
VERTEX
  5
1D2
100
AcDbEntity
  8
0
100
AcDbVertex
100
AcDb2dVertex
 10
155.738556
 20
111.315994
 30
0.0
  0
VERTEX
  5
1D3
100
AcDbEntity
  8
0
100
AcDbVertex
100
AcDb2dVertex
 10
155.739365
 20
111.315231
 30
0.0
  0
VERTEX
  5
1D4
100
AcDbEntity
  8
0
100
AcDbVertex
100
AcDb2dVertex
 10
155.745056
 20
111.313751
 30
0.0
  0
VERTEX
  5
1D5
100
AcDbEntity
  8
0
100
AcDbVertex
100
AcDb2dVertex
 10
155.794342
 20
111.309692
 30
0.0
  0
VERTEX
  5
1D6
100
AcDbEntity
  8
0
100
AcDbVertex
100
AcDb2dVertex
 10
156.201675
 20
111.301437
 30
0.0
  0
VERTEX
  5
1D7
100
AcDbEntity
  8
0
100
AcDbVertex
100
AcDb2dVertex
 10
158.481216
 20
111.305466
 30
0.0
  0
VERTEX
  5
1D8
100
AcDbEntity
  8
0
100
AcDbVertex
100
AcDb2dVertex
 10
159.67778
 20
111.315994
 30
0.0
  0
SEQEND
  5
1D9
100
AcDbEntity
  8
0
  0
ARC
  5
1DA
100
AcDbEntity
  8
0
 62
     7
100
AcDbCircle
 10
155.984756
 20
111.359413
 30
0.0
 40
0.25
210
0.0
220
0.0
230
1.0
100
AcDbArc
 50
190.000003
 51
270.000001
  0
LINE
  5
1DB
100
AcDbEntity
  8
0
 62
     7
 48
0.005165
100
AcDbLine
 10
159.67778
 20
111.315994
 30
0.0
 11
159.67778
 21
111.109413
 31
0.0
210
0.0
220
0.0
230
1.0
  0
LINE
  5
1DC
100
AcDbEntity
  8
0
 62
     7
 48
0.005165
100
AcDbLine
 10
159.844666
 20
111.315994
 30
0.0
 11
159.844666
 21
111.109413
 31
0.0
210
0.0
220
0.0
230
1.0
  0
ARC
  5
1DD
100
AcDbEntity
  8
0
 62
     7
100
AcDbCircle
 10
163.537689
 20
111.359413
 30
0.0
 40
0.25
210
0.0
220
0.0
230
1.0
100
AcDbArc
 50
270.000001
 51
350.000012
  0
POLYLINE
  5
1DE
100
AcDbEntity
  8
0
 62
     7
100
AcDb2dPolyline
 66
     1
 10
0.0
 20
0.0
 30
0.0
 71
     8
  0
VERTEX
  5
1DF
100
AcDbEntity
  8
0
100
AcDbVertex
100
AcDb2dVertex
 10
113.044662
 20
111.316002
 30
0.0
  0
VERTEX
  5
1E0
100
AcDbEntity
  8
0
100
AcDbVertex
100
AcDb2dVertex
 10
115.318436
 20
111.299789
 30
0.0
  0
VERTEX
  5
1E1
100
AcDbEntity
  8
0
100
AcDbVertex
100
AcDb2dVertex
 10
116.815331
 20
111.305832
 30
0.0
  0
VERTEX
  5
1E2
100
AcDbEntity
  8
0
100
AcDbVertex
100
AcDb2dVertex
 10
116.95163
 20
111.311111
 30
0.0
  0
VERTEX
  5
1E3
100
AcDbEntity
  8
0
100
AcDbVertex
100
AcDb2dVertex
 10
116.98011
 20
111.314293
 30
0.0
  0
VERTEX
  5
1E4
100
AcDbEntity
  8
0
100
AcDbVertex
100
AcDb2dVertex
 10
116.982651
 20
111.315048
 30
0.0
  0
VERTEX
  5
1E5
100
AcDbEntity
  8
0
100
AcDbVertex
100
AcDb2dVertex
 10
116.983398
 20
111.315422
 30
0.0
  0
VERTEX
  5
1E6
100
AcDbEntity
  8
0
100
AcDbVertex
100
AcDb2dVertex
 10
116.983887
 20
111.315994
 30
0.0
  0
SEQEND
  5
1E7
100
AcDbEntity
  8
0
  0
LINE
  5
1E8
100
AcDbEntity
  8
0
 62
     7
 48
0.114058
100
AcDbLine
 10
116.983887
 20
111.315994
 30
0.0
 11
117.776123
 21
115.80899
 31
0.0
210
0.0
220
0.0
230
1.0
  0
POLYLINE
  5
1E9
100
AcDbEntity
  8
0
 62
     7
100
AcDb2dPolyline
 66
     1
 10
0.0
 20
0.0
 30
0.0
 71
    14
  0
VERTEX
  5
1EA
100
AcDbEntity
  8
0
100
AcDbVertex
100
AcDb2dVertex
 10
113.044662
 20
111.315994
 30
0.0
  0
VERTEX
  5
1EB
100
AcDbEntity
  8
0
100
AcDbVertex
100
AcDb2dVertex
 10
113.121567
 20
111.752174
 30
0.0
  0
VERTEX
  5
1EC
100
AcDbEntity
  8
0
100
AcDbVertex
100
AcDb2dVertex
 10
113.175323
 20
112.042152
 30
0.0
  0
VERTEX
  5
1ED
100
AcDbEntity
  8
0
100
AcDbVertex
100
AcDb2dVertex
 10
113.244064
 20
112.329224
 30
0.0
  0
VERTEX
  5
1EE
100
AcDbEntity
  8
0
100
AcDbVertex
100
AcDb2dVertex
 10
113.355537
 20
112.650749
 30
0.0
  0
VERTEX
  5
1EF
100
AcDbEntity
  8
0
100
AcDbVertex
100
AcDb2dVertex
 10
113.509003
 20
112.958099
 30
0.0
  0
VERTEX
  5
1F0
100
AcDbEntity
  8
0
100
AcDbVertex
100
AcDb2dVertex
 10
113.704292
 20
113.247971
 30
0.0
  0
VERTEX
  5
1F1
100
AcDbEntity
  8
0
100
AcDbVertex
100
AcDb2dVertex
 10
114.019684
 20
113.606064
 30
0.0
  0
VERTEX
  5
1F2
100
AcDbEntity
  8
0
100
AcDbVertex
100
AcDb2dVertex
 10
114.256569
 20
113.828262
 30
0.0
  0
VERTEX
  5
1F3
100
AcDbEntity
  8
0
100
AcDbVertex
100
AcDb2dVertex
 10
114.769745
 20
114.240723
 30
0.0
  0
VERTEX
  5
1F4
100
AcDbEntity
  8
0
100
AcDbVertex
100
AcDb2dVertex
 10
115.497879
 20
114.756813
 30
0.0
  0
VERTEX
  5
1F5
100
AcDbEntity
  8
0
100
AcDbVertex
100
AcDb2dVertex
 10
116.226021
 20
115.272896
 30
0.0
  0
VERTEX
  5
1F6
100
AcDbEntity
  8
0
100
AcDbVertex
100
AcDb2dVertex
 10
116.667397
 20
115.623032
 30
0.0
  0
VERTEX
  5
1F7
100
AcDbEntity
  8
0
100
AcDbVertex
100
AcDb2dVertex
 10
116.875038
 20
115.809242
 30
0.0
  0
SEQEND
  5
1F8
100
AcDbEntity
  8
0
  0
POLYLINE
  5
1F9
100
AcDbEntity
  8
0
 62
     7
100
AcDb2dPolyline
 66
     1
 10
0.0
 20
0.0
 30
0.0
 71
    14
  0
VERTEX
  5
1FA
100
AcDbEntity
  8
0
100
AcDbVertex
100
AcDb2dVertex
 10
112.877777
 20
111.315994
 30
0.0
  0
VERTEX
  5
1FB
100
AcDbEntity
  8
0
100
AcDbVertex
100
AcDb2dVertex
 10
112.798485
 20
111.765732
 30
0.0
  0
VERTEX
  5
1FC
100
AcDbEntity
  8
0
100
AcDbVertex
100
AcDb2dVertex
 10
112.704697
 20
112.230255
 30
0.0
  0
VERTEX
  5
1FD
100
AcDbEntity
  8
0
100
AcDbVertex
100
AcDb2dVertex
 10
112.639175
 20
112.457268
 30
0.0
  0
VERTEX
  5
1FE
100
AcDbEntity
  8
0
100
AcDbVertex
100
AcDb2dVertex
 10
112.505127
 20
112.787132
 30
0.0
  0
VERTEX
  5
1FF
100
AcDbEntity
  8
0
100
AcDbVertex
100
AcDb2dVertex
 10
112.373444
 20
113.024216
 30
0.0
  0
VERTEX
  5
200
100
AcDbEntity
  8
0
100
AcDbVertex
100
AcDb2dVertex
 10
112.215935
 20
113.250854
 30
0.0
  0
VERTEX
  5
201
100
AcDbEntity
  8
0
100
AcDbVertex
100
AcDb2dVertex
 10
111.901001
 20
113.607826
 30
0.0
  0
VERTEX
  5
202
100
AcDbEntity
  8
0
100
AcDbVertex
100
AcDb2dVertex
 10
111.664619
 20
113.829376
 30
0.0
  0
VERTEX
  5
203
100
AcDbEntity
  8
0
100
AcDbVertex
100
AcDb2dVertex
 10
111.152702
 20
114.240723
 30
0.0
  0
VERTEX
  5
204
100
AcDbEntity
  8
0
100
AcDbVertex
100
AcDb2dVertex
 10
110.424561
 20
114.756813
 30
0.0
  0
VERTEX
  5
205
100
AcDbEntity
  8
0
100
AcDbVertex
100
AcDb2dVertex
 10
109.696419
 20
115.272896
 30
0.0
  0
VERTEX
  5
206
100
AcDbEntity
  8
0
100
AcDbVertex
100
AcDb2dVertex
 10
109.255028
 20
115.623047
 30
0.0
  0
VERTEX
  5
207
100
AcDbEntity
  8
0
100
AcDbVertex
100
AcDb2dVertex
 10
109.047386
 20
115.809265
 30
0.0
  0
SEQEND
  5
208
100
AcDbEntity
  8
0
  0
LINE
  5
209
100
AcDbEntity
  8
0
 62
     7
 48
0.004172
100
AcDbLine
 10
112.877777
 20
111.315994
 30
0.0
 11
113.044662
 21
111.315994
 31
0.0
210
0.0
220
0.0
230
1.0
  0
LINE
  5
20A
100
AcDbEntity
  8
0
 62
     7
 48
0.11406
100
AcDbLine
 10
108.938553
 20
111.315994
 30
0.0
 11
108.146301
 21
115.809097
 31
0.0
210
0.0
220
0.0
230
1.0
  0
LINE
  5
20B
100
AcDbEntity
  8
0
 62
     7
 48
0.092326
100
AcDbLine
 10
113.044662
 20
111.109413
 30
0.0
 11
116.737686
 21
111.109413
 31
0.0
210
0.0
220
0.0
230
1.0
  0
LINE
  5
20C
100
AcDbEntity
  8
0
 62
     7
 48
0.004172
100
AcDbLine
 10
112.877777
 20
111.109413
 30
0.0
 11
113.044662
 21
111.109413
 31
0.0
210
0.0
220
0.0
230
1.0
  0
LINE
  5
20D
100
AcDbEntity
  8
0
 62
     7
 48
0.092326
100
AcDbLine
 10
109.184753
 20
111.109413
 30
0.0
 11
112.877777
 21
111.109413
 31
0.0
210
0.0
220
0.0
230
1.0
  0
POLYLINE
  5
20E
100
AcDbEntity
  8
0
 62
     7
100
AcDb2dPolyline
 66
     1
 10
0.0
 20
0.0
 30
0.0
 71
     7
  0
VERTEX
  5
20F
100
AcDbEntity
  8
0
100
AcDbVertex
100
AcDb2dVertex
 10
108.938553
 20
111.315994
 30
0.0
  0
VERTEX
  5
210
100
AcDbEntity
  8
0
100
AcDbVertex
100
AcDb2dVertex
 10
108.939369
 20
111.315231
 30
0.0
  0
VERTEX
  5
211
100
AcDbEntity
  8
0
100
AcDbVertex
100
AcDb2dVertex
 10
108.945061
 20
111.313751
 30
0.0
  0
VERTEX
  5
212
100
AcDbEntity
  8
0
100
AcDbVertex
100
AcDb2dVertex
 10
108.994347
 20
111.309692
 30
0.0
  0
VERTEX
  5
213
100
AcDbEntity
  8
0
100
AcDbVertex
100
AcDb2dVertex
 10
109.40168
 20
111.301437
 30
0.0
  0
VERTEX
  5
214
100
AcDbEntity
  8
0
100
AcDbVertex
100
AcDb2dVertex
 10
111.681213
 20
111.305466
 30
0.0
  0
VERTEX
  5
215
100
AcDbEntity
  8
0
100
AcDbVertex
100
AcDb2dVertex
 10
112.877777
 20
111.315994
 30
0.0
  0
SEQEND
  5
216
100
AcDbEntity
  8
0
  0
ARC
  5
217
100
AcDbEntity
  8
0
 62
     7
100
AcDbCircle
 10
109.184753
 20
111.359413
 30
0.0
 40
0.25
210
0.0
220
0.0
230
1.0
100
AcDbArc
 50
190.000003
 51
270.000001
  0
LINE
  5
218
100
AcDbEntity
  8
0
 62
     7
 48
0.005165
100
AcDbLine
 10
112.877777
 20
111.315994
 30
0.0
 11
112.877777
 21
111.109413
 31
0.0
210
0.0
220
0.0
230
1.0
  0
LINE
  5
219
100
AcDbEntity
  8
0
 62
     7
 48
0.005165
100
AcDbLine
 10
113.044662
 20
111.315994
 30
0.0
 11
113.044662
 21
111.109413
 31
0.0
210
0.0
220
0.0
230
1.0
  0
ARC
  5
21A
100
AcDbEntity
  8
0
 62
     7
100
AcDbCircle
 10
116.737686
 20
111.359413
 30
0.0
 40
0.25
210
0.0
220
0.0
230
1.0
100
AcDbArc
 50
270.000001
 51
350.000012
  0
LINE
  5
21B
100
AcDbEntity
  8
0
 62
     7
 48
0.062195
100
AcDbLine
 10
125.036224
 20
188.509415
 30
0.0
 11
127.524017
 21
188.509415
 31
0.0
210
0.0
220
0.0
230
1.0
  0
LINE
  5
21C
100
AcDbEntity
  8
0
 62
     7
 48
0.004055
100
AcDbLine
 10
127.524017
 20
188.509415
 30
0.0
 11
127.686218
 21
188.509415
 31
0.0
210
0.0
220
0.0
230
1.0
  0
LINE
  5
21D
100
AcDbEntity
  8
0
 62
     7
 48
0.05046
100
AcDbLine
 10
125.286224
 20
188.759415
 30
0.0
 11
127.304626
 21
188.759415
 31
0.0
210
0.0
220
0.0
230
1.0
  0
LINE
  5
21E
100
AcDbEntity
  8
0
 62
     7
 48
0.00329
100
AcDbLine
 10
127.304626
 20
188.759415
 30
0.0
 11
127.436218
 21
188.759415
 31
0.0
210
0.0
220
0.0
230
1.0
  0
LINE
  5
21F
100
AcDbEntity
  8
0
 62
     7
 48
0.009999
100
AcDbLine
 10
125.036224
 20
188.509415
 30
0.0
 11
125.036224
 21
188.109467
 31
0.0
210
0.0
220
0.0
230
1.0
  0
LINE
  5
220
100
AcDbEntity
  8
0
 62
     7
 48
0.009999
100
AcDbLine
 10
127.686218
 20
188.509415
 30
0.0
 11
127.686218
 21
188.109467
 31
0.0
210
0.0
220
0.0
230
1.0
  0
ARC
  5
221
100
AcDbEntity
  8
0
 62
     7
100
AcDbCircle
 10
125.286224
 20
188.509415
 30
0.0
 40
0.25
210
0.0
220
0.0
230
1.0
100
AcDbArc
 50
90.000003
 51
180.000005
  0
ARC
  5
222
100
AcDbEntity
  8
0
 62
     7
100
AcDbCircle
 10
127.436218
 20
188.509415
 30
0.0
 40
0.25
210
0.0
220
0.0
230
1.0
100
AcDbArc
 50
360.0
 51
90.000003
  0
LINE
  5
223
100
AcDbEntity
  8
0
 62
     7
 48
0.062195
100
AcDbLine
 10
145.036224
 20
188.509415
 30
0.0
 11
147.524017
 21
188.509415
 31
0.0
210
0.0
220
0.0
230
1.0
  0
LINE
  5
224
100
AcDbEntity
  8
0
 62
     7
 48
0.004055
100
AcDbLine
 10
147.524017
 20
188.509415
 30
0.0
 11
147.686218
 21
188.509415
 31
0.0
210
0.0
220
0.0
230
1.0
  0
LINE
  5
225
100
AcDbEntity
  8
0
 62
     7
 48
0.05046
100
AcDbLine
 10
145.286224
 20
188.759415
 30
0.0
 11
147.304626
 21
188.759415
 31
0.0
210
0.0
220
0.0
230
1.0
  0
LINE
  5
226
100
AcDbEntity
  8
0
 62
     7
 48
0.00329
100
AcDbLine
 10
147.304626
 20
188.759415
 30
0.0
 11
147.436218
 21
188.759415
 31
0.0
210
0.0
220
0.0
230
1.0
  0
LINE
  5
227
100
AcDbEntity
  8
0
 62
     7
 48
0.009999
100
AcDbLine
 10
145.036224
 20
188.509415
 30
0.0
 11
145.036224
 21
188.109467
 31
0.0
210
0.0
220
0.0
230
1.0
  0
LINE
  5
228
100
AcDbEntity
  8
0
 62
     7
 48
0.009999
100
AcDbLine
 10
147.686218
 20
188.509415
 30
0.0
 11
147.686218
 21
188.109467
 31
0.0
210
0.0
220
0.0
230
1.0
  0
ARC
  5
229
100
AcDbEntity
  8
0
 62
     7
100
AcDbCircle
 10
145.286224
 20
188.509415
 30
0.0
 40
0.25
210
0.0
220
0.0
230
1.0
100
AcDbArc
 50
90.000003
 51
180.000005
  0
ARC
  5
22A
100
AcDbEntity
  8
0
 62
     7
100
AcDbCircle
 10
147.436218
 20
188.509415
 30
0.0
 40
0.25
210
0.0
220
0.0
230
1.0
100
AcDbArc
 50
360.0
 51
90.000003
  0
LINE
  5
22B
100
AcDbEntity
  8
0
 62
     7
 48
0.09
100
AcDbLine
 10
233.120941
 20
177.859406
 30
0.0
 11
233.120941
 21
181.459412
 31
0.0
210
0.0
220
0.0
230
1.0
  0
LINE
  5
22C
100
AcDbEntity
  8
0
 62
     7
 48
0.1
100
AcDbLine
 10
277.120941
 20
144.459412
 30
0.0
 11
281.120941
 21
144.459412
 31
0.0
210
0.0
220
0.0
230
1.0
  0
LINE
  5
22D
100
AcDbEntity
  8
0
 62
     7
 48
0.0875
100
AcDbLine
 10
277.120941
 20
144.459412
 30
0.0
 11
277.120941
 21
140.959412
 31
0.0
210
0.0
220
0.0
230
1.0
  0
LINE
  5
22E
100
AcDbEntity
  8
0
 62
     7
100
AcDbLine
 10
229.670944
 20
117.709412
 30
0.0
 11
300.120941
 21
117.709412
 31
0.0
210
0.0
220
0.0
230
1.0
  0
LINE
  5
22F
100
AcDbEntity
  8
0
 62
     7
100
AcDbLine
 10
300.120941
 20
185.959412
 30
0.0
 11
300.120941
 21
117.709412
 31
0.0
210
0.0
220
0.0
230
1.0
  0
LINE
  5
230
100
AcDbEntity
  8
0
 62
     7
100
AcDbLine
 10
229.670944
 20
185.959412
 30
0.0
 11
300.120941
 21
185.959412
 31
0.0
210
0.0
220
0.0
230
1.0
  0
LINE
  5
231
100
AcDbEntity
  8
0
 62
     7
 48
0.0875
100
AcDbLine
 10
281.120941
 20
140.959412
 30
0.0
 11
281.120941
 21
144.459412
 31
0.0
210
0.0
220
0.0
230
1.0
  0
LINE
  5
232
100
AcDbEntity
  8
0
 62
     7
 48
0.1
100
AcDbLine
 10
281.120941
 20
140.959412
 30
0.0
 11
277.120941
 21
140.959412
 31
0.0
210
0.0
220
0.0
230
1.0
  0
LINE
  5
233
100
AcDbEntity
  8
0
 62
     7
 48
0.0875
100
AcDbLine
 10
256.120941
 20
140.959412
 30
0.0
 11
256.120941
 21
144.459412
 31
0.0
210
0.0
220
0.0
230
1.0
  0
LINE
  5
234
100
AcDbEntity
  8
0
 62
     7
 48
0.1
100
AcDbLine
 10
256.120941
 20
140.959412
 30
0.0
 11
252.120941
 21
140.959412
 31
0.0
210
0.0
220
0.0
230
1.0
  0
LINE
  5
235
100
AcDbEntity
  8
0
 62
     7
 48
0.0875
100
AcDbLine
 10
252.120941
 20
144.459412
 30
0.0
 11
252.120941
 21
140.959412
 31
0.0
210
0.0
220
0.0
230
1.0
  0
LINE
  5
236
100
AcDbEntity
  8
0
 62
     7
 48
0.1
100
AcDbLine
 10
252.120941
 20
144.459412
 30
0.0
 11
256.120941
 21
144.459412
 31
0.0
210
0.0
220
0.0
230
1.0
  0
LINE
  5
237
100
AcDbEntity
  8
0
 62
     7
 48
0.05625
100
AcDbLine
 10
235.220932
 20
181.459412
 30
0.0
 11
232.970932
 21
181.459412
 31
0.0
210
0.0
220
0.0
230
1.0
  0
LINE
  5
238
100
AcDbEntity
  8
0
 62
     7
 48
0.09
100
AcDbLine
 10
235.220932
 20
181.459412
 30
0.0
 11
235.220932
 21
177.859406
 31
0.0
210
0.0
220
0.0
230
1.0
  0
LINE
  5
239
100
AcDbEntity
  8
0
 62
     7
 48
0.05625
100
AcDbLine
 10
232.970932
 20
177.859406
 30
0.0
 11
235.220932
 21
177.859406
 31
0.0
210
0.0
220
0.0
230
1.0
  0
LINE
  5
23A
100
AcDbEntity
  8
0
 62
     7
 48
0.09
100
AcDbLine
 10
232.970932
 20
177.859406
 30
0.0
 11
232.970932
 21
181.459412
 31
0.0
210
0.0
220
0.0
230
1.0
  0
CIRCLE
  5
23B
100
AcDbEntity
  8
0
 62
     7
100
AcDbCircle
 10
292.120941
 20
120.109413
 30
0.0
 40
0.2
210
0.0
220
0.0
230
1.0
  0
CIRCLE
  5
23C
100
AcDbEntity
  8
0
 62
     7
100
AcDbCircle
 10
236.120941
 20
120.109413
 30
0.0
 40
0.2
210
0.0
220
0.0
230
1.0
  0
LINE
  5
23D
100
AcDbEntity
  8
0
 62
     7
100
AcDbLine
 10
229.670944
 20
186.209412
 30
0.0
 11
300.120941
 21
186.209412
 31
0.0
210
0.0
220
0.0
230
1.0
  0
LINE
  5
23E
100
AcDbEntity
  8
0
 62
     7
 48
0.00625
100
AcDbLine
 10
300.120941
 20
185.959412
 30
0.0
 11
300.120941
 21
186.209412
 31
0.0
210
0.0
220
0.0
230
1.0
  0
LINE
  5
23F
100
AcDbEntity
  8
0
 62
     7
 48
0.015
100
AcDbLine
 10
300.120941
 20
118.109413
 30
0.0
 11
300.120941
 21
118.709412
 31
0.0
210
0.0
220
0.0
230
1.0
  0
LINE
  5
240
100
AcDbEntity
  8
0
 62
     7
 48
0.075
100
AcDbLine
 10
300.120941
 20
121.991737
 30
0.0
 11
300.120941
 21
124.991737
 31
0.0
210
0.0
220
0.0
230
1.0
  0
LINE
  5
241
100
AcDbEntity
  8
0
 62
     7
100
AcDbLine
 10
300.120941
 20
165.304184
 30
0.0
 11
300.120941
 21
124.991737
 31
0.0
210
0.0
220
0.0
230
1.0
  0
LINE
  5
242
100
AcDbEntity
  8
0
 62
     7
 48
0.082058
100
AcDbLine
 10
300.120941
 20
121.991737
 30
0.0
 11
300.120941
 21
118.709412
 31
0.0
210
0.0
220
0.0
230
1.0
  0
LINE
  5
243
100
AcDbEntity
  8
0
 62
     7
 48
0.00375
100
AcDbLine
 10
300.120941
 20
118.109413
 30
0.0
 11
300.120941
 21
117.959412
 31
0.0
210
0.0
220
0.0
230
1.0
  0
LINE
  5
244
100
AcDbEntity
  8
0
 62
     7
 48
0.1
100
AcDbLine
 10
252.120941
 20
143.159409
 30
0.0
 11
256.120941
 21
143.159409
 31
0.0
210
0.0
220
0.0
230
1.0
  0
LINE
  5
245
100
AcDbEntity
  8
0
 62
     7
 48
0.1
100
AcDbLine
 10
277.120941
 20
143.159409
 30
0.0
 11
281.120941
 21
143.159409
 31
0.0
210
0.0
220
0.0
230
1.0
  0
LINE
  5
246
100
AcDbEntity
  8
0
 62
     7
 48
0.01
100
AcDbLine
 10
300.120941
 20
163.959412
 30
0.0
 11
300.520935
 21
163.959412
 31
0.0
210
0.0
220
0.0
230
1.0
  0
LINE
  5
247
100
AcDbEntity
  8
0
 62
     7
 48
0.0125
100
AcDbLine
 10
300.120941
 20
163.459412
 30
0.0
 11
300.120941
 21
163.959412
 31
0.0
210
0.0
220
0.0
230
1.0
  0
LINE
  5
248
100
AcDbEntity
  8
0
 62
     7
 48
0.000513
100
AcDbLine
 10
300.520935
 20
163.938889
 30
0.0
 11
300.520935
 21
163.959412
 31
0.0
210
0.0
220
0.0
230
1.0
  0
LINE
  5
249
100
AcDbEntity
  8
0
 62
     7
100
AcDbLine
 10
300.120941
 20
160.209412
 30
0.0
 11
300.120941
 21
132.959427
 31
0.0
210
0.0
220
0.0
230
1.0
  0
LINE
  5
24A
100
AcDbEntity
  8
0
 62
     7
 48
0.00625
100
AcDbLine
 10
300.120941
 20
129.459412
 30
0.0
 11
300.120941
 21
129.709396
 31
0.0
210
0.0
220
0.0
230
1.0
  0
LINE
  5
24B
100
AcDbEntity
  8
0
 62
     7
 48
0.006249
100
AcDbLine
 10
300.120941
 20
129.459412
 30
0.0
 11
300.370911
 21
129.459412
 31
0.0
210
0.0
220
0.0
230
1.0
  0
LINE
  5
24C
100
AcDbEntity
  8
0
 62
     7
 48
0.01
100
AcDbLine
 10
300.120941
 20
128.959412
 30
0.0
 11
300.520935
 21
128.959412
 31
0.0
210
0.0
220
0.0
230
1.0
  0
LINE
  5
24D
100
AcDbEntity
  8
0
 62
     7
 48
0.006409
100
AcDbLine
 10
300.120941
 20
128.703064
 30
0.0
 11
300.120941
 21
128.959412
 31
0.0
210
0.0
220
0.0
230
1.0
  0
LINE
  5
24E
100
AcDbEntity
  8
0
 62
     7
 48
0.006409
100
AcDbLine
 10
300.520935
 20
128.703064
 30
0.0
 11
300.520935
 21
128.959412
 31
0.0
210
0.0
220
0.0
230
1.0
  0
LINE
  5
24F
100
AcDbEntity
  8
0
 62
     7
 48
0.005433
100
AcDbLine
 10
300.520935
 20
128.742096
 30
0.0
 11
300.520935
 21
128.959412
 31
0.0
210
0.0
220
0.0
230
1.0
  0
LINE
  5
250
100
AcDbEntity
  8
0
 62
     7
100
AcDbLine
 10
229.670944
 20
186.459412
 30
0.0
 11
229.670944
 21
117.459412
 31
0.0
210
0.0
220
0.0
230
1.0
  0
LINE
  5
251
100
AcDbEntity
  8
0
 62
     7
 48
0.0375
100
AcDbLine
 10
229.670944
 20
186.459412
 30
0.0
 11
229.670944
 21
187.959412
 31
0.0
210
0.0
220
0.0
230
1.0
  0
LINE
  5
252
100
AcDbEntity
  8
0
 62
     7
 48
0.0075
100
AcDbLine
 10
229.670944
 20
186.459412
 30
0.0
 11
229.370941
 21
186.459412
 31
0.0
210
0.0
220
0.0
230
1.0
  0
LINE
  5
253
100
AcDbEntity
  8
0
 62
     7
100
AcDbLine
 10
229.370941
 20
186.459412
 30
0.0
 11
229.370941
 21
117.459412
 31
0.0
210
0.0
220
0.0
230
1.0
  0
LINE
  5
254
100
AcDbEntity
  8
0
 62
     7
 48
0.0075
100
AcDbLine
 10
229.670944
 20
117.459412
 30
0.0
 11
229.370941
 21
117.459412
 31
0.0
210
0.0
220
0.0
230
1.0
  0
LINE
  5
255
100
AcDbEntity
  8
0
 62
     7
 48
0.0375
100
AcDbLine
 10
229.670944
 20
115.959412
 30
0.0
 11
229.670944
 21
117.459412
 31
0.0
210
0.0
220
0.0
230
1.0
  0
LINE
  5
256
100
AcDbEntity
  8
0
 62
     7
 48
0.0375
100
AcDbLine
 10
229.670944
 20
186.459412
 30
0.0
 11
229.670944
 21
187.959412
 31
0.0
210
0.0
220
0.0
230
1.0
  0
LINE
  5
257
100
AcDbEntity
  8
0
 62
     7
 48
0.03124
100
AcDbLine
 10
229.670944
 20
115.959412
 30
0.0
 11
229.670944
 21
117.20903
 31
0.0
210
0.0
220
0.0
230
1.0
  0
LINE
  5
258
100
AcDbEntity
  8
0
 62
     7
 48
0.006249
100
AcDbLine
 10
229.670944
 20
186.209457
 30
0.0
 11
229.670944
 21
186.459412
 31
0.0
210
0.0
220
0.0
230
1.0
  0
LINE
  5
259
100
AcDbEntity
  8
0
 62
     7
 48
0.008385
100
AcDbLine
 10
229.670944
 20
187.959412
 30
0.0
 11
229.370941
 21
188.109406
 31
0.0
210
0.0
220
0.0
230
1.0
  0
LINE
  5
25A
100
AcDbEntity
  8
0
 62
     7
 48
0.04125
100
AcDbLine
 10
229.370941
 20
186.459412
 30
0.0
 11
229.370941
 21
188.109406
 31
0.0
210
0.0
220
0.0
230
1.0
  0
LINE
  5
25B
100
AcDbEntity
  8
0
 62
     7
 48
0.01875
100
AcDbLine
 10
229.370941
 20
186.459412
 30
0.0
 11
228.620941
 21
186.459412
 31
0.0
210
0.0
220
0.0
230
1.0
  0
LINE
  5
25C
100
AcDbEntity
  8
0
 62
     7
 48
0.01875
100
AcDbLine
 10
229.370941
 20
117.459412
 30
0.0
 11
228.620941
 21
117.459412
 31
0.0
210
0.0
220
0.0
230
1.0
  0
LINE
  5
25D
100
AcDbEntity
  8
0
 62
     7
100
AcDbLine
 10
228.620941
 20
186.459412
 30
0.0
 11
228.620941
 21
117.459412
 31
0.0
210
0.0
220
0.0
230
1.0
  0
LINE
  5
25E
100
AcDbEntity
  8
0
 62
     7
 48
0.04125
100
AcDbLine
 10
229.370941
 20
115.80941
 30
0.0
 11
229.370941
 21
117.459412
 31
0.0
210
0.0
220
0.0
230
1.0
  0
LINE
  5
25F
100
AcDbEntity
  8
0
 62
     7
 48
0.008385
100
AcDbLine
 10
229.670944
 20
115.959412
 30
0.0
 11
229.370941
 21
115.80941
 31
0.0
210
0.0
220
0.0
230
1.0
  0
LINE
  5
260
100
AcDbEntity
  8
0
 62
     7
 48
0.01875
100
AcDbLine
 10
229.370941
 20
188.109406
 30
0.0
 11
228.620941
 21
188.109406
 31
0.0
210
0.0
220
0.0
230
1.0
  0
LINE
  5
261
100
AcDbEntity
  8
0
 62
     7
 48
0.04125
100
AcDbLine
 10
228.620941
 20
186.459412
 30
0.0
 11
228.620941
 21
188.109406
 31
0.0
210
0.0
220
0.0
230
1.0
  0
LINE
  5
262
100
AcDbEntity
  8
0
 62
     7
 48
0.01875
100
AcDbLine
 10
229.370941
 20
115.80941
 30
0.0
 11
228.620941
 21
115.80941
 31
0.0
210
0.0
220
0.0
230
1.0
  0
LINE
  5
263
100
AcDbEntity
  8
0
 62
     7
 48
0.04125
100
AcDbLine
 10
228.620941
 20
115.80941
 30
0.0
 11
228.620941
 21
117.459412
 31
0.0
210
0.0
220
0.0
230
1.0
  0
ARC
  5
264
100
AcDbEntity
  8
0
 62
     7
100
AcDbCircle
 10
222.620941
 20
186.147476
 30
0.0
 40
1.5
210
0.0
220
0.0
230
1.0
100
AcDbArc
 50
95.000001
 51
149.765393
  0
LINE
  5
265
100
AcDbEntity
  8
0
 62
     7
 48
0.041354
100
AcDbLine
 10
224.473068
 20
187.815247
 30
0.0
 11
226.120941
 21
187.959412
 31
0.0
210
0.0
220
0.0
230
1.0
  0
LINE
  5
266
100
AcDbEntity
  8
0
 62
     7
 48
0.049761
100
AcDbLine
 10
222.490204
 20
187.641754
 30
0.0
 11
224.473068
 21
187.815247
 31
0.0
210
0.0
220
0.0
230
1.0
  0
LINE
  5
267
100
AcDbEntity
  8
0
 62
     7
 48
0.010984
100
AcDbLine
 10
221.120941
 20
186.147476
 30
0.0
 11
221.560287
 21
186.147476
 31
0.0
210
0.0
220
0.0
230
1.0
  0
ELLIPSE
  5
268
100
AcDbEntity
  8
0
 62
     7
100
AcDbEllipse
 10
222.620941
 20
186.147476
 30
0.0
 11
0.1307373046875
 21
-1.494293212890625
 31
0.0
210
0.0
220
0.0
230
1.0
 40
0.705758
 41
3.1415927410125732
 42
4.650721549987793
  0
LINE
  5
269
100
AcDbEntity
  8
0
 62
     7
 48
0.049761
100
AcDbLine
 10
221.560287
 20
186.147476
 30
0.0
 11
223.543137
 21
186.320953
 31
0.0
210
0.0
220
0.0
230
1.0
  0
ELLIPSE
  5
26A
100
AcDbEntity
  8
0
 62
     7
100
AcDbEllipse
 10
224.603806
 20
186.320953
 30
0.0
 11
0.1307373046875
 21
-1.494293212890625
 31
0.0
210
0.0
220
0.0
230
1.0
 40
0.705758
 41
3.1415927410125732
 42
4.650721549987793
  0
LINE
  5
26B
100
AcDbEntity
  8
0
 62
     7
 48
0.0625
100
AcDbLine
 10
228.620941
 20
187.959412
 30
0.0
 11
226.120941
 21
187.959412
 31
0.0
210
0.0
220
0.0
230
1.0
  0
LINE
  5
26C
100
AcDbEntity
  8
0
 62
     7
100
AcDbLine
 10
221.560287
 20
117.771347
 30
0.0
 11
221.560287
 21
186.147476
 31
0.0
210
0.0
220
0.0
230
1.0
  0
LINE
  5
26D
100
AcDbEntity
  8
0
 62
     7
100
AcDbLine
 10
221.120941
 20
117.771347
 30
0.0
 11
221.120941
 21
186.147476
 31
0.0
210
0.0
220
0.0
230
1.0
  0
LINE
  5
26E
100
AcDbEntity
  8
0
 62
     7
 48
0.010984
100
AcDbLine
 10
221.120941
 20
117.771347
 30
0.0
 11
221.560287
 21
117.771347
 31
0.0
210
0.0
220
0.0
230
1.0
  0
LINE
  5
26F
100
AcDbEntity
  8
0
 62
     7
 48
0.049761
100
AcDbLine
 10
223.543137
 20
117.59787
 30
0.0
 11
221.560287
 21
117.771347
 31
0.0
210
0.0
220
0.0
230
1.0
  0
LINE
  5
270
100
AcDbEntity
  8
0
 62
     7
100
AcDbLine
 10
223.543137
 20
186.320953
 30
0.0
 11
223.543137
 21
117.59787
 31
0.0
210
0.0
220
0.0
230
1.0
  0
ELLIPSE
  5
271
100
AcDbEntity
  8
0
 62
     7
100
AcDbEllipse
 10
222.620941
 20
117.771347
 30
0.0
 11
-0.1307373046875
 21
-1.494293212890625
 31
0.0
210
0.0
220
0.0
230
1.0
 40
0.705758
 41
4.7740564346313477
 42
6.2831854820251465
  0
ARC
  5
272
100
AcDbEntity
  8
0
 62
     7
100
AcDbCircle
 10
222.620941
 20
117.771347
 30
0.0
 40
1.5
210
0.0
220
0.0
230
1.0
100
AcDbArc
 50
180.000005
 51
265.000002
  0
ELLIPSE
  5
273
100
AcDbEntity
  8
0
 62
     7
100
AcDbEllipse
 10
226.186478
 20
117.460022
 30
0.0
 11
-0.0655364990234375
 21
-1.5006103515625
 31
0.0
210
0.0
220
0.0
230
1.0
 40
0.043489
 41
5.2381200790405273
 42
6.2812833786010742
  0
LINE
  5
274
100
AcDbEntity
  8
0
 62
     7
 48
0.01875
100
AcDbLine
 10
226.870941
 20
115.959412
 30
0.0
 11
226.120941
 21
115.959412
 31
0.0
210
0.0
220
0.0
230
1.0
  0
LINE
  5
275
100
AcDbEntity
  8
0
 62
     7
 48
0.04375
100
AcDbLine
 10
228.620941
 20
115.959412
 30
0.0
 11
226.870941
 21
115.959412
 31
0.0
210
0.0
220
0.0
230
1.0
  0
LINE
  5
276
100
AcDbEntity
  8
0
 62
     7
 48
0.0625
100
AcDbLine
 10
228.620941
 20
117.459412
 30
0.0
 11
226.120941
 21
117.459412
 31
0.0
210
0.0
220
0.0
230
1.0
  0
LINE
  5
277
100
AcDbEntity
  8
0
 62
     7
 48
0.000143
100
AcDbLine
 10
226.120819
 20
117.453705
 30
0.0
 11
226.120941
 21
117.459412
 31
0.0
210
0.0
220
0.0
230
1.0
  0
LINE
  5
278
100
AcDbEntity
  8
0
 62
     7
 48
0.003611
100
AcDbLine
 10
226.114853
 20
117.30941
 30
0.0
 11
226.120941
 21
117.453705
 31
0.0
210
0.0
220
0.0
230
1.0
  0
LINE
  5
279
100
AcDbEntity
  8
0
 62
     7
 48
0.018902
100
AcDbLine
 10
226.114853
 20
117.30941
 30
0.0
 11
226.870941
 21
117.30941
 31
0.0
210
0.0
220
0.0
230
1.0
  0
LINE
  5
27A
100
AcDbEntity
  8
0
 62
     7
 48
0.015
100
AcDbLine
 10
226.870941
 20
117.30941
 30
0.0
 11
226.870941
 21
116.709412
 31
0.0
210
0.0
220
0.0
230
1.0
  0
LINE
  5
27B
100
AcDbEntity
  8
0
 62
     7
 48
0.019345
100
AcDbLine
 10
226.097137
 20
116.709412
 30
0.0
 11
226.870941
 21
116.709412
 31
0.0
210
0.0
220
0.0
230
1.0
  0
LINE
  5
27C
100
AcDbEntity
  8
0
 62
     7
 48
0.041354
100
AcDbLine
 10
226.120941
 20
117.453705
 30
0.0
 11
224.473068
 21
117.59787
 31
0.0
210
0.0
220
0.0
230
1.0
  0
ELLIPSE
  5
27D
100
AcDbEntity
  8
0
 62
     7
100
AcDbEllipse
 10
224.603806
 20
117.59787
 30
0.0
 11
-0.1307373046875
 21
-1.494293212890625
 31
0.0
210
0.0
220
0.0
230
1.0
 40
0.086827
 41
4.7199850082397461
 42
6.2831854820251465
  0
LINE
  5
27E
100
AcDbEntity
  8
0
 62
     7
 48
0.009985
100
AcDbLine
 10
224.870941
 20
116.068771
 30
0.0
 11
224.473068
 21
116.103577
 31
0.0
210
0.0
220
0.0
230
1.0
  0
LINE
  5
27F
100
AcDbEntity
  8
0
 62
     7
 48
0.000089
100
AcDbLine
 10
224.870941
 20
116.068771
 30
0.0
 11
224.870941
 21
116.072342
 31
0.0
210
0.0
220
0.0
230
1.0
  0
ARC
  5
280
100
AcDbEntity
  8
0
 62
     7
100
AcDbCircle
 10
243.360443
 20
313.766357
 30
0.0
 40
198.556763
210
0.0
220
0.0
230
1.0
100
AcDbArc
 50
264.656905
 51
265.000176
  0
LINE
  5
281
100
AcDbEntity
  8
0
 62
     7
 48
0.001637
100
AcDbLine
 10
226.120941
 20
115.959412
 30
0.0
 11
226.055695
 21
115.965118
 31
0.0
210
0.0
220
0.0
230
1.0
  0
LINE
  5
282
100
AcDbEntity
  8
0
 62
     7
 48
0.030655
100
AcDbLine
 10
224.870941
 20
116.709412
 30
0.0
 11
226.097137
 21
116.709412
 31
0.0
210
0.0
220
0.0
230
1.0
  0
LINE
  5
283
100
AcDbEntity
  8
0
 62
     7
 48
0.015
100
AcDbLine
 10
224.870941
 20
116.709412
 30
0.0
 11
224.870941
 21
117.30941
 31
0.0
210
0.0
220
0.0
230
1.0
  0
LINE
  5
284
100
AcDbEntity
  8
0
 62
     7
 48
0.031098
100
AcDbLine
 10
224.870941
 20
117.30941
 30
0.0
 11
226.114853
 21
117.30941
 31
0.0
210
0.0
220
0.0
230
1.0
  0
LINE
  5
285
100
AcDbEntity
  8
0
 62
     7
 48
0.0625
100
AcDbLine
 10
228.620941
 20
186.459412
 30
0.0
 11
226.120941
 21
186.459412
 31
0.0
210
0.0
220
0.0
230
1.0
  0
LINE
  5
286
100
AcDbEntity
  8
0
 62
     7
100
AcDbLine
 10
226.120941
 20
186.459412
 30
0.0
 11
226.120941
 21
117.459412
 31
0.0
210
0.0
220
0.0
230
1.0
  0
LINE
  5
287
100
AcDbEntity
  8
0
 62
     7
 48
0.041354
100
AcDbLine
 10
224.473068
 20
186.320953
 30
0.0
 11
226.120941
 21
186.465118
 31
0.0
210
0.0
220
0.0
230
1.0
  0
LINE
  5
288
100
AcDbEntity
  8
0
 62
     7
100
AcDbLine
 10
224.473068
 20
186.320953
 30
0.0
 11
224.473068
 21
117.59787
 31
0.0
210
0.0
220
0.0
230
1.0
  0
LINE
  5
289
100
AcDbEntity
  8
0
 62
     7
 48
0.000143
100
AcDbLine
 10
226.120941
 20
186.459412
 30
0.0
 11
226.120941
 21
186.465118
 31
0.0
210
0.0
220
0.0
230
1.0
  0
LINE
  5
28A
100
AcDbEntity
  8
0
 62
     7
 48
0.023248
100
AcDbLine
 10
223.543137
 20
117.59787
 30
0.0
 11
224.473068
 21
117.59787
 31
0.0
210
0.0
220
0.0
230
1.0
  0
ELLIPSE
  5
28B
100
AcDbEntity
  8
0
 62
     7
100
AcDbEllipse
 10
224.603806
 20
117.59787
 30
0.0
 11
-0.1307373046875
 21
-1.494293212890625
 31
0.0
210
0.0
220
0.0
230
1.0
 40
0.705758
 41
4.7740564346313477
 42
6.2831854820251465
  0
LINE
  5
28C
100
AcDbEntity
  8
0
 62
     7
 48
0.029719
100
AcDbLine
 10
226.055176
 20
115.965164
 30
0.0
 11
224.870941
 21
116.068771
 31
0.0
210
0.0
220
0.0
230
1.0
  0
LINE
  5
28D
100
AcDbEntity
  8
0
 62
     7
 48
0.01875
100
AcDbLine
 10
226.120941
 20
115.959412
 30
0.0
 11
226.870941
 21
115.959412
 31
0.0
210
0.0
220
0.0
230
1.0
  0
LINE
  5
28E
100
AcDbEntity
  8
0
 62
     7
 48
0.049761
100
AcDbLine
 10
224.473068
 20
116.103577
 30
0.0
 11
222.490204
 21
116.277061
 31
0.0
210
0.0
220
0.0
230
1.0
  0
LINE
  5
28F
100
AcDbEntity
  8
0
 62
     7
 48
0.023248
100
AcDbLine
 10
223.543137
 20
186.320953
 30
0.0
 11
224.473068
 21
186.320953
 31
0.0
210
0.0
220
0.0
230
1.0
  0
ELLIPSE
  5
290
100
AcDbEntity
  8
0
 62
     7
100
AcDbEllipse
 10
224.603806
 20
186.320953
 30
0.0
 11
0.1307373046875
 21
-1.494293212890625
 31
0.0
210
0.0
220
0.0
230
1.0
 40
0.086827
 41
3.1415927410125732
 42
4.7047929763793945
  0
POLYLINE
  5
291
100
AcDbEntity
  8
0
 62
     7
100
AcDb2dPolyline
 66
     1
 10
0.0
 20
0.0
 30
0.0
 71
     8
  0
VERTEX
  5
292
100
AcDbEntity
  8
0
100
AcDbVertex
100
AcDb2dVertex
 10
226.120941
 20
187.959412
 30
0.0
  0
VERTEX
  5
293
100
AcDbEntity
  8
0
100
AcDbVertex
100
AcDb2dVertex
 10
226.119934
 20
187.959183
 30
0.0
  0
VERTEX
  5
294
100
AcDbEntity
  8
0
100
AcDbVertex
100
AcDb2dVertex
 10
226.118637
 20
187.958344
 30
0.0
  0
VERTEX
  5
295
100
AcDbEntity
  8
0
100
AcDbVertex
100
AcDb2dVertex
 10
226.116165
 20
187.954834
 30
0.0
  0
VERTEX
  5
296
100
AcDbEntity
  8
0
100
AcDbVertex
100
AcDb2dVertex
 10
226.109436
 20
187.929825
 30
0.0
  0
VERTEX
  5
297
100
AcDbEntity
  8
0
100
AcDbVertex
100
AcDb2dVertex
 10
226.096527
 20
187.73764
 30
0.0
  0
VERTEX
  5
298
100
AcDbEntity
  8
0
100
AcDbVertex
100
AcDb2dVertex
 10
226.094681
 20
187.383728
 30
0.0
  0
VERTEX
  5
299
100
AcDbEntity
  8
0
100
AcDbVertex
100
AcDb2dVertex
 10
226.120819
 20
186.465103
 30
0.0
  0
SEQEND
  5
29A
100
AcDbEntity
  8
0
  0
ARC
  5
29B
100
AcDbEntity
  8
0
 62
     7
100
AcDbCircle
 10
222.620941
 20
186.147476
 30
0.0
 40
1.5
210
0.0
220
0.0
230
1.0
100
AcDbArc
 50
149.765393
 51
180.000005
  0
LINE
  5
29C
100
AcDbEntity
  8
0
 62
     7
 48
0.0025
100
AcDbLine
 10
220.220947
 20
131.609406
 30
0.0
 11
220.120941
 21
131.609406
 31
0.0
210
0.0
220
0.0
230
1.0
  0
LINE
  5
29D
100
AcDbEntity
  8
0
 62
     7
 48
0.013975
100
AcDbLine
 10
219.870941
 20
132.109406
 30
0.0
 11
220.120941
 21
131.609406
 31
0.0
210
0.0
220
0.0
230
1.0
  0
LINE
  5
29E
100
AcDbEntity
  8
0
 62
     7
 48
0.021782
100
AcDbLine
 10
219.870941
 20
132.109406
 30
0.0
 11
218.99968
 21
132.109406
 31
0.0
210
0.0
220
0.0
230
1.0
  0
LINE
  5
29F
100
AcDbEntity
  8
0
 62
     7
 48
0.025893
100
AcDbLine
 10
218.99968
 20
131.073669
 30
0.0
 11
218.99968
 21
132.109406
 31
0.0
210
0.0
220
0.0
230
1.0
  0
LINE
  5
2A0
100
AcDbEntity
  8
0
 62
     7
 48
0.053215
100
AcDbLine
 10
221.120926
 20
130.896896
 30
0.0
 11
218.99968
 21
131.073669
 31
0.0
210
0.0
220
0.0
230
1.0
  0
LINE
  5
2A1
100
AcDbEntity
  8
0
 62
     7
 48
0.0075
100
AcDbLine
 10
221.120941
 20
131.609406
 30
0.0
 11
220.970947
 21
131.349609
 31
0.0
210
0.0
220
0.0
230
1.0
  0
LINE
  5
2A2
100
AcDbEntity
  8
0
 62
     7
 48
0.0075
100
AcDbLine
 10
220.970947
 20
131.349609
 30
0.0
 11
220.820938
 21
131.609406
 31
0.0
210
0.0
220
0.0
230
1.0
  0
LINE
  5
2A3
100
AcDbEntity
  8
0
 62
     7
 48
0.0075
100
AcDbLine
 10
220.820938
 20
131.609406
 30
0.0
 11
220.670944
 21
131.349609
 31
0.0
210
0.0
220
0.0
230
1.0
  0
LINE
  5
2A4
100
AcDbEntity
  8
0
 62
     7
 48
0.0075
100
AcDbLine
 10
220.670944
 20
131.349609
 30
0.0
 11
220.520935
 21
131.609406
 31
0.0
210
0.0
220
0.0
230
1.0
  0
LINE
  5
2A5
100
AcDbEntity
  8
0
 62
     7
 48
0.0075
100
AcDbLine
 10
220.520935
 20
131.609406
 30
0.0
 11
220.370941
 21
131.349609
 31
0.0
210
0.0
220
0.0
230
1.0
  0
LINE
  5
2A6
100
AcDbEntity
  8
0
 62
     7
 48
0.0075
100
AcDbLine
 10
220.370941
 20
131.349609
 30
0.0
 11
220.220947
 21
131.609406
 31
0.0
210
0.0
220
0.0
230
1.0
  0
LINE
  5
2A7
100
AcDbEntity
  8
0
 62
     7
 48
0.009468
100
AcDbLine
 10
218.99968
 20
132.109406
 30
0.0
 11
218.620941
 21
132.109406
 31
0.0
210
0.0
220
0.0
230
1.0
  0
LINE
  5
2A8
100
AcDbEntity
  8
0
 62
     7
 48
0.025499
100
AcDbLine
 10
218.620941
 20
131.089447
 30
0.0
 11
218.620941
 21
132.109406
 31
0.0
210
0.0
220
0.0
230
1.0
  0
LINE
  5
2A9
100
AcDbEntity
  8
0
 62
     7
 48
0.009477
100
AcDbLine
 10
218.620941
 20
131.089447
 30
0.0
 11
218.99968
 21
131.073669
 31
0.0
210
0.0
220
0.0
230
1.0
  0
ARC
  5
2AA
100
AcDbEntity
  8
0
 62
     7
100
AcDbCircle
 10
218.870941
 20
131.089447
 30
0.0
 40
0.25
210
0.0
220
0.0
230
1.0
100
AcDbArc
 50
180.000005
 51
265.236353
  0
ELLIPSE
  5
2AB
100
AcDbEntity
  8
0
 62
     7
100
AcDbEllipse
 10
219.060303
 20
131.073669
 30
0.0
 11
-0.0207672119140625
 21
-0.2491302490234375
 31
0.0
210
0.0
220
0.0
230
1.0
 40
0.241747
 41
4.7325320243835449
 42
6.2831854820251465
  0
LINE
  5
2AC
100
AcDbEntity
  8
0
 62
     7
 48
0.004751
100
AcDbLine
 10
218.850174
 20
130.840302
 30
0.0
 11
219.039551
 21
130.824524
 31
0.0
210
0.0
220
0.0
230
1.0
  0
LINE
  5
2AD
100
AcDbEntity
  8
0
 62
     7
 48
0.052215
100
AcDbLine
 10
221.120926
 20
130.651077
 30
0.0
 11
219.039551
 21
130.824524
 31
0.0
210
0.0
220
0.0
230
1.0
  0
LINE
  5
2AE
100
AcDbEntity
  8
0
 62
     7
 48
0.0525
100
AcDbLine
 10
235.220932
 20
181.159409
 30
0.0
 11
233.120941
 21
181.159409
 31
0.0
210
0.0
220
0.0
230
1.0
  0
LINE
  5
2AF
100
AcDbEntity
  8
0
 62
     7
 48
0.0525
100
AcDbLine
 10
235.220932
 20
178.159409
 30
0.0
 11
233.120941
 21
178.159409
 31
0.0
210
0.0
220
0.0
230
1.0
  0
LINE
  5
2B0
100
AcDbEntity
  8
0
 62
     7
 48
0.23375
100
AcDbLine
 10
301.370941
 20
163.959412
 30
0.0
 11
310.720947
 21
163.959412
 31
0.0
210
0.0
220
0.0
230
1.0
  0
LINE
  5
2B1
100
AcDbEntity
  8
0
 62
     7
 48
0.0125
100
AcDbLine
 10
310.720947
 20
163.459412
 30
0.0
 11
310.720947
 21
163.959412
 31
0.0
210
0.0
220
0.0
230
1.0
  0
LINE
  5
2B2
100
AcDbEntity
  8
0
 62
     7
 48
0.0125
100
AcDbLine
 10
301.370941
 20
163.459412
 30
0.0
 11
301.370941
 21
163.959412
 31
0.0
210
0.0
220
0.0
230
1.0
  0
LINE
  5
2B3
100
AcDbEntity
  8
0
 62
     7
 48
0.23375
100
AcDbLine
 10
301.370941
 20
163.459412
 30
0.0
 11
310.720947
 21
163.459412
 31
0.0
210
0.0
220
0.0
230
1.0
  0
LINE
  5
2B4
100
AcDbEntity
  8
0
 62
     7
 48
0.23375
100
AcDbLine
 10
301.370941
 20
129.709412
 30
0.0
 11
310.720947
 21
129.709412
 31
0.0
210
0.0
220
0.0
230
1.0
  0
LINE
  5
2B5
100
AcDbEntity
  8
0
 62
     7
100
AcDbLine
 10
310.720947
 20
129.709412
 30
0.0
 11
310.720947
 21
163.459412
 31
0.0
210
0.0
220
0.0
230
1.0
  0
LINE
  5
2B6
100
AcDbEntity
  8
0
 62
     7
100
AcDbLine
 10
301.370941
 20
129.709412
 30
0.0
 11
301.370941
 21
163.459412
 31
0.0
210
0.0
220
0.0
230
1.0
  0
LINE
  5
2B7
100
AcDbEntity
  8
0
 62
     7
 48
0.23375
100
AcDbLine
 10
301.370941
 20
129.209412
 30
0.0
 11
310.720947
 21
129.209412
 31
0.0
210
0.0
220
0.0
230
1.0
  0
LINE
  5
2B8
100
AcDbEntity
  8
0
 62
     7
 48
0.0125
100
AcDbLine
 10
310.720947
 20
129.209412
 30
0.0
 11
310.720947
 21
129.709412
 31
0.0
210
0.0
220
0.0
230
1.0
  0
LINE
  5
2B9
100
AcDbEntity
  8
0
 62
     7
 48
0.0125
100
AcDbLine
 10
301.370941
 20
129.709412
 30
0.0
 11
301.370941
 21
129.209412
 31
0.0
210
0.0
220
0.0
230
1.0
  0
LINE
  5
2BA
100
AcDbEntity
  8
0
 62
     7
 48
0.00625
100
AcDbLine
 10
310.970947
 20
163.459412
 30
0.0
 11
310.970947
 21
163.709412
 31
0.0
210
0.0
220
0.0
230
1.0
  0
LINE
  5
2BB
100
AcDbEntity
  8
0
 62
     7
100
AcDbLine
 10
310.970947
 20
129.709412
 30
0.0
 11
310.970947
 21
163.459412
 31
0.0
210
0.0
220
0.0
230
1.0
  0
LINE
  5
2BC
100
AcDbEntity
  8
0
 62
     7
 48
0.00625
100
AcDbLine
 10
310.970947
 20
129.459412
 30
0.0
 11
310.970947
 21
129.709412
 31
0.0
210
0.0
220
0.0
230
1.0
  0
LINE
  5
2BD
100
AcDbEntity
  8
0
 62
     7
 48
0.1225
100
AcDbLine
 10
315.870941
 20
161.209412
 30
0.0
 11
310.970947
 21
161.209412
 31
0.0
210
0.0
220
0.0
230
1.0
  0
ARC
  5
2BE
100
AcDbEntity
  8
0
 62
     7
100
AcDbCircle
 10
316.020935
 20
159.209412
 30
0.0
 40
0.75
210
0.0
220
0.0
230
1.0
100
AcDbArc
 50
35.407878
 51
0.00001
  0
CIRCLE
  5
2BF
100
AcDbEntity
  8
0
 62
     7
100
AcDbCircle
 10
316.020935
 20
159.209412
 30
0.0
 40
0.6
210
0.0
220
0.0
230
1.0
  0
LINE
  5
2C0
100
AcDbEntity
  8
0
 62
     7
 48
0.00625
100
AcDbLine
 10
311.520935
 20
159.209412
 30
0.0
 11
311.520935
 21
159.459412
 31
0.0
210
0.0
220
0.0
230
1.0
  0
ARC
  5
2C1
100
AcDbEntity
  8
0
 62
     7
100
AcDbCircle
 10
315.870941
 20
160.209412
 30
0.0
 40
1.0
210
0.0
220
0.0
230
1.0
100
AcDbArc
 50
0.0
 51
90.000003
  0
LINE
  5
2C2
100
AcDbEntity
  8
0
 62
     7
 48
0.00375
100
AcDbLine
 10
316.870941
 20
160.059418
 30
0.0
 11
316.870941
 21
160.209412
 31
0.0
210
0.0
220
0.0
230
1.0
  0
LINE
  5
2C3
100
AcDbEntity
  8
0
 62
     7
 48
0.037395
100
AcDbLine
 10
311.875153
 20
157.459412
 30
0.0
 11
313.370941
 21
157.459412
 31
0.0
210
0.0
220
0.0
230
1.0
  0
LINE
  5
2C4
100
AcDbEntity
  8
0
 62
     7
 48
0.0375
100
AcDbLine
 10
315.270935
 20
157.459412
 30
0.0
 11
316.770935
 21
157.459412
 31
0.0
210
0.0
220
0.0
230
1.0
  0
LINE
  5
2C5
100
AcDbEntity
  8
0
 62
     7
 48
0.01375
100
AcDbLine
 10
310.970947
 20
159.459412
 30
0.0
 11
311.520935
 21
159.459412
 31
0.0
210
0.0
220
0.0
230
1.0
  0
LINE
  5
2C6
100
AcDbEntity
  8
0
 62
     7
 48
0.06
100
AcDbLine
 10
310.970947
 20
133.709412
 30
0.0
 11
313.370941
 21
133.709412
 31
0.0
210
0.0
220
0.0
230
1.0
  0
ARC
  5
2C7
100
AcDbEntity
  8
0
 62
     7
100
AcDbCircle
 10
316.020935
 20
159.209412
 30
0.0
 40
4.5
210
0.0
220
0.0
230
1.0
100
AcDbArc
 50
180.000005
 51
233.921793
  0
LINE
  5
2C8
100
AcDbEntity
  8
0
 62
     7
 48
0.016029
100
AcDbLine
 10
313.370941
 20
130.809418
 30
0.0
 11
313.370941
 21
131.450562
 31
0.0
210
0.0
220
0.0
230
1.0
  0
ARC
  5
2C9
100
AcDbEntity
  8
0
 62
     7
100
AcDbCircle
 10
310.720947
 20
129.459412
 30
0.0
 40
0.25
210
0.0
220
0.0
230
1.0
100
AcDbArc
 50
270.000001
 51
0.00001
  0
LINE
  5
2CA
100
AcDbEntity
  8
0
 62
     7
 48
0.00625
100
AcDbLine
 10
310.970947
 20
129.709412
 30
0.0
 11
310.720947
 21
129.709412
 31
0.0
210
0.0
220
0.0
230
1.0
  0
LINE
  5
2CB
100
AcDbEntity
  8
0
 62
     7
 48
0.00625
100
AcDbLine
 10
310.970947
 20
163.459412
 30
0.0
 11
310.720947
 21
163.459412
 31
0.0
210
0.0
220
0.0
230
1.0
  0
ARC
  5
2CC
100
AcDbEntity
  8
0
 62
     7
100
AcDbCircle
 10
310.720947
 20
163.709412
 30
0.0
 40
0.25
210
0.0
220
0.0
230
1.0
100
AcDbArc
 50
0.0
 51
90.000003
  0
LINE
  5
2CD
100
AcDbEntity
  8
0
 62
     7
 48
0.007372
100
AcDbLine
 10
313.665771
 20
131.003464
 30
0.0
 11
313.370941
 21
130.998322
 31
0.0
210
0.0
220
0.0
230
1.0
  0
LINE
  5
2CE
100
AcDbEntity
  8
0
 62
     7
 48
0.06
100
AcDbLine
 10
310.970947
 20
130.809418
 30
0.0
 11
313.370941
 21
130.809418
 31
0.0
210
0.0
220
0.0
230
1.0
  0
LINE
  5
2CF
100
AcDbEntity
  8
0
 62
     7
 48
0.00625
100
AcDbLine
 10
300.370941
 20
129.709412
 30
0.0
 11
300.370941
 21
129.459412
 31
0.0
210
0.0
220
0.0
230
1.0
  0
LINE
  5
2D0
100
AcDbEntity
  8
0
 62
     7
100
AcDbLine
 10
300.370941
 20
163.459412
 30
0.0
 11
300.370941
 21
129.709412
 31
0.0
210
0.0
220
0.0
230
1.0
  0
LINE
  5
2D1
100
AcDbEntity
  8
0
 62
     7
 48
0.00625
100
AcDbLine
 10
300.370941
 20
163.709412
 30
0.0
 11
300.370941
 21
163.459412
 31
0.0
210
0.0
220
0.0
230
1.0
  0
LINE
  5
2D2
100
AcDbEntity
  8
0
 62
     7
 48
0.0125
100
AcDbLine
 10
301.370941
 20
129.709412
 30
0.0
 11
301.370941
 21
129.209412
 31
0.0
210
0.0
220
0.0
230
1.0
  0
LINE
  5
2D3
100
AcDbEntity
  8
0
 62
     7
100
AcDbLine
 10
301.370941
 20
129.709412
 30
0.0
 11
301.370941
 21
163.459412
 31
0.0
210
0.0
220
0.0
230
1.0
  0
LINE
  5
2D4
100
AcDbEntity
  8
0
 62
     7
 48
0.0125
100
AcDbLine
 10
301.370941
 20
163.959412
 30
0.0
 11
301.370941
 21
163.459412
 31
0.0
210
0.0
220
0.0
230
1.0
  0
ARC
  5
2D5
100
AcDbEntity
  8
0
 62
     7
100
AcDbCircle
 10
300.620941
 20
129.459412
 30
0.0
 40
0.25
210
0.0
220
0.0
230
1.0
100
AcDbArc
 50
180.000005
 51
270.000001
  0
LINE
  5
2D6
100
AcDbEntity
  8
0
 62
     7
 48
0.0125
100
AcDbLine
 10
300.620941
 20
129.709412
 30
0.0
 11
300.620941
 21
129.209412
 31
0.0
210
0.0
220
0.0
230
1.0
  0
LINE
  5
2D7
100
AcDbEntity
  8
0
 62
     7
 48
0.00625
100
AcDbLine
 10
300.370941
 20
129.709412
 30
0.0
 11
300.620941
 21
129.709412
 31
0.0
210
0.0
220
0.0
230
1.0
  0
LINE
  5
2D8
100
AcDbEntity
  8
0
 62
     7
100
AcDbLine
 10
300.620941
 20
163.459412
 30
0.0
 11
300.620941
 21
129.709412
 31
0.0
210
0.0
220
0.0
230
1.0
  0
LINE
  5
2D9
100
AcDbEntity
  8
0
 62
     7
 48
0.00625
100
AcDbLine
 10
300.370941
 20
163.459412
 30
0.0
 11
300.620941
 21
163.459412
 31
0.0
210
0.0
220
0.0
230
1.0
  0
LINE
  5
2DA
100
AcDbEntity
  8
0
 62
     7
 48
0.0125
100
AcDbLine
 10
300.620941
 20
163.959412
 30
0.0
 11
300.620941
 21
163.459412
 31
0.0
210
0.0
220
0.0
230
1.0
  0
ARC
  5
2DB
100
AcDbEntity
  8
0
 62
     7
100
AcDbCircle
 10
300.620941
 20
163.709412
 30
0.0
 40
0.25
210
0.0
220
0.0
230
1.0
100
AcDbArc
 50
90.000003
 51
180.000005
  0
LINE
  5
2DC
100
AcDbEntity
  8
0
 62
     7
 48
0.0375
100
AcDbLine
 10
300.120941
 20
132.709412
 30
0.0
 11
300.120941
 21
131.209412
 31
0.0
210
0.0
220
0.0
230
1.0
  0
LINE
  5
2DD
100
AcDbEntity
  8
0
 62
     7
 48
0.0375
100
AcDbLine
 10
300.120941
 20
131.209412
 30
0.0
 11
300.120941
 21
129.709412
 31
0.0
210
0.0
220
0.0
230
1.0
  0
LINE
  5
2DE
100
AcDbEntity
  8
0
 62
     7
 48
0.0375
100
AcDbLine
 10
300.120941
 20
163.459412
 30
0.0
 11
300.120941
 21
161.959412
 31
0.0
210
0.0
220
0.0
230
1.0
  0
LINE
  5
2DF
100
AcDbEntity
  8
0
 62
     7
 48
0.0375
100
AcDbLine
 10
300.120941
 20
161.959412
 30
0.0
 11
300.120941
 21
160.459412
 31
0.0
210
0.0
220
0.0
230
1.0
  0
LINE
  5
2E0
100
AcDbEntity
  8
0
 62
     7
 48
0.01875
100
AcDbLine
 10
301.370941
 20
163.959412
 30
0.0
 11
300.620941
 21
163.959412
 31
0.0
210
0.0
220
0.0
230
1.0
  0
LINE
  5
2E1
100
AcDbEntity
  8
0
 62
     7
 48
0.01875
100
AcDbLine
 10
301.370941
 20
163.459412
 30
0.0
 11
300.620941
 21
163.459412
 31
0.0
210
0.0
220
0.0
230
1.0
  0
LINE
  5
2E2
100
AcDbEntity
  8
0
 62
     7
 48
0.01875
100
AcDbLine
 10
301.370941
 20
129.709412
 30
0.0
 11
300.620941
 21
129.709412
 31
0.0
210
0.0
220
0.0
230
1.0
  0
LINE
  5
2E3
100
AcDbEntity
  8
0
 62
     7
 48
0.01875
100
AcDbLine
 10
301.370941
 20
129.209412
 30
0.0
 11
300.620941
 21
129.209412
 31
0.0
210
0.0
220
0.0
230
1.0
  0
LINE
  5
2E4
100
AcDbEntity
  8
0
 62
     7
 48
0.00625
100
AcDbLine
 10
300.370941
 20
129.709412
 30
0.0
 11
300.120941
 21
129.709412
 31
0.0
210
0.0
220
0.0
230
1.0
  0
LINE
  5
2E5
100
AcDbEntity
  8
0
 62
     7
 48
0.00625
100
AcDbLine
 10
300.370941
 20
129.709412
 30
0.0
 11
300.120941
 21
129.709412
 31
0.0
210
0.0
220
0.0
230
1.0
  0
LINE
  5
2E6
100
AcDbEntity
  8
0
 62
     7
 48
0.00625
100
AcDbLine
 10
300.370941
 20
132.709412
 30
0.0
 11
300.120941
 21
132.709412
 31
0.0
210
0.0
220
0.0
230
1.0
  0
LINE
  5
2E7
100
AcDbEntity
  8
0
 62
     7
 48
0.00625
100
AcDbLine
 10
300.370941
 20
160.459412
 30
0.0
 11
300.120941
 21
160.459412
 31
0.0
210
0.0
220
0.0
230
1.0
  0
LINE
  5
2E8
100
AcDbEntity
  8
0
 62
     7
 48
0.00625
100
AcDbLine
 10
300.370941
 20
163.459412
 30
0.0
 11
300.120941
 21
163.459412
 31
0.0
210
0.0
220
0.0
230
1.0
  0
LINE
  5
2E9
100
AcDbEntity
  8
0
 62
     7
 48
0.00625
100
AcDbLine
 10
300.370911
 20
160.209412
 30
0.0
 11
300.120911
 21
160.209412
 31
0.0
210
0.0
220
0.0
230
1.0
  0
LINE
  5
2EA
100
AcDbEntity
  8
0
 62
     7
 48
0.00625
100
AcDbLine
 10
300.370941
 20
132.959412
 30
0.0
 11
300.120941
 21
132.959412
 31
0.0
210
0.0
220
0.0
230
1.0
  0
LINE
  5
2EB
100
AcDbEntity
  8
0
 62
     7
 48
0.035355
100
AcDbLine
 10
315.313843
 20
157.209412
 30
0.0
 11
316.728058
 21
157.209412
 31
0.0
210
0.0
220
0.0
230
1.0
  0
LINE
  5
2EC
100
AcDbEntity
  8
0
 62
     7
 48
0.034528
100
AcDbLine
 10
311.989807
 20
157.209412
 30
0.0
 11
313.370941
 21
157.209412
 31
0.0
210
0.0
220
0.0
230
1.0
  0
ARC
  5
2ED
100
AcDbEntity
  8
0
 62
     7
100
AcDbCircle
 10
316.020935
 20
159.209412
 30
0.0
 40
0.75
210
0.0
220
0.0
230
1.0
100
AcDbArc
 50
144.594066
 51
180.000005
  0
LINE
  5
2EE
100
AcDbEntity
  8
0
 62
     7
 48
0.04375
100
AcDbLine
 10
315.270935
 20
159.209412
 30
0.0
 11
315.270935
 21
157.459412
 31
0.0
210
0.0
220
0.0
230
1.0
  0
ARC
  5
2EF
100
AcDbEntity
  8
0
 62
     7
100
AcDbCircle
 10
316.020935
 20
157.459412
 30
0.0
 40
0.75
210
0.0
220
0.0
230
1.0
100
AcDbArc
 50
180.000005
 51
0.00001
  0
LINE
  5
2F0
100
AcDbEntity
  8
0
 62
     7
 48
0.04375
100
AcDbLine
 10
316.770935
 20
157.459412
 30
0.0
 11
316.770935
 21
159.209412
 31
0.0
210
0.0
220
0.0
230
1.0
  0
ARC
  5
2F1
100
AcDbEntity
  8
0
 62
     7
100
AcDbCircle
 10
316.020935
 20
159.209412
 30
0.0
 40
0.75
210
0.0
220
0.0
230
1.0
100
AcDbArc
 50
0.0
 51
35.405931
  0
ARC
  5
2F2
100
AcDbEntity
  8
0
 62
     7
100
AcDbCircle
 10
316.754517
 20
159.730835
 30
0.0
 40
0.15
210
0.0
220
0.0
230
1.0
100
AcDbArc
 50
135.0
 51
215.405931
  0
ARC
  5
2F3
100
AcDbEntity
  8
0
 62
     7
100
AcDbCircle
 10
315.287384
 20
159.730835
 30
0.0
 40
0.15
210
0.0
220
0.0
230
1.0
100
AcDbArc
 50
324.594057
 51
45.0
  0
LINE
  5
2F4
100
AcDbEntity
  8
0
 62
     7
 48
0.039686
100
AcDbLine
 10
315.393433
 20
159.836914
 30
0.0
 11
314.270935
 21
160.959412
 31
0.0
210
0.0
220
0.0
230
1.0
  0
LINE
  5
2F5
100
AcDbEntity
  8
0
 62
     7
 48
0.00375
100
AcDbLine
 10
314.270935
 20
160.959412
 30
0.0
 11
314.120941
 21
160.959412
 31
0.0
210
0.0
220
0.0
230
1.0
  0
ARC
  5
2F6
100
AcDbEntity
  8
0
 62
     7
100
AcDbCircle
 10
314.120941
 20
160.209412
 30
0.0
 40
0.75
210
0.0
220
0.0
230
1.0
100
AcDbArc
 50
90.000003
 51
180.000005
  0
LINE
  5
2F7
100
AcDbEntity
  8
0
 62
     7
100
AcDbLine
 10
313.370941
 20
131.459412
 30
0.0
 11
313.370941
 21
160.209412
 31
0.0
210
0.0
220
0.0
230
1.0
  0
ARC
  5
2F8
100
AcDbEntity
  8
0
 62
     7
100
AcDbCircle
 10
313.870941
 20
131.459412
 30
0.0
 40
0.5
210
0.0
220
0.0
230
1.0
100
AcDbArc
 50
180.000005
 51
270.000001
  0
LINE
  5
2F9
100
AcDbEntity
  8
0
 62
     7
 48
0.17125
100
AcDbLine
 10
313.870941
 20
130.959412
 30
0.0
 11
320.720947
 21
130.959412
 31
0.0
210
0.0
220
0.0
230
1.0
  0
LINE
  5
2FA
100
AcDbEntity
  8
0
 62
     7
 48
0.030847
100
AcDbLine
 10
317.520935
 20
160.709412
 30
0.0
 11
316.648438
 21
159.836914
 31
0.0
210
0.0
220
0.0
230
1.0
  0
LINE
  5
2FB
100
AcDbEntity
  8
0
 62
     7
 48
0.01852
100
AcDbLine
 10
317.520935
 20
160.709412
 30
0.0
 11
318.261719
 21
160.709412
 31
0.0
210
0.0
220
0.0
230
1.0
  0
ARC
  5
2FC
100
AcDbEntity
  8
0
 62
     7
100
AcDbCircle
 10
318.261719
 20
159.459412
 30
0.0
 40
1.25
210
0.0
220
0.0
230
1.0
100
AcDbArc
 50
11.578421
 51
90.000003
  0
LINE
  5
2FD
100
AcDbEntity
  8
0
 62
     7
 48
0.153785
100
AcDbLine
 10
319.486298
 20
159.710297
 30
0.0
 11
320.720947
 21
153.684067
 31
0.0
210
0.0
220
0.0
230
1.0
  0
LINE
  5
2FE
100
AcDbEntity
  8
0
 62
     7
100
AcDbLine
 10
320.720947
 20
130.959412
 30
0.0
 11
320.720947
 21
153.684067
 31
0.0
210
0.0
220
0.0
230
1.0
  0
LINE
  5
2FF
100
AcDbEntity
  8
0
 62
     7
 48
0.01227
100
AcDbLine
 10
317.770935
 20
160.959412
 30
0.0
 11
318.261719
 21
160.959412
 31
0.0
210
0.0
220
0.0
230
1.0
  0
LINE
  5
300
100
AcDbEntity
  8
0
 62
     7
 48
0.008839
100
AcDbLine
 10
317.520935
 20
160.709412
 30
0.0
 11
317.770935
 21
160.959412
 31
0.0
210
0.0
220
0.0
230
1.0
  0
LINE
  5
301
100
AcDbEntity
  8
0
 62
     7
 48
0.00625
100
AcDbLine
 10
320.720947
 20
130.959412
 30
0.0
 11
320.970947
 21
130.959412
 31
0.0
210
0.0
220
0.0
230
1.0
  0
ARC
  5
302
100
AcDbEntity
  8
0
 62
     7
100
AcDbCircle
 10
318.261719
 20
159.459412
 30
0.0
 40
1.5
210
0.0
220
0.0
230
1.0
100
AcDbArc
 50
11.578421
 51
90.000003
  0
LINE
  5
303
100
AcDbEntity
  8
0
 62
     7
 48
0.00625
100
AcDbLine
 10
318.261719
 20
160.959412
 30
0.0
 11
318.261719
 21
160.709412
 31
0.0
210
0.0
220
0.0
230
1.0
  0
LINE
  5
304
100
AcDbEntity
  8
0
 62
     7
 48
0.00625
100
AcDbLine
 10
319.731201
 20
159.760468
 30
0.0
 11
319.486298
 21
159.710297
 31
0.0
210
0.0
220
0.0
230
1.0
  0
LINE
  5
305
100
AcDbEntity
  8
0
 62
     7
 48
0.154419
100
AcDbLine
 10
319.731201
 20
159.760468
 30
0.0
 11
320.970947
 21
153.709412
 31
0.0
210
0.0
220
0.0
230
1.0
  0
LINE
  5
306
100
AcDbEntity
  8
0
 62
     7
 48
0.006282
100
AcDbLine
 10
320.720947
 20
153.684067
 30
0.0
 11
320.970947
 21
153.709412
 31
0.0
210
0.0
220
0.0
230
1.0
  0
LINE
  5
307
100
AcDbEntity
  8
0
 62
     7
100
AcDbLine
 10
320.970947
 20
130.959412
 30
0.0
 11
320.970947
 21
153.709412
 31
0.0
210
0.0
220
0.0
230
1.0
  0
LINE
  5
308
100
AcDbEntity
  8
0
 62
     7
 48
0.025
100
AcDbLine
 10
311.370941
 20
173.209412
 30
0.0
 11
310.370941
 21
173.209412
 31
0.0
210
0.0
220
0.0
230
1.0
  0
LINE
  5
309
100
AcDbEntity
  8
0
 62
     7
 48
0.105
100
AcDbLine
 10
311.370941
 20
173.209412
 30
0.0
 11
311.370941
 21
177.409409
 31
0.0
210
0.0
220
0.0
230
1.0
  0
LINE
  5
30A
100
AcDbEntity
  8
0
 62
     7
 48
0.11625
100
AcDbLine
 10
316.020935
 20
177.409409
 30
0.0
 11
311.370941
 21
177.409409
 31
0.0
210
0.0
220
0.0
230
1.0
  0
LINE
  5
30B
100
AcDbEntity
  8
0
 62
     7
 48
0.10125
100
AcDbLine
 10
316.020935
 20
177.409409
 30
0.0
 11
316.020935
 21
181.459412
 31
0.0
210
0.0
220
0.0
230
1.0
  0
LINE
  5
30C
100
AcDbEntity
  8
0
 62
     7
 48
0.09
100
AcDbLine
 10
319.620941
 20
181.459412
 30
0.0
 11
316.020935
 21
181.459412
 31
0.0
210
0.0
220
0.0
230
1.0
  0
LINE
  5
30D
100
AcDbEntity
  8
0
 62
     7
 48
0.23125
100
AcDbLine
 10
310.370941
 20
182.059418
 30
0.0
 11
319.620941
 21
182.059418
 31
0.0
210
0.0
220
0.0
230
1.0
  0
ARC
  5
30E
100
AcDbEntity
  8
0
 62
     7
100
AcDbCircle
 10
314.270935
 20
173.709412
 30
0.0
 40
0.5
210
0.0
220
0.0
230
1.0
100
AcDbArc
 50
270.000001
 51
0.00001
  0
LINE
  5
30F
100
AcDbEntity
  8
0
 62
     7
 48
0.0925
100
AcDbLine
 10
314.770935
 20
177.409409
 30
0.0
 11
314.770935
 21
173.709412
 31
0.0
210
0.0
220
0.0
230
1.0
  0
LINE
  5
310
100
AcDbEntity
  8
0
 62
     7
 48
0.0725
100
AcDbLine
 10
314.270935
 20
173.209412
 30
0.0
 11
311.370941
 21
173.209412
 31
0.0
210
0.0
220
0.0
230
1.0
  0
ARC
  5
311
100
AcDbEntity
  8
0
 62
     7
100
AcDbCircle
 10
319.120941
 20
177.909409
 30
0.0
 40
0.5
210
0.0
220
0.0
230
1.0
100
AcDbArc
 50
270.000001
 51
0.00001
  0
LINE
  5
312
100
AcDbEntity
  8
0
 62
     7
 48
0.0775
100
AcDbLine
 10
319.120941
 20
177.409409
 30
0.0
 11
316.020935
 21
177.409409
 31
0.0
210
0.0
220
0.0
230
1.0
  0
LINE
  5
313
100
AcDbEntity
  8
0
 62
     7
 48
0.0125
100
AcDbLine
 10
310.370941
 20
184.909409
 30
0.0
 11
310.370941
 21
185.409409
 31
0.0
210
0.0
220
0.0
230
1.0
  0
LINE
  5
314
100
AcDbEntity
  8
0
 62
     7
 48
0.35125
100
AcDbLine
 10
310.370941
 20
184.909409
 30
0.0
 11
310.370941
 21
170.859406
 31
0.0
210
0.0
220
0.0
230
1.0
  0
LINE
  5
315
100
AcDbEntity
  8
0
 62
     7
 48
0.00625
100
AcDbLine
 10
310.370941
 20
170.609406
 30
0.0
 11
310.370941
 21
170.859406
 31
0.0
210
0.0
220
0.0
230
1.0
  0
LINE
  5
316
100
AcDbEntity
  8
0
 62
     7
 48
0.01875
100
AcDbLine
 10
300.120941
 20
184.909409
 30
0.0
 11
300.120941
 21
185.659409
 31
0.0
210
0.0
220
0.0
230
1.0
  0
LINE
  5
317
100
AcDbEntity
  8
0
 62
     7
 48
0.47625
100
AcDbLine
 10
300.120941
 20
184.909409
 30
0.0
 11
300.120941
 21
165.859406
 31
0.0
210
0.0
220
0.0
230
1.0
  0
LINE
  5
318
100
AcDbEntity
  8
0
 62
     7
 48
0.01875
100
AcDbLine
 10
300.120941
 20
165.109406
 30
0.0
 11
300.120941
 21
165.859406
 31
0.0
210
0.0
220
0.0
230
1.0
  0
LINE
  5
319
100
AcDbEntity
  8
0
 62
     7
 48
0.125
100
AcDbLine
 10
301.370941
 20
170.859406
 30
0.0
 11
301.370941
 21
165.859406
 31
0.0
210
0.0
220
0.0
230
1.0
  0
LINE
  5
31A
100
AcDbEntity
  8
0
 62
     7
 48
0.01875
100
AcDbLine
 10
301.370941
 20
165.109406
 30
0.0
 11
301.370941
 21
165.859406
 31
0.0
210
0.0
220
0.0
230
1.0
  0
LINE
  5
31B
100
AcDbEntity
  8
0
 62
     7
 48
0.075
100
AcDbLine
 10
310.120941
 20
165.609406
 30
0.0
 11
310.120941
 21
168.609406
 31
0.0
210
0.0
220
0.0
230
1.0
  0
LINE
  5
31C
100
AcDbEntity
  8
0
 62
     7
 48
0.21875
100
AcDbLine
 10
310.120941
 20
168.609406
 30
0.0
 11
301.370941
 21
168.609406
 31
0.0
210
0.0
220
0.0
230
1.0
  0
LINE
  5
31D
100
AcDbEntity
  8
0
 62
     7
 48
0.21875
100
AcDbLine
 10
310.120941
 20
165.609406
 30
0.0
 11
301.370941
 21
165.609406
 31
0.0
210
0.0
220
0.0
230
1.0
  0
LINE
  5
31E
100
AcDbEntity
  8
0
 62
     7
 48
0.04375
100
AcDbLine
 10
310.120941
 20
168.609406
 30
0.0
 11
310.120941
 21
170.359406
 31
0.0
210
0.0
220
0.0
230
1.0
  0
LINE
  5
31F
100
AcDbEntity
  8
0
 62
     7
 48
0.21875
100
AcDbLine
 10
310.120941
 20
170.359406
 30
0.0
 11
301.370941
 21
170.359406
 31
0.0
210
0.0
220
0.0
230
1.0
  0
LINE
  5
320
100
AcDbEntity
  8
0
 62
     7
 48
0.00625
100
AcDbLine
 10
310.120941
 20
165.609406
 30
0.0
 11
310.370941
 21
165.609406
 31
0.0
210
0.0
220
0.0
230
1.0
  0
LINE
  5
321
100
AcDbEntity
  8
0
 62
     7
 48
0.075
100
AcDbLine
 10
310.370941
 20
165.609406
 30
0.0
 11
310.370941
 21
168.609406
 31
0.0
210
0.0
220
0.0
230
1.0
  0
LINE
  5
322
100
AcDbEntity
  8
0
 62
     7
 48
0.00625
100
AcDbLine
 10
310.120941
 20
168.609406
 30
0.0
 11
310.370941
 21
168.609406
 31
0.0
210
0.0
220
0.0
230
1.0
  0
LINE
  5
323
100
AcDbEntity
  8
0
 62
     7
 48
0.05
100
AcDbLine
 10
310.370941
 20
168.609406
 30
0.0
 11
310.370941
 21
170.609406
 31
0.0
210
0.0
220
0.0
230
1.0
  0
LINE
  5
324
100
AcDbEntity
  8
0
 62
     7
 48
0.00625
100
AcDbLine
 10
310.370941
 20
165.359406
 30
0.0
 11
310.370941
 21
165.609406
 31
0.0
210
0.0
220
0.0
230
1.0
  0
ARC
  5
325
100
AcDbEntity
  8
0
 62
     7
100
AcDbCircle
 10
310.120941
 20
165.359406
 30
0.0
 40
0.25
210
0.0
220
0.0
230
1.0
100
AcDbArc
 50
270.000001
 51
0.00001
  0
LINE
  5
326
100
AcDbEntity
  8
0
 62
     7
 48
0.0125
100
AcDbLine
 10
310.120941
 20
165.109406
 30
0.0
 11
310.120941
 21
165.609406
 31
0.0
210
0.0
220
0.0
230
1.0
  0
LINE
  5
327
100
AcDbEntity
  8
0
 62
     7
 48
0.07325
100
AcDbLine
 10
310.370941
 20
170.609406
 30
0.0
 11
313.020935
 21
171.859406
 31
0.0
210
0.0
220
0.0
230
1.0
  0
LINE
  5
328
100
AcDbEntity
  8
0
 62
     7
 48
0.000625
100
AcDbLine
 10
319.620941
 20
185.384399
 30
0.0
 11
319.620941
 21
185.409409
 31
0.0
210
0.0
220
0.0
230
1.0
  0
LINE
  5
329
100
AcDbEntity
  8
0
 62
     7
 48
0.21875
100
AcDbLine
 10
310.120941
 20
170.859406
 30
0.0
 11
301.370941
 21
170.859406
 31
0.0
210
0.0
220
0.0
230
1.0
  0
LINE
  5
32A
100
AcDbEntity
  8
0
 62
     7
 48
0.0125
100
AcDbLine
 10
310.120941
 20
170.359406
 30
0.0
 11
310.120941
 21
170.859406
 31
0.0
210
0.0
220
0.0
230
1.0
  0
LINE
  5
32B
100
AcDbEntity
  8
0
 62
     7
 48
0.21875
100
AcDbLine
 10
310.120941
 20
165.109406
 30
0.0
 11
301.370941
 21
165.109406
 31
0.0
210
0.0
220
0.0
230
1.0
  0
LINE
  5
32C
100
AcDbEntity
  8
0
 62
     7
 48
0.03125
100
AcDbLine
 10
300.120941
 20
165.859406
 30
0.0
 11
301.370941
 21
165.859406
 31
0.0
210
0.0
220
0.0
230
1.0
  0
LINE
  5
32D
100
AcDbEntity
  8
0
 62
     7
 48
0.03125
100
AcDbLine
 10
300.120941
 20
165.109406
 30
0.0
 11
301.370941
 21
165.109406
 31
0.0
210
0.0
220
0.0
230
1.0
  0
LINE
  5
32E
100
AcDbEntity
  8
0
 62
     7
 48
0.25
100
AcDbLine
 10
300.120941
 20
184.909409
 30
0.0
 11
310.120941
 21
184.909409
 31
0.0
210
0.0
220
0.0
230
1.0
  0
LINE
  5
32F
100
AcDbEntity
  8
0
 62
     7
 48
0.35125
100
AcDbLine
 10
310.120941
 20
184.909409
 30
0.0
 11
310.120941
 21
170.859406
 31
0.0
210
0.0
220
0.0
230
1.0
  0
LINE
  5
330
100
AcDbEntity
  8
0
 62
     7
 48
0.25
100
AcDbLine
 10
300.120941
 20
185.659409
 30
0.0
 11
310.120941
 21
185.659409
 31
0.0
210
0.0
220
0.0
230
1.0
  0
LINE
  5
331
100
AcDbEntity
  8
0
 62
     7
 48
0.01875
100
AcDbLine
 10
310.120941
 20
184.909409
 30
0.0
 11
310.120941
 21
185.659409
 31
0.0
210
0.0
220
0.0
230
1.0
  0
LINE
  5
332
100
AcDbEntity
  8
0
 62
     7
 48
0.23125
100
AcDbLine
 10
319.620941
 20
184.159409
 30
0.0
 11
310.370941
 21
184.159409
 31
0.0
210
0.0
220
0.0
230
1.0
  0
LINE
  5
333
100
AcDbEntity
  8
0
 62
     7
 48
0.23125
100
AcDbLine
 10
319.620941
 20
183.659409
 30
0.0
 11
310.370941
 21
183.659409
 31
0.0
210
0.0
220
0.0
230
1.0
  0
LINE
  5
334
100
AcDbEntity
  8
0
 62
     7
 48
0.035
100
AcDbLine
 10
310.370941
 20
173.109406
 30
0.0
 11
311.770935
 21
173.109406
 31
0.0
210
0.0
220
0.0
230
1.0
  0
ARC
  5
335
100
AcDbEntity
  8
0
 62
     7
100
AcDbCircle
 10
310.120941
 20
170.609406
 30
0.0
 40
0.25
210
0.0
220
0.0
230
1.0
100
AcDbArc
 50
270.000001
 51
0.00001
  0
LINE
  5
336
100
AcDbEntity
  8
0
 62
     7
 48
0.00625
100
AcDbLine
 10
310.120941
 20
170.859406
 30
0.0
 11
310.370941
 21
170.859406
 31
0.0
210
0.0
220
0.0
230
1.0
  0
LINE
  5
337
100
AcDbEntity
  8
0
 62
     7
 48
0.00625
100
AcDbLine
 10
310.120941
 20
184.909409
 30
0.0
 11
310.370941
 21
184.909409
 31
0.0
210
0.0
220
0.0
230
1.0
  0
ARC
  5
338
100
AcDbEntity
  8
0
 62
     7
100
AcDbCircle
 10
310.120941
 20
185.409409
 30
0.0
 40
0.25
210
0.0
220
0.0
230
1.0
100
AcDbArc
 50
0.0
 51
90.000003
  0
LINE
  5
339
100
AcDbEntity
  8
0
 62
     7
 48
0.0025
100
AcDbLine
 10
311.770935
 20
173.209412
 30
0.0
 11
311.770935
 21
173.109406
 31
0.0
210
0.0
220
0.0
230
1.0
  0
LINE
  5
33A
100
AcDbEntity
  8
0
 62
     7
 48
0.03375
100
AcDbLine
 10
313.020935
 20
173.209412
 30
0.0
 11
313.020935
 21
171.859406
 31
0.0
210
0.0
220
0.0
230
1.0
  0
LINE
  5
33B
100
AcDbEntity
  8
0
 62
     7
 48
0.23125
100
AcDbLine
 10
310.370941
 20
182.409409
 30
0.0
 11
319.620941
 21
182.409409
 31
0.0
210
0.0
220
0.0
230
1.0
  0
LINE
  5
33C
100
AcDbEntity
  8
0
 62
     7
 48
0.23125
100
AcDbLine
 10
310.370941
 20
185.409409
 30
0.0
 11
319.620941
 21
185.409409
 31
0.0
210
0.0
220
0.0
230
1.0
  0
LINE
  5
33D
100
AcDbEntity
  8
0
 62
     7
 48
0.23125
100
AcDbLine
 10
310.370941
 20
182.409409
 30
0.0
 11
319.620941
 21
182.409409
 31
0.0
210
0.0
220
0.0
230
1.0
  0
LINE
  5
33E
100
AcDbEntity
  8
0
 62
     7
 48
0.0125
100
AcDbLine
 10
319.620941
 20
185.384415
 30
0.0
 11
320.120941
 21
185.384415
 31
0.0
210
0.0
220
0.0
230
1.0
  0
LINE
  5
33F
100
AcDbEntity
  8
0
 62
     7
 48
0.0125
100
AcDbLine
 10
319.620941
 20
184.884415
 30
0.0
 11
319.620941
 21
185.384415
 31
0.0
210
0.0
220
0.0
230
1.0
  0
LINE
  5
340
100
AcDbEntity
  8
0
 62
     7
 48
0.0125
100
AcDbLine
 10
319.620941
 20
184.884415
 30
0.0
 11
320.120941
 21
184.884415
 31
0.0
210
0.0
220
0.0
230
1.0
  0
LINE
  5
341
100
AcDbEntity
  8
0
 62
     7
 48
0.0125
100
AcDbLine
 10
320.120941
 20
184.884415
 30
0.0
 11
320.120941
 21
185.384415
 31
0.0
210
0.0
220
0.0
230
1.0
  0
LINE
  5
342
100
AcDbEntity
  8
0
 62
     7
 48
0.29375
100
AcDbLine
 10
319.620941
 20
184.884415
 30
0.0
 11
319.620941
 21
173.134415
 31
0.0
210
0.0
220
0.0
230
1.0
  0
LINE
  5
343
100
AcDbEntity
  8
0
 62
     7
 48
0.0125
100
AcDbLine
 10
319.620941
 20
173.134415
 30
0.0
 11
320.120941
 21
173.134415
 31
0.0
210
0.0
220
0.0
230
1.0
  0
LINE
  5
344
100
AcDbEntity
  8
0
 62
     7
 48
0.29375
100
AcDbLine
 10
320.120941
 20
184.884415
 30
0.0
 11
320.120941
 21
173.134415
 31
0.0
210
0.0
220
0.0
230
1.0
  0
LINE
  5
345
100
AcDbEntity
  8
0
 62
     7
 48
0.0125
100
AcDbLine
 10
319.620941
 20
172.634415
 30
0.0
 11
319.620941
 21
173.134415
 31
0.0
210
0.0
220
0.0
230
1.0
  0
LINE
  5
346
100
AcDbEntity
  8
0
 62
     7
 48
0.0125
100
AcDbLine
 10
319.620941
 20
172.634415
 30
0.0
 11
320.120941
 21
172.634415
 31
0.0
210
0.0
220
0.0
230
1.0
  0
LINE
  5
347
100
AcDbEntity
  8
0
 62
     7
 48
0.0125
100
AcDbLine
 10
320.120941
 20
172.634415
 30
0.0
 11
320.120941
 21
173.134415
 31
0.0
210
0.0
220
0.0
230
1.0
  0
LINE
  5
348
100
AcDbEntity
  8
0
 62
     7
 48
0.017244
100
AcDbLine
 10
320.120941
 20
185.234406
 30
0.0
 11
320.120941
 21
184.544647
 31
0.0
210
0.0
220
0.0
230
1.0
  0
LINE
  5
349
100
AcDbEntity
  8
0
 62
     7
 48
0.049006
100
AcDbLine
 10
320.120941
 20
184.544647
 30
0.0
 11
320.120941
 21
182.584412
 31
0.0
210
0.0
220
0.0
230
1.0
  0
LINE
  5
34A
100
AcDbEntity
  8
0
 62
     7
 48
0.017244
100
AcDbLine
 10
320.870941
 20
185.234406
 30
0.0
 11
320.870941
 21
184.544647
 31
0.0
210
0.0
220
0.0
230
1.0
  0
LINE
  5
34B
100
AcDbEntity
  8
0
 62
     7
 48
0.049006
100
AcDbLine
 10
320.870941
 20
184.544647
 30
0.0
 11
320.870941
 21
182.584412
 31
0.0
210
0.0
220
0.0
230
1.0
  0
LINE
  5
34C
100
AcDbEntity
  8
0
 62
     7
 48
0.01399
100
AcDbLine
 10
321.120941
 20
184.984406
 30
0.0
 11
321.120941
 21
184.424789
 31
0.0
210
0.0
220
0.0
230
1.0
  0
LINE
  5
34D
100
AcDbEntity
  8
0
 62
     7
 48
0.039759
100
AcDbLine
 10
321.120941
 20
184.424789
 30
0.0
 11
321.120941
 21
182.834412
 31
0.0
210
0.0
220
0.0
230
1.0
  0
LINE
  5
34E
100
AcDbEntity
  8
0
 62
     7
 48
0.01875
100
AcDbLine
 10
320.870941
 20
185.234406
 30
0.0
 11
320.120941
 21
185.234406
 31
0.0
210
0.0
220
0.0
230
1.0
  0
LINE
  5
34F
100
AcDbEntity
  8
0
 62
     7
 48
0.01875
100
AcDbLine
 10
320.870941
 20
182.584412
 30
0.0
 11
320.120941
 21
182.584412
 31
0.0
210
0.0
220
0.0
230
1.0
  0
ARC
  5
350
100
AcDbEntity
  8
0
 62
     7
100
AcDbCircle
 10
320.870941
 20
184.984406
 30
0.0
 40
0.25
210
0.0
220
0.0
230
1.0
100
AcDbArc
 50
360.0
 51
90.000003
  0
ARC
  5
351
100
AcDbEntity
  8
0
 62
     7
100
AcDbCircle
 10
320.870941
 20
182.834412
 30
0.0
 40
0.25
210
0.0
220
0.0
230
1.0
100
AcDbArc
 50
269.999997
 51
0.0
  0
LINE
  5
352
100
AcDbEntity
  8
0
 62
     7
 48
0.0125
100
AcDbLine
 10
300.520935
 20
128.24173
 30
0.0
 11
300.520935
 21
128.74173
 31
0.0
210
0.0
220
0.0
230
1.0
  0
LINE
  5
353
100
AcDbEntity
  8
0
 62
     7
 48
0.01
100
AcDbLine
 10
300.520935
 20
128.24173
 30
0.0
 11
300.120941
 21
128.24173
 31
0.0
210
0.0
220
0.0
230
1.0
  0
LINE
  5
354
100
AcDbEntity
  8
0
 62
     7
 48
0.011513
100
AcDbLine
 10
300.120941
 20
128.24173
 30
0.0
 11
300.120941
 21
128.702255
 31
0.0
210
0.0
220
0.0
230
1.0
  0
LINE
  5
355
100
AcDbEntity
  8
0
 62
     7
 48
0.2375
100
AcDbLine
 10
300.520935
 20
128.24173
 30
0.0
 11
300.520935
 21
118.741737
 31
0.0
210
0.0
220
0.0
230
1.0
  0
LINE
  5
356
100
AcDbEntity
  8
0
 62
     7
 48
0.01
100
AcDbLine
 10
300.520935
 20
118.741737
 30
0.0
 11
300.120941
 21
118.741737
 31
0.0
210
0.0
220
0.0
230
1.0
  0
LINE
  5
357
100
AcDbEntity
  8
0
 62
     7
 48
0.2375
100
AcDbLine
 10
300.120941
 20
128.24173
 30
0.0
 11
300.120941
 21
118.741737
 31
0.0
210
0.0
220
0.0
230
1.0
  0
LINE
  5
358
100
AcDbEntity
  8
0
 62
     7
 48
0.0125
100
AcDbLine
 10
300.520935
 20
118.241737
 30
0.0
 11
300.520935
 21
118.741737
 31
0.0
210
0.0
220
0.0
230
1.0
  0
LINE
  5
359
100
AcDbEntity
  8
0
 62
     7
 48
0.01
100
AcDbLine
 10
300.520935
 20
118.241737
 30
0.0
 11
300.120941
 21
118.241737
 31
0.0
210
0.0
220
0.0
230
1.0
  0
LINE
  5
35A
100
AcDbEntity
  8
0
 62
     7
 48
0.0125
100
AcDbLine
 10
300.120941
 20
118.241737
 30
0.0
 11
300.120941
 21
118.741737
 31
0.0
210
0.0
220
0.0
230
1.0
  0
LINE
  5
35B
100
AcDbEntity
  8
0
 62
     7
 48
0.003125
100
AcDbLine
 10
300.620941
 20
126.491737
 30
0.0
 11
300.620941
 21
126.616737
 31
0.0
210
0.0
220
0.0
230
1.0
  0
LINE
  5
35C
100
AcDbEntity
  8
0
 62
     7
 48
0.003125
100
AcDbLine
 10
300.620941
 20
126.366737
 30
0.0
 11
300.620941
 21
126.491737
 31
0.0
210
0.0
220
0.0
230
1.0
  0
LINE
  5
35D
100
AcDbEntity
  8
0
 62
     7
 48
0.1
100
AcDbLine
 10
306.120941
 20
125.241737
 30
0.0
 11
302.120941
 21
125.241737
 31
0.0
210
0.0
220
0.0
230
1.0
  0
LINE
  5
35E
100
AcDbEntity
  8
0
 62
     7
 48
0.0375
100
AcDbLine
 10
300.620941
 20
125.241737
 30
0.0
 11
302.120941
 21
125.241737
 31
0.0
210
0.0
220
0.0
230
1.0
  0
ARC
  5
35F
100
AcDbEntity
  8
0
 62
     7
100
AcDbCircle
 10
306.120941
 20
124.741737
 30
0.0
 40
0.5
210
0.0
220
0.0
230
1.0
100
AcDbArc
 50
0.0
 51
90.000003
  0
LINE
  5
360
100
AcDbEntity
  8
0
 62
     7
 48
0.125
100
AcDbLine
 10
306.620941
 20
124.741737
 30
0.0
 11
306.620941
 21
119.741737
 31
0.0
210
0.0
220
0.0
230
1.0
  0
ARC
  5
361
100
AcDbEntity
  8
0
 62
     7
100
AcDbCircle
 10
306.120941
 20
119.741737
 30
0.0
 40
0.5
210
0.0
220
0.0
230
1.0
100
AcDbArc
 50
270.000001
 51
0.00001
  0
LINE
  5
362
100
AcDbEntity
  8
0
 62
     7
 48
0.1
100
AcDbLine
 10
302.120941
 20
119.241737
 30
0.0
 11
306.120941
 21
119.241737
 31
0.0
210
0.0
220
0.0
230
1.0
  0
LINE
  5
363
100
AcDbEntity
  8
0
 62
     7
 48
0.03125
100
AcDbLine
 10
302.870941
 20
119.991737
 30
0.0
 11
304.120941
 21
119.991737
 31
0.0
210
0.0
220
0.0
230
1.0
  0
LINE
  5
364
100
AcDbEntity
  8
0
 62
     7
 48
0.1125
100
AcDbLine
 10
304.120941
 20
124.491737
 30
0.0
 11
304.120941
 21
119.991737
 31
0.0
210
0.0
220
0.0
230
1.0
  0
LINE
  5
365
100
AcDbEntity
  8
0
 62
     7
 48
0.03125
100
AcDbLine
 10
302.870941
 20
124.491737
 30
0.0
 11
304.120941
 21
124.491737
 31
0.0
210
0.0
220
0.0
230
1.0
  0
LINE
  5
366
100
AcDbEntity
  8
0
 62
     7
 48
0.026517
100
AcDbLine
 10
302.120941
 20
125.241737
 30
0.0
 11
302.870941
 21
124.491737
 31
0.0
210
0.0
220
0.0
230
1.0
  0
LINE
  5
367
100
AcDbEntity
  8
0
 62
     7
 48
0.15
100
AcDbLine
 10
300.620941
 20
125.241737
 30
0.0
 11
300.620941
 21
119.241737
 31
0.0
210
0.0
220
0.0
230
1.0
  0
LINE
  5
368
100
AcDbEntity
  8
0
 62
     7
 48
0.0375
100
AcDbLine
 10
300.620941
 20
119.241737
 30
0.0
 11
302.120941
 21
119.241737
 31
0.0
210
0.0
220
0.0
230
1.0
  0
LINE
  5
369
100
AcDbEntity
  8
0
 62
     7
 48
0.026517
100
AcDbLine
 10
302.120941
 20
119.241737
 30
0.0
 11
302.870941
 21
119.991737
 31
0.0
210
0.0
220
0.0
230
1.0
  0
LINE
  5
36A
100
AcDbEntity
  8
0
 62
     7
 48
0.01
100
AcDbLine
 10
304.120941
 20
124.241737
 30
0.0
 11
304.520935
 21
124.241737
 31
0.0
210
0.0
220
0.0
230
1.0
  0
LINE
  5
36B
100
AcDbEntity
  8
0
 62
     7
 48
0.0125
100
AcDbLine
 10
304.120941
 20
123.741737
 30
0.0
 11
304.120941
 21
124.241737
 31
0.0
210
0.0
220
0.0
230
1.0
  0
LINE
  5
36C
100
AcDbEntity
  8
0
 62
     7
 48
0.0125
100
AcDbLine
 10
304.520935
 20
123.741737
 30
0.0
 11
304.520935
 21
124.241737
 31
0.0
210
0.0
220
0.0
230
1.0
  0
LINE
  5
36D
100
AcDbEntity
  8
0
 62
     7
 48
0.01
100
AcDbLine
 10
304.120941
 20
123.741737
 30
0.0
 11
304.520935
 21
123.741737
 31
0.0
210
0.0
220
0.0
230
1.0
  0
LINE
  5
36E
100
AcDbEntity
  8
0
 62
     7
 48
0.075
100
AcDbLine
 10
304.120941
 20
120.741737
 30
0.0
 11
304.120941
 21
123.741737
 31
0.0
210
0.0
220
0.0
230
1.0
  0
LINE
  5
36F
100
AcDbEntity
  8
0
 62
     7
 48
0.01
100
AcDbLine
 10
304.120941
 20
120.741737
 30
0.0
 11
304.520935
 21
120.741737
 31
0.0
210
0.0
220
0.0
230
1.0
  0
LINE
  5
370
100
AcDbEntity
  8
0
 62
     7
 48
0.075
100
AcDbLine
 10
304.520935
 20
120.741737
 30
0.0
 11
304.520935
 21
123.741737
 31
0.0
210
0.0
220
0.0
230
1.0
  0
LINE
  5
371
100
AcDbEntity
  8
0
 62
     7
 48
0.0125
100
AcDbLine
 10
304.120941
 20
120.241737
 30
0.0
 11
304.120941
 21
120.741737
 31
0.0
210
0.0
220
0.0
230
1.0
  0
LINE
  5
372
100
AcDbEntity
  8
0
 62
     7
 48
0.01
100
AcDbLine
 10
304.120941
 20
120.241737
 30
0.0
 11
304.520935
 21
120.241737
 31
0.0
210
0.0
220
0.0
230
1.0
  0
LINE
  5
373
100
AcDbEntity
  8
0
 62
     7
 48
0.0125
100
AcDbLine
 10
304.520935
 20
120.241737
 30
0.0
 11
304.520935
 21
120.741737
 31
0.0
210
0.0
220
0.0
230
1.0
  0
LINE
  5
374
100
AcDbEntity
  8
0
 62
     7
 48
0.013991
100
AcDbLine
 10
306.020935
 20
123.316742
 30
0.0
 11
306.020935
 21
122.757118
 31
0.0
210
0.0
220
0.0
230
1.0
  0
LINE
  5
375
100
AcDbEntity
  8
0
 62
     7
 48
0.017244
100
AcDbLine
 10
305.770935
 20
123.566742
 30
0.0
 11
305.770935
 21
122.876976
 31
0.0
210
0.0
220
0.0
230
1.0
  0
LINE
  5
376
100
AcDbEntity
  8
0
 62
     7
 48
0.039759
100
AcDbLine
 10
306.020935
 20
122.757118
 30
0.0
 11
306.020935
 21
121.16674
 31
0.0
210
0.0
220
0.0
230
1.0
  0
LINE
  5
377
100
AcDbEntity
  8
0
 62
     7
 48
0.049006
100
AcDbLine
 10
305.770935
 20
122.876976
 30
0.0
 11
305.770935
 21
120.91674
 31
0.0
210
0.0
220
0.0
230
1.0
  0
LINE
  5
378
100
AcDbEntity
  8
0
 62
     7
 48
0.017244
100
AcDbLine
 10
305.020935
 20
123.566742
 30
0.0
 11
305.020935
 21
122.876976
 31
0.0
210
0.0
220
0.0
230
1.0
  0
LINE
  5
379
100
AcDbEntity
  8
0
 62
     7
 48
0.049006
100
AcDbLine
 10
305.020935
 20
122.876976
 30
0.0
 11
305.020935
 21
120.91674
 31
0.0
210
0.0
220
0.0
230
1.0
  0
ARC
  5
37A
100
AcDbEntity
  8
0
 62
     7
100
AcDbCircle
 10
305.770935
 20
123.316742
 30
0.0
 40
0.25
210
0.0
220
0.0
230
1.0
100
AcDbArc
 50
360.0
 51
90.000003
  0
ARC
  5
37B
100
AcDbEntity
  8
0
 62
     7
100
AcDbCircle
 10
305.770935
 20
121.16674
 30
0.0
 40
0.25
210
0.0
220
0.0
230
1.0
100
AcDbArc
 50
269.999997
 51
0.0
  0
LINE
  5
37C
100
AcDbEntity
  8
0
 62
     7
 48
0.01875
100
AcDbLine
 10
305.770935
 20
123.566742
 30
0.0
 11
305.020935
 21
123.566742
 31
0.0
210
0.0
220
0.0
230
1.0
  0
LINE
  5
37D
100
AcDbEntity
  8
0
 62
     7
 48
0.01875
100
AcDbLine
 10
305.770935
 20
120.91674
 30
0.0
 11
305.020935
 21
120.91674
 31
0.0
210
0.0
220
0.0
230
1.0
  0
LINE
  5
37E
100
AcDbEntity
  8
0
 62
     7
 48
0.0125
100
AcDbLine
 10
305.020935
 20
120.91674
 30
0.0
 11
304.520935
 21
120.91674
 31
0.0
210
0.0
220
0.0
230
1.0
  0
LINE
  5
37F
100
AcDbEntity
  8
0
 62
     7
 48
0.06625
100
AcDbLine
 10
305.020935
 20
123.566742
 30
0.0
 11
305.020935
 21
120.91674
 31
0.0
210
0.0
220
0.0
230
1.0
  0
LINE
  5
380
100
AcDbEntity
  8
0
 62
     7
 48
0.0125
100
AcDbLine
 10
305.020935
 20
123.566742
 30
0.0
 11
304.520935
 21
123.566742
 31
0.0
210
0.0
220
0.0
230
1.0
  0
LINE
  5
381
100
AcDbEntity
  8
0
 62
     7
 48
0.06625
100
AcDbLine
 10
304.520935
 20
123.566742
 30
0.0
 11
304.520935
 21
120.91674
 31
0.0
210
0.0
220
0.0
230
1.0
  0
LINE
  5
382
100
AcDbEntity
  8
0
 62
     7
 48
0.0025
100
AcDbLine
 10
300.520935
 20
128.74173
 30
0.0
 11
300.620941
 21
128.74173
 31
0.0
210
0.0
220
0.0
230
1.0
  0
LINE
  5
383
100
AcDbEntity
  8
0
 62
     7
 48
0.0125
100
AcDbLine
 10
300.620941
 20
128.24173
 30
0.0
 11
300.620941
 21
128.74173
 31
0.0
210
0.0
220
0.0
230
1.0
  0
LINE
  5
384
100
AcDbEntity
  8
0
 62
     7
 48
0.011501
100
AcDbLine
 10
300.120941
 20
128.24173
 30
0.0
 11
300.120941
 21
128.701752
 31
0.0
210
0.0
220
0.0
230
1.0
  0
LINE
  5
385
100
AcDbEntity
  8
0
 62
     7
 48
0.0125
100
AcDbLine
 10
300.120941
 20
128.24173
 30
0.0
 11
300.620941
 21
128.24173
 31
0.0
210
0.0
220
0.0
230
1.0
  0
LINE
  5
386
100
AcDbEntity
  8
0
 62
     7
 48
0.0125
100
AcDbLine
 10
300.120941
 20
118.241737
 30
0.0
 11
300.620941
 21
118.241737
 31
0.0
210
0.0
220
0.0
230
1.0
  0
LINE
  5
387
100
AcDbEntity
  8
0
 62
     7
 48
0.2375
100
AcDbLine
 10
300.620941
 20
128.24173
 30
0.0
 11
300.620941
 21
118.741737
 31
0.0
210
0.0
220
0.0
230
1.0
  0
LINE
  5
388
100
AcDbEntity
  8
0
 62
     7
 48
0.2375
100
AcDbLine
 10
300.120941
 20
128.24173
 30
0.0
 11
300.120941
 21
118.741737
 31
0.0
210
0.0
220
0.0
230
1.0
  0
LINE
  5
389
100
AcDbEntity
  8
0
 62
     7
 48
0.0125
100
AcDbLine
 10
300.120941
 20
118.741737
 30
0.0
 11
300.620941
 21
118.741737
 31
0.0
210
0.0
220
0.0
230
1.0
  0
LINE
  5
38A
100
AcDbEntity
  8
0
 62
     7
 48
0.0125
100
AcDbLine
 10
300.620941
 20
118.241737
 30
0.0
 11
300.620941
 21
118.741737
 31
0.0
210
0.0
220
0.0
230
1.0
  0
LINE
  5
38B
100
AcDbEntity
  8
0
 62
     7
 48
0.0125
100
AcDbLine
 10
300.120941
 20
118.241737
 30
0.0
 11
300.120941
 21
118.741737
 31
0.0
210
0.0
220
0.0
230
1.0
  0
LINE
  5
38C
100
AcDbEntity
  8
0
 62
     7
 48
0.013014
100
AcDbLine
 10
300.870941
 20
127.741737
 30
0.0
 11
300.870941
 21
127.221161
 31
0.0
210
0.0
220
0.0
230
1.0
  0
LINE
  5
38D
100
AcDbEntity
  8
0
 62
     7
 48
0.036986
100
AcDbLine
 10
300.870941
 20
127.221161
 30
0.0
 11
300.870941
 21
125.741737
 31
0.0
210
0.0
220
0.0
230
1.0
  0
LINE
  5
38E
100
AcDbEntity
  8
0
 62
     7
 48
0.006251
100
AcDbLine
 10
300.870941
 20
127.741737
 30
0.0
 11
300.620911
 21
127.741737
 31
0.0
210
0.0
220
0.0
230
1.0
  0
LINE
  5
38F
100
AcDbEntity
  8
0
 62
     7
 48
0.006251
100
AcDbLine
 10
300.870941
 20
125.741737
 30
0.0
 11
300.620911
 21
125.741737
 31
0.0
210
0.0
220
0.0
230
1.0
  0
LINE
  5
390
100
AcDbEntity
  8
0
 62
     7
 48
0.006251
100
AcDbLine
 10
301.120941
 20
126.909409
 30
0.0
 11
300.870911
 21
126.909409
 31
0.0
210
0.0
220
0.0
230
1.0
  0
LINE
  5
391
100
AcDbEntity
  8
0
 62
     7
 48
0.0375
100
AcDbLine
 10
301.120941
 20
125.409409
 30
0.0
 11
301.120941
 21
126.909409
 31
0.0
210
0.0
220
0.0
230
1.0
  0
LINE
  5
392
100
AcDbEntity
  8
0
 62
     7
 48
0.012501
100
AcDbLine
 10
301.120941
 20
125.409409
 30
0.0
 11
300.620911
 21
125.409409
 31
0.0
210
0.0
220
0.0
230
1.0
  0
LINE
  5
393
100
AcDbEntity
  8
0
 62
     7
 48
0.004191
100
AcDbLine
 10
301.120941
 20
125.241776
 30
0.0
 11
301.120941
 21
125.409409
 31
0.0
210
0.0
220
0.0
230
1.0
  0
LINE
  5
394
100
AcDbEntity
  8
0
 62
     7
 48
0.00651
100
AcDbLine
 10
301.120941
 20
126.909409
 30
0.0
 11
300.870911
 21
126.982147
 31
0.0
210
0.0
220
0.0
230
1.0
  0
LINE
  5
395
100
AcDbEntity
  8
0
 62
     7
 48
0.0125
100
AcDbLine
 10
300.620941
 20
119.241745
 30
0.0
 11
300.620941
 21
118.741737
 31
0.0
210
0.0
220
0.0
230
1.0
  0
LINE
  5
396
100
AcDbEntity
  8
0
 62
     7
 48
0.0125
100
AcDbLine
 10
300.620941
 20
118.241737
 30
0.0
 11
300.620941
 21
118.741737
 31
0.0
210
0.0
220
0.0
230
1.0
  0
LINE
  5
397
100
AcDbEntity
  8
0
 62
     7
 48
0.0125
100
AcDbLine
 10
300.620941
 20
128.24173
 30
0.0
 11
300.620941
 21
128.74173
 31
0.0
210
0.0
220
0.0
230
1.0
  0
LINE
  5
398
100
AcDbEntity
  8
0
 62
     7
 48
0.0125
100
AcDbLine
 10
300.620941
 20
128.24173
 30
0.0
 11
300.620941
 21
127.741745
 31
0.0
210
0.0
220
0.0
230
1.0
  0
LINE
  5
399
100
AcDbEntity
  8
0
 62
     7
 48
0.0125
100
AcDbLine
 10
300.620941
 20
125.741745
 30
0.0
 11
300.620941
 21
125.241737
 31
0.0
210
0.0
220
0.0
230
1.0
  0
LINE
  5
39A
100
AcDbEntity
  8
0
 62
     7
 48
0.0125
100
AcDbLine
 10
299.620941
 20
187.009415
 30
0.0
 11
300.120941
 21
187.009415
 31
0.0
210
0.0
220
0.0
230
1.0
  0
LINE
  5
39B
100
AcDbEntity
  8
0
 62
     7
 48
0.1
100
AcDbLine
 10
295.620941
 20
187.009415
 30
0.0
 11
299.620941
 21
187.009415
 31
0.0
210
0.0
220
0.0
230
1.0
  0
LINE
  5
39C
100
AcDbEntity
  8
0
 62
     7
 48
0.0125
100
AcDbLine
 10
295.120941
 20
187.009415
 30
0.0
 11
295.620941
 21
187.009415
 31
0.0
210
0.0
220
0.0
230
1.0
  0
LINE
  5
39D
100
AcDbEntity
  8
0
 62
     7
 48
0.065
100
AcDbLine
 10
230.120941
 20
189.309418
 30
0.0
 11
230.120941
 21
186.709412
 31
0.0
210
0.0
220
0.0
230
1.0
  0
LINE
  5
39E
100
AcDbEntity
  8
0
 62
     7
 48
0.01
100
AcDbLine
 10
230.120941
 20
189.709412
 30
0.0
 11
230.120941
 21
189.309418
 31
0.0
210
0.0
220
0.0
230
1.0
  0
LINE
  5
39F
100
AcDbEntity
  8
0
 62
     7
 48
0.02
100
AcDbLine
 10
294.120941
 20
186.209412
 30
0.0
 11
294.120941
 21
187.009415
 31
0.0
210
0.0
220
0.0
230
1.0
  0
LINE
  5
3A0
100
AcDbEntity
  8
0
 62
     7
100
AcDbLine
 10
230.120941
 20
189.709412
 30
0.0
 11
300.120941
 21
189.709412
 31
0.0
210
0.0
220
0.0
230
1.0
  0
LINE
  5
3A1
100
AcDbEntity
  8
0
 62
     7
 48
0.083778
100
AcDbLine
 10
303.472046
 20
189.709412
 30
0.0
 11
300.120941
 21
189.709412
 31
0.0
210
0.0
220
0.0
230
1.0
  0
LINE
  5
3A2
100
AcDbEntity
  8
0
 62
     7
 48
0.016222
100
AcDbLine
 10
304.120941
 20
189.709412
 30
0.0
 11
303.472046
 21
189.709412
 31
0.0
210
0.0
220
0.0
230
1.0
  0
LINE
  5
3A3
100
AcDbEntity
  8
0
 62
     7
 48
0.02
100
AcDbLine
 10
303.472046
 20
189.709412
 30
0.0
 11
303.472046
 21
188.909409
 31
0.0
210
0.0
220
0.0
230
1.0
  0
LINE
  5
3A4
100
AcDbEntity
  8
0
 62
     7
 48
0.083778
100
AcDbLine
 10
303.472046
 20
188.909409
 30
0.0
 11
300.120941
 21
188.909409
 31
0.0
210
0.0
220
0.0
230
1.0
  0
LINE
  5
3A5
100
AcDbEntity
  8
0
 62
     7
 48
0.02
100
AcDbLine
 10
304.120941
 20
189.709412
 30
0.0
 11
304.120941
 21
188.909409
 31
0.0
210
0.0
220
0.0
230
1.0
  0
LINE
  5
3A6
100
AcDbEntity
  8
0
 62
     7
 48
0.016222
100
AcDbLine
 10
304.120941
 20
188.909409
 30
0.0
 11
303.472046
 21
188.909409
 31
0.0
210
0.0
220
0.0
230
1.0
  0
ARC
  5
3A7
100
AcDbEntity
  8
0
 62
     7
100
AcDbCircle
 10
230.620941
 20
186.709412
 30
0.0
 40
0.5
210
0.0
220
0.0
230
1.0
100
AcDbArc
 50
180.000005
 51
270.000001
  0
LINE
  5
3A8
100
AcDbEntity
  8
0
 62
     7
100
AcDbLine
 10
230.120941
 20
189.309418
 30
0.0
 11
300.120941
 21
189.309418
 31
0.0
210
0.0
220
0.0
230
1.0
  0
LINE
  5
3A9
100
AcDbEntity
  8
0
 62
     7
 48
0.01
100
AcDbLine
 10
300.120941
 20
189.309418
 30
0.0
 11
300.120941
 21
189.709412
 31
0.0
210
0.0
220
0.0
230
1.0
  0
LINE
  5
3AA
100
AcDbEntity
  8
0
 62
     7
 48
0.025
100
AcDbLine
 10
294.120941
 20
187.009415
 30
0.0
 11
295.120941
 21
187.009415
 31
0.0
210
0.0
220
0.0
230
1.0
  0
LINE
  5
3AB
100
AcDbEntity
  8
0
 62
     7
 48
0.02
100
AcDbLine
 10
295.120941
 20
186.209412
 30
0.0
 11
295.120941
 21
187.009415
 31
0.0
210
0.0
220
0.0
230
1.0
  0
LINE
  5
3AC
100
AcDbEntity
  8
0
 62
     7
 48
0.02
100
AcDbLine
 10
295.620941
 20
186.209412
 30
0.0
 11
295.620941
 21
187.009415
 31
0.0
210
0.0
220
0.0
230
1.0
  0
LINE
  5
3AD
100
AcDbEntity
  8
0
 62
     7
 48
0.02
100
AcDbLine
 10
299.620941
 20
186.209412
 30
0.0
 11
299.620941
 21
187.009415
 31
0.0
210
0.0
220
0.0
230
1.0
  0
LINE
  5
3AE
100
AcDbEntity
  8
0
 62
     7
 48
0.02
100
AcDbLine
 10
300.120941
 20
186.209412
 30
0.0
 11
300.120941
 21
187.009415
 31
0.0
210
0.0
220
0.0
230
1.0
  0
LINE
  5
3AF
100
AcDbEntity
  8
0
 62
     7
 48
0.0575
100
AcDbLine
 10
300.120941
 20
187.009415
 30
0.0
 11
300.120941
 21
189.309418
 31
0.0
210
0.0
220
0.0
230
1.0
  0
LINE
  5
3B0
100
AcDbEntity
  8
0
 62
     7
 48
0.0125
100
AcDbLine
 10
300.120941
 20
117.709412
 30
0.0
 11
300.120941
 21
117.209412
 31
0.0
210
0.0
220
0.0
230
1.0
  0
LINE
  5
3B1
100
AcDbEntity
  8
0
 62
     7
100
AcDbLine
 10
229.670944
 20
117.709412
 30
0.0
 11
300.120941
 21
117.709412
 31
0.0
210
0.0
220
0.0
230
1.0
  0
LINE
  5
3B2
100
AcDbEntity
  8
0
 62
     7
100
AcDbLine
 10
229.670944
 20
117.209412
 30
0.0
 11
300.120941
 21
117.209412
 31
0.0
210
0.0
220
0.0
230
1.0
  0
LINE
  5
3B3
100
AcDbEntity
  8
0
 62
     7
100
AcDbLine
 10
243.620941
 20
190.209412
 30
0.0
 11
290.620941
 21
190.209412
 31
0.0
210
0.0
220
0.0
230
1.0
  0
LINE
  5
3B4
100
AcDbEntity
  8
0
 62
     7
 48
0.025
100
AcDbLine
 10
242.620941
 20
190.209412
 30
0.0
 11
243.620941
 21
190.209412
 31
0.0
210
0.0
220
0.0
230
1.0
  0
LINE
  5
3B5
100
AcDbEntity
  8
0
 62
     7
 48
0.025
100
AcDbLine
 10
290.620941
 20
190.209412
 30
0.0
 11
291.620941
 21
190.209412
 31
0.0
210
0.0
220
0.0
230
1.0
  0
LINE
  5
3B6
100
AcDbEntity
  8
0
 62
     7
 48
0.019499
100
AcDbLine
 10
241.840973
 20
193.209412
 30
0.0
 11
242.620941
 21
193.209412
 31
0.0
210
0.0
220
0.0
230
1.0
  0
LINE
  5
3B7
100
AcDbEntity
  8
0
 62
     7
 48
0.0875
100
AcDbLine
 10
242.620941
 20
189.709412
 30
0.0
 11
242.620941
 21
193.209412
 31
0.0
210
0.0
220
0.0
230
1.0
  0
LINE
  5
3B8
100
AcDbEntity
  8
0
 62
     7
 48
0.0875
100
AcDbLine
 10
241.840973
 20
189.709412
 30
0.0
 11
241.840973
 21
193.209412
 31
0.0
210
0.0
220
0.0
230
1.0
  0
LINE
  5
3B9
100
AcDbEntity
  8
0
 62
     7
 48
0.275
100
AcDbLine
 10
241.840973
 20
193.209412
 30
0.0
 11
230.840958
 21
193.209412
 31
0.0
210
0.0
220
0.0
230
1.0
  0
LINE
  5
3BA
100
AcDbEntity
  8
0
 62
     7
 48
0.0875
100
AcDbLine
 10
230.840958
 20
189.709412
 30
0.0
 11
230.840958
 21
193.209412
 31
0.0
210
0.0
220
0.0
230
1.0
  0
ARC
  5
3BB
100
AcDbEntity
  8
0
 62
     7
100
AcDbCircle
 10
242.120941
 20
193.209412
 30
0.0
 40
0.5
210
0.0
220
0.0
230
1.0
100
AcDbArc
 50
0.0
 51
90.000003
  0
LINE
  5
3BC
100
AcDbEntity
  8
0
 62
     7
 48
0.0065
100
AcDbLine
 10
241.860947
 20
193.709412
 30
0.0
 11
242.120941
 21
193.709412
 31
0.0
210
0.0
220
0.0
230
1.0
  0
ELLIPSE
  5
3BD
100
AcDbEntity
  8
0
 62
     7
100
AcDbEllipse
 10
241.860947
 20
193.209412
 30
0.0
 11
0.0
 21
-0.5
 31
0.0
210
0.0
220
0.0
230
1.0
 40
0.039967
 41
3.1415927410125732
 42
4.7123889923095703
  0
LINE
  5
3BE
100
AcDbEntity
  8
0
 62
     7
 48
0.018
100
AcDbLine
 10
230.120941
 20
193.209412
 30
0.0
 11
230.840958
 21
193.209412
 31
0.0
210
0.0
220
0.0
230
1.0
  0
LINE
  5
3BF
100
AcDbEntity
  8
0
 62
     7
 48
0.0875
100
AcDbLine
 10
230.120941
 20
189.709412
 30
0.0
 11
230.120941
 21
193.209412
 31
0.0
210
0.0
220
0.0
230
1.0
  0
LINE
  5
3C0
100
AcDbEntity
  8
0
 62
     7
 48
0.275
100
AcDbLine
 10
241.860947
 20
193.709412
 30
0.0
 11
230.860947
 21
193.709412
 31
0.0
210
0.0
220
0.0
230
1.0
  0
ELLIPSE
  5
3C1
100
AcDbEntity
  8
0
 62
     7
100
AcDbEllipse
 10
230.860947
 20
193.209412
 30
0.0
 11
0.0
 21
-0.5
 31
0.0
210
0.0
220
0.0
230
1.0
 40
0.039968
 41
3.1415927410125732
 42
4.7123889923095703
  0
LINE
  5
3C2
100
AcDbEntity
  8
0
 62
     7
 48
0.006
100
AcDbLine
 10
230.620941
 20
193.709412
 30
0.0
 11
230.860947
 21
193.709412
 31
0.0
210
0.0
220
0.0
230
1.0
  0
ARC
  5
3C3
100
AcDbEntity
  8
0
 62
     7
100
AcDbCircle
 10
230.620941
 20
193.209412
 30
0.0
 40
0.5
210
0.0
220
0.0
230
1.0
100
AcDbArc
 50
90.000003
 51
180.000005
  0
LINE
  5
3C4
100
AcDbEntity
  8
0
 62
     7
 48
0.0875
100
AcDbLine
 10
291.620941
 20
189.709412
 30
0.0
 11
291.620941
 21
193.209412
 31
0.0
210
0.0
220
0.0
230
1.0
  0
LINE
  5
3C5
100
AcDbEntity
  8
0
 62
     7
 48
0.0875
100
AcDbLine
 10
304.120941
 20
189.709412
 30
0.0
 11
304.120941
 21
193.209412
 31
0.0
210
0.0
220
0.0
230
1.0
  0
LINE
  5
3C6
100
AcDbEntity
  8
0
 62
     7
 48
0.018001
100
AcDbLine
 10
303.400909
 20
193.209412
 30
0.0
 11
304.120941
 21
193.209412
 31
0.0
210
0.0
220
0.0
230
1.0
  0
LINE
  5
3C7
100
AcDbEntity
  8
0
 62
     7
 48
0.0875
100
AcDbLine
 10
303.400909
 20
189.709412
 30
0.0
 11
303.400909
 21
193.209412
 31
0.0
210
0.0
220
0.0
230
1.0
  0
LINE
  5
3C8
100
AcDbEntity
  8
0
 62
     7
 48
0.0875
100
AcDbLine
 10
292.400909
 20
189.709412
 30
0.0
 11
292.400909
 21
193.209412
 31
0.0
210
0.0
220
0.0
230
1.0
  0
LINE
  5
3C9
100
AcDbEntity
  8
0
 62
     7
 48
0.275
100
AcDbLine
 10
292.400909
 20
193.209412
 30
0.0
 11
303.400909
 21
193.209412
 31
0.0
210
0.0
220
0.0
230
1.0
  0
LINE
  5
3CA
100
AcDbEntity
  8
0
 62
     7
 48
0.019499
100
AcDbLine
 10
291.620941
 20
193.209412
 30
0.0
 11
292.400909
 21
193.209412
 31
0.0
210
0.0
220
0.0
230
1.0
  0
ARC
  5
3CB
100
AcDbEntity
  8
0
 62
     7
100
AcDbCircle
 10
292.120941
 20
193.209412
 30
0.0
 40
0.5
210
0.0
220
0.0
230
1.0
100
AcDbArc
 50
90.000003
 51
180.000005
  0
LINE
  5
3CC
100
AcDbEntity
  8
0
 62
     7
 48
0.006001
100
AcDbLine
 10
303.38092
 20
193.709412
 30
0.0
 11
303.620941
 21
193.709412
 31
0.0
210
0.0
220
0.0
230
1.0
  0
LINE
  5
3CD
100
AcDbEntity
  8
0
 62
     7
 48
0.275
100
AcDbLine
 10
292.38092
 20
193.709412
 30
0.0
 11
303.38092
 21
193.709412
 31
0.0
210
0.0
220
0.0
230
1.0
  0
LINE
  5
3CE
100
AcDbEntity
  8
0
 62
     7
 48
0.006499
100
AcDbLine
 10
292.120941
 20
193.709412
 30
0.0
 11
292.38092
 21
193.709412
 31
0.0
210
0.0
220
0.0
230
1.0
  0
ARC
  5
3CF
100
AcDbEntity
  8
0
 62
     7
100
AcDbCircle
 10
303.620941
 20
193.209412
 30
0.0
 40
0.5
210
0.0
220
0.0
230
1.0
100
AcDbArc
 50
0.0
 51
90.000003
  0
ELLIPSE
  5
3D0
100
AcDbEntity
  8
0
 62
     7
100
AcDbEllipse
 10
303.38092
 20
193.209412
 30
0.0
 11
0.0
 21
-0.5
 31
0.0
210
0.0
220
0.0
230
1.0
 40
0.039975
 41
1.5707963705062866
 42
3.1415927410125732
  0
ELLIPSE
  5
3D1
100
AcDbEntity
  8
0
 62
     7
100
AcDbEllipse
 10
292.38092
 20
193.209412
 30
0.0
 11
0.0
 21
-0.5
 31
0.0
210
0.0
220
0.0
230
1.0
 40
0.039968
 41
1.5707963705062866
 42
3.1415927410125732
  0
LINE
  5
3D2
100
AcDbEntity
  8
0
 62
     7
100
AcDbLine
 10
243.620941
 20
193.209412
 30
0.0
 11
290.620941
 21
193.209412
 31
0.0
210
0.0
220
0.0
230
1.0
  0
LINE
  5
3D3
100
AcDbEntity
  8
0
 62
     7
 48
0.075
100
AcDbLine
 10
290.620941
 20
190.209412
 30
0.0
 11
290.620941
 21
193.209412
 31
0.0
210
0.0
220
0.0
230
1.0
  0
LINE
  5
3D4
100
AcDbEntity
  8
0
 62
     7
 48
0.075
100
AcDbLine
 10
243.620941
 20
190.209412
 30
0.0
 11
243.620941
 21
193.209412
 31
0.0
210
0.0
220
0.0
230
1.0
  0
LINE
  5
3D5
100
AcDbEntity
  8
0
 62
     7
100
AcDbLine
 10
243.620941
 20
193.709412
 30
0.0
 11
290.620941
 21
193.709412
 31
0.0
210
0.0
220
0.0
230
1.0
  0
LINE
  5
3D6
100
AcDbEntity
  8
0
 62
     7
 48
0.0125
100
AcDbLine
 10
243.120941
 20
193.709412
 30
0.0
 11
243.620941
 21
193.709412
 31
0.0
210
0.0
220
0.0
230
1.0
  0
LINE
  5
3D7
100
AcDbEntity
  8
0
 62
     7
 48
0.0125
100
AcDbLine
 10
290.620941
 20
193.709412
 30
0.0
 11
291.120941
 21
193.709412
 31
0.0
210
0.0
220
0.0
230
1.0
  0
LINE
  5
3D8
100
AcDbEntity
  8
0
 62
     7
 48
0.025
100
AcDbLine
 10
242.620941
 20
193.209412
 30
0.0
 11
243.620941
 21
193.209412
 31
0.0
210
0.0
220
0.0
230
1.0
  0
LINE
  5
3D9
100
AcDbEntity
  8
0
 62
     7
 48
0.025
100
AcDbLine
 10
290.620941
 20
193.209412
 30
0.0
 11
291.620941
 21
193.209412
 31
0.0
210
0.0
220
0.0
230
1.0
  0
LINE
  5
3DA
100
AcDbEntity
  8
0
 62
     7
 48
0.0125
100
AcDbLine
 10
290.620941
 20
193.209412
 30
0.0
 11
290.620941
 21
193.709412
 31
0.0
210
0.0
220
0.0
230
1.0
  0
LINE
  5
3DB
100
AcDbEntity
  8
0
 62
     7
 48
0.0125
100
AcDbLine
 10
243.620941
 20
193.209412
 30
0.0
 11
243.620941
 21
193.709412
 31
0.0
210
0.0
220
0.0
230
1.0
  0
ARC
  5
3DC
100
AcDbEntity
  8
0
 62
     7
100
AcDbCircle
 10
243.120941
 20
193.209412
 30
0.0
 40
0.5
210
0.0
220
0.0
230
1.0
100
AcDbArc
 50
90.000003
 51
180.000005
  0
ARC
  5
3DD
100
AcDbEntity
  8
0
 62
     7
100
AcDbCircle
 10
291.120941
 20
193.209412
 30
0.0
 40
0.5
210
0.0
220
0.0
230
1.0
100
AcDbArc
 50
0.0
 51
90.000003
  0
POLYLINE
  5
3DE
100
AcDbEntity
  8
0
 62
     7
100
AcDb2dPolyline
 66
     1
 10
0.0
 20
0.0
 30
0.0
 71
     7
  0
VERTEX
  5
3DF
100
AcDbEntity
  8
0
100
AcDbVertex
100
AcDb2dVertex
 10
235.748276
 20
111.316002
 30
0.0
  0
VERTEX
  5
3E0
100
AcDbEntity
  8
0
100
AcDbVertex
100
AcDb2dVertex
 10
235.749054
 20
111.315254
 30
0.0
  0
VERTEX
  5
3E1
100
AcDbEntity
  8
0
100
AcDbVertex
100
AcDb2dVertex
 10
235.754547
 20
111.313797
 30
0.0
  0
VERTEX
  5
3E2
100
AcDbEntity
  8
0
100
AcDbVertex
100
AcDb2dVertex
 10
235.802414
 20
111.309784
 30
0.0
  0
VERTEX
  5
3E3
100
AcDbEntity
  8
0
100
AcDbVertex
100
AcDb2dVertex
 10
236.206238
 20
111.301483
 30
0.0
  0
VERTEX
  5
3E4
100
AcDbEntity
  8
0
100
AcDbVertex
100
AcDb2dVertex
 10
238.504578
 20
111.305557
 30
0.0
  0
VERTEX
  5
3E5
100
AcDbEntity
  8
0
100
AcDbVertex
100
AcDb2dVertex
 10
239.6875
 20
111.315994
 30
0.0
  0
SEQEND
  5
3E6
100
AcDbEntity
  8
0
  0
POLYLINE
  5
3E7
100
AcDbEntity
  8
0
 62
     7
100
AcDb2dPolyline
 66
     1
 10
0.0
 20
0.0
 30
0.0
 71
    18
  0
VERTEX
  5
3E8
100
AcDbEntity
  8
0
100
AcDbVertex
100
AcDb2dVertex
 10
239.6875
 20
111.315994
 30
0.0
  0
VERTEX
  5
3E9
100
AcDbEntity
  8
0
100
AcDbVertex
100
AcDb2dVertex
 10
239.610596
 20
111.752174
 30
0.0
  0
VERTEX
  5
3EA
100
AcDbEntity
  8
0
100
AcDbVertex
100
AcDb2dVertex
 10
239.556839
 20
112.042152
 30
0.0
  0
VERTEX
  5
3EB
100
AcDbEntity
  8
0
100
AcDbVertex
100
AcDb2dVertex
 10
239.488098
 20
112.329224
 30
0.0
  0
VERTEX
  5
3EC
100
AcDbEntity
  8
0
100
AcDbVertex
100
AcDb2dVertex
 10
239.376633
 20
112.650749
 30
0.0
  0
VERTEX
  5
3ED
100
AcDbEntity
  8
0
100
AcDbVertex
100
AcDb2dVertex
 10
239.22316
 20
112.958099
 30
0.0
  0
VERTEX
  5
3EE
100
AcDbEntity
  8
0
100
AcDbVertex
100
AcDb2dVertex
 10
239.027863
 20
113.247971
 30
0.0
  0
VERTEX
  5
3EF
100
AcDbEntity
  8
0
100
AcDbVertex
100
AcDb2dVertex
 10
238.712479
 20
113.606064
 30
0.0
  0
VERTEX
  5
3F0
100
AcDbEntity
  8
0
100
AcDbVertex
100
AcDb2dVertex
 10
238.475586
 20
113.828262
 30
0.0
  0
VERTEX
  5
3F1
100
AcDbEntity
  8
0
100
AcDbVertex
100
AcDb2dVertex
 10
237.962418
 20
114.240723
 30
0.0
  0
VERTEX
  5
3F2
100
AcDbEntity
  8
0
100
AcDbVertex
100
AcDb2dVertex
 10
237.234283
 20
114.756813
 30
0.0
  0
VERTEX
  5
3F3
100
AcDbEntity
  8
0
100
AcDbVertex
100
AcDb2dVertex
 10
236.506134
 20
115.272896
 30
0.0
  0
VERTEX
  5
3F4
100
AcDbEntity
  8
0
100
AcDbVertex
100
AcDb2dVertex
 10
235.992966
 20
115.685364
 30
0.0
  0
VERTEX
  5
3F5
100
AcDbEntity
  8
0
100
AcDbVertex
100
AcDb2dVertex
 10
235.756088
 20
115.907562
 30
0.0
  0
VERTEX
  5
3F6
100
AcDbEntity
  8
0
100
AcDbVertex
100
AcDb2dVertex
 10
235.440689
 20
116.265656
 30
0.0
  0
VERTEX
  5
3F7
100
AcDbEntity
  8
0
100
AcDbVertex
100
AcDb2dVertex
 10
235.245407
 20
116.555527
 30
0.0
  0
VERTEX
  5
3F8
100
AcDbEntity
  8
0
100
AcDbVertex
100
AcDb2dVertex
 10
235.091934
 20
116.862869
 30
0.0
  0
VERTEX
  5
3F9
100
AcDbEntity
  8
0
100
AcDbVertex
100
AcDb2dVertex
 10
234.973526
 20
117.209335
 30
0.0
  0
SEQEND
  5
3FA
100
AcDbEntity
  8
0
  0
LINE
  5
3FB
100
AcDbEntity
  8
0
 62
     7
 48
0.149608
100
AcDbLine
 10
235.748276
 20
111.315994
 30
0.0
 11
234.709106
 21
117.209412
 31
0.0
210
0.0
220
0.0
230
1.0
  0
LINE
  5
3FC
100
AcDbEntity
  8
0
 62
     7
 48
0.004172
100
AcDbLine
 10
239.854385
 20
111.315994
 30
0.0
 11
239.6875
 21
111.315994
 31
0.0
210
0.0
220
0.0
230
1.0
  0
POLYLINE
  5
3FD
100
AcDbEntity
  8
0
 62
     7
100
AcDb2dPolyline
 66
     1
 10
0.0
 20
0.0
 30
0.0
 71
    18
  0
VERTEX
  5
3FE
100
AcDbEntity
  8
0
100
AcDbVertex
100
AcDb2dVertex
 10
239.854385
 20
111.315994
 30
0.0
  0
VERTEX
  5
3FF
100
AcDbEntity
  8
0
100
AcDbVertex
100
AcDb2dVertex
 10
239.93248
 20
111.758949
 30
0.0
  0
VERTEX
  5
400
100
AcDbEntity
  8
0
100
AcDbVertex
100
AcDb2dVertex
 10
240.006775
 20
112.143372
 30
0.0
  0
VERTEX
  5
401
100
AcDbEntity
  8
0
100
AcDbVertex
100
AcDb2dVertex
 10
240.055038
 20
112.333641
 30
0.0
  0
VERTEX
  5
402
100
AcDbEntity
  8
0
100
AcDbVertex
100
AcDb2dVertex
 10
240.166672
 20
112.654137
 30
0.0
  0
VERTEX
  5
403
100
AcDbEntity
  8
0
100
AcDbVertex
100
AcDb2dVertex
 10
240.320114
 20
112.96048
 30
0.0
  0
VERTEX
  5
404
100
AcDbEntity
  8
0
100
AcDbVertex
100
AcDb2dVertex
 10
240.515121
 20
113.249413
 30
0.0
  0
VERTEX
  5
405
100
AcDbEntity
  8
0
100
AcDbVertex
100
AcDb2dVertex
 10
240.830276
 20
113.606949
 30
0.0
  0
VERTEX
  5
406
100
AcDbEntity
  8
0
100
AcDbVertex
100
AcDb2dVertex
 10
241.06691
 20
113.828819
 30
0.0
  0
VERTEX
  5
407
100
AcDbEntity
  8
0
100
AcDbVertex
100
AcDb2dVertex
 10
241.579468
 20
114.240723
 30
0.0
  0
VERTEX
  5
408
100
AcDbEntity
  8
0
100
AcDbVertex
100
AcDb2dVertex
 10
242.307602
 20
114.756813
 30
0.0
  0
VERTEX
  5
409
100
AcDbEntity
  8
0
100
AcDbVertex
100
AcDb2dVertex
 10
243.035736
 20
115.272896
 30
0.0
  0
VERTEX
  5
40A
100
AcDbEntity
  8
0
100
AcDbVertex
100
AcDb2dVertex
 10
243.548294
 20
115.684807
 30
0.0
  0
VERTEX
  5
40B
100
AcDbEntity
  8
0
100
AcDbVertex
100
AcDb2dVertex
 10
243.784927
 20
115.906677
 30
0.0
  0
VERTEX
  5
40C
100
AcDbEntity
  8
0
100
AcDbVertex
100
AcDb2dVertex
 10
244.100082
 20
116.264206
 30
0.0
  0
VERTEX
  5
40D
100
AcDbEntity
  8
0
100
AcDbVertex
100
AcDb2dVertex
 10
244.295074
 20
116.553146
 30
0.0
  0
VERTEX
  5
40E
100
AcDbEntity
  8
0
100
AcDbVertex
100
AcDb2dVertex
 10
244.448532
 20
116.859489
 30
0.0
  0
VERTEX
  5
40F
100
AcDbEntity
  8
0
100
AcDbVertex
100
AcDb2dVertex
 10
244.568359
 20
117.209351
 30
0.0
  0
SEQEND
  5
410
100
AcDbEntity
  8
0
  0
POLYLINE
  5
411
100
AcDbEntity
  8
0
 62
     7
100
AcDb2dPolyline
 66
     1
 10
0.0
 20
0.0
 30
0.0
 71
     8
  0
VERTEX
  5
412
100
AcDbEntity
  8
0
100
AcDbVertex
100
AcDb2dVertex
 10
239.854385
 20
111.315994
 30
0.0
  0
VERTEX
  5
413
100
AcDbEntity
  8
0
100
AcDbVertex
100
AcDb2dVertex
 10
242.670319
 20
111.298927
 30
0.0
  0
VERTEX
  5
414
100
AcDbEntity
  8
0
100
AcDbVertex
100
AcDb2dVertex
 10
243.633377
 20
111.306046
 30
0.0
  0
VERTEX
  5
415
100
AcDbEntity
  8
0
100
AcDbVertex
100
AcDb2dVertex
 10
243.775177
 20
111.312256
 30
0.0
  0
VERTEX
  5
416
100
AcDbEntity
  8
0
100
AcDbVertex
100
AcDb2dVertex
 10
243.791412
 20
111.314713
 30
0.0
  0
VERTEX
  5
417
100
AcDbEntity
  8
0
100
AcDbVertex
100
AcDb2dVertex
 10
243.792877
 20
111.315277
 30
0.0
  0
VERTEX
  5
418
100
AcDbEntity
  8
0
100
AcDbVertex
100
AcDb2dVertex
 10
243.79332
 20
111.315567
 30
0.0
  0
VERTEX
  5
419
100
AcDbEntity
  8
0
100
AcDbVertex
100
AcDb2dVertex
 10
243.79361
 20
111.315994
 30
0.0
  0
SEQEND
  5
41A
100
AcDbEntity
  8
0
  0
LINE
  5
41B
100
AcDbEntity
  8
0
 62
     7
 48
0.149608
100
AcDbLine
 10
243.79361
 20
111.315994
 30
0.0
 11
244.832779
 21
117.209412
 31
0.0
210
0.0
220
0.0
230
1.0
  0
LINE
  5
41C
100
AcDbEntity
  8
0
 62
     7
 48
0.004172
100
AcDbLine
 10
239.854385
 20
111.109413
 30
0.0
 11
239.6875
 21
111.109413
 31
0.0
210
0.0
220
0.0
230
1.0
  0
LINE
  5
41D
100
AcDbEntity
  8
0
 62
     7
 48
0.092326
100
AcDbLine
 10
235.994476
 20
111.109413
 30
0.0
 11
239.6875
 21
111.109413
 31
0.0
210
0.0
220
0.0
230
1.0
  0
LINE
  5
41E
100
AcDbEntity
  8
0
 62
     7
 48
0.092326
100
AcDbLine
 10
239.854385
 20
111.109413
 30
0.0
 11
243.547409
 21
111.109413
 31
0.0
210
0.0
220
0.0
230
1.0
  0
LINE
  5
41F
100
AcDbEntity
  8
0
 62
     7
 48
0.005165
100
AcDbLine
 10
239.854385
 20
111.315994
 30
0.0
 11
239.854385
 21
111.109413
 31
0.0
210
0.0
220
0.0
230
1.0
  0
ARC
  5
420
100
AcDbEntity
  8
0
 62
     7
100
AcDbCircle
 10
243.547409
 20
111.359413
 30
0.0
 40
0.25
210
0.0
220
0.0
230
1.0
100
AcDbArc
 50
270.000028
 51
350.000012
  0
ARC
  5
421
100
AcDbEntity
  8
0
 62
     7
100
AcDbCircle
 10
235.994476
 20
111.359413
 30
0.0
 40
0.25
210
0.0
220
0.0
230
1.0
100
AcDbArc
 50
190.000003
 51
270.000001
  0
LINE
  5
422
100
AcDbEntity
  8
0
 62
     7
 48
0.005165
100
AcDbLine
 10
239.6875
 20
111.315994
 30
0.0
 11
239.6875
 21
111.109413
 31
0.0
210
0.0
220
0.0
230
1.0
  0
POLYLINE
  5
423
100
AcDbEntity
  8
0
 62
     7
100
AcDb2dPolyline
 66
     1
 10
0.0
 20
0.0
 30
0.0
 71
     7
  0
VERTEX
  5
424
100
AcDbEntity
  8
0
100
AcDbVertex
100
AcDb2dVertex
 10
285.698273
 20
111.316002
 30
0.0
  0
VERTEX
  5
425
100
AcDbEntity
  8
0
100
AcDbVertex
100
AcDb2dVertex
 10
285.699066
 20
111.315254
 30
0.0
  0
VERTEX
  5
426
100
AcDbEntity
  8
0
100
AcDbVertex
100
AcDb2dVertex
 10
285.704559
 20
111.313797
 30
0.0
  0
VERTEX
  5
427
100
AcDbEntity
  8
0
100
AcDbVertex
100
AcDb2dVertex
 10
285.752411
 20
111.309784
 30
0.0
  0
VERTEX
  5
428
100
AcDbEntity
  8
0
100
AcDbVertex
100
AcDb2dVertex
 10
286.156219
 20
111.301483
 30
0.0
  0
VERTEX
  5
429
100
AcDbEntity
  8
0
100
AcDbVertex
100
AcDb2dVertex
 10
288.45459
 20
111.305557
 30
0.0
  0
VERTEX
  5
42A
100
AcDbEntity
  8
0
100
AcDbVertex
100
AcDb2dVertex
 10
289.637512
 20
111.315994
 30
0.0
  0
SEQEND
  5
42B
100
AcDbEntity
  8
0
  0
POLYLINE
  5
42C
100
AcDbEntity
  8
0
 62
     7
100
AcDb2dPolyline
 66
     1
 10
0.0
 20
0.0
 30
0.0
 71
    18
  0
VERTEX
  5
42D
100
AcDbEntity
  8
0
100
AcDbVertex
100
AcDb2dVertex
 10
289.637512
 20
111.315994
 30
0.0
  0
VERTEX
  5
42E
100
AcDbEntity
  8
0
100
AcDbVertex
100
AcDb2dVertex
 10
289.560608
 20
111.752174
 30
0.0
  0
VERTEX
  5
42F
100
AcDbEntity
  8
0
100
AcDbVertex
100
AcDb2dVertex
 10
289.506836
 20
112.042152
 30
0.0
  0
VERTEX
  5
430
100
AcDbEntity
  8
0
100
AcDbVertex
100
AcDb2dVertex
 10
289.43811
 20
112.329224
 30
0.0
  0
VERTEX
  5
431
100
AcDbEntity
  8
0
100
AcDbVertex
100
AcDb2dVertex
 10
289.32663
 20
112.650749
 30
0.0
  0
VERTEX
  5
432
100
AcDbEntity
  8
0
100
AcDbVertex
100
AcDb2dVertex
 10
289.173157
 20
112.958099
 30
0.0
  0
VERTEX
  5
433
100
AcDbEntity
  8
0
100
AcDbVertex
100
AcDb2dVertex
 10
288.977875
 20
113.247971
 30
0.0
  0
VERTEX
  5
434
100
AcDbEntity
  8
0
100
AcDbVertex
100
AcDb2dVertex
 10
288.662476
 20
113.606064
 30
0.0
  0
VERTEX
  5
435
100
AcDbEntity
  8
0
100
AcDbVertex
100
AcDb2dVertex
 10
288.425598
 20
113.828262
 30
0.0
  0
VERTEX
  5
436
100
AcDbEntity
  8
0
100
AcDbVertex
100
AcDb2dVertex
 10
287.912415
 20
114.240723
 30
0.0
  0
VERTEX
  5
437
100
AcDbEntity
  8
0
100
AcDbVertex
100
AcDb2dVertex
 10
287.184265
 20
114.756813
 30
0.0
  0
VERTEX
  5
438
100
AcDbEntity
  8
0
100
AcDbVertex
100
AcDb2dVertex
 10
286.456146
 20
115.272896
 30
0.0
  0
VERTEX
  5
439
100
AcDbEntity
  8
0
100
AcDbVertex
100
AcDb2dVertex
 10
285.942963
 20
115.685364
 30
0.0
  0
VERTEX
  5
43A
100
AcDbEntity
  8
0
100
AcDbVertex
100
AcDb2dVertex
 10
285.706085
 20
115.907562
 30
0.0
  0
VERTEX
  5
43B
100
AcDbEntity
  8
0
100
AcDbVertex
100
AcDb2dVertex
 10
285.390686
 20
116.265656
 30
0.0
  0
VERTEX
  5
43C
100
AcDbEntity
  8
0
100
AcDbVertex
100
AcDb2dVertex
 10
285.195404
 20
116.555527
 30
0.0
  0
VERTEX
  5
43D
100
AcDbEntity
  8
0
100
AcDbVertex
100
AcDb2dVertex
 10
285.041931
 20
116.862869
 30
0.0
  0
VERTEX
  5
43E
100
AcDbEntity
  8
0
100
AcDbVertex
100
AcDb2dVertex
 10
284.923523
 20
117.209335
 30
0.0
  0
SEQEND
  5
43F
100
AcDbEntity
  8
0
  0
LINE
  5
440
100
AcDbEntity
  8
0
 62
     7
 48
0.149608
100
AcDbLine
 10
285.698273
 20
111.315994
 30
0.0
 11
284.659119
 21
117.209412
 31
0.0
210
0.0
220
0.0
230
1.0
  0
LINE
  5
441
100
AcDbEntity
  8
0
 62
     7
 48
0.004172
100
AcDbLine
 10
289.804382
 20
111.315994
 30
0.0
 11
289.637512
 21
111.315994
 31
0.0
210
0.0
220
0.0
230
1.0
  0
POLYLINE
  5
442
100
AcDbEntity
  8
0
 62
     7
100
AcDb2dPolyline
 66
     1
 10
0.0
 20
0.0
 30
0.0
 71
    18
  0
VERTEX
  5
443
100
AcDbEntity
  8
0
100
AcDbVertex
100
AcDb2dVertex
 10
289.804382
 20
111.315994
 30
0.0
  0
VERTEX
  5
444
100
AcDbEntity
  8
0
100
AcDbVertex
100
AcDb2dVertex
 10
289.882477
 20
111.758949
 30
0.0
  0
VERTEX
  5
445
100
AcDbEntity
  8
0
100
AcDbVertex
100
AcDb2dVertex
 10
289.956787
 20
112.143372
 30
0.0
  0
VERTEX
  5
446
100
AcDbEntity
  8
0
100
AcDbVertex
100
AcDb2dVertex
 10
290.005035
 20
112.333641
 30
0.0
  0
VERTEX
  5
447
100
AcDbEntity
  8
0
100
AcDbVertex
100
AcDb2dVertex
 10
290.116669
 20
112.654137
 30
0.0
  0
VERTEX
  5
448
100
AcDbEntity
  8
0
100
AcDbVertex
100
AcDb2dVertex
 10
290.270111
 20
112.96048
 30
0.0
  0
VERTEX
  5
449
100
AcDbEntity
  8
0
100
AcDbVertex
100
AcDb2dVertex
 10
290.465118
 20
113.249413
 30
0.0
  0
VERTEX
  5
44A
100
AcDbEntity
  8
0
100
AcDbVertex
100
AcDb2dVertex
 10
290.780273
 20
113.606949
 30
0.0
  0
VERTEX
  5
44B
100
AcDbEntity
  8
0
100
AcDbVertex
100
AcDb2dVertex
 10
291.016907
 20
113.828819
 30
0.0
  0
VERTEX
  5
44C
100
AcDbEntity
  8
0
100
AcDbVertex
100
AcDb2dVertex
 10
291.529449
 20
114.240723
 30
0.0
  0
VERTEX
  5
44D
100
AcDbEntity
  8
0
100
AcDbVertex
100
AcDb2dVertex
 10
292.257599
 20
114.756813
 30
0.0
  0
VERTEX
  5
44E
100
AcDbEntity
  8
0
100
AcDbVertex
100
AcDb2dVertex
 10
292.985748
 20
115.272896
 30
0.0
  0
VERTEX
  5
44F
100
AcDbEntity
  8
0
100
AcDbVertex
100
AcDb2dVertex
 10
293.498291
 20
115.684807
 30
0.0
  0
VERTEX
  5
450
100
AcDbEntity
  8
0
100
AcDbVertex
100
AcDb2dVertex
 10
293.734924
 20
115.906677
 30
0.0
  0
VERTEX
  5
451
100
AcDbEntity
  8
0
100
AcDbVertex
100
AcDb2dVertex
 10
294.050079
 20
116.264206
 30
0.0
  0
VERTEX
  5
452
100
AcDbEntity
  8
0
100
AcDbVertex
100
AcDb2dVertex
 10
294.245087
 20
116.553146
 30
0.0
  0
VERTEX
  5
453
100
AcDbEntity
  8
0
100
AcDbVertex
100
AcDb2dVertex
 10
294.398529
 20
116.859489
 30
0.0
  0
VERTEX
  5
454
100
AcDbEntity
  8
0
100
AcDbVertex
100
AcDb2dVertex
 10
294.518372
 20
117.209351
 30
0.0
  0
SEQEND
  5
455
100
AcDbEntity
  8
0
  0
POLYLINE
  5
456
100
AcDbEntity
  8
0
 62
     7
100
AcDb2dPolyline
 66
     1
 10
0.0
 20
0.0
 30
0.0
 71
     8
  0
VERTEX
  5
457
100
AcDbEntity
  8
0
100
AcDbVertex
100
AcDb2dVertex
 10
289.804382
 20
111.315994
 30
0.0
  0
VERTEX
  5
458
100
AcDbEntity
  8
0
100
AcDbVertex
100
AcDb2dVertex
 10
292.6203
 20
111.298927
 30
0.0
  0
VERTEX
  5
459
100
AcDbEntity
  8
0
100
AcDbVertex
100
AcDb2dVertex
 10
293.583374
 20
111.306046
 30
0.0
  0
VERTEX
  5
45A
100
AcDbEntity
  8
0
100
AcDbVertex
100
AcDb2dVertex
 10
293.725159
 20
111.312256
 30
0.0
  0
VERTEX
  5
45B
100
AcDbEntity
  8
0
100
AcDbVertex
100
AcDb2dVertex
 10
293.741394
 20
111.314713
 30
0.0
  0
VERTEX
  5
45C
100
AcDbEntity
  8
0
100
AcDbVertex
100
AcDb2dVertex
 10
293.742859
 20
111.315277
 30
0.0
  0
VERTEX
  5
45D
100
AcDbEntity
  8
0
100
AcDbVertex
100
AcDb2dVertex
 10
293.743317
 20
111.315567
 30
0.0
  0
VERTEX
  5
45E
100
AcDbEntity
  8
0
100
AcDbVertex
100
AcDb2dVertex
 10
293.743591
 20
111.315994
 30
0.0
  0
SEQEND
  5
45F
100
AcDbEntity
  8
0
  0
LINE
  5
460
100
AcDbEntity
  8
0
 62
     7
 48
0.149608
100
AcDbLine
 10
293.743591
 20
111.315994
 30
0.0
 11
294.782776
 21
117.209412
 31
0.0
210
0.0
220
0.0
230
1.0
  0
LINE
  5
461
100
AcDbEntity
  8
0
 62
     7
 48
0.004172
100
AcDbLine
 10
289.804382
 20
111.109413
 30
0.0
 11
289.637512
 21
111.109413
 31
0.0
210
0.0
220
0.0
230
1.0
  0
LINE
  5
462
100
AcDbEntity
  8
0
 62
     7
 48
0.092326
100
AcDbLine
 10
285.944458
 20
111.109413
 30
0.0
 11
289.637512
 21
111.109413
 31
0.0
210
0.0
220
0.0
230
1.0
  0
LINE
  5
463
100
AcDbEntity
  8
0
 62
     7
 48
0.092326
100
AcDbLine
 10
289.804382
 20
111.109413
 30
0.0
 11
293.497406
 21
111.109413
 31
0.0
210
0.0
220
0.0
230
1.0
  0
LINE
  5
464
100
AcDbEntity
  8
0
 62
     7
 48
0.005165
100
AcDbLine
 10
289.804382
 20
111.315994
 30
0.0
 11
289.804382
 21
111.109413
 31
0.0
210
0.0
220
0.0
230
1.0
  0
ARC
  5
465
100
AcDbEntity
  8
0
 62
     7
100
AcDbCircle
 10
293.497406
 20
111.359413
 30
0.0
 40
0.25
210
0.0
220
0.0
230
1.0
100
AcDbArc
 50
270.000028
 51
350.000012
  0
ARC
  5
466
100
AcDbEntity
  8
0
 62
     7
100
AcDbCircle
 10
285.944458
 20
111.359413
 30
0.0
 40
0.25
210
0.0
220
0.0
230
1.0
100
AcDbArc
 50
190.000003
 51
270.000001
  0
LINE
  5
467
100
AcDbEntity
  8
0
 62
     7
 48
0.005165
100
AcDbLine
 10
289.637512
 20
111.315994
 30
0.0
 11
289.637512
 21
111.109413
 31
0.0
210
0.0
220
0.0
230
1.0
  0
LINE
  5
468
100
AcDbEntity
  8
0
 62
     7
 48
0.017244
100
AcDbLine
 10
296.295959
 20
187.759415
 30
0.0
 11
296.985718
 21
187.759415
 31
0.0
210
0.0
220
0.0
230
1.0
  0
LINE
  5
469
100
AcDbEntity
  8
0
 62
     7
 48
0.049005
100
AcDbLine
 10
296.985718
 20
187.759415
 30
0.0
 11
298.945923
 21
187.759415
 31
0.0
210
0.0
220
0.0
230
1.0
  0
LINE
  5
46A
100
AcDbEntity
  8
0
 62
     7
 48
0.017244
100
AcDbLine
 10
296.295959
 20
188.509415
 30
0.0
 11
296.985718
 21
188.509415
 31
0.0
210
0.0
220
0.0
230
1.0
  0
LINE
  5
46B
100
AcDbEntity
  8
0
 62
     7
 48
0.049005
100
AcDbLine
 10
296.985718
 20
188.509415
 30
0.0
 11
298.945923
 21
188.509415
 31
0.0
210
0.0
220
0.0
230
1.0
  0
LINE
  5
46C
100
AcDbEntity
  8
0
 62
     7
 48
0.01399
100
AcDbLine
 10
296.545959
 20
188.759415
 30
0.0
 11
297.10556
 21
188.759415
 31
0.0
210
0.0
220
0.0
230
1.0
  0
LINE
  5
46D
100
AcDbEntity
  8
0
 62
     7
 48
0.039759
100
AcDbLine
 10
297.10556
 20
188.759415
 30
0.0
 11
298.695923
 21
188.759415
 31
0.0
210
0.0
220
0.0
230
1.0
  0
LINE
  5
46E
100
AcDbEntity
  8
0
 62
     7
 48
0.01875
100
AcDbLine
 10
296.295959
 20
188.509415
 30
0.0
 11
296.295959
 21
187.759415
 31
0.0
210
0.0
220
0.0
230
1.0
  0
LINE
  5
46F
100
AcDbEntity
  8
0
 62
     7
 48
0.01875
100
AcDbLine
 10
298.945923
 20
188.509415
 30
0.0
 11
298.945923
 21
187.759415
 31
0.0
210
0.0
220
0.0
230
1.0
  0
ARC
  5
470
100
AcDbEntity
  8
0
 62
     7
100
AcDbCircle
 10
296.545959
 20
188.509415
 30
0.0
 40
0.25
210
0.0
220
0.0
230
1.0
100
AcDbArc
 50
90.000003
 51
180.000005
  0
ARC
  5
471
100
AcDbEntity
  8
0
 62
     7
100
AcDbCircle
 10
298.695923
 20
188.509415
 30
0.0
 40
0.25
210
0.0
220
0.0
230
1.0
100
AcDbArc
 50
360.0
 51
90.000003
  0
LINE
  5
472
100
AcDbEntity
  8
0
 62
     7
 48
0.0125
100
AcDbLine
 10
298.945923
 20
187.759415
 30
0.0
 11
298.945923
 21
187.259415
 31
0.0
210
0.0
220
0.0
230
1.0
  0
LINE
  5
473
100
AcDbEntity
  8
0
 62
     7
 48
0.066249
100
AcDbLine
 10
296.295959
 20
187.759415
 30
0.0
 11
298.945923
 21
187.759415
 31
0.0
210
0.0
220
0.0
230
1.0
  0
LINE
  5
474
100
AcDbEntity
  8
0
 62
     7
 48
0.0125
100
AcDbLine
 10
296.295959
 20
187.759415
 30
0.0
 11
296.295959
 21
187.259415
 31
0.0
210
0.0
220
0.0
230
1.0
  0
LINE
  5
475
100
AcDbEntity
  8
0
 62
     7
 48
0.00625
100
AcDbLine
 10
299.120941
 20
187.259415
 30
0.0
 11
299.120941
 21
187.009415
 31
0.0
210
0.0
220
0.0
230
1.0
  0
LINE
  5
476
100
AcDbEntity
  8
0
 62
     7
 48
0.075
100
AcDbLine
 10
296.120941
 20
187.259415
 30
0.0
 11
299.120941
 21
187.259415
 31
0.0
210
0.0
220
0.0
230
1.0
  0
LINE
  5
477
100
AcDbEntity
  8
0
 62
     7
 48
0.00625
100
AcDbLine
 10
296.120941
 20
187.259415
 30
0.0
 11
296.120941
 21
187.009415
 31
0.0
210
0.0
220
0.0
230
1.0
  0
ENDSEC
  0
SECTION
  2
OBJECTS
  0
DICTIONARY
  5
19
100
AcDbDictionary
  3
ACAD_GROUP
350
1A
  3
ACAD_MLINESTYLE
350
1B
  0
DICTIONARY
  5
1A
102
{ACAD_REACTORS
330
19
102
}
100
AcDbDictionary
  0
DICTIONARY
  5
1B
102
{ACAD_REACTORS
330
19
102
}
100
AcDbDictionary
  3
STANDARD
350
1C
  0
MLINESTYLE
  5
1C
102
{ACAD_REACTORS
330
1B
102
}
100
AcDbMlineStyle
  2
STANDARD
 70
     0
  3

 62
     0
 51
90.0
 52
90.0
 71
     2
 49
0.5
 62
   256
  6
BYLAYER
 49
-0.5
 62
   256
  6
BYLAYER
  0
ENDSEC
  0
EOF
