  0
SECTION
  2
HEADER
  9
$ACADVER
  1
AC1018
  9
$ACADMAINTVER
 70
   104
  9
$DWGCODEPAGE
  3
ANSI_932
  9
$LASTSAVEDBY
  1
kawabe
  9
$INSBASE
 10
0.0
 20
0.0
 30
0.0
  9
$EXTMIN
 10
473.4203475998802
 20
367.2157673184047
 30
0.0
  9
$EXTMAX
 10
1648.005276493888
 20
1211.668279281141
 30
0.0
  9
$LIMMIN
 10
0.0
 20
0.0
  9
$LIMMAX
 10
2100.0
 20
1485.0
  9
$ORTHOMODE
 70
     0
  9
$REGENMODE
 70
     1
  9
$FILLMODE
 70
     1
  9
$QTEXTMODE
 70
     0
  9
$MIRRTEXT
 70
     1
  9
$LTSCALE
 40
1.0
  9
$ATTMODE
 70
     1
  9
$TEXTSIZE
 40
2.5
  9
$TRACEWID
 40
1.0
  9
$TEXTSTYLE
  7
STANDARD
  9
$CLAYER
  8
0
  9
$CELTYPE
  6
BYLAYER
  9
$CECOLOR
 62
   256
  9
$CELTSCALE
 40
1.0
  9
$DISPSILH
 70
     0
  9
$DIMSCALE
 40
1.0
  9
$DIMASZ
 40
2.5
  9
$DIMEXO
 40
1.0
  9
$DIMDLI
 40
8.0
  9
$DIMRND
 40
0.0
  9
$DIMDLE
 40
0.0
  9
$DIMEXE
 40
1.25
  9
$DIMTP
 40
0.0
  9
$DIMTM
 40
0.0
  9
$DIMTXT
 40
2.5
  9
$DIMCEN
 40
0.0
  9
$DIMTSZ
 40
0.0
  9
$DIMTOL
 70
     0
  9
$DIMLIM
 70
     0
  9
$DIMTIH
 70
     0
  9
$DIMTOH
 70
     0
  9
$DIMSE1
 70
     0
  9
$DIMSE2
 70
     0
  9
$DIMTAD
 70
     3
  9
$DIMZIN
 70
     8
  9
$DIMBLK
  1

  9
$DIMASO
 70
     1
  9
$DIMSHO
 70
     1
  9
$DIMPOST
  1

  9
$DIMAPOST
  1

  9
$DIMALT
 70
     0
  9
$DIMALTD
 70
     4
  9
$DIMALTF
 40
0.0394
  9
$DIMLFAC
 40
1.0
  9
$DIMTOFL
 70
     1
  9
$DIMTVP
 40
0.0
  9
$DIMTIX
 70
     0
  9
$DIMSOXD
 70
     0
  9
$DIMSAH
 70
     1
  9
$DIMBLK1
  1
OPEN30
  9
$DIMBLK2
  1
OPEN30
  9
$DIMSTYLE
  2
STANDARD
  9
$DIMCLRD
 70
     4
  9
$DIMCLRE
 70
     4
  9
$DIMCLRT
 70
     3
  9
$DIMTFAC
 40
1.0
  9
$DIMGAP
 40
1.0
  9
$DIMJUST
 70
     0
  9
$DIMSD1
 70
     0
  9
$DIMSD2
 70
     0
  9
$DIMTOLJ
 70
     1
  9
$DIMTZIN
 70
     8
  9
$DIMALTZ
 70
     0
  9
$DIMALTTZ
 70
     0
  9
$DIMUPT
 70
     0
  9
$DIMDEC
 70
     4
  9
$DIMTDEC
 70
     4
  9
$DIMALTU
 70
     8
  9
$DIMALTTD
 70
     4
  9
$DIMTXSTY
  7
STANDARD
  9
$DIMAUNIT
 70
     0
  9
$DIMADEC
 70
     3
  9
$DIMALTRND
 40
0.0
  9
$DIMAZIN
 70
     2
  9
$DIMDSEP
 70
    46
  9
$DIMATFIT
 70
     3
  9
$DIMFRAC
 70
     0
  9
$DIMLDRBLK
  1
OPEN30
  9
$DIMLUNIT
 70
     2
  9
$DIMLWD
 70
    -2
  9
$DIMLWE
 70
    -2
  9
$DIMTMOVE
 70
     0
  9
$LUNITS
 70
     2
  9
$LUPREC
 70
     4
  9
$SKETCHINC
 40
1.0
  9
$FILLETRAD
 40
0.0
  9
$AUNITS
 70
     0
  9
$AUPREC
 70
     0
  9
$MENU
  1
acad
  9
$ELEVATION
 40
0.0
  9
$PELEVATION
 40
0.0
  9
$THICKNESS
 40
0.0
  9
$LIMCHECK
 70
     0
  9
$CHAMFERA
 40
0.0
  9
$CHAMFERB
 40
0.0
  9
$CHAMFERC
 40
20.0
  9
$CHAMFERD
 40
0.0
  9
$SKPOLY
 70
     0
  9
$TDCREATE
 40
2451570.536335903
  9
$TDUCREATE
 40
2451570.161335903
  9
$TDUPDATE
 40
2456409.594520579
  9
$TDUUPDATE
 40
2456409.219520579
  9
$TDINDWG
 40
0.1378722801
  9
$TDUSRTIMER
 40
0.1378722801
  9
$USRTIMER
 70
     1
  9
$ANGBASE
 50
0.0
  9
$ANGDIR
 70
     0
  9
$PDMODE
 70
     3
  9
$PDSIZE
 40
0.0
  9
$PLINEWID
 40
0.0
  9
$SPLFRAME
 70
     0
  9
$SPLINETYPE
 70
     6
  9
$SPLINESEGS
 70
     8
  9
$HANDSEED
  5
3BA0
  9
$SURFTAB1
 70
     6
  9
$SURFTAB2
 70
     6
  9
$SURFTYPE
 70
     6
  9
$SURFU
 70
     6
  9
$SURFV
 70
     6
  9
$UCSBASE
  2

  9
$UCSNAME
  2

  9
$UCSORG
 10
0.0
 20
0.0
 30
0.0
  9
$UCSXDIR
 10
1.0
 20
0.0
 30
0.0
  9
$UCSYDIR
 10
0.0
 20
1.0
 30
0.0
  9
$UCSORTHOREF
  2

  9
$UCSORTHOVIEW
 70
     0
  9
$UCSORGTOP
 10
0.0
 20
0.0
 30
0.0
  9
$UCSORGBOTTOM
 10
0.0
 20
0.0
 30
0.0
  9
$UCSORGLEFT
 10
0.0
 20
0.0
 30
0.0
  9
$UCSORGRIGHT
 10
0.0
 20
0.0
 30
0.0
  9
$UCSORGFRONT
 10
0.0
 20
0.0
 30
0.0
  9
$UCSORGBACK
 10
0.0
 20
0.0
 30
0.0
  9
$PUCSBASE
  2

  9
$PUCSNAME
  2

  9
$PUCSORG
 10
0.0
 20
0.0
 30
0.0
  9
$PUCSXDIR
 10
1.0
 20
0.0
 30
0.0
  9
$PUCSYDIR
 10
0.0
 20
1.0
 30
0.0
  9
$PUCSORTHOREF
  2

  9
$PUCSORTHOVIEW
 70
     0
  9
$PUCSORGTOP
 10
0.0
 20
0.0
 30
0.0
  9
$PUCSORGBOTTOM
 10
0.0
 20
0.0
 30
0.0
  9
$PUCSORGLEFT
 10
0.0
 20
0.0
 30
0.0
  9
$PUCSORGRIGHT
 10
0.0
 20
0.0
 30
0.0
  9
$PUCSORGFRONT
 10
0.0
 20
0.0
 30
0.0
  9
$PUCSORGBACK
 10
0.0
 20
0.0
 30
0.0
  9
$USERI1
 70
     0
  9
$USERI2
 70
     0
  9
$USERI3
 70
     0
  9
$USERI4
 70
     0
  9
$USERI5
 70
     0
  9
$USERR1
 40
0.0
  9
$USERR2
 40
0.0
  9
$USERR3
 40
0.0
  9
$USERR4
 40
0.0
  9
$USERR5
 40
0.0
  9
$WORLDVIEW
 70
     1
  9
$SHADEDGE
 70
     3
  9
$SHADEDIF
 70
    70
  9
$TILEMODE
 70
     1
  9
$MAXACTVP
 70
    48
  9
$PINSBASE
 10
0.0
 20
0.0
 30
0.0
  9
$PLIMCHECK
 70
     0
  9
$PEXTMIN
 10
1.000000000000000E+20
 20
1.000000000000000E+20
 30
1.000000000000000E+20
  9
$PEXTMAX
 10
-1.000000000000000E+20
 20
-1.000000000000000E+20
 30
-1.000000000000000E+20
  9
$PLIMMIN
 10
0.0
 20
0.0
  9
$PLIMMAX
 10
420.0
 20
297.0
  9
$UNITMODE
 70
     0
  9
$VISRETAIN
 70
     0
  9
$PLINEGEN
 70
     0
  9
$PSLTSCALE
 70
     0
  9
$TREEDEPTH
 70
  3020
  9
$CMLSTYLE
  2
STANDARD
  9
$CMLJUST
 70
     0
  9
$CMLSCALE
 40
20.0
  9
$PROXYGRAPHICS
 70
     1
  9
$MEASUREMENT
 70
     1
  9
$CELWEIGHT
370
    -1
  9
$ENDCAPS
280
     0
  9
$JOINSTYLE
280
     0
  9
$LWDISPLAY
290
     0
  9
$INSUNITS
 70
     0
  9
$HYPERLINKBASE
  1

  9
$STYLESHEET
  1
標準1.ctb
  9
$XEDIT
290
     1
  9
$CEPSNTYPE
380
     0
  9
$PSTYLEMODE
290
     1
  9
$FINGERPRINTGUID
  2
{5F48A7CD-59E2-44B5-85E7-03D7F49E3F49}
  9
$VERSIONGUID
  2
{AB67C8BA-EAA6-4633-B1C4-CC6E7F1A69A2}
  9
$EXTNAMES
290
     1
  9
$PSVPSCALE
 40
0.0
  9
$OLESTARTUP
290
     0
  9
$SORTENTS
280
   127
  9
$INDEXCTL
280
     0
  9
$HIDETEXT
280
     0
  9
$XCLIPFRAME
290
     0
  9
$HALOGAP
280
     0
  9
$OBSCOLOR
 70
   257
  9
$OBSLTYPE
280
     0
  9
$INTERSECTIONDISPLAY
280
     0
  9
$INTERSECTIONCOLOR
 70
   257
  9
$DIMASSOC
280
     1
  9
$PROJECTNAME
  1

  0
ENDSEC
  0
SECTION
  2
CLASSES
  0
CLASS
  1
ACDBDICTIONARYWDFLT
  2
AcDbDictionaryWithDefault
  3
ObjectDBX Classes
 90
        0
 91
        1
280
     0
281
     0
  0
CLASS
  1
DICTIONARYVAR
  2
AcDbDictionaryVar
  3
ObjectDBX Classes
 90
        0
 91
        7
280
     0
281
     0
  0
CLASS
  1
MATERIAL
  2
AcDbMaterial
  3
ObjectDBX Classes
 90
     1153
 91
        3
280
     0
281
     0
  0
CLASS
  1
VISUALSTYLE
  2
AcDbVisualStyle
  3
ObjectDBX Classes
 90
     4095
 91
       16
280
     0
281
     0
  0
CLASS
  1
TABLESTYLE
  2
AcDbTableStyle
  3
ObjectDBX Classes
 90
     4095
 91
        1
280
     0
281
     0
  0
CLASS
  1
SCALE
  2
AcDbScale
  3
ObjectDBX Classes
 90
     1153
 91
       33
280
     0
281
     0
  0
CLASS
  1
MLEADERSTYLE
  2
AcDbMLeaderStyle
  3
ACDB_MLEADERSTYLE_CLASS
 90
     4095
 91
        1
280
     0
281
     0
  0
CLASS
  1
CELLSTYLEMAP
  2
AcDbCellStyleMap
  3
ObjectDBX Classes
 90
     1152
 91
        2
280
     0
281
     0
  0
CLASS
  1
SORTENTSTABLE
  2
AcDbSortentsTable
  3
ObjectDBX Classes
 90
        0
 91
        1
280
     0
281
     0
  0
CLASS
  1
DIMASSOC
  2
AcDbDimAssoc
  3
"AcDbDimAssoc|Product Desc:     AcDim ARX App For Dimension|Company:          Autodesk, Inc.|WEB Address:      www.autodesk.com"
 90
        0
 91
        0
280
     0
281
     0
  0
ENDSEC
  0
SECTION
  2
TABLES
  0
TABLE
  2
VPORT
  5
8
102
{ACAD_XDICTIONARY
360
598
102
}
330
0
100
AcDbSymbolTable
 70
     1
  0
VPORT
  5
528
330
8
100
AcDbSymbolTableRecord
100
AcDbViewportTableRecord
  2
*Active
 70
     0
 10
0.0
 20
0.0
 11
1.0
 21
1.0
 12
1044.103418383578
 22
779.5056364072068
 13
0.0
 23
0.0
 14
1.0
 24
1.0
 15
25.0
 25
25.0
 16
0.0
 26
0.0
 36
1.0
 17
0.0
 27
0.0
 37
0.0
 40
914.9095046629367
 41
2.248815165876777
 42
50.0
 43
0.0
 44
0.0
 50
0.0
 51
0.0
 71
     0
 72
   100
 73
     1
 74
     0
 75
     0
 76
     0
 77
     0
 78
     0
281
     0
 65
     1
110
0.0
120
0.0
130
0.0
111
1.0
121
0.0
131
0.0
112
0.0
122
1.0
132
0.0
 79
     0
146
0.0
  0
ENDTAB
  0
TABLE
  2
LTYPE
  5
5
330
0
100
AcDbSymbolTable
 70
     4
  0
LTYPE
  5
12
330
5
100
AcDbSymbolTableRecord
100
AcDbLinetypeTableRecord
  2
BYBLOCK
 70
     0
  3

 72
    65
 73
     0
 40
0.0
  0
LTYPE
  5
13
330
5
100
AcDbSymbolTableRecord
100
AcDbLinetypeTableRecord
  2
BYLAYER
 70
     0
  3

 72
    65
 73
     0
 40
0.0
  0
LTYPE
  5
14
330
5
100
AcDbSymbolTableRecord
100
AcDbLinetypeTableRecord
  2
CONTINUOUS
 70
     0
  3
Solid line
 72
    65
 73
     0
 40
0.0
  0
LTYPE
  5
807
330
5
100
AcDbSymbolTableRecord
100
AcDbLinetypeTableRecord
  2
DASHED
 70
     0
  3
__ __ __ __ __ __ __ __ __ __ __ __ __ __ __ __
 72
    65
 73
     2
 40
15.0
 49
12.0
 74
     0
 49
-3.0
 74
     0
  0
LTYPE
  5
1ED8
330
5
100
AcDbSymbolTableRecord
100
AcDbLinetypeTableRecord
  2
CENTER
 70
     0
  3
Center ____ _ ____ _ ____ _ ____ _ ____ _ ____
 72
    65
 73
     4
 40
50.8
 49
31.75
 74
     0
 49
-6.349999999999999
 74
     0
 49
6.349999999999999
 74
     0
 49
-6.349999999999999
 74
     0
  0
LTYPE
  5
1ED9
330
5
100
AcDbSymbolTableRecord
100
AcDbLinetypeTableRecord
  2
PHANTOM
 70
     0
  3
Phantom ______  __  __  ______  __  __  ______
 72
    65
 73
     6
 40
63.5
 49
31.75
 74
     0
 49
-6.349999999999999
 74
     0
 49
6.349999999999999
 74
     0
 49
-6.349999999999999
 74
     0
 49
6.349999999999999
 74
     0
 49
-6.349999999999999
 74
     0
  0
ENDTAB
  0
TABLE
  2
LAYER
  5
2
102
{ACAD_XDICTIONARY
360
646
102
}
330
0
100
AcDbSymbolTable
 70
     2
  0
LAYER
  5
E
102
{ACAD_XDICTIONARY
360
586
102
}
330
2
100
AcDbSymbolTableRecord
100
AcDbLayerTableRecord
  2
0
 70
     0
 62
     7
  6
CONTINUOUS
370
    -3
390
2EB
  0
LAYER
  5
808
330
2
100
AcDbSymbolTableRecord
100
AcDbLayerTableRecord
  2
Defpoints
 70
     0
 62
     7
  6
CONTINUOUS
290
     0
370
    20
390
2EB
  0
ENDTAB
  0
TABLE
  2
STYLE
  5
3
330
0
100
AcDbSymbolTable
 70
     2
  0
STYLE
  5
F
330
3
100
AcDbSymbolTableRecord
100
AcDbTextStyleTableRecord
  2
STANDARD
 70
     0
 40
0.0
 41
1.0
 50
0.0
 71
     0
 42
2.5
  3
txt.shx
  4
extfont.shx
  0
STYLE
  5
70
330
3
100
AcDbSymbolTableRecord
100
AcDbTextStyleTableRecord
  2

 70
     1
 40
0.0
 41
1.0
 50
0.0
 71
     0
 42
2.5
  3
ltypeshp.shx
  4

  0
ENDTAB
  0
TABLE
  2
VIEW
  5
6
330
0
100
AcDbSymbolTable
 70
     0
  0
ENDTAB
  0
TABLE
  2
UCS
  5
7
330
0
100
AcDbSymbolTable
 70
     0
  0
ENDTAB
  0
TABLE
  2
APPID
  5
9
330
0
100
AcDbSymbolTable
 70
     9
  0
APPID
  5
10
330
9
100
AcDbSymbolTableRecord
100
AcDbRegAppTableRecord
  2
ACAD
 70
     0
  0
APPID
  5
580
330
9
100
AcDbSymbolTableRecord
100
AcDbRegAppTableRecord
  2
ACAD_MLEADERVER
 70
     0
  0
APPID
  5
5F8
330
9
100
AcDbSymbolTableRecord
100
AcDbRegAppTableRecord
  2
AcadAnnoPO
 70
     0
  0
APPID
  5
60D
330
9
100
AcDbSymbolTableRecord
100
AcDbRegAppTableRecord
  2
ACAD_PSEXT
 70
     0
  0
APPID
  5
644
330
9
100
AcDbSymbolTableRecord
100
AcDbRegAppTableRecord
  2
ACAD_DSTYLE_DIMJAG
 70
     0
  0
APPID
  5
645
330
9
100
AcDbSymbolTableRecord
100
AcDbRegAppTableRecord
  2
ACAD_DSTYLE_DIMTALN
 70
     0
  0
APPID
  5
CCF
330
9
100
AcDbSymbolTableRecord
100
AcDbRegAppTableRecord
  2
GENIUS_GENODEF_13
 70
     0
  0
APPID
  5
CD0
330
9
100
AcDbSymbolTableRecord
100
AcDbRegAppTableRecord
  2
GENIUS_GENOBJ-N-CEN_13
 70
     0
  0
APPID
  5
3B46
330
9
100
AcDbSymbolTableRecord
100
AcDbRegAppTableRecord
  2
ACAD_EXEMPT_FROM_CAD_STANDARDS
 70
     0
  0
ENDTAB
  0
TABLE
  2
DIMSTYLE
  5
A
330
0
100
AcDbSymbolTable
 70
     1
100
AcDbDimStyleTable
 71
     1
340
1D
  0
DIMSTYLE
105
1D
330
A
100
AcDbSymbolTableRecord
100
AcDbDimStyleTableRecord
  2
STANDARD
 70
     0
 41
2.5
 42
1.0
 43
8.0
 44
1.25
 73
     0
 74
     0
 77
     3
 78
     8
 79
     2
140
2.5
141
0.0
143
0.0394
147
1.0
171
     4
172
     1
173
     1
176
     4
177
     4
178
     3
179
     3
273
     8
274
     4
284
     8
340
F
341
20
343
20
344
20
  0
ENDTAB
  0
TABLE
  2
BLOCK_RECORD
  5
1
330
0
100
AcDbSymbolTable
 70
     1
  0
BLOCK_RECORD
  5
18
102
{ACAD_XDICTIONARY
360
CB1
102
}
330
1
100
AcDbSymbolTableRecord
100
AcDbBlockTableRecord
  2
*MODEL_SPACE
340
2F0
  0
BLOCK_RECORD
  5
15
330
1
100
AcDbSymbolTableRecord
100
AcDbBlockTableRecord
  2
*PAPER_SPACE
340
2F1
  0
BLOCK_RECORD
  5
20
330
1
100
AcDbSymbolTableRecord
100
AcDbBlockTableRecord
  2
_OPEN30
340
0
  0
ENDTAB
  0
ENDSEC
  0
SECTION
  2
BLOCKS
  0
BLOCK
  5
19
330
18
100
AcDbEntity
  8
0
100
AcDbBlockBegin
  2
*MODEL_SPACE
 70
     0
 10
0.0
 20
0.0
 30
0.0
  3
*MODEL_SPACE
  1

  0
ENDBLK
  5
1A
330
18
100
AcDbEntity
  8
0
100
AcDbBlockEnd
  0
BLOCK
  5
16
330
15
100
AcDbEntity
 67
     1
  8
0
100
AcDbBlockBegin
  2
*PAPER_SPACE
 70
     0
 10
0.0
 20
0.0
 30
0.0
  3
*PAPER_SPACE
  1

  0
ENDBLK
  5
17
330
15
100
AcDbEntity
 67
     1
  8
0
100
AcDbBlockEnd
  0
BLOCK
  5
24
330
20
100
AcDbEntity
  8
0
100
AcDbBlockBegin
  2
_OPEN30
 70
     0
 10
0.0
 20
0.0
 30
0.0
  3
_OPEN30
  1

  0
LINE
  5
21
330
20
100
AcDbEntity
  8
0
  6
ByBlock
 62
     0
100
AcDbLine
 10
-1.0
 20
0.26794919
 30
0.0
 11
0.0
 21
0.0
 31
0.0
  0
LINE
  5
22
330
20
100
AcDbEntity
  8
0
  6
ByBlock
 62
     0
100
AcDbLine
 10
0.0
 20
0.0
 30
0.0
 11
-1.0
 21
-0.26794919
 31
0.0
  0
LINE
  5
23
330
20
100
AcDbEntity
  8
0
  6
ByBlock
 62
     0
100
AcDbLine
 10
0.0
 20
0.0
 30
0.0
 11
-1.0
 21
0.0
 31
0.0
  0
ENDBLK
  5
25
330
20
100
AcDbEntity
  8
0
100
AcDbBlockEnd
  0
ENDSEC
  0
SECTION
  2
ENTITIES
  0
LINE
  5
3511
330
18
100
AcDbEntity
  8
0
100
AcDbLine
 10
656.4203475997637
 20
377.2157673184047
 30
0.0
 11
640.0870142663334
 21
377.215767317357
 31
0.0
  0
LINE
  5
3514
330
18
100
AcDbEntity
  8
0
100
AcDbLine
 10
1075.050331250459
 20
911.2157673191031
 30
0.0
 11
1075.050331250459
 21
877.2157673188702
 31
0.0
  0
LINE
  5
3515
330
18
100
AcDbEntity
  8
0
100
AcDbLine
 10
1081.050331250371
 20
871.2157673188704
 30
0.0
 11
1082.050331250459
 21
871.2157673188704
 31
0.0
  0
ARC
  5
3516
330
18
100
AcDbEntity
  8
0
100
AcDbCircle
 10
1081.050331250459
 20
877.2157673188702
 30
0.0
 40
6.0
100
AcDbArc
 50
180.0
 51
269.9999999983325
  0
LINE
  5
3517
330
18
100
AcDbEntity
  8
0
100
AcDbLine
 10
1065.050331250517
 20
921.2157673191031
 30
0.0
 11
1059.050331250488
 21
921.2157673192196
 31
0.0
  0
LINE
  5
3518
330
18
100
AcDbEntity
  8
0
100
AcDbLine
 10
1049.050331250488
 20
911.2157673192196
 30
0.0
 11
1049.050331250488
 21
888.7146817204992
 31
0.0
  0
ARC
  5
3519
330
18
100
AcDbEntity
  8
0
100
AcDbCircle
 10
1065.050331250459
 20
911.2157673191031
 30
0.0
 40
10.0
100
AcDbArc
 50
0.0
 51
90.0
  0
ARC
  5
351A
330
18
100
AcDbEntity
  8
0
100
AcDbCircle
 10
1059.050331250488
 20
911.2157673192196
 30
0.0
 40
10.0
100
AcDbArc
 50
90.0
 51
180.0
  0
LINE
  5
351B
330
18
100
AcDbEntity
  8
0
100
AcDbLine
 10
980.1590290228341
 20
849.2291815877178
 30
0.0
 11
979.4035755057848
 21
851.5542284402981
 31
0.0
  0
LINE
  5
351C
330
18
100
AcDbEntity
  8
0
100
AcDbLine
 10
926.6199388513486
 20
834.4037852523834
 30
0.0
 11
1035.230671137993
 21
869.6935513946446
 31
0.0
  0
LINE
  5
351D
330
18
100
AcDbEntity
  8
0
100
AcDbLine
 10
925.2438510993233
 20
831.7030609738067
 30
0.0
 11
926.6199388514069
 21
834.4037852524998
 31
0.0
  0
ARC
  5
351E
330
18
100
AcDbEntity
  8
0
100
AcDbCircle
 10
1029.050331250488
 20
888.7146817204992
 30
0.0
 40
20.0
100
AcDbArc
 50
288.0000000005742
 51
0.0
  0
LINE
  5
351F
330
18
100
AcDbEntity
  8
0
100
AcDbLine
 10
1052.050331250488
 20
911.2157673192196
 30
0.0
 11
1052.050331250488
 21
888.7146817204992
 31
0.0
  0
LINE
  5
3520
330
18
100
AcDbEntity
  8
0
100
AcDbLine
 10
1072.050331250459
 20
911.2157673191031
 30
0.0
 11
1072.050331250459
 21
877.2157673188702
 31
0.0
  0
ARC
  5
3521
330
18
100
AcDbEntity
  8
0
100
AcDbCircle
 10
1059.050331250488
 20
911.2157673192196
 30
0.0
 40
7.0
100
AcDbArc
 50
90.0
 51
180.0
  0
ARC
  5
3522
330
18
100
AcDbEntity
  8
0
100
AcDbCircle
 10
1065.050331250459
 20
911.2157673191031
 30
0.0
 40
7.0
100
AcDbArc
 50
0.0
 51
90.0
  0
LINE
  5
3523
330
18
100
AcDbEntity
  8
0
100
AcDbLine
 10
1065.050331250459
 20
918.2157673191031
 30
0.0
 11
1059.05033125043
 21
918.2157673192195
 31
0.0
  0
ARC
  5
3524
330
18
100
AcDbEntity
  8
0
100
AcDbCircle
 10
1029.050331250488
 20
888.7146817204992
 30
0.0
 40
23.0
100
AcDbArc
 50
296.1337561459015
 51
0.0
  0
ARC
  5
3525
330
18
100
AcDbEntity
  8
0
100
AcDbCircle
 10
1082.050331250488
 20
882.5491006525917
 30
0.0
 40
11.33333333354162
100
AcDbArc
 50
208.0724869362442
 51
270.0
  0
LINE
  5
3526
330
18
100
AcDbEntity
  8
0
 62
     4
100
AcDbLine
 10
1483.505276494266
 20
381.2157673132824
 30
0.0
 11
1483.505276494296
 21
553.2157672950051
 31
0.0
  0
LINE
  5
3527
330
18
100
AcDbEntity
  8
0
 62
     4
100
AcDbLine
 10
1485.505276494295
 20
555.2157672950052
 30
0.0
 11
1626.505276494528
 21
555.215767294656
 31
0.0
  0
LINE
  5
3528
330
18
100
AcDbEntity
  8
0
 62
     4
100
AcDbLine
 10
1485.505276494237
 20
379.2157673132824
 30
0.0
 11
1626.505276494703
 21
379.2157673106049
 31
0.0
  0
LINE
  5
3529
330
18
100
AcDbEntity
  8
0
 62
     4
100
AcDbLine
 10
1628.505276494528
 20
553.2157672946559
 30
0.0
 11
1628.505276494732
 21
381.2157673106049
 31
0.0
  0
ARC
  5
352A
330
18
100
AcDbEntity
  8
0
 62
     4
100
AcDbCircle
 10
1485.505276494295
 20
553.2157672950051
 30
0.0
 40
2.0
100
AcDbArc
 50
90.0
 51
180.0
  0
ARC
  5
352B
330
18
100
AcDbEntity
  8
0
 62
     4
100
AcDbCircle
 10
1626.505276494528
 20
553.2157672946559
 30
0.0
 40
2.0
100
AcDbArc
 50
0.0
 51
90.0
  0
ARC
  5
352C
330
18
100
AcDbEntity
  8
0
 62
     4
100
AcDbCircle
 10
1485.505276494266
 20
381.2157673132824
 30
0.0
 40
2.0
100
AcDbArc
 50
180.0
 51
269.9999999983325
  0
ARC
  5
352D
330
18
100
AcDbEntity
  8
0
 62
     4
100
AcDbCircle
 10
1626.505276494732
 20
381.2157673106049
 30
0.0
 40
2.0
100
AcDbArc
 50
269.9999999983325
 51
0.0
  0
CIRCLE
  5
352E
330
18
100
AcDbEntity
  8
0
 62
     4
100
AcDbCircle
 10
1612.005276494005
 20
501.2157673171241
 30
0.0
 40
1.5
  0
CIRCLE
  5
352F
330
18
100
AcDbEntity
  8
0
 62
     4
100
AcDbCircle
 10
1587.005276494005
 20
501.2157673171241
 30
0.0
 40
1.5
  0
LINE
  5
3530
330
18
100
AcDbEntity
  8
0
 62
     4
100
AcDbLine
 10
1591.005276494005
 20
497.2157673171241
 30
0.0
 11
1608.005276494004
 21
497.2157673171241
 31
0.0
  0
LINE
  5
3531
330
18
100
AcDbEntity
  8
0
 62
     4
100
AcDbLine
 10
1608.005276494004
 20
497.2157673171241
 30
0.0
 11
1608.005276494004
 21
505.2157673171241
 31
0.0
  0
LINE
  5
3532
330
18
100
AcDbEntity
  8
0
 62
     4
100
AcDbLine
 10
1608.005276494004
 20
505.2157673171241
 30
0.0
 11
1591.005276494005
 21
505.2157673171241
 31
0.0
  0
LINE
  5
3533
330
18
100
AcDbEntity
  8
0
 62
     4
100
AcDbLine
 10
1591.005276494005
 20
505.2157673171241
 30
0.0
 11
1591.005276494005
 21
497.2157673171241
 31
0.0
  0
LINE
  5
3534
330
18
100
AcDbEntity
  8
0
 62
     4
100
AcDbLine
 10
1596.005278494253
 20
637.7157722984193
 30
0.0
 11
1596.005278494253
 21
620.7157712984117
 31
0.0
  0
LINE
  5
3535
330
18
100
AcDbEntity
  8
0
 62
     4
100
AcDbLine
 10
1593.005278494253
 20
637.7157722984193
 30
0.0
 11
1593.005278494253
 21
620.7157712984117
 31
0.0
  0
LINE
  5
3536
330
18
100
AcDbEntity
  8
0
 62
     4
100
AcDbLine
 10
1522.005277494478
 20
637.7157722984193
 30
0.0
 11
1522.005277494478
 21
620.7157712984117
 31
0.0
  0
LINE
  5
3537
330
18
100
AcDbEntity
  8
0
 62
     4
100
AcDbLine
 10
1525.005277494478
 20
637.7157722984193
 30
0.0
 11
1525.005277494478
 21
620.7157712984117
 31
0.0
  0
LINE
  5
3538
330
18
100
AcDbEntity
  8
0
 62
     4
100
AcDbLine
 10
1590.005278494253
 20
637.7157722984193
 30
0.0
 11
1590.005278494253
 21
620.7157712984117
 31
0.0
  0
LINE
  5
3539
330
18
100
AcDbEntity
  8
0
 62
     4
100
AcDbLine
 10
1587.005278494253
 20
637.7157722984193
 30
0.0
 11
1587.005278494253
 21
620.7157712984117
 31
0.0
  0
LINE
  5
353A
330
18
100
AcDbEntity
  8
0
 62
     4
100
AcDbLine
 10
1519.005277494478
 20
637.7157722984193
 30
0.0
 11
1519.005277494478
 21
620.7157712984117
 31
0.0
  0
LINE
  5
353B
330
18
100
AcDbEntity
  8
0
 62
     4
100
AcDbLine
 10
1516.005277494478
 20
637.7157722984193
 30
0.0
 11
1516.005277494478
 21
620.7157712984117
 31
0.0
  0
LINE
  5
353C
330
18
100
AcDbEntity
  8
0
 62
     4
100
AcDbLine
 10
1584.005278494253
 20
637.7157722984193
 30
0.0
 11
1584.005278494253
 21
620.7157712984117
 31
0.0
  0
LINE
  5
353D
330
18
100
AcDbEntity
  8
0
 62
     4
100
AcDbLine
 10
1581.005278494252
 20
637.7157722984193
 30
0.0
 11
1581.005278494252
 21
620.7157712984117
 31
0.0
  0
LINE
  5
353E
330
18
100
AcDbEntity
  8
0
 62
     4
100
AcDbLine
 10
1560.005278494253
 20
637.7157722984193
 30
0.0
 11
1560.005278494253
 21
620.7157712984117
 31
0.0
  0
LINE
  5
353F
330
18
100
AcDbEntity
  8
0
 62
     4
100
AcDbLine
 10
1566.005278494253
 20
637.7157722984193
 30
0.0
 11
1566.005278494253
 21
620.7157712984117
 31
0.0
  0
LINE
  5
3540
330
18
100
AcDbEntity
  8
0
 62
     4
100
AcDbLine
 10
1563.005278494253
 20
637.7157722984193
 30
0.0
 11
1563.005278494253
 21
620.7157712984117
 31
0.0
  0
LINE
  5
3541
330
18
100
AcDbEntity
  8
0
 62
     4
100
AcDbLine
 10
1557.005278494252
 20
637.7157722984193
 30
0.0
 11
1557.005278494252
 21
620.7157712984117
 31
0.0
  0
LINE
  5
3542
330
18
100
AcDbEntity
  8
0
 62
     4
100
AcDbLine
 10
1546.005277494478
 20
637.7157722984193
 30
0.0
 11
1546.005277494478
 21
620.7157712984117
 31
0.0
  0
LINE
  5
3543
330
18
100
AcDbEntity
  8
0
 62
     4
100
AcDbLine
 10
1572.005278494253
 20
637.7157722984193
 30
0.0
 11
1572.005278494253
 21
620.7157712984117
 31
0.0
  0
LINE
  5
3544
330
18
100
AcDbEntity
  8
0
 62
     4
100
AcDbLine
 10
1569.005278494253
 20
637.7157722984193
 30
0.0
 11
1569.005278494253
 21
620.7157712984117
 31
0.0
  0
LINE
  5
3545
330
18
100
AcDbEntity
  8
0
 62
     4
100
AcDbLine
 10
1543.005277494478
 20
637.7157722984193
 30
0.0
 11
1543.005277494478
 21
620.7157712984117
 31
0.0
  0
LINE
  5
3546
330
18
100
AcDbEntity
  8
0
 62
     4
100
AcDbLine
 10
1578.005278494253
 20
637.7157722984193
 30
0.0
 11
1578.005278494253
 21
620.7157712984117
 31
0.0
  0
LINE
  5
3547
330
18
100
AcDbEntity
  8
0
 62
     4
100
AcDbLine
 10
1575.005278494252
 20
637.7157722984193
 30
0.0
 11
1575.005278494252
 21
620.7157712984117
 31
0.0
  0
LINE
  5
3548
330
18
100
AcDbEntity
  8
0
 62
     4
100
AcDbLine
 10
1540.005277494478
 20
637.7157722984193
 30
0.0
 11
1540.005277494478
 21
620.7157712984117
 31
0.0
  0
LINE
  5
3549
330
18
100
AcDbEntity
  8
0
 62
     4
100
AcDbLine
 10
1549.005277494478
 20
637.7157722984193
 30
0.0
 11
1549.005277494478
 21
620.7157712984117
 31
0.0
  0
LINE
  5
354A
330
18
100
AcDbEntity
  8
0
 62
     4
100
AcDbLine
 10
1555.005277494478
 20
637.7157722984193
 30
0.0
 11
1555.005277494478
 21
620.7157712984117
 31
0.0
  0
LINE
  5
354B
330
18
100
AcDbEntity
  8
0
 62
     4
100
AcDbLine
 10
1552.005277494478
 20
637.7157722984193
 30
0.0
 11
1552.005277494478
 21
620.7157712984117
 31
0.0
  0
LINE
  5
354C
330
18
100
AcDbEntity
  8
0
 62
     4
100
AcDbLine
 10
1537.005277494478
 20
637.7157722984193
 30
0.0
 11
1537.005277494478
 21
620.7157712984117
 31
0.0
  0
LINE
  5
354D
330
18
100
AcDbEntity
  8
0
 62
     4
100
AcDbLine
 10
1534.005277494478
 20
637.7157722984193
 30
0.0
 11
1534.005277494478
 21
620.7157712984117
 31
0.0
  0
LINE
  5
354E
330
18
100
AcDbEntity
  8
0
 62
     4
100
AcDbLine
 10
1528.005277494478
 20
637.7157722984193
 30
0.0
 11
1528.005277494478
 21
620.7157712984117
 31
0.0
  0
LINE
  5
354F
330
18
100
AcDbEntity
  8
0
 62
     4
100
AcDbLine
 10
1531.005277494478
 20
637.7157722984193
 30
0.0
 11
1531.005277494478
 21
620.7157712984117
 31
0.0
  0
LINE
  5
3550
330
18
100
AcDbEntity
  8
0
 62
     4
100
AcDbLine
 10
1531.005277494478
 20
721.7157722984193
 30
0.0
 11
1531.005277494478
 21
704.7157712984117
 31
0.0
  0
LINE
  5
3551
330
18
100
AcDbEntity
  8
0
 62
     4
100
AcDbLine
 10
1528.005277494478
 20
721.7157722984193
 30
0.0
 11
1528.005277494478
 21
704.7157712984117
 31
0.0
  0
LINE
  5
3552
330
18
100
AcDbEntity
  8
0
 62
     4
100
AcDbLine
 10
1537.005277494478
 20
721.7157722984193
 30
0.0
 11
1537.005277494478
 21
704.7157712984117
 31
0.0
  0
LINE
  5
3553
330
18
100
AcDbEntity
  8
0
 62
     4
100
AcDbLine
 10
1534.005277494478
 20
721.7157722984193
 30
0.0
 11
1534.005277494478
 21
704.7157712984117
 31
0.0
  0
LINE
  5
3554
330
18
100
AcDbEntity
  8
0
 62
     4
100
AcDbLine
 10
1543.005277494478
 20
721.7157722984193
 30
0.0
 11
1543.005277494478
 21
704.7157712984117
 31
0.0
  0
LINE
  5
3555
330
18
100
AcDbEntity
  8
0
 62
     4
100
AcDbLine
 10
1540.005277494478
 20
721.7157722984193
 30
0.0
 11
1540.005277494478
 21
704.7157712984117
 31
0.0
  0
LINE
  5
3556
330
18
100
AcDbEntity
  8
0
 62
     4
100
AcDbLine
 10
1549.005277494478
 20
721.7157722984193
 30
0.0
 11
1549.005277494478
 21
704.7157712984117
 31
0.0
  0
LINE
  5
3557
330
18
100
AcDbEntity
  8
0
 62
     4
100
AcDbLine
 10
1546.005277494478
 20
721.7157722984193
 30
0.0
 11
1546.005277494478
 21
704.7157712984117
 31
0.0
  0
LINE
  5
3558
330
18
100
AcDbEntity
  8
0
 62
     4
100
AcDbLine
 10
1569.005278494253
 20
721.7157722984193
 30
0.0
 11
1569.005278494253
 21
704.7157712984117
 31
0.0
  0
LINE
  5
3559
330
18
100
AcDbEntity
  8
0
 62
     4
100
AcDbLine
 10
1572.005278494253
 20
721.7157722984193
 30
0.0
 11
1572.005278494253
 21
704.7157712984117
 31
0.0
  0
LINE
  5
355A
330
18
100
AcDbEntity
  8
0
 62
     4
100
AcDbLine
 10
1581.005278494252
 20
721.7157722984193
 30
0.0
 11
1581.005278494252
 21
704.7157712984117
 31
0.0
  0
LINE
  5
355B
330
18
100
AcDbEntity
  8
0
 62
     4
100
AcDbLine
 10
1584.005278494253
 20
721.7157722984193
 30
0.0
 11
1584.005278494253
 21
704.7157712984117
 31
0.0
  0
LINE
  5
355C
330
18
100
AcDbEntity
  8
0
 62
     4
100
AcDbLine
 10
1516.005277494478
 20
721.7157722984193
 30
0.0
 11
1516.005277494478
 21
704.7157712984117
 31
0.0
  0
LINE
  5
355D
330
18
100
AcDbEntity
  8
0
 62
     4
100
AcDbLine
 10
1519.005277494478
 20
721.7157722984193
 30
0.0
 11
1519.005277494478
 21
704.7157712984117
 31
0.0
  0
LINE
  5
355E
330
18
100
AcDbEntity
  8
0
 62
     4
100
AcDbLine
 10
1552.005277494478
 20
721.7157722984193
 30
0.0
 11
1552.005277494478
 21
704.7157712984117
 31
0.0
  0
LINE
  5
355F
330
18
100
AcDbEntity
  8
0
 62
     4
100
AcDbLine
 10
1555.005277494478
 20
721.7157722984193
 30
0.0
 11
1555.005277494478
 21
704.7157712984117
 31
0.0
  0
LINE
  5
3560
330
18
100
AcDbEntity
  8
0
 62
     4
100
AcDbLine
 10
1575.005278494252
 20
721.7157722984193
 30
0.0
 11
1575.005278494252
 21
704.7157712984117
 31
0.0
  0
LINE
  5
3561
330
18
100
AcDbEntity
  8
0
 62
     4
100
AcDbLine
 10
1557.005278494252
 20
721.7157722984193
 30
0.0
 11
1557.005278494252
 21
704.7157712984117
 31
0.0
  0
LINE
  5
3562
330
18
100
AcDbEntity
  8
0
 62
     4
100
AcDbLine
 10
1560.005278494253
 20
721.7157722984193
 30
0.0
 11
1560.005278494253
 21
704.7157712984117
 31
0.0
  0
LINE
  5
3563
330
18
100
AcDbEntity
  8
0
 62
     4
100
AcDbLine
 10
1563.005278494253
 20
721.7157722984193
 30
0.0
 11
1563.005278494253
 21
704.7157712984117
 31
0.0
  0
LINE
  5
3564
330
18
100
AcDbEntity
  8
0
 62
     4
100
AcDbLine
 10
1566.005278494253
 20
721.7157722984193
 30
0.0
 11
1566.005278494253
 21
704.7157712984117
 31
0.0
  0
LINE
  5
3565
330
18
100
AcDbEntity
  8
0
 62
     4
100
AcDbLine
 10
1587.005278494253
 20
721.7157722984193
 30
0.0
 11
1587.005278494253
 21
704.7157712984117
 31
0.0
  0
LINE
  5
3566
330
18
100
AcDbEntity
  8
0
 62
     4
100
AcDbLine
 10
1590.005278494253
 20
721.7157722984193
 30
0.0
 11
1590.005278494253
 21
704.7157712984117
 31
0.0
  0
LINE
  5
3567
330
18
100
AcDbEntity
  8
0
 62
     4
100
AcDbLine
 10
1578.005278494253
 20
721.7157722984193
 30
0.0
 11
1578.005278494253
 21
704.7157712984117
 31
0.0
  0
LINE
  5
3568
330
18
100
AcDbEntity
  8
0
 62
     4
100
AcDbLine
 10
1596.005278494253
 20
721.7157722984193
 30
0.0
 11
1596.005278494253
 21
704.7157712984117
 31
0.0
  0
LINE
  5
3569
330
18
100
AcDbEntity
  8
0
 62
     4
100
AcDbLine
 10
1525.005277494478
 20
721.7157722984193
 30
0.0
 11
1525.005277494478
 21
704.7157712984117
 31
0.0
  0
LINE
  5
356A
330
18
100
AcDbEntity
  8
0
 62
     4
100
AcDbLine
 10
1522.005277494478
 20
721.7157722984193
 30
0.0
 11
1522.005277494478
 21
704.7157712984117
 31
0.0
  0
LINE
  5
356B
330
18
100
AcDbEntity
  8
0
 62
     4
100
AcDbLine
 10
1593.005278494253
 20
721.7157722984193
 30
0.0
 11
1593.005278494253
 21
704.7157712984117
 31
0.0
  0
LINE
  5
356C
330
18
100
AcDbEntity
  8
0
 62
     4
100
AcDbLine
 10
1596.005278494253
 20
665.7157712984116
 30
0.0
 11
1596.005278494253
 21
648.7157702984041
 31
0.0
  0
LINE
  5
356D
330
18
100
AcDbEntity
  8
0
 62
     4
100
AcDbLine
 10
1593.005278494253
 20
665.7157712984116
 30
0.0
 11
1593.005278494253
 21
648.7157702984041
 31
0.0
  0
LINE
  5
356E
330
18
100
AcDbEntity
  8
0
 62
     4
100
AcDbLine
 10
1522.005277494478
 20
665.7157712984116
 30
0.0
 11
1522.005277494478
 21
648.7157702984041
 31
0.0
  0
LINE
  5
356F
330
18
100
AcDbEntity
  8
0
 62
     4
100
AcDbLine
 10
1525.005277494478
 20
665.7157712984116
 30
0.0
 11
1525.005277494478
 21
648.7157702984041
 31
0.0
  0
LINE
  5
3570
330
18
100
AcDbEntity
  8
0
 62
     4
100
AcDbLine
 10
1590.005278494253
 20
665.7157712984116
 30
0.0
 11
1590.005278494253
 21
648.7157702984041
 31
0.0
  0
LINE
  5
3571
330
18
100
AcDbEntity
  8
0
 62
     4
100
AcDbLine
 10
1587.005278494253
 20
665.7157712984116
 30
0.0
 11
1587.005278494253
 21
648.7157702984041
 31
0.0
  0
LINE
  5
3572
330
18
100
AcDbEntity
  8
0
 62
     4
100
AcDbLine
 10
1519.005277494478
 20
665.7157712984116
 30
0.0
 11
1519.005277494478
 21
648.7157702984041
 31
0.0
  0
LINE
  5
3573
330
18
100
AcDbEntity
  8
0
 62
     4
100
AcDbLine
 10
1516.005277494478
 20
665.7157712984116
 30
0.0
 11
1516.005277494478
 21
648.7157702984041
 31
0.0
  0
LINE
  5
3574
330
18
100
AcDbEntity
  8
0
 62
     4
100
AcDbLine
 10
1584.005278494253
 20
665.7157712984116
 30
0.0
 11
1584.005278494253
 21
648.7157702984041
 31
0.0
  0
LINE
  5
3575
330
18
100
AcDbEntity
  8
0
 62
     4
100
AcDbLine
 10
1581.005278494252
 20
665.7157712984116
 30
0.0
 11
1581.005278494252
 21
648.7157702984041
 31
0.0
  0
LINE
  5
3576
330
18
100
AcDbEntity
  8
0
 62
     4
100
AcDbLine
 10
1560.005278494253
 20
665.7157712984116
 30
0.0
 11
1560.005278494253
 21
648.7157702984041
 31
0.0
  0
LINE
  5
3577
330
18
100
AcDbEntity
  8
0
 62
     4
100
AcDbLine
 10
1566.005278494253
 20
665.7157712984116
 30
0.0
 11
1566.005278494253
 21
648.7157702984041
 31
0.0
  0
LINE
  5
3578
330
18
100
AcDbEntity
  8
0
 62
     4
100
AcDbLine
 10
1563.005278494253
 20
665.7157712984116
 30
0.0
 11
1563.005278494253
 21
648.7157702984041
 31
0.0
  0
LINE
  5
3579
330
18
100
AcDbEntity
  8
0
 62
     4
100
AcDbLine
 10
1557.005278494252
 20
665.7157712984116
 30
0.0
 11
1557.005278494252
 21
648.7157702984041
 31
0.0
  0
LINE
  5
357A
330
18
100
AcDbEntity
  8
0
 62
     4
100
AcDbLine
 10
1546.005277494478
 20
665.7157712984116
 30
0.0
 11
1546.005277494478
 21
648.7157702984041
 31
0.0
  0
LINE
  5
357B
330
18
100
AcDbEntity
  8
0
 62
     4
100
AcDbLine
 10
1572.005278494253
 20
665.7157712984116
 30
0.0
 11
1572.005278494253
 21
648.7157702984041
 31
0.0
  0
LINE
  5
357C
330
18
100
AcDbEntity
  8
0
 62
     4
100
AcDbLine
 10
1569.005278494253
 20
665.7157712984116
 30
0.0
 11
1569.005278494253
 21
648.7157702984041
 31
0.0
  0
LINE
  5
357D
330
18
100
AcDbEntity
  8
0
 62
     4
100
AcDbLine
 10
1543.005277494478
 20
665.7157712984116
 30
0.0
 11
1543.005277494478
 21
648.7157702984041
 31
0.0
  0
LINE
  5
357E
330
18
100
AcDbEntity
  8
0
 62
     4
100
AcDbLine
 10
1578.005278494253
 20
665.7157712984116
 30
0.0
 11
1578.005278494253
 21
648.7157702984041
 31
0.0
  0
LINE
  5
357F
330
18
100
AcDbEntity
  8
0
 62
     4
100
AcDbLine
 10
1575.005278494252
 20
665.7157712984116
 30
0.0
 11
1575.005278494252
 21
648.7157702984041
 31
0.0
  0
LINE
  5
3580
330
18
100
AcDbEntity
  8
0
 62
     4
100
AcDbLine
 10
1540.005277494478
 20
665.7157712984116
 30
0.0
 11
1540.005277494478
 21
648.7157702984041
 31
0.0
  0
LINE
  5
3581
330
18
100
AcDbEntity
  8
0
 62
     4
100
AcDbLine
 10
1549.005277494478
 20
665.7157712984116
 30
0.0
 11
1549.005277494478
 21
648.7157702984041
 31
0.0
  0
LINE
  5
3582
330
18
100
AcDbEntity
  8
0
 62
     4
100
AcDbLine
 10
1555.005277494478
 20
665.7157712984116
 30
0.0
 11
1555.005277494478
 21
648.7157702984041
 31
0.0
  0
LINE
  5
3583
330
18
100
AcDbEntity
  8
0
 62
     4
100
AcDbLine
 10
1552.005277494478
 20
665.7157712984116
 30
0.0
 11
1552.005277494478
 21
648.7157702984041
 31
0.0
  0
LINE
  5
3584
330
18
100
AcDbEntity
  8
0
 62
     4
100
AcDbLine
 10
1537.005277494478
 20
665.7157712984116
 30
0.0
 11
1537.005277494478
 21
648.7157702984041
 31
0.0
  0
LINE
  5
3585
330
18
100
AcDbEntity
  8
0
 62
     4
100
AcDbLine
 10
1534.005277494478
 20
665.7157712984116
 30
0.0
 11
1534.005277494478
 21
648.7157702984041
 31
0.0
  0
LINE
  5
3586
330
18
100
AcDbEntity
  8
0
 62
     4
100
AcDbLine
 10
1528.005277494478
 20
665.7157712984116
 30
0.0
 11
1528.005277494478
 21
648.7157702984041
 31
0.0
  0
LINE
  5
3587
330
18
100
AcDbEntity
  8
0
 62
     4
100
AcDbLine
 10
1531.005277494478
 20
665.7157712984116
 30
0.0
 11
1531.005277494478
 21
648.7157702984041
 31
0.0
  0
LINE
  5
3588
330
18
100
AcDbEntity
  8
0
 62
     4
100
AcDbLine
 10
1531.005277494478
 20
693.715770298404
 30
0.0
 11
1531.005277494478
 21
676.7157722984193
 31
0.0
  0
LINE
  5
3589
330
18
100
AcDbEntity
  8
0
 62
     4
100
AcDbLine
 10
1528.005277494478
 20
693.715770298404
 30
0.0
 11
1528.005277494478
 21
676.7157722984193
 31
0.0
  0
LINE
  5
358A
330
18
100
AcDbEntity
  8
0
 62
     4
100
AcDbLine
 10
1537.005277494478
 20
693.715770298404
 30
0.0
 11
1537.005277494478
 21
676.7157722984193
 31
0.0
  0
LINE
  5
358B
330
18
100
AcDbEntity
  8
0
 62
     4
100
AcDbLine
 10
1534.005277494478
 20
693.715770298404
 30
0.0
 11
1534.005277494478
 21
676.7157722984193
 31
0.0
  0
LINE
  5
358C
330
18
100
AcDbEntity
  8
0
 62
     4
100
AcDbLine
 10
1543.005277494478
 20
693.715770298404
 30
0.0
 11
1543.005277494478
 21
676.7157722984193
 31
0.0
  0
LINE
  5
358D
330
18
100
AcDbEntity
  8
0
 62
     4
100
AcDbLine
 10
1540.005277494478
 20
693.715770298404
 30
0.0
 11
1540.005277494478
 21
676.7157722984193
 31
0.0
  0
LINE
  5
358E
330
18
100
AcDbEntity
  8
0
 62
     4
100
AcDbLine
 10
1549.005277494478
 20
693.715770298404
 30
0.0
 11
1549.005277494478
 21
676.7157722984193
 31
0.0
  0
LINE
  5
358F
330
18
100
AcDbEntity
  8
0
 62
     4
100
AcDbLine
 10
1546.005277494478
 20
693.715770298404
 30
0.0
 11
1546.005277494478
 21
676.7157722984193
 31
0.0
  0
LINE
  5
3590
330
18
100
AcDbEntity
  8
0
 62
     4
100
AcDbLine
 10
1555.005277494478
 20
693.715770298404
 30
0.0
 11
1555.005277494478
 21
676.7157722984193
 31
0.0
  0
LINE
  5
3591
330
18
100
AcDbEntity
  8
0
 62
     4
100
AcDbLine
 10
1552.005277494478
 20
693.715770298404
 30
0.0
 11
1552.005277494478
 21
676.7157722984193
 31
0.0
  0
LINE
  5
3592
330
18
100
AcDbEntity
  8
0
 62
     4
100
AcDbLine
 10
1560.005278494253
 20
693.715770298404
 30
0.0
 11
1560.005278494253
 21
676.7157722984193
 31
0.0
  0
LINE
  5
3593
330
18
100
AcDbEntity
  8
0
 62
     4
100
AcDbLine
 10
1557.005278494252
 20
693.715770298404
 30
0.0
 11
1557.005278494252
 21
676.7157722984193
 31
0.0
  0
LINE
  5
3594
330
18
100
AcDbEntity
  8
0
 62
     4
100
AcDbLine
 10
1566.005278494253
 20
693.715770298404
 30
0.0
 11
1566.005278494253
 21
676.7157722984193
 31
0.0
  0
LINE
  5
3595
330
18
100
AcDbEntity
  8
0
 62
     4
100
AcDbLine
 10
1563.005278494253
 20
693.715770298404
 30
0.0
 11
1563.005278494253
 21
676.7157722984193
 31
0.0
  0
LINE
  5
3596
330
18
100
AcDbEntity
  8
0
 62
     4
100
AcDbLine
 10
1572.005278494253
 20
693.715770298404
 30
0.0
 11
1572.005278494253
 21
676.7157722984193
 31
0.0
  0
LINE
  5
3597
330
18
100
AcDbEntity
  8
0
 62
     4
100
AcDbLine
 10
1569.005278494253
 20
693.715770298404
 30
0.0
 11
1569.005278494253
 21
676.7157722984193
 31
0.0
  0
LINE
  5
3598
330
18
100
AcDbEntity
  8
0
 62
     4
100
AcDbLine
 10
1578.005278494253
 20
693.715770298404
 30
0.0
 11
1578.005278494253
 21
676.7157722984193
 31
0.0
  0
LINE
  5
3599
330
18
100
AcDbEntity
  8
0
 62
     4
100
AcDbLine
 10
1575.005278494252
 20
693.715770298404
 30
0.0
 11
1575.005278494252
 21
676.7157722984193
 31
0.0
  0
LINE
  5
359A
330
18
100
AcDbEntity
  8
0
 62
     4
100
AcDbLine
 10
1581.005278494252
 20
693.715770298404
 30
0.0
 11
1581.005278494252
 21
676.7157722984193
 31
0.0
  0
LINE
  5
359B
330
18
100
AcDbEntity
  8
0
 62
     4
100
AcDbLine
 10
1584.005278494253
 20
693.715770298404
 30
0.0
 11
1584.005278494253
 21
676.7157722984193
 31
0.0
  0
LINE
  5
359C
330
18
100
AcDbEntity
  8
0
 62
     4
100
AcDbLine
 10
1516.005277494478
 20
693.715770298404
 30
0.0
 11
1516.005277494478
 21
676.7157722984193
 31
0.0
  0
LINE
  5
359D
330
18
100
AcDbEntity
  8
0
 62
     4
100
AcDbLine
 10
1519.005277494478
 20
693.715770298404
 30
0.0
 11
1519.005277494478
 21
676.7157722984193
 31
0.0
  0
LINE
  5
359E
330
18
100
AcDbEntity
  8
0
 62
     4
100
AcDbLine
 10
1587.005278494253
 20
693.715770298404
 30
0.0
 11
1587.005278494253
 21
676.7157722984193
 31
0.0
  0
LINE
  5
359F
330
18
100
AcDbEntity
  8
0
 62
     4
100
AcDbLine
 10
1590.005278494253
 20
693.715770298404
 30
0.0
 11
1590.005278494253
 21
676.7157722984193
 31
0.0
  0
LINE
  5
35A0
330
18
100
AcDbEntity
  8
0
 62
     4
100
AcDbLine
 10
1525.005277494478
 20
693.715770298404
 30
0.0
 11
1525.005277494478
 21
676.7157722984193
 31
0.0
  0
LINE
  5
35A1
330
18
100
AcDbEntity
  8
0
 62
     4
100
AcDbLine
 10
1522.005277494478
 20
693.715770298404
 30
0.0
 11
1522.005277494478
 21
676.7157722984193
 31
0.0
  0
LINE
  5
35A2
330
18
100
AcDbEntity
  8
0
 62
     4
100
AcDbLine
 10
1593.005278494253
 20
693.715770298404
 30
0.0
 11
1593.005278494253
 21
676.7157722984193
 31
0.0
  0
LINE
  5
35A3
330
18
100
AcDbEntity
  8
0
 62
     4
100
AcDbLine
 10
1596.005278494253
 20
693.715770298404
 30
0.0
 11
1596.005278494253
 21
676.7157722984193
 31
0.0
  0
LINE
  5
35A4
330
18
100
AcDbEntity
  8
0
 62
     4
100
AcDbLine
 10
1596.005278494253
 20
609.715770298404
 30
0.0
 11
1596.005278494253
 21
592.7157722984193
 31
0.0
  0
LINE
  5
35A5
330
18
100
AcDbEntity
  8
0
 62
     4
100
AcDbLine
 10
1593.005278494253
 20
609.715770298404
 30
0.0
 11
1593.005278494253
 21
592.7157722984193
 31
0.0
  0
LINE
  5
35A6
330
18
100
AcDbEntity
  8
0
 62
     4
100
AcDbLine
 10
1531.005277494478
 20
749.7157712984117
 30
0.0
 11
1531.005277494478
 21
732.7157702984041
 31
0.0
  0
LINE
  5
35A7
330
18
100
AcDbEntity
  8
0
 62
     4
100
AcDbLine
 10
1528.005277494478
 20
749.7157712984117
 30
0.0
 11
1528.005277494478
 21
732.7157702984041
 31
0.0
  0
LINE
  5
35A8
330
18
100
AcDbEntity
  8
0
 62
     4
100
AcDbLine
 10
1522.005277494478
 20
609.715770298404
 30
0.0
 11
1522.005277494478
 21
592.7157722984193
 31
0.0
  0
LINE
  5
35A9
330
18
100
AcDbEntity
  8
0
 62
     4
100
AcDbLine
 10
1525.005277494478
 20
609.715770298404
 30
0.0
 11
1525.005277494478
 21
592.7157722984193
 31
0.0
  0
LINE
  5
35AA
330
18
100
AcDbEntity
  8
0
 62
     4
100
AcDbLine
 10
1537.005277494478
 20
749.7157712984117
 30
0.0
 11
1537.005277494478
 21
732.7157702984041
 31
0.0
  0
LINE
  5
35AB
330
18
100
AcDbEntity
  8
0
 62
     4
100
AcDbLine
 10
1534.005277494478
 20
749.7157712984117
 30
0.0
 11
1534.005277494478
 21
732.7157702984041
 31
0.0
  0
LINE
  5
35AC
330
18
100
AcDbEntity
  8
0
 62
     4
100
AcDbLine
 10
1590.005278494253
 20
609.715770298404
 30
0.0
 11
1590.005278494253
 21
592.7157722984193
 31
0.0
  0
LINE
  5
35AD
330
18
100
AcDbEntity
  8
0
 62
     4
100
AcDbLine
 10
1587.005278494253
 20
609.715770298404
 30
0.0
 11
1587.005278494253
 21
592.7157722984193
 31
0.0
  0
LINE
  5
35AE
330
18
100
AcDbEntity
  8
0
 62
     4
100
AcDbLine
 10
1543.005277494478
 20
749.7157712984117
 30
0.0
 11
1543.005277494478
 21
732.7157702984041
 31
0.0
  0
LINE
  5
35AF
330
18
100
AcDbEntity
  8
0
 62
     4
100
AcDbLine
 10
1540.005277494478
 20
749.7157712984117
 30
0.0
 11
1540.005277494478
 21
732.7157702984041
 31
0.0
  0
LINE
  5
35B0
330
18
100
AcDbEntity
  8
0
 62
     4
100
AcDbLine
 10
1519.005277494478
 20
609.715770298404
 30
0.0
 11
1519.005277494478
 21
592.7157722984193
 31
0.0
  0
LINE
  5
35B1
330
18
100
AcDbEntity
  8
0
 62
     4
100
AcDbLine
 10
1516.005277494478
 20
609.715770298404
 30
0.0
 11
1516.005277494478
 21
592.7157722984193
 31
0.0
  0
LINE
  5
35B2
330
18
100
AcDbEntity
  8
0
 62
     4
100
AcDbLine
 10
1549.005277494478
 20
749.7157712984117
 30
0.0
 11
1549.005277494478
 21
732.7157702984041
 31
0.0
  0
LINE
  5
35B3
330
18
100
AcDbEntity
  8
0
 62
     4
100
AcDbLine
 10
1546.005277494478
 20
749.7157712984117
 30
0.0
 11
1546.005277494478
 21
732.7157702984041
 31
0.0
  0
LINE
  5
35B4
330
18
100
AcDbEntity
  8
0
 62
     4
100
AcDbLine
 10
1584.005278494253
 20
609.715770298404
 30
0.0
 11
1584.005278494253
 21
592.7157722984193
 31
0.0
  0
LINE
  5
35B5
330
18
100
AcDbEntity
  8
0
 62
     4
100
AcDbLine
 10
1581.005278494252
 20
609.715770298404
 30
0.0
 11
1581.005278494252
 21
592.7157722984193
 31
0.0
  0
LINE
  5
35B6
330
18
100
AcDbEntity
  8
0
 62
     4
100
AcDbLine
 10
1569.005278494253
 20
749.7157712984117
 30
0.0
 11
1569.005278494253
 21
732.7157702984041
 31
0.0
  0
LINE
  5
35B7
330
18
100
AcDbEntity
  8
0
 62
     4
100
AcDbLine
 10
1572.005278494253
 20
749.7157712984117
 30
0.0
 11
1572.005278494253
 21
732.7157702984041
 31
0.0
  0
LINE
  5
35B8
330
18
100
AcDbEntity
  8
0
 62
     4
100
AcDbLine
 10
1560.005278494253
 20
609.715770298404
 30
0.0
 11
1560.005278494253
 21
592.7157722984193
 31
0.0
  0
LINE
  5
35B9
330
18
100
AcDbEntity
  8
0
 62
     4
100
AcDbLine
 10
1566.005278494253
 20
609.715770298404
 30
0.0
 11
1566.005278494253
 21
592.7157722984193
 31
0.0
  0
LINE
  5
35BA
330
18
100
AcDbEntity
  8
0
 62
     4
100
AcDbLine
 10
1563.005278494253
 20
609.715770298404
 30
0.0
 11
1563.005278494253
 21
592.7157722984193
 31
0.0
  0
LINE
  5
35BB
330
18
100
AcDbEntity
  8
0
 62
     4
100
AcDbLine
 10
1557.005278494252
 20
609.715770298404
 30
0.0
 11
1557.005278494252
 21
592.7157722984193
 31
0.0
  0
LINE
  5
35BC
330
18
100
AcDbEntity
  8
0
 62
     4
100
AcDbLine
 10
1546.005277494478
 20
609.715770298404
 30
0.0
 11
1546.005277494478
 21
592.7157722984193
 31
0.0
  0
LINE
  5
35BD
330
18
100
AcDbEntity
  8
0
 62
     4
100
AcDbLine
 10
1581.005278494252
 20
749.7157712984117
 30
0.0
 11
1581.005278494252
 21
732.7157702984041
 31
0.0
  0
LINE
  5
35BE
330
18
100
AcDbEntity
  8
0
 62
     4
100
AcDbLine
 10
1584.005278494253
 20
749.7157712984117
 30
0.0
 11
1584.005278494253
 21
732.7157702984041
 31
0.0
  0
LINE
  5
35BF
330
18
100
AcDbEntity
  8
0
 62
     4
100
AcDbLine
 10
1572.005278494253
 20
609.715770298404
 30
0.0
 11
1572.005278494253
 21
592.7157722984193
 31
0.0
  0
LINE
  5
35C0
330
18
100
AcDbEntity
  8
0
 62
     4
100
AcDbLine
 10
1569.005278494253
 20
609.715770298404
 30
0.0
 11
1569.005278494253
 21
592.7157722984193
 31
0.0
  0
LINE
  5
35C1
330
18
100
AcDbEntity
  8
0
 62
     4
100
AcDbLine
 10
1516.005277494478
 20
749.7157712984117
 30
0.0
 11
1516.005277494478
 21
732.7157702984041
 31
0.0
  0
LINE
  5
35C2
330
18
100
AcDbEntity
  8
0
 62
     4
100
AcDbLine
 10
1543.005277494478
 20
609.715770298404
 30
0.0
 11
1543.005277494478
 21
592.7157722984193
 31
0.0
  0
LINE
  5
35C3
330
18
100
AcDbEntity
  8
0
 62
     4
100
AcDbLine
 10
1519.005277494478
 20
749.7157712984117
 30
0.0
 11
1519.005277494478
 21
732.7157702984041
 31
0.0
  0
LINE
  5
35C4
330
18
100
AcDbEntity
  8
0
 62
     4
100
AcDbLine
 10
1578.005278494253
 20
609.715770298404
 30
0.0
 11
1578.005278494253
 21
592.7157722984193
 31
0.0
  0
LINE
  5
35C5
330
18
100
AcDbEntity
  8
0
 62
     4
100
AcDbLine
 10
1552.005277494478
 20
749.7157712984117
 30
0.0
 11
1552.005277494478
 21
732.7157702984041
 31
0.0
  0
LINE
  5
35C6
330
18
100
AcDbEntity
  8
0
 62
     4
100
AcDbLine
 10
1555.005277494478
 20
749.7157712984117
 30
0.0
 11
1555.005277494478
 21
732.7157702984041
 31
0.0
  0
LINE
  5
35C7
330
18
100
AcDbEntity
  8
0
 62
     4
100
AcDbLine
 10
1575.005278494252
 20
609.715770298404
 30
0.0
 11
1575.005278494252
 21
592.7157722984193
 31
0.0
  0
LINE
  5
35C8
330
18
100
AcDbEntity
  8
0
 62
     4
100
AcDbLine
 10
1540.005277494478
 20
609.715770298404
 30
0.0
 11
1540.005277494478
 21
592.7157722984193
 31
0.0
  0
LINE
  5
35C9
330
18
100
AcDbEntity
  8
0
 62
     4
100
AcDbLine
 10
1549.005277494478
 20
609.715770298404
 30
0.0
 11
1549.005277494478
 21
592.7157722984193
 31
0.0
  0
LINE
  5
35CA
330
18
100
AcDbEntity
  8
0
 62
     4
100
AcDbLine
 10
1555.005277494478
 20
609.715770298404
 30
0.0
 11
1555.005277494478
 21
592.7157722984193
 31
0.0
  0
LINE
  5
35CB
330
18
100
AcDbEntity
  8
0
 62
     4
100
AcDbLine
 10
1552.005277494478
 20
609.715770298404
 30
0.0
 11
1552.005277494478
 21
592.7157722984193
 31
0.0
  0
LINE
  5
35CC
330
18
100
AcDbEntity
  8
0
 62
     4
100
AcDbLine
 10
1575.005278494252
 20
749.7157712984117
 30
0.0
 11
1575.005278494252
 21
732.7157702984041
 31
0.0
  0
LINE
  5
35CD
330
18
100
AcDbEntity
  8
0
 62
     4
100
AcDbLine
 10
1557.005278494252
 20
749.7157712984117
 30
0.0
 11
1557.005278494252
 21
732.7157702984041
 31
0.0
  0
LINE
  5
35CE
330
18
100
AcDbEntity
  8
0
 62
     4
100
AcDbLine
 10
1560.005278494253
 20
749.7157712984117
 30
0.0
 11
1560.005278494253
 21
732.7157702984041
 31
0.0
  0
LINE
  5
35CF
330
18
100
AcDbEntity
  8
0
 62
     4
100
AcDbLine
 10
1563.005278494253
 20
749.7157712984117
 30
0.0
 11
1563.005278494253
 21
732.7157702984041
 31
0.0
  0
LINE
  5
35D0
330
18
100
AcDbEntity
  8
0
 62
     4
100
AcDbLine
 10
1566.005278494253
 20
749.7157712984117
 30
0.0
 11
1566.005278494253
 21
732.7157702984041
 31
0.0
  0
LINE
  5
35D1
330
18
100
AcDbEntity
  8
0
 62
     4
100
AcDbLine
 10
1537.005277494478
 20
609.715770298404
 30
0.0
 11
1537.005277494478
 21
592.7157722984193
 31
0.0
  0
LINE
  5
35D2
330
18
100
AcDbEntity
  8
0
 62
     4
100
AcDbLine
 10
1587.005278494253
 20
749.7157712984117
 30
0.0
 11
1587.005278494253
 21
732.7157702984041
 31
0.0
  0
LINE
  5
35D3
330
18
100
AcDbEntity
  8
0
 62
     4
100
AcDbLine
 10
1590.005278494253
 20
749.7157712984117
 30
0.0
 11
1590.005278494253
 21
732.7157702984041
 31
0.0
  0
LINE
  5
35D4
330
18
100
AcDbEntity
  8
0
 62
     4
100
AcDbLine
 10
1534.005277494478
 20
609.715770298404
 30
0.0
 11
1534.005277494478
 21
592.7157722984193
 31
0.0
  0
LINE
  5
35D5
330
18
100
AcDbEntity
  8
0
 62
     4
100
AcDbLine
 10
1578.005278494253
 20
749.7157712984117
 30
0.0
 11
1578.005278494253
 21
732.7157702984041
 31
0.0
  0
LINE
  5
35D6
330
18
100
AcDbEntity
  8
0
 62
     4
100
AcDbLine
 10
1596.005278494253
 20
749.7157712984117
 30
0.0
 11
1596.005278494253
 21
732.7157702984041
 31
0.0
  0
LINE
  5
35D7
330
18
100
AcDbEntity
  8
0
 62
     4
100
AcDbLine
 10
1504.005277494478
 20
763.2157712984117
 30
0.0
 11
1504.005277494478
 21
579.2157722984192
 31
0.0
  0
LINE
  5
35D8
330
18
100
AcDbEntity
  8
0
 62
     4
100
AcDbLine
 10
1528.005277494478
 20
609.715770298404
 30
0.0
 11
1528.005277494478
 21
592.7157722984193
 31
0.0
  0
LINE
  5
35D9
330
18
100
AcDbEntity
  8
0
 62
     4
100
AcDbLine
 10
1525.005277494478
 20
749.7157712984117
 30
0.0
 11
1525.005277494478
 21
732.7157702984041
 31
0.0
  0
LINE
  5
35DA
330
18
100
AcDbEntity
  8
0
 62
     4
100
AcDbLine
 10
1605.505279494377
 20
576.715770298404
 30
0.0
 11
1506.505279494376
 21
576.715770298404
 31
0.0
  0
LINE
  5
35DB
330
18
100
AcDbEntity
  8
0
 62
     4
100
AcDbLine
 10
1531.005277494478
 20
609.715770298404
 30
0.0
 11
1531.005277494478
 21
592.7157722984193
 31
0.0
  0
LINE
  5
35DC
330
18
100
AcDbEntity
  8
0
 62
     4
100
AcDbLine
 10
1605.505279494377
 20
765.7157702984041
 30
0.0
 11
1506.505279494376
 21
765.7157702984041
 31
0.0
  0
LINE
  5
35DD
330
18
100
AcDbEntity
  8
0
 62
     4
100
AcDbLine
 10
1608.005278494253
 20
763.2157712984117
 30
0.0
 11
1608.005278494253
 21
579.2157722984192
 31
0.0
  0
LINE
  5
35DE
330
18
100
AcDbEntity
  8
0
 62
     4
100
AcDbLine
 10
1522.005277494478
 20
749.7157712984117
 30
0.0
 11
1522.005277494478
 21
732.7157702984041
 31
0.0
  0
LINE
  5
35DF
330
18
100
AcDbEntity
  8
0
 62
     4
100
AcDbLine
 10
1593.005278494253
 20
749.7157712984117
 30
0.0
 11
1593.005278494253
 21
732.7157702984041
 31
0.0
  0
LINE
  5
35E0
330
18
100
AcDbEntity
  8
0
 62
     4
100
AcDbLine
 10
1210.650330976947
 20
757.7157737985471
 30
0.0
 11
1208.750331976931
 21
757.7157737985471
 31
0.0
  0
LINE
  5
35E1
330
18
100
AcDbEntity
  8
0
 62
     4
100
AcDbLine
 10
1208.650332976845
 20
764.6157677985248
 30
0.0
 11
1208.650332976845
 21
757.8157727985162
 31
0.0
  0
LINE
  5
35E2
330
18
100
AcDbEntity
  8
0
 62
     4
100
AcDbLine
 10
1210.650330976947
 20
764.7157727985395
 30
0.0
 11
1208.750331976931
 21
764.7157727985395
 31
0.0
  0
LINE
  5
35E3
330
18
100
AcDbEntity
  8
0
 62
     4
100
AcDbLine
 10
1214.550324976692
 20
757.2157727985395
 30
0.0
 11
1210.750332976706
 21
757.2157727985395
 31
0.0
  0
LINE
  5
35E4
330
18
100
AcDbEntity
  8
0
 62
     4
100
AcDbLine
 10
1214.650332976846
 20
765.1157657985095
 30
0.0
 11
1214.650332976846
 21
757.3157717985086
 31
0.0
  0
LINE
  5
35E5
330
18
100
AcDbEntity
  8
0
 62
     4
100
AcDbLine
 10
1214.550324976692
 20
765.2157737985471
 30
0.0
 11
1210.750332976706
 21
765.2157737985471
 31
0.0
  0
LINE
  5
35E6
330
18
100
AcDbEntity
  8
0
 62
     4
100
AcDbLine
 10
1210.650330976947
 20
765.1157657985095
 30
0.0
 11
1210.650330976947
 21
757.3157717985086
 31
0.0
  0
LINE
  5
35E7
330
18
100
AcDbEntity
  8
0
 62
     4
100
AcDbLine
 10
1210.650330976947
 20
577.7157737985471
 30
0.0
 11
1208.750331976931
 21
577.7157737985471
 31
0.0
  0
LINE
  5
35E8
330
18
100
AcDbEntity
  8
0
 62
     4
100
AcDbLine
 10
1214.650332976846
 20
585.1157657985095
 30
0.0
 11
1214.650332976846
 21
577.3157717985086
 31
0.0
  0
LINE
  5
35E9
330
18
100
AcDbEntity
  8
0
 62
     4
100
AcDbLine
 10
1214.550324976692
 20
585.2157737985471
 30
0.0
 11
1210.750332976706
 21
585.2157737985471
 31
0.0
  0
LINE
  5
35EA
330
18
100
AcDbEntity
  8
0
 62
     4
100
AcDbLine
 10
1555.505278494252
 20
760.7157722984193
 30
0.0
 11
1554.255277494478
 21
760.7157722984193
 31
0.0
  0
LINE
  5
35EB
330
18
100
AcDbEntity
  8
0
 62
     4
100
AcDbLine
 10
1555.505278494252
 20
760.7157722984193
 30
0.0
 11
1555.505278494252
 21
759.4657712984116
 31
0.0
  0
LINE
  5
35EC
330
18
100
AcDbEntity
  8
0
 62
     4
100
AcDbLine
 10
1556.505277494478
 20
760.7157722984193
 30
0.0
 11
1556.505277494478
 21
759.4657712984116
 31
0.0
  0
LINE
  5
35ED
330
18
100
AcDbEntity
  8
0
 62
     4
100
AcDbLine
 10
1556.505277494478
 20
759.4657712984116
 30
0.0
 11
1555.505278494252
 21
759.4657712984116
 31
0.0
  0
LINE
  5
35EE
330
18
100
AcDbEntity
  8
0
 62
     4
100
AcDbLine
 10
1555.505278494252
 20
762.9657722984193
 30
0.0
 11
1555.505278494252
 21
761.7157712984116
 31
0.0
  0
LINE
  5
35EF
330
18
100
AcDbEntity
  8
0
 62
     4
100
AcDbLine
 10
1557.755278494252
 20
761.7157712984116
 30
0.0
 11
1556.505277494478
 21
761.7157712984116
 31
0.0
  0
LINE
  5
35F0
330
18
100
AcDbEntity
  8
0
 62
     4
100
AcDbLine
 10
1557.755278494252
 20
760.7157722984193
 30
0.0
 11
1556.505277494478
 21
760.7157722984193
 31
0.0
  0
LINE
  5
35F1
330
18
100
AcDbEntity
  8
0
 62
     4
100
AcDbLine
 10
1555.505278494252
 20
761.7157712984116
 30
0.0
 11
1554.255277494478
 21
761.7157712984116
 31
0.0
  0
LINE
  5
35F2
330
18
100
AcDbEntity
  8
0
 62
     4
100
AcDbLine
 10
1556.505277494478
 20
762.9657722984193
 30
0.0
 11
1556.505277494478
 21
761.7157712984116
 31
0.0
  0
LINE
  5
35F3
330
18
100
AcDbEntity
  8
0
 62
     4
100
AcDbLine
 10
1557.755278494252
 20
761.7157712984116
 30
0.0
 11
1557.755278494252
 21
760.7157722984193
 31
0.0
  0
LINE
  5
35F4
330
18
100
AcDbEntity
  8
0
 62
     4
100
AcDbLine
 10
1554.255277494478
 20
761.7157712984116
 30
0.0
 11
1554.255277494478
 21
760.7157722984193
 31
0.0
  0
LINE
  5
35F5
330
18
100
AcDbEntity
  8
0
 62
     4
100
AcDbLine
 10
1556.505277494478
 20
762.9657722984193
 30
0.0
 11
1555.505278494252
 21
762.9657722984193
 31
0.0
  0
LINE
  5
35F6
330
18
100
AcDbEntity
  8
0
 62
     4
100
AcDbLine
 10
1210.650330976947
 20
585.1157657985095
 30
0.0
 11
1210.650330976947
 21
577.3157717985086
 31
0.0
  0
LINE
  5
35F7
330
18
100
AcDbEntity
  8
0
 62
     4
100
AcDbLine
 10
1210.650330976947
 20
584.7157727985395
 30
0.0
 11
1208.750331976931
 21
584.7157727985395
 31
0.0
  0
LINE
  5
35F8
330
18
100
AcDbEntity
  8
0
 62
     4
100
AcDbLine
 10
1208.650332976845
 20
584.6157677985247
 30
0.0
 11
1208.650332976845
 21
577.8157727985163
 31
0.0
  0
LINE
  5
35F9
330
18
100
AcDbEntity
  8
0
 62
     4
100
AcDbLine
 10
1214.550324976692
 20
577.2157727985395
 30
0.0
 11
1210.750332976706
 21
577.2157727985395
 31
0.0
  0
LINE
  5
35FA
330
18
100
AcDbEntity
  8
0
 62
     4
100
AcDbLine
 10
1208.650332976845
 20
556.2157727985395
 30
0.0
 11
1208.050330976854
 21
556.2157727985395
 31
0.0
  0
LINE
  5
35FB
330
18
100
AcDbEntity
  8
0
 62
     4
100
AcDbLine
 10
1208.650332976845
 20
786.2157737985471
 30
0.0
 11
1208.050330976941
 21
786.2157737985471
 31
0.0
  0
LINE
  5
35FC
330
18
100
AcDbEntity
  8
0
 62
     4
100
AcDbLine
 10
1208.650332976845
 20
786.2157737985471
 30
0.0
 11
1208.650332976845
 21
556.2157727985395
 31
0.0
  0
LINE
  5
35FD
330
18
100
AcDbEntity
  8
0
 62
     4
100
AcDbLine
 10
1555.505278494252
 20
580.7157722984193
 30
0.0
 11
1555.505278494252
 21
579.4657712984117
 31
0.0
  0
LINE
  5
35FE
330
18
100
AcDbEntity
  8
0
 62
     4
100
AcDbLine
 10
1556.505277494478
 20
580.7157722984193
 30
0.0
 11
1556.505277494478
 21
579.4657712984117
 31
0.0
  0
LINE
  5
35FF
330
18
100
AcDbEntity
  8
0
 62
     4
100
AcDbLine
 10
1555.505278494252
 20
580.7157722984193
 30
0.0
 11
1554.255277494478
 21
580.7157722984193
 31
0.0
  0
LINE
  5
3600
330
18
100
AcDbEntity
  8
0
 62
     4
100
AcDbLine
 10
1555.505278494252
 20
581.7157712984116
 30
0.0
 11
1554.255277494478
 21
581.7157712984116
 31
0.0
  0
LINE
  5
3601
330
18
100
AcDbEntity
  8
0
 62
     4
100
AcDbLine
 10
1557.755278494252
 20
580.7157722984193
 30
0.0
 11
1556.505277494478
 21
580.7157722984193
 31
0.0
  0
LINE
  5
3602
330
18
100
AcDbEntity
  8
0
 62
     4
100
AcDbLine
 10
1557.755278494252
 20
581.7157712984116
 30
0.0
 11
1556.505277494478
 21
581.7157712984116
 31
0.0
  0
LINE
  5
3603
330
18
100
AcDbEntity
  8
0
 62
     4
100
AcDbLine
 10
1555.505278494252
 20
582.9657722984193
 30
0.0
 11
1555.505278494252
 21
581.7157712984116
 31
0.0
  0
LINE
  5
3604
330
18
100
AcDbEntity
  8
0
 62
     4
100
AcDbLine
 10
1556.505277494478
 20
582.9657722984193
 30
0.0
 11
1556.505277494478
 21
581.7157712984116
 31
0.0
  0
LINE
  5
3605
330
18
100
AcDbEntity
  8
0
 62
     4
100
AcDbLine
 10
1556.505277494478
 20
579.4657712984117
 30
0.0
 11
1555.505278494252
 21
579.4657712984117
 31
0.0
  0
LINE
  5
3606
330
18
100
AcDbEntity
  8
0
 62
     4
100
AcDbLine
 10
1556.505277494478
 20
582.9657722984193
 30
0.0
 11
1555.505278494252
 21
582.9657722984193
 31
0.0
  0
LINE
  5
3607
330
18
100
AcDbEntity
  8
0
 62
     4
100
AcDbLine
 10
1554.255277494478
 20
581.7157712984116
 30
0.0
 11
1554.255277494478
 21
580.7157722984193
 31
0.0
  0
LINE
  5
3608
330
18
100
AcDbEntity
  8
0
 62
     4
100
AcDbLine
 10
1557.755278494252
 20
581.7157712984116
 30
0.0
 11
1557.755278494252
 21
580.7157722984193
 31
0.0
  0
LINE
  5
360C
330
18
100
AcDbEntity
  8
0
 62
     4
100
AcDbLine
 10
1628.505277494478
 20
781.2157712984117
 30
0.0
 11
1628.505277494478
 21
561.2157722984193
 31
0.0
  0
LINE
  5
360D
330
18
100
AcDbEntity
  8
0
 62
     4
100
AcDbLine
 10
1623.505279494377
 20
556.2157712984117
 30
0.0
 11
1488.505279494377
 21
556.2157712984117
 31
0.0
  0
LINE
  5
360E
330
18
100
AcDbEntity
  8
0
 62
     4
100
AcDbLine
 10
1503.505279494377
 20
763.2157712984117
 30
0.0
 11
1503.505279494377
 21
579.2157722984192
 31
0.0
  0
LINE
  5
360F
330
18
100
AcDbEntity
  8
0
 62
     4
100
AcDbLine
 10
1608.505279494377
 20
763.2157712984117
 30
0.0
 11
1608.505279494377
 21
579.2157722984192
 31
0.0
  0
LINE
  5
3610
330
18
100
AcDbEntity
  8
0
 62
     4
100
AcDbLine
 10
1605.505279494377
 20
576.2157722984193
 30
0.0
 11
1506.505279494376
 21
576.2157722984193
 31
0.0
  0
LINE
  5
3611
330
18
100
AcDbEntity
  8
0
 62
     4
100
AcDbLine
 10
1605.505279494377
 20
766.2157712984117
 30
0.0
 11
1506.505279494376
 21
766.2157712984117
 31
0.0
  0
LINE
  5
3612
330
18
100
AcDbEntity
  8
0
 62
     4
100
AcDbLine
 10
1483.505278494253
 20
781.2157712984117
 30
0.0
 11
1483.505278494253
 21
561.2157722984193
 31
0.0
  0
LINE
  5
3613
330
18
100
AcDbEntity
  8
0
 62
     4
100
AcDbLine
 10
1623.505279494377
 20
786.2157722984193
 30
0.0
 11
1488.505279494377
 21
786.2157722984193
 31
0.0
  0
ARC
  5
3614
330
18
100
AcDbEntity
  8
0
 62
     4
100
AcDbCircle
 10
1529.505277494419
 20
637.7157722983029
 30
0.0
 40
1.5
100
AcDbArc
 50
0.0
 51
90.0
  0
ARC
  5
3615
330
18
100
AcDbEntity
  8
0
 62
     4
100
AcDbCircle
 10
1529.505277494419
 20
620.7157712984117
 30
0.0
 40
1.5
100
AcDbArc
 50
180.0
 51
270.0
  0
ARC
  5
3616
330
18
100
AcDbEntity
  8
0
 62
     4
100
AcDbCircle
 10
1594.505278494194
 20
620.7157712984117
 30
0.0
 40
1.5
100
AcDbArc
 50
270.0
 51
0.0
  0
ARC
  5
3617
330
18
100
AcDbEntity
  8
0
 62
     4
100
AcDbCircle
 10
1594.505278494194
 20
637.7157722983029
 30
0.0
 40
1.5
100
AcDbArc
 50
90.0
 51
180.0
  0
ARC
  5
3618
330
18
100
AcDbEntity
  8
0
 62
     4
100
AcDbCircle
 10
1594.505278494194
 20
637.7157722983029
 30
0.0
 40
1.5
100
AcDbArc
 50
0.0
 51
90.0
  0
ARC
  5
3619
330
18
100
AcDbEntity
  8
0
 62
     4
100
AcDbCircle
 10
1594.505278494194
 20
620.7157712984117
 30
0.0
 40
1.5
100
AcDbArc
 50
180.0
 51
270.0
  0
ARC
  5
361A
330
18
100
AcDbEntity
  8
0
 62
     4
100
AcDbCircle
 10
1523.505277494419
 20
620.7157712984117
 30
0.0
 40
1.5
100
AcDbArc
 50
270.0
 51
0.0
  0
ARC
  5
361B
330
18
100
AcDbEntity
  8
0
 62
     4
100
AcDbCircle
 10
1523.505277494419
 20
637.7157722983029
 30
0.0
 40
1.5
100
AcDbArc
 50
90.0
 51
180.0
  0
ARC
  5
361C
330
18
100
AcDbEntity
  8
0
 62
     4
100
AcDbCircle
 10
1523.505277494419
 20
637.7157722983029
 30
0.0
 40
1.5
100
AcDbArc
 50
0.0
 51
90.0
  0
ARC
  5
361D
330
18
100
AcDbEntity
  8
0
 62
     4
100
AcDbCircle
 10
1523.505277494419
 20
620.7157712984117
 30
0.0
 40
1.5
100
AcDbArc
 50
180.0
 51
270.0
  0
ARC
  5
361E
330
18
100
AcDbEntity
  8
0
 62
     4
100
AcDbCircle
 10
1517.50527749442
 20
620.7157712984117
 30
0.0
 40
1.5
100
AcDbArc
 50
180.0
 51
270.0
  0
ARC
  5
361F
330
18
100
AcDbEntity
  8
0
 62
     4
100
AcDbCircle
 10
1517.50527749442
 20
637.7157722983029
 30
0.0
 40
1.5
100
AcDbArc
 50
0.0
 51
90.0
  0
ARC
  5
3620
330
18
100
AcDbEntity
  8
0
 62
     4
100
AcDbCircle
 10
1517.50527749442
 20
637.7157722983029
 30
0.0
 40
1.5
100
AcDbArc
 50
90.0
 51
180.0
  0
ARC
  5
3621
330
18
100
AcDbEntity
  8
0
 62
     4
100
AcDbCircle
 10
1517.50527749442
 20
620.7157712984117
 30
0.0
 40
1.5
100
AcDbArc
 50
270.0
 51
0.0
  0
ARC
  5
3622
330
18
100
AcDbEntity
  8
0
 62
     4
100
AcDbCircle
 10
1588.505278494194
 20
620.7157712984117
 30
0.0
 40
1.5
100
AcDbArc
 50
270.0
 51
0.0
  0
ARC
  5
3623
330
18
100
AcDbEntity
  8
0
 62
     4
100
AcDbCircle
 10
1588.505278494194
 20
637.7157722983029
 30
0.0
 40
1.5
100
AcDbArc
 50
90.0
 51
180.0
  0
ARC
  5
3624
330
18
100
AcDbEntity
  8
0
 62
     4
100
AcDbCircle
 10
1588.505278494194
 20
637.7157722983029
 30
0.0
 40
1.5
100
AcDbArc
 50
0.0
 51
90.0
  0
ARC
  5
3625
330
18
100
AcDbEntity
  8
0
 62
     4
100
AcDbCircle
 10
1588.505278494194
 20
620.7157712984117
 30
0.0
 40
1.5
100
AcDbArc
 50
180.0
 51
270.0
  0
ARC
  5
3626
330
18
100
AcDbEntity
  8
0
 62
     4
100
AcDbCircle
 10
1582.505278494194
 20
620.7157712984117
 30
0.0
 40
1.5
100
AcDbArc
 50
270.0
 51
0.0
  0
ARC
  5
3627
330
18
100
AcDbEntity
  8
0
 62
     4
100
AcDbCircle
 10
1582.505278494194
 20
637.7157722983029
 30
0.0
 40
1.5
100
AcDbArc
 50
0.0
 51
90.0
  0
ARC
  5
3628
330
18
100
AcDbEntity
  8
0
 62
     4
100
AcDbCircle
 10
1582.505278494194
 20
637.7157722983029
 30
0.0
 40
1.5
100
AcDbArc
 50
90.0
 51
180.0
  0
ARC
  5
3629
330
18
100
AcDbEntity
  8
0
 62
     4
100
AcDbCircle
 10
1582.505278494194
 20
620.7157712984117
 30
0.0
 40
1.5
100
AcDbArc
 50
180.0
 51
270.0
  0
ARC
  5
362A
330
18
100
AcDbEntity
  8
0
 62
     4
100
AcDbCircle
 10
1576.505278494194
 20
620.7157712984117
 30
0.0
 40
1.5
100
AcDbArc
 50
270.0
 51
0.0
  0
ARC
  5
362B
330
18
100
AcDbEntity
  8
0
 62
     4
100
AcDbCircle
 10
1576.505278494194
 20
637.7157722983029
 30
0.0
 40
1.5
100
AcDbArc
 50
90.0
 51
180.0
  0
ARC
  5
362C
330
18
100
AcDbEntity
  8
0
 62
     4
100
AcDbCircle
 10
1576.505278494194
 20
637.7157722983029
 30
0.0
 40
1.5
100
AcDbArc
 50
0.0
 51
90.0
  0
ARC
  5
362D
330
18
100
AcDbEntity
  8
0
 62
     4
100
AcDbCircle
 10
1576.505278494194
 20
620.7157712984117
 30
0.0
 40
1.5
100
AcDbArc
 50
180.0
 51
270.0
  0
ARC
  5
362E
330
18
100
AcDbEntity
  8
0
 62
     4
100
AcDbCircle
 10
1570.505278494194
 20
620.7157712984117
 30
0.0
 40
1.5
100
AcDbArc
 50
270.0
 51
0.0
  0
ARC
  5
362F
330
18
100
AcDbEntity
  8
0
 62
     4
100
AcDbCircle
 10
1570.505278494194
 20
637.7157722983029
 30
0.0
 40
1.5
100
AcDbArc
 50
90.0
 51
180.0
  0
ARC
  5
3630
330
18
100
AcDbEntity
  8
0
 62
     4
100
AcDbCircle
 10
1570.505278494194
 20
637.7157722983029
 30
0.0
 40
1.5
100
AcDbArc
 50
0.0
 51
90.0
  0
ARC
  5
3631
330
18
100
AcDbEntity
  8
0
 62
     4
100
AcDbCircle
 10
1570.505278494194
 20
620.7157712984117
 30
0.0
 40
1.5
100
AcDbArc
 50
180.0
 51
270.0
  0
ARC
  5
3632
330
18
100
AcDbEntity
  8
0
 62
     4
100
AcDbCircle
 10
1564.505278494194
 20
620.7157712984117
 30
0.0
 40
1.5
100
AcDbArc
 50
270.0
 51
0.0
  0
ARC
  5
3633
330
18
100
AcDbEntity
  8
0
 62
     4
100
AcDbCircle
 10
1564.505278494194
 20
637.7157722983029
 30
0.0
 40
1.5
100
AcDbArc
 50
90.0
 51
180.0
  0
ARC
  5
3634
330
18
100
AcDbEntity
  8
0
 62
     4
100
AcDbCircle
 10
1564.505278494194
 20
637.7157722983029
 30
0.0
 40
1.5
100
AcDbArc
 50
0.0
 51
90.0
  0
ARC
  5
3635
330
18
100
AcDbEntity
  8
0
 62
     4
100
AcDbCircle
 10
1564.505278494194
 20
620.7157712984117
 30
0.0
 40
1.5
100
AcDbArc
 50
180.0
 51
270.0
  0
ARC
  5
3636
330
18
100
AcDbEntity
  8
0
 62
     4
100
AcDbCircle
 10
1558.505278494194
 20
620.7157712984117
 30
0.0
 40
1.5
100
AcDbArc
 50
270.0
 51
0.0
  0
ARC
  5
3637
330
18
100
AcDbEntity
  8
0
 62
     4
100
AcDbCircle
 10
1558.505278494194
 20
637.7157722983029
 30
0.0
 40
1.5
100
AcDbArc
 50
90.0
 51
180.0
  0
ARC
  5
3638
330
18
100
AcDbEntity
  8
0
 62
     4
100
AcDbCircle
 10
1558.505278494194
 20
637.7157722983029
 30
0.0
 40
1.5
100
AcDbArc
 50
0.0
 51
90.0
  0
ARC
  5
3639
330
18
100
AcDbEntity
  8
0
 62
     4
100
AcDbCircle
 10
1558.505278494194
 20
620.7157712984117
 30
0.0
 40
1.5
100
AcDbArc
 50
180.0
 51
270.0
  0
ARC
  5
363A
330
18
100
AcDbEntity
  8
0
 62
     4
100
AcDbCircle
 10
1553.505277494419
 20
620.7157712984117
 30
0.0
 40
1.5
100
AcDbArc
 50
270.0
 51
0.0
  0
ARC
  5
363B
330
18
100
AcDbEntity
  8
0
 62
     4
100
AcDbCircle
 10
1553.505277494419
 20
637.7157722983029
 30
0.0
 40
1.5
100
AcDbArc
 50
90.0
 51
180.0
  0
ARC
  5
363C
330
18
100
AcDbEntity
  8
0
 62
     4
100
AcDbCircle
 10
1553.505277494419
 20
637.7157722983029
 30
0.0
 40
1.5
100
AcDbArc
 50
0.0
 51
90.0
  0
ARC
  5
363D
330
18
100
AcDbEntity
  8
0
 62
     4
100
AcDbCircle
 10
1553.505277494419
 20
620.7157712984117
 30
0.0
 40
1.5
100
AcDbArc
 50
180.0
 51
270.0
  0
ARC
  5
363E
330
18
100
AcDbEntity
  8
0
 62
     4
100
AcDbCircle
 10
1547.50527749442
 20
620.7157712984117
 30
0.0
 40
1.5
100
AcDbArc
 50
270.0
 51
0.0
  0
ARC
  5
363F
330
18
100
AcDbEntity
  8
0
 62
     4
100
AcDbCircle
 10
1547.50527749442
 20
637.7157722983029
 30
0.0
 40
1.5
100
AcDbArc
 50
90.0
 51
180.0
  0
ARC
  5
3640
330
18
100
AcDbEntity
  8
0
 62
     4
100
AcDbCircle
 10
1547.50527749442
 20
637.7157722983029
 30
0.0
 40
1.5
100
AcDbArc
 50
0.0
 51
90.0
  0
ARC
  5
3641
330
18
100
AcDbEntity
  8
0
 62
     4
100
AcDbCircle
 10
1547.50527749442
 20
620.7157712984117
 30
0.0
 40
1.5
100
AcDbArc
 50
180.0
 51
270.0
  0
ARC
  5
3642
330
18
100
AcDbEntity
  8
0
 62
     4
100
AcDbCircle
 10
1541.50527749442
 20
620.7157712984117
 30
0.0
 40
1.5
100
AcDbArc
 50
270.0
 51
0.0
  0
ARC
  5
3643
330
18
100
AcDbEntity
  8
0
 62
     4
100
AcDbCircle
 10
1541.50527749442
 20
637.7157722983029
 30
0.0
 40
1.5
100
AcDbArc
 50
90.0
 51
180.0
  0
ARC
  5
3644
330
18
100
AcDbEntity
  8
0
 62
     4
100
AcDbCircle
 10
1541.50527749442
 20
637.7157722983029
 30
0.0
 40
1.5
100
AcDbArc
 50
0.0
 51
90.0
  0
ARC
  5
3645
330
18
100
AcDbEntity
  8
0
 62
     4
100
AcDbCircle
 10
1541.50527749442
 20
620.7157712984117
 30
0.0
 40
1.5
100
AcDbArc
 50
180.0
 51
270.0
  0
ARC
  5
3646
330
18
100
AcDbEntity
  8
0
 62
     4
100
AcDbCircle
 10
1535.50527749442
 20
620.7157712984117
 30
0.0
 40
1.5
100
AcDbArc
 50
270.0
 51
0.0
  0
ARC
  5
3647
330
18
100
AcDbEntity
  8
0
 62
     4
100
AcDbCircle
 10
1535.50527749442
 20
637.7157722983029
 30
0.0
 40
1.5
100
AcDbArc
 50
90.0
 51
180.0
  0
ARC
  5
3648
330
18
100
AcDbEntity
  8
0
 62
     4
100
AcDbCircle
 10
1535.50527749442
 20
637.7157722983029
 30
0.0
 40
1.5
100
AcDbArc
 50
0.0
 51
90.0
  0
ARC
  5
3649
330
18
100
AcDbEntity
  8
0
 62
     4
100
AcDbCircle
 10
1535.50527749442
 20
620.7157712984117
 30
0.0
 40
1.5
100
AcDbArc
 50
180.0
 51
270.0
  0
ARC
  5
364A
330
18
100
AcDbEntity
  8
0
 62
     4
100
AcDbCircle
 10
1529.505277494419
 20
620.7157712984117
 30
0.0
 40
1.5
100
AcDbArc
 50
270.0
 51
0.0
  0
ARC
  5
364B
330
18
100
AcDbEntity
  8
0
 62
     4
100
AcDbCircle
 10
1529.505277494419
 20
637.7157722983029
 30
0.0
 40
1.5
100
AcDbArc
 50
90.0
 51
180.0
  0
ARC
  5
364C
330
18
100
AcDbEntity
  8
0
 62
     4
100
AcDbCircle
 10
1529.505277494419
 20
704.7157712984117
 30
0.0
 40
1.5
100
AcDbArc
 50
180.0
 51
270.0
  0
ARC
  5
364D
330
18
100
AcDbEntity
  8
0
 62
     4
100
AcDbCircle
 10
1529.505277494419
 20
721.7157722983029
 30
0.0
 40
1.5
100
AcDbArc
 50
0.0
 51
90.0
  0
ARC
  5
364E
330
18
100
AcDbEntity
  8
0
 62
     4
100
AcDbCircle
 10
1529.505277494419
 20
721.7157722983029
 30
0.0
 40
1.5
100
AcDbArc
 50
90.0
 51
180.0
  0
ARC
  5
364F
330
18
100
AcDbEntity
  8
0
 62
     4
100
AcDbCircle
 10
1529.505277494419
 20
704.7157712984117
 30
0.0
 40
1.5
100
AcDbArc
 50
270.0
 51
0.0
  0
ARC
  5
3650
330
18
100
AcDbEntity
  8
0
 62
     4
100
AcDbCircle
 10
1535.50527749442
 20
704.7157712984117
 30
0.0
 40
1.5
100
AcDbArc
 50
180.0
 51
270.0
  0
ARC
  5
3651
330
18
100
AcDbEntity
  8
0
 62
     4
100
AcDbCircle
 10
1535.50527749442
 20
721.7157722983029
 30
0.0
 40
1.5
100
AcDbArc
 50
0.0
 51
90.0
  0
ARC
  5
3652
330
18
100
AcDbEntity
  8
0
 62
     4
100
AcDbCircle
 10
1535.50527749442
 20
721.7157722983029
 30
0.0
 40
1.5
100
AcDbArc
 50
90.0
 51
180.0
  0
ARC
  5
3653
330
18
100
AcDbEntity
  8
0
 62
     4
100
AcDbCircle
 10
1535.50527749442
 20
704.7157712984117
 30
0.0
 40
1.5
100
AcDbArc
 50
270.0
 51
0.0
  0
ARC
  5
3654
330
18
100
AcDbEntity
  8
0
 62
     4
100
AcDbCircle
 10
1541.50527749442
 20
704.7157712984117
 30
0.0
 40
1.5
100
AcDbArc
 50
180.0
 51
270.0
  0
ARC
  5
3655
330
18
100
AcDbEntity
  8
0
 62
     4
100
AcDbCircle
 10
1541.50527749442
 20
721.7157722983029
 30
0.0
 40
1.5
100
AcDbArc
 50
0.0
 51
90.0
  0
ARC
  5
3656
330
18
100
AcDbEntity
  8
0
 62
     4
100
AcDbCircle
 10
1541.50527749442
 20
721.7157722983029
 30
0.0
 40
1.5
100
AcDbArc
 50
90.0
 51
180.0
  0
ARC
  5
3657
330
18
100
AcDbEntity
  8
0
 62
     4
100
AcDbCircle
 10
1541.50527749442
 20
704.7157712984117
 30
0.0
 40
1.5
100
AcDbArc
 50
270.0
 51
0.0
  0
ARC
  5
3658
330
18
100
AcDbEntity
  8
0
 62
     4
100
AcDbCircle
 10
1547.50527749442
 20
704.7157712984117
 30
0.0
 40
1.5
100
AcDbArc
 50
180.0
 51
270.0
  0
ARC
  5
3659
330
18
100
AcDbEntity
  8
0
 62
     4
100
AcDbCircle
 10
1547.50527749442
 20
721.7157722983029
 30
0.0
 40
1.5
100
AcDbArc
 50
0.0
 51
90.0
  0
ARC
  5
365A
330
18
100
AcDbEntity
  8
0
 62
     4
100
AcDbCircle
 10
1547.50527749442
 20
721.7157722983029
 30
0.0
 40
1.5
100
AcDbArc
 50
90.0
 51
180.0
  0
ARC
  5
365B
330
18
100
AcDbEntity
  8
0
 62
     4
100
AcDbCircle
 10
1547.50527749442
 20
704.7157712984117
 30
0.0
 40
1.5
100
AcDbArc
 50
270.0
 51
0.0
  0
ARC
  5
365C
330
18
100
AcDbEntity
  8
0
 62
     4
100
AcDbCircle
 10
1553.505277494419
 20
704.7157712984117
 30
0.0
 40
1.5
100
AcDbArc
 50
180.0
 51
270.0
  0
ARC
  5
365D
330
18
100
AcDbEntity
  8
0
 62
     4
100
AcDbCircle
 10
1553.505277494419
 20
721.7157722983029
 30
0.0
 40
1.5
100
AcDbArc
 50
0.0
 51
90.0
  0
ARC
  5
365E
330
18
100
AcDbEntity
  8
0
 62
     4
100
AcDbCircle
 10
1553.505277494419
 20
721.7157722983029
 30
0.0
 40
1.5
100
AcDbArc
 50
90.0
 51
180.0
  0
ARC
  5
365F
330
18
100
AcDbEntity
  8
0
 62
     4
100
AcDbCircle
 10
1553.505277494419
 20
704.7157712984117
 30
0.0
 40
1.5
100
AcDbArc
 50
270.0
 51
0.0
  0
ARC
  5
3660
330
18
100
AcDbEntity
  8
0
 62
     4
100
AcDbCircle
 10
1558.505278494194
 20
704.7157712984117
 30
0.0
 40
1.5
100
AcDbArc
 50
180.0
 51
270.0
  0
ARC
  5
3661
330
18
100
AcDbEntity
  8
0
 62
     4
100
AcDbCircle
 10
1558.505278494194
 20
721.7157722983029
 30
0.0
 40
1.5
100
AcDbArc
 50
0.0
 51
90.0
  0
ARC
  5
3662
330
18
100
AcDbEntity
  8
0
 62
     4
100
AcDbCircle
 10
1558.505278494194
 20
721.7157722983029
 30
0.0
 40
1.5
100
AcDbArc
 50
90.0
 51
180.0
  0
ARC
  5
3663
330
18
100
AcDbEntity
  8
0
 62
     4
100
AcDbCircle
 10
1558.505278494194
 20
704.7157712984117
 30
0.0
 40
1.5
100
AcDbArc
 50
270.0
 51
0.0
  0
ARC
  5
3664
330
18
100
AcDbEntity
  8
0
 62
     4
100
AcDbCircle
 10
1564.505278494194
 20
704.7157712984117
 30
0.0
 40
1.5
100
AcDbArc
 50
180.0
 51
270.0
  0
ARC
  5
3665
330
18
100
AcDbEntity
  8
0
 62
     4
100
AcDbCircle
 10
1564.505278494194
 20
721.7157722983029
 30
0.0
 40
1.5
100
AcDbArc
 50
0.0
 51
90.0
  0
ARC
  5
3666
330
18
100
AcDbEntity
  8
0
 62
     4
100
AcDbCircle
 10
1564.505278494194
 20
721.7157722983029
 30
0.0
 40
1.5
100
AcDbArc
 50
90.0
 51
180.0
  0
ARC
  5
3667
330
18
100
AcDbEntity
  8
0
 62
     4
100
AcDbCircle
 10
1564.505278494194
 20
704.7157712984117
 30
0.0
 40
1.5
100
AcDbArc
 50
270.0
 51
0.0
  0
ARC
  5
3668
330
18
100
AcDbEntity
  8
0
 62
     4
100
AcDbCircle
 10
1570.505278494194
 20
704.7157712984117
 30
0.0
 40
1.5
100
AcDbArc
 50
180.0
 51
270.0
  0
ARC
  5
3669
330
18
100
AcDbEntity
  8
0
 62
     4
100
AcDbCircle
 10
1570.505278494194
 20
721.7157722983029
 30
0.0
 40
1.5
100
AcDbArc
 50
0.0
 51
90.0
  0
ARC
  5
366A
330
18
100
AcDbEntity
  8
0
 62
     4
100
AcDbCircle
 10
1570.505278494194
 20
721.7157722983029
 30
0.0
 40
1.5
100
AcDbArc
 50
90.0
 51
180.0
  0
ARC
  5
366B
330
18
100
AcDbEntity
  8
0
 62
     4
100
AcDbCircle
 10
1570.505278494194
 20
704.7157712984117
 30
0.0
 40
1.5
100
AcDbArc
 50
270.0
 51
0.0
  0
ARC
  5
366C
330
18
100
AcDbEntity
  8
0
 62
     4
100
AcDbCircle
 10
1576.505278494194
 20
704.7157712984117
 30
0.0
 40
1.5
100
AcDbArc
 50
180.0
 51
270.0
  0
ARC
  5
366D
330
18
100
AcDbEntity
  8
0
 62
     4
100
AcDbCircle
 10
1576.505278494194
 20
721.7157722983029
 30
0.0
 40
1.5
100
AcDbArc
 50
0.0
 51
90.0
  0
ARC
  5
366E
330
18
100
AcDbEntity
  8
0
 62
     4
100
AcDbCircle
 10
1576.505278494194
 20
721.7157722983029
 30
0.0
 40
1.5
100
AcDbArc
 50
90.0
 51
180.0
  0
ARC
  5
366F
330
18
100
AcDbEntity
  8
0
 62
     4
100
AcDbCircle
 10
1576.505278494194
 20
704.7157712984117
 30
0.0
 40
1.5
100
AcDbArc
 50
270.0
 51
0.0
  0
ARC
  5
3670
330
18
100
AcDbEntity
  8
0
 62
     4
100
AcDbCircle
 10
1582.505278494194
 20
704.7157712984117
 30
0.0
 40
1.5
100
AcDbArc
 50
180.0
 51
270.0
  0
ARC
  5
3671
330
18
100
AcDbEntity
  8
0
 62
     4
100
AcDbCircle
 10
1582.505278494194
 20
721.7157722983029
 30
0.0
 40
1.5
100
AcDbArc
 50
90.0
 51
180.0
  0
ARC
  5
3672
330
18
100
AcDbEntity
  8
0
 62
     4
100
AcDbCircle
 10
1582.505278494194
 20
721.7157722983029
 30
0.0
 40
1.5
100
AcDbArc
 50
0.0
 51
90.0
  0
ARC
  5
3673
330
18
100
AcDbEntity
  8
0
 62
     4
100
AcDbCircle
 10
1582.505278494194
 20
704.7157712984117
 30
0.0
 40
1.5
100
AcDbArc
 50
270.0
 51
0.0
  0
ARC
  5
3674
330
18
100
AcDbEntity
  8
0
 62
     4
100
AcDbCircle
 10
1588.505278494194
 20
704.7157712984117
 30
0.0
 40
1.5
100
AcDbArc
 50
180.0
 51
270.0
  0
ARC
  5
3675
330
18
100
AcDbEntity
  8
0
 62
     4
100
AcDbCircle
 10
1588.505278494194
 20
721.7157722983029
 30
0.0
 40
1.5
100
AcDbArc
 50
0.0
 51
90.0
  0
ARC
  5
3676
330
18
100
AcDbEntity
  8
0
 62
     4
100
AcDbCircle
 10
1588.505278494194
 20
721.7157722983029
 30
0.0
 40
1.5
100
AcDbArc
 50
90.0
 51
180.0
  0
ARC
  5
3677
330
18
100
AcDbEntity
  8
0
 62
     4
100
AcDbCircle
 10
1588.505278494194
 20
704.7157712984117
 30
0.0
 40
1.5
100
AcDbArc
 50
270.0
 51
0.0
  0
ARC
  5
3678
330
18
100
AcDbEntity
  8
0
 62
     4
100
AcDbCircle
 10
1517.50527749442
 20
704.7157712984117
 30
0.0
 40
1.5
100
AcDbArc
 50
270.0
 51
0.0
  0
ARC
  5
3679
330
18
100
AcDbEntity
  8
0
 62
     4
100
AcDbCircle
 10
1517.50527749442
 20
721.7157722983029
 30
0.0
 40
1.5
100
AcDbArc
 50
90.0
 51
180.0
  0
ARC
  5
367A
330
18
100
AcDbEntity
  8
0
 62
     4
100
AcDbCircle
 10
1517.50527749442
 20
721.7157722983029
 30
0.0
 40
1.5
100
AcDbArc
 50
0.0
 51
90.0
  0
ARC
  5
367B
330
18
100
AcDbEntity
  8
0
 62
     4
100
AcDbCircle
 10
1517.50527749442
 20
704.7157712984117
 30
0.0
 40
1.5
100
AcDbArc
 50
180.0
 51
270.0
  0
ARC
  5
367C
330
18
100
AcDbEntity
  8
0
 62
     4
100
AcDbCircle
 10
1523.505277494419
 20
704.7157712984117
 30
0.0
 40
1.5
100
AcDbArc
 50
180.0
 51
270.0
  0
ARC
  5
367D
330
18
100
AcDbEntity
  8
0
 62
     4
100
AcDbCircle
 10
1523.505277494419
 20
721.7157722983029
 30
0.0
 40
1.5
100
AcDbArc
 50
0.0
 51
90.0
  0
ARC
  5
367E
330
18
100
AcDbEntity
  8
0
 62
     4
100
AcDbCircle
 10
1523.505277494419
 20
721.7157722983029
 30
0.0
 40
1.5
100
AcDbArc
 50
90.0
 51
180.0
  0
ARC
  5
367F
330
18
100
AcDbEntity
  8
0
 62
     4
100
AcDbCircle
 10
1523.505277494419
 20
704.7157712984117
 30
0.0
 40
1.5
100
AcDbArc
 50
270.0
 51
0.0
  0
ARC
  5
3680
330
18
100
AcDbEntity
  8
0
 62
     4
100
AcDbCircle
 10
1594.505278494194
 20
704.7157712984117
 30
0.0
 40
1.5
100
AcDbArc
 50
180.0
 51
270.0
  0
ARC
  5
3681
330
18
100
AcDbEntity
  8
0
 62
     4
100
AcDbCircle
 10
1594.505278494194
 20
721.7157722983029
 30
0.0
 40
1.5
100
AcDbArc
 50
0.0
 51
90.0
  0
ARC
  5
3682
330
18
100
AcDbEntity
  8
0
 62
     4
100
AcDbCircle
 10
1594.505278494194
 20
721.7157722983029
 30
0.0
 40
1.5
100
AcDbArc
 50
90.0
 51
180.0
  0
ARC
  5
3683
330
18
100
AcDbEntity
  8
0
 62
     4
100
AcDbCircle
 10
1594.505278494194
 20
704.7157712984117
 30
0.0
 40
1.5
100
AcDbArc
 50
270.0
 51
0.0
  0
ARC
  5
3684
330
18
100
AcDbEntity
  8
0
 62
     4
100
AcDbCircle
 10
1529.505277494419
 20
665.7157712984116
 30
0.0
 40
1.5
100
AcDbArc
 50
0.0
 51
90.0
  0
ARC
  5
3685
330
18
100
AcDbEntity
  8
0
 62
     4
100
AcDbCircle
 10
1529.505277494419
 20
648.7157702982877
 30
0.0
 40
1.5
100
AcDbArc
 50
180.0
 51
270.0
  0
ARC
  5
3686
330
18
100
AcDbEntity
  8
0
 62
     4
100
AcDbCircle
 10
1594.505278494194
 20
648.7157702982877
 30
0.0
 40
1.5
100
AcDbArc
 50
270.0
 51
0.0
  0
ARC
  5
3687
330
18
100
AcDbEntity
  8
0
 62
     4
100
AcDbCircle
 10
1594.505278494194
 20
665.7157712984116
 30
0.0
 40
1.5
100
AcDbArc
 50
90.0
 51
180.0
  0
ARC
  5
3688
330
18
100
AcDbEntity
  8
0
 62
     4
100
AcDbCircle
 10
1594.505278494194
 20
665.7157712984116
 30
0.0
 40
1.5
100
AcDbArc
 50
0.0
 51
90.0
  0
ARC
  5
3689
330
18
100
AcDbEntity
  8
0
 62
     4
100
AcDbCircle
 10
1594.505278494194
 20
648.7157702982877
 30
0.0
 40
1.5
100
AcDbArc
 50
180.0
 51
270.0
  0
ARC
  5
368A
330
18
100
AcDbEntity
  8
0
 62
     4
100
AcDbCircle
 10
1523.505277494419
 20
648.7157702982877
 30
0.0
 40
1.5
100
AcDbArc
 50
270.0
 51
0.0
  0
ARC
  5
368B
330
18
100
AcDbEntity
  8
0
 62
     4
100
AcDbCircle
 10
1523.505277494419
 20
665.7157712984116
 30
0.0
 40
1.5
100
AcDbArc
 50
90.0
 51
180.0
  0
ARC
  5
368C
330
18
100
AcDbEntity
  8
0
 62
     4
100
AcDbCircle
 10
1523.505277494419
 20
665.7157712984116
 30
0.0
 40
1.5
100
AcDbArc
 50
0.0
 51
90.0
  0
ARC
  5
368D
330
18
100
AcDbEntity
  8
0
 62
     4
100
AcDbCircle
 10
1523.505277494419
 20
648.7157702982877
 30
0.0
 40
1.5
100
AcDbArc
 50
180.0
 51
270.0
  0
ARC
  5
368E
330
18
100
AcDbEntity
  8
0
 62
     4
100
AcDbCircle
 10
1517.50527749442
 20
648.7157702982877
 30
0.0
 40
1.5
100
AcDbArc
 50
180.0
 51
270.0
  0
ARC
  5
368F
330
18
100
AcDbEntity
  8
0
 62
     4
100
AcDbCircle
 10
1517.50527749442
 20
665.7157712984116
 30
0.0
 40
1.5
100
AcDbArc
 50
0.0
 51
90.0
  0
ARC
  5
3690
330
18
100
AcDbEntity
  8
0
 62
     4
100
AcDbCircle
 10
1517.50527749442
 20
665.7157712984116
 30
0.0
 40
1.5
100
AcDbArc
 50
90.0
 51
180.0
  0
ARC
  5
3691
330
18
100
AcDbEntity
  8
0
 62
     4
100
AcDbCircle
 10
1517.50527749442
 20
648.7157702982877
 30
0.0
 40
1.5
100
AcDbArc
 50
270.0
 51
0.0
  0
ARC
  5
3692
330
18
100
AcDbEntity
  8
0
 62
     4
100
AcDbCircle
 10
1588.505278494194
 20
648.7157702982877
 30
0.0
 40
1.5
100
AcDbArc
 50
270.0
 51
0.0
  0
ARC
  5
3693
330
18
100
AcDbEntity
  8
0
 62
     4
100
AcDbCircle
 10
1588.505278494194
 20
665.7157712984116
 30
0.0
 40
1.5
100
AcDbArc
 50
90.0
 51
180.0
  0
ARC
  5
3694
330
18
100
AcDbEntity
  8
0
 62
     4
100
AcDbCircle
 10
1588.505278494194
 20
665.7157712984116
 30
0.0
 40
1.5
100
AcDbArc
 50
0.0
 51
90.0
  0
ARC
  5
3695
330
18
100
AcDbEntity
  8
0
 62
     4
100
AcDbCircle
 10
1588.505278494194
 20
648.7157702982877
 30
0.0
 40
1.5
100
AcDbArc
 50
180.0
 51
270.0
  0
ARC
  5
3696
330
18
100
AcDbEntity
  8
0
 62
     4
100
AcDbCircle
 10
1582.505278494194
 20
648.7157702982877
 30
0.0
 40
1.5
100
AcDbArc
 50
270.0
 51
0.0
  0
ARC
  5
3697
330
18
100
AcDbEntity
  8
0
 62
     4
100
AcDbCircle
 10
1582.505278494194
 20
665.7157712984116
 30
0.0
 40
1.5
100
AcDbArc
 50
0.0
 51
90.0
  0
ARC
  5
3698
330
18
100
AcDbEntity
  8
0
 62
     4
100
AcDbCircle
 10
1582.505278494194
 20
665.7157712984116
 30
0.0
 40
1.5
100
AcDbArc
 50
90.0
 51
180.0
  0
ARC
  5
3699
330
18
100
AcDbEntity
  8
0
 62
     4
100
AcDbCircle
 10
1582.505278494194
 20
648.7157702982877
 30
0.0
 40
1.5
100
AcDbArc
 50
180.0
 51
270.0
  0
ARC
  5
369A
330
18
100
AcDbEntity
  8
0
 62
     4
100
AcDbCircle
 10
1576.505278494194
 20
648.7157702982877
 30
0.0
 40
1.5
100
AcDbArc
 50
270.0
 51
0.0
  0
ARC
  5
369B
330
18
100
AcDbEntity
  8
0
 62
     4
100
AcDbCircle
 10
1576.505278494194
 20
665.7157712984116
 30
0.0
 40
1.5
100
AcDbArc
 50
90.0
 51
180.0
  0
ARC
  5
369C
330
18
100
AcDbEntity
  8
0
 62
     4
100
AcDbCircle
 10
1576.505278494194
 20
665.7157712984116
 30
0.0
 40
1.5
100
AcDbArc
 50
0.0
 51
90.0
  0
ARC
  5
369D
330
18
100
AcDbEntity
  8
0
 62
     4
100
AcDbCircle
 10
1576.505278494194
 20
648.7157702982877
 30
0.0
 40
1.5
100
AcDbArc
 50
180.0
 51
270.0
  0
ARC
  5
369E
330
18
100
AcDbEntity
  8
0
 62
     4
100
AcDbCircle
 10
1570.505278494194
 20
648.7157702982877
 30
0.0
 40
1.5
100
AcDbArc
 50
270.0
 51
0.0
  0
ARC
  5
369F
330
18
100
AcDbEntity
  8
0
 62
     4
100
AcDbCircle
 10
1570.505278494194
 20
665.7157712984116
 30
0.0
 40
1.5
100
AcDbArc
 50
90.0
 51
180.0
  0
ARC
  5
36A0
330
18
100
AcDbEntity
  8
0
 62
     4
100
AcDbCircle
 10
1570.505278494194
 20
665.7157712984116
 30
0.0
 40
1.5
100
AcDbArc
 50
0.0
 51
90.0
  0
ARC
  5
36A1
330
18
100
AcDbEntity
  8
0
 62
     4
100
AcDbCircle
 10
1570.505278494194
 20
648.7157702982877
 30
0.0
 40
1.5
100
AcDbArc
 50
180.0
 51
270.0
  0
ARC
  5
36A2
330
18
100
AcDbEntity
  8
0
 62
     4
100
AcDbCircle
 10
1564.505278494194
 20
648.7157702982877
 30
0.0
 40
1.5
100
AcDbArc
 50
270.0
 51
0.0
  0
ARC
  5
36A3
330
18
100
AcDbEntity
  8
0
 62
     4
100
AcDbCircle
 10
1564.505278494194
 20
665.7157712984116
 30
0.0
 40
1.5
100
AcDbArc
 50
90.0
 51
180.0
  0
ARC
  5
36A4
330
18
100
AcDbEntity
  8
0
 62
     4
100
AcDbCircle
 10
1564.505278494194
 20
665.7157712984116
 30
0.0
 40
1.5
100
AcDbArc
 50
0.0
 51
90.0
  0
ARC
  5
36A5
330
18
100
AcDbEntity
  8
0
 62
     4
100
AcDbCircle
 10
1564.505278494194
 20
648.7157702982877
 30
0.0
 40
1.5
100
AcDbArc
 50
180.0
 51
270.0
  0
ARC
  5
36A6
330
18
100
AcDbEntity
  8
0
 62
     4
100
AcDbCircle
 10
1558.505278494194
 20
648.7157702982877
 30
0.0
 40
1.5
100
AcDbArc
 50
270.0
 51
0.0
  0
ARC
  5
36A7
330
18
100
AcDbEntity
  8
0
 62
     4
100
AcDbCircle
 10
1558.505278494194
 20
665.7157712984116
 30
0.0
 40
1.5
100
AcDbArc
 50
90.0
 51
180.0
  0
ARC
  5
36A8
330
18
100
AcDbEntity
  8
0
 62
     4
100
AcDbCircle
 10
1558.505278494194
 20
665.7157712984116
 30
0.0
 40
1.5
100
AcDbArc
 50
0.0
 51
90.0
  0
ARC
  5
36A9
330
18
100
AcDbEntity
  8
0
 62
     4
100
AcDbCircle
 10
1558.505278494194
 20
648.7157702982877
 30
0.0
 40
1.5
100
AcDbArc
 50
180.0
 51
270.0
  0
ARC
  5
36AA
330
18
100
AcDbEntity
  8
0
 62
     4
100
AcDbCircle
 10
1553.505277494419
 20
648.7157702982877
 30
0.0
 40
1.5
100
AcDbArc
 50
270.0
 51
0.0
  0
ARC
  5
36AB
330
18
100
AcDbEntity
  8
0
 62
     4
100
AcDbCircle
 10
1553.505277494419
 20
665.7157712984116
 30
0.0
 40
1.5
100
AcDbArc
 50
90.0
 51
180.0
  0
ARC
  5
36AC
330
18
100
AcDbEntity
  8
0
 62
     4
100
AcDbCircle
 10
1553.505277494419
 20
665.7157712984116
 30
0.0
 40
1.5
100
AcDbArc
 50
0.0
 51
90.0
  0
ARC
  5
36AD
330
18
100
AcDbEntity
  8
0
 62
     4
100
AcDbCircle
 10
1553.505277494419
 20
648.7157702982877
 30
0.0
 40
1.5
100
AcDbArc
 50
180.0
 51
270.0
  0
ARC
  5
36AE
330
18
100
AcDbEntity
  8
0
 62
     4
100
AcDbCircle
 10
1547.50527749442
 20
648.7157702982877
 30
0.0
 40
1.5
100
AcDbArc
 50
270.0
 51
0.0
  0
ARC
  5
36AF
330
18
100
AcDbEntity
  8
0
 62
     4
100
AcDbCircle
 10
1547.50527749442
 20
665.7157712984116
 30
0.0
 40
1.5
100
AcDbArc
 50
90.0
 51
180.0
  0
ARC
  5
36B0
330
18
100
AcDbEntity
  8
0
 62
     4
100
AcDbCircle
 10
1547.50527749442
 20
665.7157712984116
 30
0.0
 40
1.5
100
AcDbArc
 50
0.0
 51
90.0
  0
ARC
  5
36B1
330
18
100
AcDbEntity
  8
0
 62
     4
100
AcDbCircle
 10
1547.50527749442
 20
648.7157702982877
 30
0.0
 40
1.5
100
AcDbArc
 50
180.0
 51
270.0
  0
ARC
  5
36B2
330
18
100
AcDbEntity
  8
0
 62
     4
100
AcDbCircle
 10
1541.50527749442
 20
648.7157702982877
 30
0.0
 40
1.5
100
AcDbArc
 50
270.0
 51
0.0
  0
ARC
  5
36B3
330
18
100
AcDbEntity
  8
0
 62
     4
100
AcDbCircle
 10
1541.50527749442
 20
665.7157712984116
 30
0.0
 40
1.5
100
AcDbArc
 50
90.0
 51
180.0
  0
ARC
  5
36B4
330
18
100
AcDbEntity
  8
0
 62
     4
100
AcDbCircle
 10
1541.50527749442
 20
665.7157712984116
 30
0.0
 40
1.5
100
AcDbArc
 50
0.0
 51
90.0
  0
ARC
  5
36B5
330
18
100
AcDbEntity
  8
0
 62
     4
100
AcDbCircle
 10
1541.50527749442
 20
648.7157702982877
 30
0.0
 40
1.5
100
AcDbArc
 50
180.0
 51
270.0
  0
ARC
  5
36B6
330
18
100
AcDbEntity
  8
0
 62
     4
100
AcDbCircle
 10
1535.50527749442
 20
648.7157702982877
 30
0.0
 40
1.5
100
AcDbArc
 50
270.0
 51
0.0
  0
ARC
  5
36B7
330
18
100
AcDbEntity
  8
0
 62
     4
100
AcDbCircle
 10
1535.50527749442
 20
665.7157712984116
 30
0.0
 40
1.5
100
AcDbArc
 50
90.0
 51
180.0
  0
ARC
  5
36B8
330
18
100
AcDbEntity
  8
0
 62
     4
100
AcDbCircle
 10
1535.50527749442
 20
665.7157712984116
 30
0.0
 40
1.5
100
AcDbArc
 50
0.0
 51
90.0
  0
ARC
  5
36B9
330
18
100
AcDbEntity
  8
0
 62
     4
100
AcDbCircle
 10
1535.50527749442
 20
648.7157702982877
 30
0.0
 40
1.5
100
AcDbArc
 50
180.0
 51
270.0
  0
ARC
  5
36BA
330
18
100
AcDbEntity
  8
0
 62
     4
100
AcDbCircle
 10
1529.505277494419
 20
648.7157702982877
 30
0.0
 40
1.5
100
AcDbArc
 50
270.0
 51
0.0
  0
ARC
  5
36BB
330
18
100
AcDbEntity
  8
0
 62
     4
100
AcDbCircle
 10
1529.505277494419
 20
665.7157712984116
 30
0.0
 40
1.5
100
AcDbArc
 50
90.0
 51
180.0
  0
ARC
  5
36BC
330
18
100
AcDbEntity
  8
0
 62
     4
100
AcDbCircle
 10
1529.505277494419
 20
676.7157722983029
 30
0.0
 40
1.5
100
AcDbArc
 50
180.0
 51
270.0
  0
ARC
  5
36BD
330
18
100
AcDbEntity
  8
0
 62
     4
100
AcDbCircle
 10
1529.505277494419
 20
693.7157702982877
 30
0.0
 40
1.5
100
AcDbArc
 50
0.0
 51
90.0
  0
ARC
  5
36BE
330
18
100
AcDbEntity
  8
0
 62
     4
100
AcDbCircle
 10
1529.505277494419
 20
609.7157702982876
 30
0.0
 40
1.5
100
AcDbArc
 50
0.0
 51
90.0
  0
ARC
  5
36BF
330
18
100
AcDbEntity
  8
0
 62
     4
100
AcDbCircle
 10
1529.505277494419
 20
592.7157722983029
 30
0.0
 40
1.5
100
AcDbArc
 50
180.0
 51
270.0
  0
ARC
  5
36C0
330
18
100
AcDbEntity
  8
0
 62
     4
100
AcDbCircle
 10
1529.505277494419
 20
732.7157702982876
 30
0.0
 40
1.5
100
AcDbArc
 50
180.0
 51
270.0
  0
ARC
  5
36C1
330
18
100
AcDbEntity
  8
0
 62
     4
100
AcDbCircle
 10
1529.505277494419
 20
749.7157712984117
 30
0.0
 40
1.5
100
AcDbArc
 50
0.0
 51
90.0
  0
ARC
  5
36C2
330
18
100
AcDbEntity
  8
0
 62
     4
100
AcDbCircle
 10
1529.505277494419
 20
749.7157712984117
 30
0.0
 40
1.5
100
AcDbArc
 50
90.0
 51
180.0
  0
ARC
  5
36C3
330
18
100
AcDbEntity
  8
0
 62
     4
100
AcDbCircle
 10
1529.505277494419
 20
732.7157702982876
 30
0.0
 40
1.5
100
AcDbArc
 50
270.0
 51
0.0
  0
ARC
  5
36C4
330
18
100
AcDbEntity
  8
0
 62
     4
100
AcDbCircle
 10
1594.505278494194
 20
592.7157722983029
 30
0.0
 40
1.5
100
AcDbArc
 50
270.0
 51
0.0
  0
ARC
  5
36C5
330
18
100
AcDbEntity
  8
0
 62
     4
100
AcDbCircle
 10
1594.505278494194
 20
609.7157702982876
 30
0.0
 40
1.5
100
AcDbArc
 50
90.0
 51
180.0
  0
ARC
  5
36C6
330
18
100
AcDbEntity
  8
0
 62
     4
100
AcDbCircle
 10
1594.505278494194
 20
609.7157702982876
 30
0.0
 40
1.5
100
AcDbArc
 50
0.0
 51
90.0
  0
ARC
  5
36C7
330
18
100
AcDbEntity
  8
0
 62
     4
100
AcDbCircle
 10
1594.505278494194
 20
592.7157722983029
 30
0.0
 40
1.5
100
AcDbArc
 50
180.0
 51
270.0
  0
ARC
  5
36C8
330
18
100
AcDbEntity
  8
0
 62
     4
100
AcDbCircle
 10
1535.50527749442
 20
732.7157702982876
 30
0.0
 40
1.5
100
AcDbArc
 50
180.0
 51
270.0
  0
ARC
  5
36C9
330
18
100
AcDbEntity
  8
0
 62
     4
100
AcDbCircle
 10
1535.50527749442
 20
749.7157712984117
 30
0.0
 40
1.5
100
AcDbArc
 50
0.0
 51
90.0
  0
ARC
  5
36CA
330
18
100
AcDbEntity
  8
0
 62
     4
100
AcDbCircle
 10
1535.50527749442
 20
749.7157712984117
 30
0.0
 40
1.5
100
AcDbArc
 50
90.0
 51
180.0
  0
ARC
  5
36CB
330
18
100
AcDbEntity
  8
0
 62
     4
100
AcDbCircle
 10
1535.50527749442
 20
732.7157702982876
 30
0.0
 40
1.5
100
AcDbArc
 50
270.0
 51
0.0
  0
ARC
  5
36CC
330
18
100
AcDbEntity
  8
0
 62
     4
100
AcDbCircle
 10
1523.505277494419
 20
592.7157722983029
 30
0.0
 40
1.5
100
AcDbArc
 50
270.0
 51
0.0
  0
ARC
  5
36CD
330
18
100
AcDbEntity
  8
0
 62
     4
100
AcDbCircle
 10
1523.505277494419
 20
609.7157702982876
 30
0.0
 40
1.5
100
AcDbArc
 50
90.0
 51
180.0
  0
ARC
  5
36CE
330
18
100
AcDbEntity
  8
0
 62
     4
100
AcDbCircle
 10
1523.505277494419
 20
609.7157702982876
 30
0.0
 40
1.5
100
AcDbArc
 50
0.0
 51
90.0
  0
ARC
  5
36CF
330
18
100
AcDbEntity
  8
0
 62
     4
100
AcDbCircle
 10
1523.505277494419
 20
592.7157722983029
 30
0.0
 40
1.5
100
AcDbArc
 50
180.0
 51
270.0
  0
ARC
  5
36D0
330
18
100
AcDbEntity
  8
0
 62
     4
100
AcDbCircle
 10
1517.50527749442
 20
592.7157722983029
 30
0.0
 40
1.5
100
AcDbArc
 50
180.0
 51
270.0
  0
ARC
  5
36D1
330
18
100
AcDbEntity
  8
0
 62
     4
100
AcDbCircle
 10
1517.50527749442
 20
609.7157702982876
 30
0.0
 40
1.5
100
AcDbArc
 50
0.0
 51
90.0
  0
ARC
  5
36D2
330
18
100
AcDbEntity
  8
0
 62
     4
100
AcDbCircle
 10
1541.50527749442
 20
732.7157702982876
 30
0.0
 40
1.5
100
AcDbArc
 50
180.0
 51
270.0
  0
ARC
  5
36D3
330
18
100
AcDbEntity
  8
0
 62
     4
100
AcDbCircle
 10
1541.50527749442
 20
749.7157712984117
 30
0.0
 40
1.5
100
AcDbArc
 50
0.0
 51
90.0
  0
ARC
  5
36D4
330
18
100
AcDbEntity
  8
0
 62
     4
100
AcDbCircle
 10
1541.50527749442
 20
749.7157712984117
 30
0.0
 40
1.5
100
AcDbArc
 50
90.0
 51
180.0
  0
ARC
  5
36D5
330
18
100
AcDbEntity
  8
0
 62
     4
100
AcDbCircle
 10
1541.50527749442
 20
732.7157702982876
 30
0.0
 40
1.5
100
AcDbArc
 50
270.0
 51
0.0
  0
ARC
  5
36D6
330
18
100
AcDbEntity
  8
0
 62
     4
100
AcDbCircle
 10
1517.50527749442
 20
609.7157702982876
 30
0.0
 40
1.5
100
AcDbArc
 50
90.0
 51
180.0
  0
ARC
  5
36D7
330
18
100
AcDbEntity
  8
0
 62
     4
100
AcDbCircle
 10
1517.50527749442
 20
592.7157722983029
 30
0.0
 40
1.5
100
AcDbArc
 50
270.0
 51
0.0
  0
ARC
  5
36D8
330
18
100
AcDbEntity
  8
0
 62
     4
100
AcDbCircle
 10
1547.50527749442
 20
732.7157702982876
 30
0.0
 40
1.5
100
AcDbArc
 50
180.0
 51
270.0
  0
ARC
  5
36D9
330
18
100
AcDbEntity
  8
0
 62
     4
100
AcDbCircle
 10
1547.50527749442
 20
749.7157712984117
 30
0.0
 40
1.5
100
AcDbArc
 50
0.0
 51
90.0
  0
ARC
  5
36DA
330
18
100
AcDbEntity
  8
0
 62
     4
100
AcDbCircle
 10
1547.50527749442
 20
749.7157712984117
 30
0.0
 40
1.5
100
AcDbArc
 50
90.0
 51
180.0
  0
ARC
  5
36DB
330
18
100
AcDbEntity
  8
0
 62
     4
100
AcDbCircle
 10
1547.50527749442
 20
732.7157702982876
 30
0.0
 40
1.5
100
AcDbArc
 50
270.0
 51
0.0
  0
ARC
  5
36DC
330
18
100
AcDbEntity
  8
0
 62
     4
100
AcDbCircle
 10
1588.505278494194
 20
592.7157722983029
 30
0.0
 40
1.5
100
AcDbArc
 50
270.0
 51
0.0
  0
ARC
  5
36DD
330
18
100
AcDbEntity
  8
0
 62
     4
100
AcDbCircle
 10
1588.505278494194
 20
609.7157702982876
 30
0.0
 40
1.5
100
AcDbArc
 50
90.0
 51
180.0
  0
ARC
  5
36DE
330
18
100
AcDbEntity
  8
0
 62
     4
100
AcDbCircle
 10
1588.505278494194
 20
609.7157702982876
 30
0.0
 40
1.5
100
AcDbArc
 50
0.0
 51
90.0
  0
ARC
  5
36DF
330
18
100
AcDbEntity
  8
0
 62
     4
100
AcDbCircle
 10
1588.505278494194
 20
592.7157722983029
 30
0.0
 40
1.5
100
AcDbArc
 50
180.0
 51
270.0
  0
ARC
  5
36E0
330
18
100
AcDbEntity
  8
0
 62
     4
100
AcDbCircle
 10
1553.505277494419
 20
732.7157702982876
 30
0.0
 40
1.5
100
AcDbArc
 50
180.0
 51
270.0
  0
ARC
  5
36E1
330
18
100
AcDbEntity
  8
0
 62
     4
100
AcDbCircle
 10
1553.505277494419
 20
749.7157712984117
 30
0.0
 40
1.5
100
AcDbArc
 50
0.0
 51
90.0
  0
ARC
  5
36E2
330
18
100
AcDbEntity
  8
0
 62
     4
100
AcDbCircle
 10
1553.505277494419
 20
749.7157712984117
 30
0.0
 40
1.5
100
AcDbArc
 50
90.0
 51
180.0
  0
ARC
  5
36E3
330
18
100
AcDbEntity
  8
0
 62
     4
100
AcDbCircle
 10
1553.505277494419
 20
732.7157702982876
 30
0.0
 40
1.5
100
AcDbArc
 50
270.0
 51
0.0
  0
ARC
  5
36E4
330
18
100
AcDbEntity
  8
0
 62
     4
100
AcDbCircle
 10
1582.505278494194
 20
592.7157722983029
 30
0.0
 40
1.5
100
AcDbArc
 50
270.0
 51
0.0
  0
ARC
  5
36E5
330
18
100
AcDbEntity
  8
0
 62
     4
100
AcDbCircle
 10
1582.505278494194
 20
609.7157702982876
 30
0.0
 40
1.5
100
AcDbArc
 50
0.0
 51
90.0
  0
ARC
  5
36E6
330
18
100
AcDbEntity
  8
0
 62
     4
100
AcDbCircle
 10
1582.505278494194
 20
609.7157702982876
 30
0.0
 40
1.5
100
AcDbArc
 50
90.0
 51
180.0
  0
ARC
  5
36E7
330
18
100
AcDbEntity
  8
0
 62
     4
100
AcDbCircle
 10
1582.505278494194
 20
592.7157722983029
 30
0.0
 40
1.5
100
AcDbArc
 50
180.0
 51
270.0
  0
ARC
  5
36E8
330
18
100
AcDbEntity
  8
0
 62
     4
100
AcDbCircle
 10
1576.505278494194
 20
592.7157722983029
 30
0.0
 40
1.5
100
AcDbArc
 50
270.0
 51
0.0
  0
ARC
  5
36E9
330
18
100
AcDbEntity
  8
0
 62
     4
100
AcDbCircle
 10
1576.505278494194
 20
609.7157702982876
 30
0.0
 40
1.5
100
AcDbArc
 50
90.0
 51
180.0
  0
ARC
  5
36EA
330
18
100
AcDbEntity
  8
0
 62
     4
100
AcDbCircle
 10
1576.505278494194
 20
609.7157702982876
 30
0.0
 40
1.5
100
AcDbArc
 50
0.0
 51
90.0
  0
ARC
  5
36EB
330
18
100
AcDbEntity
  8
0
 62
     4
100
AcDbCircle
 10
1576.505278494194
 20
592.7157722983029
 30
0.0
 40
1.5
100
AcDbArc
 50
180.0
 51
270.0
  0
ARC
  5
36EC
330
18
100
AcDbEntity
  8
0
 62
     4
100
AcDbCircle
 10
1570.505278494194
 20
592.7157722983029
 30
0.0
 40
1.5
100
AcDbArc
 50
270.0
 51
0.0
  0
ARC
  5
36ED
330
18
100
AcDbEntity
  8
0
 62
     4
100
AcDbCircle
 10
1570.505278494194
 20
609.7157702982876
 30
0.0
 40
1.5
100
AcDbArc
 50
90.0
 51
180.0
  0
ARC
  5
36EE
330
18
100
AcDbEntity
  8
0
 62
     4
100
AcDbCircle
 10
1570.505278494194
 20
609.7157702982876
 30
0.0
 40
1.5
100
AcDbArc
 50
0.0
 51
90.0
  0
ARC
  5
36EF
330
18
100
AcDbEntity
  8
0
 62
     4
100
AcDbCircle
 10
1570.505278494194
 20
592.7157722983029
 30
0.0
 40
1.5
100
AcDbArc
 50
180.0
 51
270.0
  0
ARC
  5
36F0
330
18
100
AcDbEntity
  8
0
 62
     4
100
AcDbCircle
 10
1564.505278494194
 20
592.7157722983029
 30
0.0
 40
1.5
100
AcDbArc
 50
270.0
 51
0.0
  0
ARC
  5
36F1
330
18
100
AcDbEntity
  8
0
 62
     4
100
AcDbCircle
 10
1564.505278494194
 20
609.7157702982876
 30
0.0
 40
1.5
100
AcDbArc
 50
90.0
 51
180.0
  0
ARC
  5
36F2
330
18
100
AcDbEntity
  8
0
 62
     4
100
AcDbCircle
 10
1564.505278494194
 20
609.7157702982876
 30
0.0
 40
1.5
100
AcDbArc
 50
0.0
 51
90.0
  0
ARC
  5
36F3
330
18
100
AcDbEntity
  8
0
 62
     4
100
AcDbCircle
 10
1564.505278494194
 20
592.7157722983029
 30
0.0
 40
1.5
100
AcDbArc
 50
180.0
 51
270.0
  0
ARC
  5
36F4
330
18
100
AcDbEntity
  8
0
 62
     4
100
AcDbCircle
 10
1558.505278494194
 20
592.7157722983029
 30
0.0
 40
1.5
100
AcDbArc
 50
270.0
 51
0.0
  0
ARC
  5
36F5
330
18
100
AcDbEntity
  8
0
 62
     4
100
AcDbCircle
 10
1558.505278494194
 20
609.7157702982876
 30
0.0
 40
1.5
100
AcDbArc
 50
90.0
 51
180.0
  0
ARC
  5
36F6
330
18
100
AcDbEntity
  8
0
 62
     4
100
AcDbCircle
 10
1558.505278494194
 20
609.7157702982876
 30
0.0
 40
1.5
100
AcDbArc
 50
0.0
 51
90.0
  0
ARC
  5
36F7
330
18
100
AcDbEntity
  8
0
 62
     4
100
AcDbCircle
 10
1558.505278494194
 20
592.7157722983029
 30
0.0
 40
1.5
100
AcDbArc
 50
180.0
 51
270.0
  0
ARC
  5
36F8
330
18
100
AcDbEntity
  8
0
 62
     4
100
AcDbCircle
 10
1558.505278494194
 20
732.7157702982876
 30
0.0
 40
1.5
100
AcDbArc
 50
180.0
 51
270.0
  0
ARC
  5
36F9
330
18
100
AcDbEntity
  8
0
 62
     4
100
AcDbCircle
 10
1558.505278494194
 20
749.7157712984117
 30
0.0
 40
1.5
100
AcDbArc
 50
0.0
 51
90.0
  0
ARC
  5
36FA
330
18
100
AcDbEntity
  8
0
 62
     4
100
AcDbCircle
 10
1558.505278494194
 20
749.7157712984117
 30
0.0
 40
1.5
100
AcDbArc
 50
90.0
 51
180.0
  0
ARC
  5
36FB
330
18
100
AcDbEntity
  8
0
 62
     4
100
AcDbCircle
 10
1558.505278494194
 20
732.7157702982876
 30
0.0
 40
1.5
100
AcDbArc
 50
270.0
 51
0.0
  0
ARC
  5
36FC
330
18
100
AcDbEntity
  8
0
 62
     4
100
AcDbCircle
 10
1564.505278494194
 20
732.7157702982876
 30
0.0
 40
1.5
100
AcDbArc
 50
180.0
 51
270.0
  0
ARC
  5
36FD
330
18
100
AcDbEntity
  8
0
 62
     4
100
AcDbCircle
 10
1564.505278494194
 20
749.7157712984117
 30
0.0
 40
1.5
100
AcDbArc
 50
0.0
 51
90.0
  0
ARC
  5
36FE
330
18
100
AcDbEntity
  8
0
 62
     4
100
AcDbCircle
 10
1564.505278494194
 20
749.7157712984117
 30
0.0
 40
1.5
100
AcDbArc
 50
90.0
 51
180.0
  0
ARC
  5
36FF
330
18
100
AcDbEntity
  8
0
 62
     4
100
AcDbCircle
 10
1564.505278494194
 20
732.7157702982876
 30
0.0
 40
1.5
100
AcDbArc
 50
270.0
 51
0.0
  0
ARC
  5
3700
330
18
100
AcDbEntity
  8
0
 62
     4
100
AcDbCircle
 10
1570.505278494194
 20
732.7157702982876
 30
0.0
 40
1.5
100
AcDbArc
 50
180.0
 51
270.0
  0
ARC
  5
3701
330
18
100
AcDbEntity
  8
0
 62
     4
100
AcDbCircle
 10
1570.505278494194
 20
749.7157712984117
 30
0.0
 40
1.5
100
AcDbArc
 50
0.0
 51
90.0
  0
ARC
  5
3702
330
18
100
AcDbEntity
  8
0
 62
     4
100
AcDbCircle
 10
1570.505278494194
 20
749.7157712984117
 30
0.0
 40
1.5
100
AcDbArc
 50
90.0
 51
180.0
  0
ARC
  5
3703
330
18
100
AcDbEntity
  8
0
 62
     4
100
AcDbCircle
 10
1570.505278494194
 20
732.7157702982876
 30
0.0
 40
1.5
100
AcDbArc
 50
270.0
 51
0.0
  0
ARC
  5
3704
330
18
100
AcDbEntity
  8
0
 62
     4
100
AcDbCircle
 10
1576.505278494194
 20
732.7157702982876
 30
0.0
 40
1.5
100
AcDbArc
 50
180.0
 51
270.0
  0
ARC
  5
3705
330
18
100
AcDbEntity
  8
0
 62
     4
100
AcDbCircle
 10
1576.505278494194
 20
749.7157712984117
 30
0.0
 40
1.5
100
AcDbArc
 50
0.0
 51
90.0
  0
ARC
  5
3706
330
18
100
AcDbEntity
  8
0
 62
     4
100
AcDbCircle
 10
1576.505278494194
 20
749.7157712984117
 30
0.0
 40
1.5
100
AcDbArc
 50
90.0
 51
180.0
  0
ARC
  5
3707
330
18
100
AcDbEntity
  8
0
 62
     4
100
AcDbCircle
 10
1576.505278494194
 20
732.7157702982876
 30
0.0
 40
1.5
100
AcDbArc
 50
270.0
 51
0.0
  0
ARC
  5
3708
330
18
100
AcDbEntity
  8
0
 62
     4
100
AcDbCircle
 10
1582.505278494194
 20
732.7157702982876
 30
0.0
 40
1.5
100
AcDbArc
 50
180.0
 51
270.0
  0
ARC
  5
3709
330
18
100
AcDbEntity
  8
0
 62
     4
100
AcDbCircle
 10
1582.505278494194
 20
749.7157712984117
 30
0.0
 40
1.5
100
AcDbArc
 50
90.0
 51
180.0
  0
ARC
  5
370A
330
18
100
AcDbEntity
  8
0
 62
     4
100
AcDbCircle
 10
1582.505278494194
 20
749.7157712984117
 30
0.0
 40
1.5
100
AcDbArc
 50
0.0
 51
90.0
  0
ARC
  5
370B
330
18
100
AcDbEntity
  8
0
 62
     4
100
AcDbCircle
 10
1582.505278494194
 20
732.7157702982876
 30
0.0
 40
1.5
100
AcDbArc
 50
270.0
 51
0.0
  0
ARC
  5
370C
330
18
100
AcDbEntity
  8
0
 62
     4
100
AcDbCircle
 10
1553.505277494419
 20
592.7157722983029
 30
0.0
 40
1.5
100
AcDbArc
 50
270.0
 51
0.0
  0
ARC
  5
370D
330
18
100
AcDbEntity
  8
0
 62
     4
100
AcDbCircle
 10
1553.505277494419
 20
609.7157702982876
 30
0.0
 40
1.5
100
AcDbArc
 50
90.0
 51
180.0
  0
ARC
  5
370E
330
18
100
AcDbEntity
  8
0
 62
     4
100
AcDbCircle
 10
1553.505277494419
 20
609.7157702982876
 30
0.0
 40
1.5
100
AcDbArc
 50
0.0
 51
90.0
  0
ARC
  5
370F
330
18
100
AcDbEntity
  8
0
 62
     4
100
AcDbCircle
 10
1553.505277494419
 20
592.7157722983029
 30
0.0
 40
1.5
100
AcDbArc
 50
180.0
 51
270.0
  0
ARC
  5
3710
330
18
100
AcDbEntity
  8
0
 62
     4
100
AcDbCircle
 10
1588.505278494194
 20
732.7157702982876
 30
0.0
 40
1.5
100
AcDbArc
 50
180.0
 51
270.0
  0
ARC
  5
3711
330
18
100
AcDbEntity
  8
0
 62
     4
100
AcDbCircle
 10
1588.505278494194
 20
749.7157712984117
 30
0.0
 40
1.5
100
AcDbArc
 50
0.0
 51
90.0
  0
ARC
  5
3712
330
18
100
AcDbEntity
  8
0
 62
     4
100
AcDbCircle
 10
1588.505278494194
 20
749.7157712984117
 30
0.0
 40
1.5
100
AcDbArc
 50
90.0
 51
180.0
  0
ARC
  5
3713
330
18
100
AcDbEntity
  8
0
 62
     4
100
AcDbCircle
 10
1588.505278494194
 20
732.7157702982876
 30
0.0
 40
1.5
100
AcDbArc
 50
270.0
 51
0.0
  0
ARC
  5
3714
330
18
100
AcDbEntity
  8
0
 62
     4
100
AcDbCircle
 10
1547.50527749442
 20
592.7157722983029
 30
0.0
 40
1.5
100
AcDbArc
 50
270.0
 51
0.0
  0
ARC
  5
3715
330
18
100
AcDbEntity
  8
0
 62
     4
100
AcDbCircle
 10
1547.50527749442
 20
609.7157702982876
 30
0.0
 40
1.5
100
AcDbArc
 50
90.0
 51
180.0
  0
ARC
  5
3716
330
18
100
AcDbEntity
  8
0
 62
     4
100
AcDbCircle
 10
1547.50527749442
 20
609.7157702982876
 30
0.0
 40
1.5
100
AcDbArc
 50
0.0
 51
90.0
  0
ARC
  5
3717
330
18
100
AcDbEntity
  8
0
 62
     4
100
AcDbCircle
 10
1547.50527749442
 20
592.7157722983029
 30
0.0
 40
1.5
100
AcDbArc
 50
180.0
 51
270.0
  0
ARC
  5
3718
330
18
100
AcDbEntity
  8
0
 62
     4
100
AcDbCircle
 10
1517.50527749442
 20
732.7157702982876
 30
0.0
 40
1.5
100
AcDbArc
 50
270.0
 51
0.0
  0
ARC
  5
3719
330
18
100
AcDbEntity
  8
0
 62
     4
100
AcDbCircle
 10
1517.50527749442
 20
749.7157712984117
 30
0.0
 40
1.5
100
AcDbArc
 50
90.0
 51
180.0
  0
ARC
  5
371A
330
18
100
AcDbEntity
  8
0
 62
     4
100
AcDbCircle
 10
1517.50527749442
 20
749.7157712984117
 30
0.0
 40
1.5
100
AcDbArc
 50
0.0
 51
90.0
  0
ARC
  5
371B
330
18
100
AcDbEntity
  8
0
 62
     4
100
AcDbCircle
 10
1517.50527749442
 20
732.7157702982876
 30
0.0
 40
1.5
100
AcDbArc
 50
180.0
 51
270.0
  0
ARC
  5
371C
330
18
100
AcDbEntity
  8
0
 62
     4
100
AcDbCircle
 10
1541.50527749442
 20
592.7157722983029
 30
0.0
 40
1.5
100
AcDbArc
 50
270.0
 51
0.0
  0
ARC
  5
371D
330
18
100
AcDbEntity
  8
0
 62
     4
100
AcDbCircle
 10
1541.50527749442
 20
609.7157702982876
 30
0.0
 40
1.5
100
AcDbArc
 50
90.0
 51
180.0
  0
ARC
  5
371E
330
18
100
AcDbEntity
  8
0
 62
     4
100
AcDbCircle
 10
1541.50527749442
 20
609.7157702982876
 30
0.0
 40
1.5
100
AcDbArc
 50
0.0
 51
90.0
  0
ARC
  5
371F
330
18
100
AcDbEntity
  8
0
 62
     4
100
AcDbCircle
 10
1541.50527749442
 20
592.7157722983029
 30
0.0
 40
1.5
100
AcDbArc
 50
180.0
 51
270.0
  0
ARC
  5
3720
330
18
100
AcDbEntity
  8
0
 62
     4
100
AcDbCircle
 10
1535.50527749442
 20
592.7157722983029
 30
0.0
 40
1.5
100
AcDbArc
 50
270.0
 51
0.0
  0
ARC
  5
3721
330
18
100
AcDbEntity
  8
0
 62
     4
100
AcDbCircle
 10
1535.50527749442
 20
609.7157702982876
 30
0.0
 40
1.5
100
AcDbArc
 50
90.0
 51
180.0
  0
ARC
  5
3722
330
18
100
AcDbEntity
  8
0
 62
     4
100
AcDbCircle
 10
1535.50527749442
 20
609.7157702982876
 30
0.0
 40
1.5
100
AcDbArc
 50
0.0
 51
90.0
  0
ARC
  5
3723
330
18
100
AcDbEntity
  8
0
 62
     4
100
AcDbCircle
 10
1535.50527749442
 20
592.7157722983029
 30
0.0
 40
1.5
100
AcDbArc
 50
180.0
 51
270.0
  0
ARC
  5
3724
330
18
100
AcDbEntity
  8
0
 62
     4
100
AcDbCircle
 10
1529.505277494419
 20
592.7157722983029
 30
0.0
 40
1.5
100
AcDbArc
 50
270.0
 51
0.0
  0
ARC
  5
3725
330
18
100
AcDbEntity
  8
0
 62
     4
100
AcDbCircle
 10
1523.505277494419
 20
732.7157702982876
 30
0.0
 40
1.5
100
AcDbArc
 50
180.0
 51
270.0
  0
ARC
  5
3726
330
18
100
AcDbEntity
  8
0
 62
     4
100
AcDbCircle
 10
1523.505277494419
 20
749.7157712984117
 30
0.0
 40
1.5
100
AcDbArc
 50
0.0
 51
90.0
  0
ARC
  5
3727
330
18
100
AcDbEntity
  8
0
 62
     4
100
AcDbCircle
 10
1523.505277494419
 20
749.7157712984117
 30
0.0
 40
1.5
100
AcDbArc
 50
90.0
 51
180.0
  0
ARC
  5
3728
330
18
100
AcDbEntity
  8
0
 62
     4
100
AcDbCircle
 10
1523.505277494419
 20
732.7157702982876
 30
0.0
 40
1.5
100
AcDbArc
 50
270.0
 51
0.0
  0
ARC
  5
3729
330
18
100
AcDbEntity
  8
0
 62
     4
100
AcDbCircle
 10
1594.505278494194
 20
732.7157702982876
 30
0.0
 40
1.5
100
AcDbArc
 50
180.0
 51
270.0
  0
ARC
  5
372A
330
18
100
AcDbEntity
  8
0
 62
     4
100
AcDbCircle
 10
1594.505278494194
 20
749.7157712984117
 30
0.0
 40
1.5
100
AcDbArc
 50
0.0
 51
90.0
  0
ARC
  5
372B
330
18
100
AcDbEntity
  8
0
 62
     4
100
AcDbCircle
 10
1594.505278494194
 20
749.7157712984117
 30
0.0
 40
1.5
100
AcDbArc
 50
90.0
 51
180.0
  0
ARC
  5
372C
330
18
100
AcDbEntity
  8
0
 62
     4
100
AcDbCircle
 10
1594.505278494194
 20
732.7157702982876
 30
0.0
 40
1.5
100
AcDbArc
 50
270.0
 51
0.0
  0
ARC
  5
372D
330
18
100
AcDbEntity
  8
0
 62
     4
100
AcDbCircle
 10
1529.505277494419
 20
609.7157702982876
 30
0.0
 40
1.5
100
AcDbArc
 50
90.0
 51
180.0
  0
ARC
  5
372E
330
18
100
AcDbEntity
  8
0
 62
     4
100
AcDbCircle
 10
1506.505279494318
 20
579.2157722983029
 30
0.0
 40
2.499998999999999
100
AcDbArc
 50
180.0
 51
270.0
  0
ARC
  5
372F
330
18
100
AcDbEntity
  8
0
 62
     4
100
AcDbCircle
 10
1506.505279494318
 20
763.2157712984117
 30
0.0
 40
2.499998999999999
100
AcDbArc
 50
90.0
 51
180.0
  0
ARC
  5
3732
330
18
100
AcDbEntity
  8
0
 62
     4
100
AcDbCircle
 10
1529.505277494419
 20
693.7157702982877
 30
0.0
 40
1.5
100
AcDbArc
 50
90.0
 51
180.0
  0
ARC
  5
3733
330
18
100
AcDbEntity
  8
0
 62
     4
100
AcDbCircle
 10
1529.505277494419
 20
676.7157722983029
 30
0.0
 40
1.5
100
AcDbArc
 50
270.0
 51
0.0
  0
ARC
  5
3734
330
18
100
AcDbEntity
  8
0
 62
     4
100
AcDbCircle
 10
1535.50527749442
 20
676.7157722983029
 30
0.0
 40
1.5
100
AcDbArc
 50
180.0
 51
270.0
  0
ARC
  5
3735
330
18
100
AcDbEntity
  8
0
 62
     4
100
AcDbCircle
 10
1535.50527749442
 20
693.7157702982877
 30
0.0
 40
1.5
100
AcDbArc
 50
0.0
 51
90.0
  0
ARC
  5
3736
330
18
100
AcDbEntity
  8
0
 62
     4
100
AcDbCircle
 10
1535.50527749442
 20
693.7157702982877
 30
0.0
 40
1.5
100
AcDbArc
 50
90.0
 51
180.0
  0
ARC
  5
3737
330
18
100
AcDbEntity
  8
0
 62
     4
100
AcDbCircle
 10
1535.50527749442
 20
676.7157722983029
 30
0.0
 40
1.5
100
AcDbArc
 50
270.0
 51
0.0
  0
ARC
  5
3738
330
18
100
AcDbEntity
  8
0
 62
     4
100
AcDbCircle
 10
1541.50527749442
 20
676.7157722983029
 30
0.0
 40
1.5
100
AcDbArc
 50
180.0
 51
270.0
  0
ARC
  5
3739
330
18
100
AcDbEntity
  8
0
 62
     4
100
AcDbCircle
 10
1541.50527749442
 20
693.7157702982877
 30
0.0
 40
1.5
100
AcDbArc
 50
0.0
 51
90.0
  0
ARC
  5
373A
330
18
100
AcDbEntity
  8
0
 62
     4
100
AcDbCircle
 10
1541.50527749442
 20
693.7157702982877
 30
0.0
 40
1.5
100
AcDbArc
 50
90.0
 51
180.0
  0
ARC
  5
373B
330
18
100
AcDbEntity
  8
0
 62
     4
100
AcDbCircle
 10
1541.50527749442
 20
676.7157722983029
 30
0.0
 40
1.5
100
AcDbArc
 50
270.0
 51
0.0
  0
ARC
  5
373C
330
18
100
AcDbEntity
  8
0
 62
     4
100
AcDbCircle
 10
1547.50527749442
 20
676.7157722983029
 30
0.0
 40
1.5
100
AcDbArc
 50
180.0
 51
270.0
  0
ARC
  5
373D
330
18
100
AcDbEntity
  8
0
 62
     4
100
AcDbCircle
 10
1547.50527749442
 20
693.7157702982877
 30
0.0
 40
1.5
100
AcDbArc
 50
0.0
 51
90.0
  0
ARC
  5
373E
330
18
100
AcDbEntity
  8
0
 62
     4
100
AcDbCircle
 10
1547.50527749442
 20
693.7157702982877
 30
0.0
 40
1.5
100
AcDbArc
 50
90.0
 51
180.0
  0
ARC
  5
373F
330
18
100
AcDbEntity
  8
0
 62
     4
100
AcDbCircle
 10
1547.50527749442
 20
676.7157722983029
 30
0.0
 40
1.5
100
AcDbArc
 50
270.0
 51
0.0
  0
ARC
  5
3740
330
18
100
AcDbEntity
  8
0
 62
     4
100
AcDbCircle
 10
1553.505277494419
 20
676.7157722983029
 30
0.0
 40
1.5
100
AcDbArc
 50
180.0
 51
270.0
  0
ARC
  5
3741
330
18
100
AcDbEntity
  8
0
 62
     4
100
AcDbCircle
 10
1553.505277494419
 20
693.7157702982877
 30
0.0
 40
1.5
100
AcDbArc
 50
0.0
 51
90.0
  0
ARC
  5
3742
330
18
100
AcDbEntity
  8
0
 62
     4
100
AcDbCircle
 10
1553.505277494419
 20
693.7157702982877
 30
0.0
 40
1.5
100
AcDbArc
 50
90.0
 51
180.0
  0
ARC
  5
3743
330
18
100
AcDbEntity
  8
0
 62
     4
100
AcDbCircle
 10
1553.505277494419
 20
676.7157722983029
 30
0.0
 40
1.5
100
AcDbArc
 50
270.0
 51
0.0
  0
ARC
  5
3744
330
18
100
AcDbEntity
  8
0
 62
     4
100
AcDbCircle
 10
1558.505278494194
 20
676.7157722983029
 30
0.0
 40
1.5
100
AcDbArc
 50
180.0
 51
270.0
  0
ARC
  5
3745
330
18
100
AcDbEntity
  8
0
 62
     4
100
AcDbCircle
 10
1558.505278494194
 20
693.7157702982877
 30
0.0
 40
1.5
100
AcDbArc
 50
0.0
 51
90.0
  0
ARC
  5
3746
330
18
100
AcDbEntity
  8
0
 62
     4
100
AcDbCircle
 10
1558.505278494194
 20
693.7157702982877
 30
0.0
 40
1.5
100
AcDbArc
 50
90.0
 51
180.0
  0
ARC
  5
3747
330
18
100
AcDbEntity
  8
0
 62
     4
100
AcDbCircle
 10
1558.505278494194
 20
676.7157722983029
 30
0.0
 40
1.5
100
AcDbArc
 50
270.0
 51
0.0
  0
ARC
  5
3748
330
18
100
AcDbEntity
  8
0
 62
     4
100
AcDbCircle
 10
1564.505278494194
 20
676.7157722983029
 30
0.0
 40
1.5
100
AcDbArc
 50
180.0
 51
270.0
  0
ARC
  5
3749
330
18
100
AcDbEntity
  8
0
 62
     4
100
AcDbCircle
 10
1564.505278494194
 20
693.7157702982877
 30
0.0
 40
1.5
100
AcDbArc
 50
0.0
 51
90.0
  0
ARC
  5
374A
330
18
100
AcDbEntity
  8
0
 62
     4
100
AcDbCircle
 10
1564.505278494194
 20
693.7157702982877
 30
0.0
 40
1.5
100
AcDbArc
 50
90.0
 51
180.0
  0
ARC
  5
374B
330
18
100
AcDbEntity
  8
0
 62
     4
100
AcDbCircle
 10
1564.505278494194
 20
676.7157722983029
 30
0.0
 40
1.5
100
AcDbArc
 50
270.0
 51
0.0
  0
ARC
  5
374C
330
18
100
AcDbEntity
  8
0
 62
     4
100
AcDbCircle
 10
1570.505278494194
 20
676.7157722983029
 30
0.0
 40
1.5
100
AcDbArc
 50
180.0
 51
270.0
  0
ARC
  5
374D
330
18
100
AcDbEntity
  8
0
 62
     4
100
AcDbCircle
 10
1570.505278494194
 20
693.7157702982877
 30
0.0
 40
1.5
100
AcDbArc
 50
0.0
 51
90.0
  0
ARC
  5
374E
330
18
100
AcDbEntity
  8
0
 62
     4
100
AcDbCircle
 10
1570.505278494194
 20
693.7157702982877
 30
0.0
 40
1.5
100
AcDbArc
 50
90.0
 51
180.0
  0
ARC
  5
374F
330
18
100
AcDbEntity
  8
0
 62
     4
100
AcDbCircle
 10
1570.505278494194
 20
676.7157722983029
 30
0.0
 40
1.5
100
AcDbArc
 50
270.0
 51
0.0
  0
ARC
  5
3750
330
18
100
AcDbEntity
  8
0
 62
     4
100
AcDbCircle
 10
1576.505278494194
 20
676.7157722983029
 30
0.0
 40
1.5
100
AcDbArc
 50
180.0
 51
270.0
  0
ARC
  5
3751
330
18
100
AcDbEntity
  8
0
 62
     4
100
AcDbCircle
 10
1576.505278494194
 20
693.7157702982877
 30
0.0
 40
1.5
100
AcDbArc
 50
0.0
 51
90.0
  0
ARC
  5
3752
330
18
100
AcDbEntity
  8
0
 62
     4
100
AcDbCircle
 10
1576.505278494194
 20
693.7157702982877
 30
0.0
 40
1.5
100
AcDbArc
 50
90.0
 51
180.0
  0
ARC
  5
3753
330
18
100
AcDbEntity
  8
0
 62
     4
100
AcDbCircle
 10
1576.505278494194
 20
676.7157722983029
 30
0.0
 40
1.5
100
AcDbArc
 50
270.0
 51
0.0
  0
ARC
  5
3754
330
18
100
AcDbEntity
  8
0
 62
     4
100
AcDbCircle
 10
1582.505278494194
 20
676.7157722983029
 30
0.0
 40
1.5
100
AcDbArc
 50
180.0
 51
270.0
  0
ARC
  5
3755
330
18
100
AcDbEntity
  8
0
 62
     4
100
AcDbCircle
 10
1582.505278494194
 20
693.7157702982877
 30
0.0
 40
1.5
100
AcDbArc
 50
90.0
 51
180.0
  0
ARC
  5
3756
330
18
100
AcDbEntity
  8
0
 62
     4
100
AcDbCircle
 10
1582.505278494194
 20
693.7157702982877
 30
0.0
 40
1.5
100
AcDbArc
 50
0.0
 51
90.0
  0
ARC
  5
3757
330
18
100
AcDbEntity
  8
0
 62
     4
100
AcDbCircle
 10
1582.505278494194
 20
676.7157722983029
 30
0.0
 40
1.5
100
AcDbArc
 50
270.0
 51
0.0
  0
ARC
  5
3758
330
18
100
AcDbEntity
  8
0
 62
     4
100
AcDbCircle
 10
1588.505278494194
 20
676.7157722983029
 30
0.0
 40
1.5
100
AcDbArc
 50
180.0
 51
270.0
  0
ARC
  5
3759
330
18
100
AcDbEntity
  8
0
 62
     4
100
AcDbCircle
 10
1588.505278494194
 20
693.7157702982877
 30
0.0
 40
1.5
100
AcDbArc
 50
0.0
 51
90.0
  0
ARC
  5
375A
330
18
100
AcDbEntity
  8
0
 62
     4
100
AcDbCircle
 10
1588.505278494194
 20
693.7157702982877
 30
0.0
 40
1.5
100
AcDbArc
 50
90.0
 51
180.0
  0
ARC
  5
375B
330
18
100
AcDbEntity
  8
0
 62
     4
100
AcDbCircle
 10
1588.505278494194
 20
676.7157722983029
 30
0.0
 40
1.5
100
AcDbArc
 50
270.0
 51
0.0
  0
ARC
  5
375C
330
18
100
AcDbEntity
  8
0
 62
     4
100
AcDbCircle
 10
1517.50527749442
 20
676.7157722983029
 30
0.0
 40
1.5
100
AcDbArc
 50
270.0
 51
0.0
  0
ARC
  5
375D
330
18
100
AcDbEntity
  8
0
 62
     4
100
AcDbCircle
 10
1517.50527749442
 20
693.7157702982877
 30
0.0
 40
1.5
100
AcDbArc
 50
90.0
 51
180.0
  0
ARC
  5
375E
330
18
100
AcDbEntity
  8
0
 62
     4
100
AcDbCircle
 10
1517.50527749442
 20
693.7157702982877
 30
0.0
 40
1.5
100
AcDbArc
 50
0.0
 51
90.0
  0
ARC
  5
375F
330
18
100
AcDbEntity
  8
0
 62
     4
100
AcDbCircle
 10
1517.50527749442
 20
676.7157722983029
 30
0.0
 40
1.5
100
AcDbArc
 50
180.0
 51
270.0
  0
ARC
  5
3760
330
18
100
AcDbEntity
  8
0
 62
     4
100
AcDbCircle
 10
1523.505277494419
 20
676.7157722983029
 30
0.0
 40
1.5
100
AcDbArc
 50
180.0
 51
270.0
  0
ARC
  5
3761
330
18
100
AcDbEntity
  8
0
 62
     4
100
AcDbCircle
 10
1523.505277494419
 20
693.7157702982877
 30
0.0
 40
1.5
100
AcDbArc
 50
0.0
 51
90.0
  0
ARC
  5
3762
330
18
100
AcDbEntity
  8
0
 62
     4
100
AcDbCircle
 10
1523.505277494419
 20
693.7157702982877
 30
0.0
 40
1.5
100
AcDbArc
 50
90.0
 51
180.0
  0
ARC
  5
3763
330
18
100
AcDbEntity
  8
0
 62
     4
100
AcDbCircle
 10
1523.505277494419
 20
676.7157722983029
 30
0.0
 40
1.5
100
AcDbArc
 50
270.0
 51
0.0
  0
ARC
  5
3764
330
18
100
AcDbEntity
  8
0
 62
     4
100
AcDbCircle
 10
1594.505278494194
 20
676.7157722983029
 30
0.0
 40
1.5
100
AcDbArc
 50
180.0
 51
270.0
  0
ARC
  5
3765
330
18
100
AcDbEntity
  8
0
 62
     4
100
AcDbCircle
 10
1594.505278494194
 20
693.7157702982877
 30
0.0
 40
1.5
100
AcDbArc
 50
0.0
 51
90.0
  0
ARC
  5
3766
330
18
100
AcDbEntity
  8
0
 62
     4
100
AcDbCircle
 10
1594.505278494194
 20
693.7157702982877
 30
0.0
 40
1.5
100
AcDbArc
 50
90.0
 51
180.0
  0
ARC
  5
3767
330
18
100
AcDbEntity
  8
0
 62
     4
100
AcDbCircle
 10
1594.505278494194
 20
676.7157722983029
 30
0.0
 40
1.5
100
AcDbArc
 50
270.0
 51
0.0
  0
ARC
  5
3768
330
18
100
AcDbEntity
  8
0
 62
     4
100
AcDbCircle
 10
1210.750332976648
 20
757.3157717985086
 30
0.0
 40
0.099999
100
AcDbArc
 50
180.0000180026177
 51
270.0
  0
ARC
  5
3769
330
18
100
AcDbEntity
  8
0
 62
     4
100
AcDbCircle
 10
1210.750332976648
 20
765.115765798393
 30
0.0
 40
0.099999
100
AcDbArc
 50
89.99996400143462
 51
180.000001000516
  0
ARC
  5
376A
330
18
100
AcDbEntity
  8
0
 62
     4
100
AcDbCircle
 10
1208.750331976873
 20
757.8157727983998
 30
0.0
 40
0.099999
100
AcDbArc
 50
180.0000180026177
 51
270.0
  0
ARC
  5
376B
330
18
100
AcDbEntity
  8
0
 62
     4
100
AcDbCircle
 10
1208.750331976873
 20
764.6157677984083
 30
0.0
 40
0.099999
100
AcDbArc
 50
89.99996400143462
 51
180.000001000516
  0
ARC
  5
376C
330
18
100
AcDbEntity
  8
0
 62
     4
100
AcDbCircle
 10
1214.550324976633
 20
757.3157717985086
 30
0.0
 40
0.099999
100
AcDbArc
 50
270.0
 51
359.9999819973823
  0
ARC
  5
376D
330
18
100
AcDbEntity
  8
0
 62
     4
100
AcDbCircle
 10
1214.550324976633
 20
765.115765798393
 30
0.0
 40
0.099999
100
AcDbArc
 50
359.9999819973823
 51
89.99996400143462
  0
ARC
  5
376E
330
18
100
AcDbEntity
  8
0
 62
     4
100
AcDbCircle
 10
1210.750332976648
 20
577.3157717985086
 30
0.0
 40
0.099999
100
AcDbArc
 50
180.0000180026177
 51
270.0
  0
ARC
  5
376F
330
18
100
AcDbEntity
  8
0
 62
     4
100
AcDbCircle
 10
1210.750332976648
 20
585.1157657983931
 30
0.0
 40
0.099999
100
AcDbArc
 50
89.99996400143462
 51
180.000001000516
  0
ARC
  5
3770
330
18
100
AcDbEntity
  8
0
 62
     4
100
AcDbCircle
 10
1208.750331976873
 20
577.8157727983998
 30
0.0
 40
0.099999
100
AcDbArc
 50
180.0000180026177
 51
270.0
  0
ARC
  5
3771
330
18
100
AcDbEntity
  8
0
 62
     4
100
AcDbCircle
 10
1208.750331976873
 20
584.6157677984083
 30
0.0
 40
0.099999
100
AcDbArc
 50
89.99996400143462
 51
180.000001000516
  0
ARC
  5
3772
330
18
100
AcDbEntity
  8
0
 62
     4
100
AcDbCircle
 10
1214.550324976633
 20
577.3157717985086
 30
0.0
 40
0.099999
100
AcDbArc
 50
270.0
 51
359.9999819973823
  0
ARC
  5
3773
330
18
100
AcDbEntity
  8
0
 62
     4
100
AcDbCircle
 10
1214.550324976633
 20
585.1157657983931
 30
0.0
 40
0.099999
100
AcDbArc
 50
359.9999819973823
 51
89.99996400143462
  0
CIRCLE
  5
3774
330
18
100
AcDbEntity
  8
0
 62
     4
100
AcDbCircle
 10
1556.005279494318
 20
761.2157702982877
 30
0.0
 40
3.999999
  0
CIRCLE
  5
3775
330
18
100
AcDbEntity
  8
0
 62
     4
100
AcDbCircle
 10
1556.005279494318
 20
761.2157702982877
 30
0.0
 40
3.800000999999999
  0
CIRCLE
  5
3776
330
18
100
AcDbEntity
  8
0
 62
     4
100
AcDbCircle
 10
1556.005279494318
 20
581.2157702982877
 30
0.0
 40
3.800000999999999
  0
CIRCLE
  5
3777
330
18
100
AcDbEntity
  8
0
 62
     4
100
AcDbCircle
 10
1556.005279494318
 20
581.2157702982877
 30
0.0
 40
3.999999
  0
ARC
  5
377A
330
18
100
AcDbEntity
  8
0
 62
     4
100
AcDbCircle
 10
1605.505279494319
 20
579.2157722983029
 30
0.0
 40
2.499998999999999
100
AcDbArc
 50
270.0
 51
0.0
  0
ARC
  5
377B
330
18
100
AcDbEntity
  8
0
 62
     4
100
AcDbCircle
 10
1623.505279494318
 20
561.2157722983028
 30
0.0
 40
5.000000999999999
100
AcDbArc
 50
270.0
 51
0.0
  0
ARC
  5
377C
330
18
100
AcDbEntity
  8
0
 62
     4
100
AcDbCircle
 10
1623.505279494318
 20
781.2157712984117
 30
0.0
 40
5.000000999999999
100
AcDbArc
 50
0.0
 51
90.0
  0
ARC
  5
377D
330
18
100
AcDbEntity
  8
0
 62
     4
100
AcDbCircle
 10
1488.505279494318
 20
781.2157712984117
 30
0.0
 40
5.000000999999999
100
AcDbArc
 50
90.0
 51
180.0
  0
ARC
  5
377E
330
18
100
AcDbEntity
  8
0
 62
     4
100
AcDbCircle
 10
1605.505279494319
 20
763.2157712984117
 30
0.0
 40
3.0
100
AcDbArc
 50
0.0
 51
90.0
  0
ARC
  5
377F
330
18
100
AcDbEntity
  8
0
 62
     4
100
AcDbCircle
 10
1605.505279494319
 20
579.2157722983029
 30
0.0
 40
3.0
100
AcDbArc
 50
270.0
 51
0.0
  0
ARC
  5
3780
330
18
100
AcDbEntity
  8
0
 62
     4
100
AcDbCircle
 10
1506.505279494318
 20
763.2157712984117
 30
0.0
 40
3.0
100
AcDbArc
 50
90.0
 51
180.0
  0
ARC
  5
3781
330
18
100
AcDbEntity
  8
0
 62
     4
100
AcDbCircle
 10
1506.505279494318
 20
579.2157722983029
 30
0.0
 40
3.0
100
AcDbArc
 50
180.0
 51
270.0
  0
ARC
  5
3782
330
18
100
AcDbEntity
  8
0
 62
     4
100
AcDbCircle
 10
1605.505279494319
 20
763.2157712984117
 30
0.0
 40
2.499998999999999
100
AcDbArc
 50
0.0
 51
90.0
  0
ARC
  5
3783
330
18
100
AcDbEntity
  8
0
 62
     4
100
AcDbCircle
 10
1488.505279494318
 20
561.2157722983028
 30
0.0
 40
5.000000999999999
100
AcDbArc
 50
180.0
 51
270.0
  0
LINE
  5
3784
330
18
100
AcDbEntity
  8
0
100
AcDbLine
 10
1208.050331250488
 20
787.2157673168913
 30
0.0
 11
1208.050331250488
 21
852.7157673175898
 31
0.0
  0
LINE
  5
3785
330
18
100
AcDbEntity
  8
0
100
AcDbLine
 10
1189.550331250517
 20
871.2157673175898
 30
0.0
 11
1083.050331250488
 21
871.2157673178225
 31
0.0
  0
LINE
  5
3786
330
18
100
AcDbEntity
  8
0
100
AcDbLine
 10
1633.005276494267
 20
787.2157673010588
 30
0.0
 11
1633.005276494267
 21
871.2157673198017
 31
0.0
  0
LINE
  5
3787
330
18
100
AcDbEntity
  8
0
100
AcDbLine
 10
1479.005276494266
 20
787.215767285692
 30
0.0
 11
1479.005276494295
 21
871.2157673188704
 31
0.0
  0
LINE
  5
3788
330
18
100
AcDbEntity
  8
0
100
AcDbLine
 10
1633.005276494267
 20
787.2157673010588
 30
0.0
 11
1479.005276494266
 21
787.215767285692
 31
0.0
  0
LINE
  5
3789
330
18
100
AcDbEntity
  8
0
100
AcDbLine
 10
1082.050331762628
 20
1042.668279280442
 30
0.0
 11
1082.050331762744
 21
1196.668279280442
 31
0.0
  0
LINE
  5
378A
330
18
100
AcDbEntity
  8
0
100
AcDbLine
 10
1208.050331762744
 20
1043.668279280675
 30
0.0
 11
1208.050331762744
 21
1195.668279280675
 31
0.0
  0
ARC
  5
378B
330
18
100
AcDbEntity
  8
0
100
AcDbCircle
 10
1207.050331762686
 20
1195.668279280559
 30
0.0
 40
1.0
100
AcDbArc
 50
0.0
 51
90.0
  0
LINE
  5
378C
330
18
100
AcDbEntity
  8
0
100
AcDbLine
 10
1082.050331762628
 20
1042.668279280442
 30
0.0
 11
1207.050331762744
 21
1042.668279280675
 31
0.0
  0
ARC
  5
378D
330
18
100
AcDbEntity
  8
0
100
AcDbCircle
 10
1207.050331762686
 20
1043.668279280558
 30
0.0
 40
1.0
100
AcDbArc
 50
270.0
 51
0.0
  0
LINE
  5
378E
330
18
100
AcDbEntity
  8
0
100
AcDbLine
 10
1082.050331762744
 20
1196.668279280442
 30
0.0
 11
1207.050331762744
 21
1196.668279280675
 31
0.0
  0
LINE
  5
378F
330
18
100
AcDbEntity
  8
0
100
AcDbLine
 10
1479.005276494295
 20
871.2157673188704
 30
0.0
 11
1633.005276494267
 21
871.2157673198017
 31
0.0
  0
LINE
  5
3790
330
18
100
AcDbEntity
  8
0
100
AcDbLine
 10
1208.050330976941
 20
775.2157673185211
 30
0.0
 11
1208.050330976941
 21
852.7157673182882
 31
0.0
  0
LINE
  5
3791
330
18
100
AcDbEntity
  8
0
100
AcDbLine
 10
908.0503309774067
 20
811.6048798564806
 30
0.0
 11
908.0503309770575
 21
377.2157673181719
 31
0.0
  0
LINE
  5
3792
330
18
100
AcDbEntity
  8
0
100
AcDbLine
 10
1189.550330976941
 20
871.2157673182883
 30
0.0
 11
1056.835616091368
 21
871.2157673182883
 31
0.0
  0
ARC
  5
3793
330
18
100
AcDbEntity
  8
0
100
AcDbCircle
 10
1056.835616091368
 20
821.2157673182883
 30
0.0
 40
50.0
100
AcDbArc
 50
90.0
 51
107.7004277916739
  0
LINE
  5
3794
330
18
100
AcDbEntity
  8
0
100
AcDbLine
 10
1041.633607401498
 20
868.8487278792527
 30
0.0
 11
921.9695275014819
 21
830.6580640807734
 31
0.0
  0
ARC
  5
3795
330
18
100
AcDbEntity
  8
0
100
AcDbCircle
 10
928.0503309774067
 20
811.6048798564806
 30
0.0
 40
20.0
100
AcDbArc
 50
107.7004277916739
 51
180.0
  0
LINE
  5
3796
330
18
100
AcDbEntity
  8
0
100
AcDbLine
 10
1208.050330976795
 20
377.2157673184047
 30
0.0
 11
1208.050330976941
 21
775.2157673185211
 31
0.0
  0
LINE
  5
3797
330
18
100
AcDbEntity
  8
0
100
AcDbLine
 10
908.0503309770575
 20
377.2157673181719
 30
0.0
 11
1208.050330976795
 21
377.2157673182883
 31
0.0
  0
ARC
  5
3799
330
18
100
AcDbEntity
  8
0
100
AcDbCircle
 10
1647.005276493859
 20
378.2157673180555
 30
0.0
 40
1.0
100
AcDbArc
 50
270.0
 51
0.0
  0
LINE
  5
379A
330
18
100
AcDbEntity
  8
0
100
AcDbLine
 10
1648.005276493888
 20
378.2157673181719
 30
0.0
 11
1648.005276493393
 21
869.2157673168912
 31
0.0
  0
LINE
  5
379B
330
18
100
AcDbEntity
  8
0
100
AcDbLine
 10
1646.00527649351
 20
871.2157673168913
 30
0.0
 11
1635.00527649351
 21
871.2157673175898
 31
0.0
  0
ARC
  5
379C
330
18
100
AcDbEntity
  8
0
100
AcDbCircle
 10
1646.005276493393
 20
869.2157673168912
 30
0.0
 40
2.0
100
AcDbArc
 50
0.0
 51
90.0
  0
LINE
  5
379D
330
18
100
AcDbEntity
  8
0
100
AcDbLine
 10
1633.005276493393
 20
869.2157673175897
 30
0.0
 11
1633.005276494208
 21
377.2157673175898
 31
0.0
  0
ARC
  5
379E
330
18
100
AcDbEntity
  8
0
100
AcDbCircle
 10
1635.005276493393
 20
869.2157673175897
 30
0.0
 40
2.0
100
AcDbArc
 50
90.0
 51
180.0
  0
LINE
  5
379F
330
18
100
AcDbEntity
  8
0
100
AcDbLine
 10
488.42034759956
 20
871.215767319336
 30
0.0
 11
490.4203475994727
 21
871.215767319336
 31
0.0
  0
LINE
  5
37A0
330
18
100
AcDbEntity
  8
0
100
AcDbLine
 10
642.42034759956
 20
871.2157673192196
 30
0.0
 11
642.4203475996765
 21
864.2157673193359
 31
0.0
  0
LINE
  5
37A1
330
18
100
AcDbEntity
  8
0
100
AcDbLine
 10
488.42034759956
 20
864.2157673193359
 30
0.0
 11
488.42034759956
 21
871.215767319336
 31
0.0
  0
LINE
  5
37A2
330
18
100
AcDbEntity
  8
0
100
AcDbLine
 10
490.4203475996764
 20
918.215767319336
 30
0.0
 11
490.4203475994436
 21
871.2157673192196
 31
0.0
  0
LINE
  5
37A3
330
18
100
AcDbEntity
  8
0
100
AcDbLine
 10
640.4203475996764
 20
918.2157673189868
 30
0.0
 11
640.4203475996764
 21
871.2157673192196
 31
0.0
  0
LINE
  5
37A4
330
18
100
AcDbEntity
  8
0
100
AcDbLine
 10
493.42034759956
 20
921.215767319336
 30
0.0
 11
637.4203475996765
 21
921.2157673191031
 31
0.0
  0
LINE
  5
37A5
330
18
100
AcDbEntity
  8
0
100
AcDbLine
 10
490.4203475996764
 20
918.215767319336
 30
0.0
 11
493.42034759956
 21
921.215767319336
 31
0.0
  0
LINE
  5
37A6
330
18
100
AcDbEntity
  8
0
100
AcDbLine
 10
637.4203475996765
 20
921.2157673191031
 30
0.0
 11
640.4203475996764
 21
918.2157673189868
 31
0.0
  0
LINE
  5
37A7
330
18
100
AcDbEntity
  8
0
100
AcDbLine
 10
493.42034759956
 20
921.215767319336
 30
0.0
 11
493.4203476000548
 21
838.1839852528864
 31
0.0
  0
LINE
  5
37A8
330
18
100
AcDbEntity
  8
0
100
AcDbLine
 10
637.4203475996765
 20
921.2157673191031
 30
0.0
 11
637.42034759956
 21
871.2157673191031
 31
0.0
  0
LINE
  5
37A9
330
18
100
AcDbEntity
  8
0
100
AcDbLine
 10
503.4203475996764
 20
899.2157673191032
 30
0.0
 11
627.4203475996764
 21
899.2157673186374
 31
0.0
  0
LINE
  5
37AA
330
18
100
AcDbEntity
  8
0
100
AcDbLine
 10
488.4203475996764
 20
787.2157673192195
 30
0.0
 11
642.4203475997928
 21
787.215767319336
 31
0.0
  0
LINE
  5
37AB
330
18
100
AcDbEntity
  8
0
100
AcDbLine
 10
488.42034759956
 20
871.2157673191031
 30
0.0
 11
488.4203475996764
 21
787.2157673192195
 31
0.0
  0
LINE
  5
37AC
330
18
100
AcDbEntity
  8
0
100
AcDbLine
 10
642.4203475996765
 20
871.215767319336
 30
0.0
 11
642.4203475997928
 21
787.215767319336
 31
0.0
  0
LINE
  5
37AD
330
18
100
AcDbEntity
  8
0
100
AcDbLine
 10
500.4203475996765
 20
896.2157673192196
 30
0.0
 11
500.4203475994436
 21
873.2157673193359
 31
0.0
  0
LINE
  5
37AE
330
18
100
AcDbEntity
  8
0
100
AcDbLine
 10
630.4203475996764
 20
896.2157673187538
 30
0.0
 11
630.42034759956
 21
873.2157673194524
 31
0.0
  0
LINE
  5
37AF
330
18
100
AcDbEntity
  8
0
100
AcDbLine
 10
502.4203475994436
 20
871.215767319336
 30
0.0
 11
500.4203475994436
 21
873.2157673193359
 31
0.0
  0
LINE
  5
37B0
330
18
100
AcDbEntity
  8
0
100
AcDbLine
 10
628.4203475996764
 20
871.2157673192196
 30
0.0
 11
630.42034759956
 21
873.2157673194524
 31
0.0
  0
ARC
  5
37B1
330
18
100
AcDbEntity
  8
0
100
AcDbCircle
 10
503.4203475999093
 20
896.2157673189867
 30
0.0
 40
3.0
100
AcDbArc
 50
90.0
 51
180.0
  0
ARC
  5
37B2
330
18
100
AcDbEntity
  8
0
100
AcDbCircle
 10
627.420347599822
 20
896.2157673185211
 30
0.0
 40
3.0
100
AcDbArc
 50
0.0
 51
90.0
  0
LINE
  5
37B3
330
18
100
AcDbEntity
  8
0
100
AcDbLine
 10
640.4203475997928
 20
914.3450096318483
 30
0.0
 11
640.4203475995601
 21
904.345009631732
 31
0.0
  0
LINE
  5
37B4
330
18
100
AcDbEntity
  8
0
 62
     4
100
AcDbLine
 10
503.4202889914304
 20
866.5415526675278
 30
0.0
 11
594.4203476019465
 21
866.5415526678771
 31
0.0
  0
LINE
  5
37B5
330
18
100
AcDbEntity
  8
0
 62
     4
100
AcDbLine
 10
600.9203476017428
 20
836.5669044255264
 30
0.0
 11
627.4203476009861
 21
836.5669044251772
 31
0.0
  0
LINE
  5
37B6
330
18
100
AcDbEntity
  8
0
100
AcDbLine
 10
498.4203476017719
 20
830.6235647213398
 30
0.0
 11
632.4203475945542
 21
830.6235647213398
 31
0.0
  0
LINE
  5
37B7
330
18
100
AcDbEntity
  8
0
100
AcDbLine
 10
497.2005476000631
 20
834.403785252849
 30
0.0
 11
633.6401475962629
 21
834.4037852523834
 31
0.0
  0
LINE
  5
37B8
330
18
100
AcDbEntity
  8
0
 62
     4
100
AcDbLine
 10
599.9203476017428
 20
837.5669044255264
 30
0.0
 11
599.9203476017719
 21
865.54155266811
 31
0.0
  0
LINE
  5
37B9
330
18
100
AcDbEntity
  8
0
 62
     4
100
AcDbLine
 10
630.4203476010152
 20
839.5669044251771
 30
0.0
 11
630.4203476010443
 21
863.5415526677606
 31
0.0
  0
LINE
  5
37BA
330
18
100
AcDbEntity
  8
0
 62
     4
100
AcDbLine
 10
597.4203476019757
 20
839.56690442541
 30
0.0
 11
597.4203476019757
 21
863.5415526678771
 31
0.0
  0
LINE
  5
37BB
330
18
100
AcDbEntity
  8
0
 62
     4
100
AcDbLine
 10
500.4202889914012
 20
839.5669044259921
 30
0.0
 11
500.4202889914304
 21
863.5415526675279
 31
0.0
  0
LINE
  5
37BC
330
18
100
AcDbEntity
  8
0
 62
     4
100
AcDbLine
 10
503.4202889913721
 20
836.566904425992
 30
0.0
 11
594.4203476019465
 21
836.5669044254101
 31
0.0
  0
LINE
  5
37BD
330
18
100
AcDbEntity
  8
0
 62
     4
100
AcDbLine
 10
600.9203476017719
 20
866.5415526681099
 30
0.0
 11
627.4203476010443
 21
866.5415526677607
 31
0.0
  0
ARC
  5
37BE
330
18
100
AcDbEntity
  8
0
 62
     4
100
AcDbCircle
 10
503.4202889914304
 20
863.5415526675279
 30
0.0
 40
3.0
100
AcDbArc
 50
90.0
 51
180.0
  0
ARC
  5
37BF
330
18
100
AcDbEntity
  8
0
 62
     4
100
AcDbCircle
 10
594.4203476019756
 20
863.5415526678771
 30
0.0
 40
3.0
100
AcDbArc
 50
0.0
 51
90.0
  0
ARC
  5
37C0
330
18
100
AcDbEntity
  8
0
 62
     4
100
AcDbCircle
 10
594.4203476019756
 20
839.56690442541
 30
0.0
 40
3.0
100
AcDbArc
 50
270.0
 51
0.0
  0
ARC
  5
37C1
330
18
100
AcDbEntity
  8
0
 62
     4
100
AcDbCircle
 10
503.4202889914013
 20
839.5669044259921
 30
0.0
 40
3.0
100
AcDbArc
 50
180.0
 51
270.0
  0
ARC
  5
37C2
330
18
100
AcDbEntity
  8
0
 62
     4
100
AcDbCircle
 10
627.4203476010443
 20
863.5415526677606
 30
0.0
 40
3.0
100
AcDbArc
 50
0.0
 51
90.0
  0
ARC
  5
37C3
330
18
100
AcDbEntity
  8
0
 62
     4
100
AcDbCircle
 10
627.4203476010152
 20
839.5669044251771
 30
0.0
 40
3.0
100
AcDbArc
 50
270.0
 51
0.0
  0
ARC
  5
37C4
330
18
100
AcDbEntity
  8
0
 62
     4
100
AcDbCircle
 10
600.9203476017719
 20
865.54155266811
 30
0.0
 40
1.0
100
AcDbArc
 50
90.0
 51
180.0
  0
ARC
  5
37C5
330
18
100
AcDbEntity
  8
0
 62
     4
100
AcDbCircle
 10
600.9203476017428
 20
837.5669044255264
 30
0.0
 40
1.0
100
AcDbArc
 50
180.0
 51
270.0
  0
ARC
  5
37C6
330
18
100
AcDbEntity
  8
0
100
AcDbCircle
 10
498.4203476017719
 20
838.6235647213398
 30
0.0
 40
8.0
100
AcDbArc
 50
180.0
 51
270.0
  0
ARC
  5
37C7
330
18
100
AcDbEntity
  8
0
100
AcDbCircle
 10
497.2005476000631
 20
838.1839852528864
 30
0.0
 40
3.780199999999999
100
AcDbArc
 50
180.0
 51
270.0
  0
LINE
  5
37C8
330
18
100
AcDbEntity
  8
0
100
AcDbLine
 10
490.4203476017719
 20
838.6235647213398
 30
0.0
 11
490.4203476017719
 21
871.2157673192196
 31
0.0
  0
LINE
  5
37C9
330
18
100
AcDbEntity
  8
0
100
AcDbLine
 10
637.4203475967661
 20
921.215767319336
 30
0.0
 11
637.4203475962713
 21
838.1839852524208
 31
0.0
  0
ARC
  5
37CA
330
18
100
AcDbEntity
  8
0
100
AcDbCircle
 10
632.4203475945542
 20
838.6235647213398
 30
0.0
 40
8.0
100
AcDbArc
 50
270.0
 51
0.0
  0
LINE
  5
37CB
330
18
100
AcDbEntity
  8
0
100
AcDbLine
 10
640.4203475945542
 20
838.6235647213398
 30
0.0
 11
640.4203475945542
 21
871.2157673192196
 31
0.0
  0
ARC
  5
37CC
330
18
100
AcDbEntity
  8
0
100
AcDbCircle
 10
633.6401475962629
 20
838.1839852524208
 30
0.0
 40
3.780199999999999
100
AcDbArc
 50
270.0
 51
0.0
  0
LINE
  5
37CD
330
18
100
AcDbEntity
  8
0
100
AcDbLine
 10
493.4203475998219
 20
871.2157673192196
 30
0.0
 11
637.420347596475
 21
871.215767319336
 31
0.0
  0
LINE
  5
37CE
330
18
100
AcDbEntity
  8
0
100
AcDbLine
 10
640.4203475945542
 20
871.215767319336
 30
0.0
 11
642.42034759956
 21
871.2157673192196
 31
0.0
  0
LINE
  5
37CF
330
18
100
AcDbEntity
  8
0
100
AcDbLine
 10
1208.050330977232
 20
1029.668279280209
 30
0.0
 11
1208.050330977348
 21
1040.668279280442
 31
0.0
  0
ARC
  5
37D0
330
18
100
AcDbEntity
  8
0
100
AcDbCircle
 10
1206.050330977232
 20
1029.668279280209
 30
0.0
 40
2.0
100
AcDbArc
 50
270.0
 51
0.0
  0
LINE
  5
37D1
330
18
100
AcDbEntity
  8
0
100
AcDbLine
 10
908.0503309772321
 20
1029.668279280442
 30
0.0
 11
908.0503309775814
 21
1040.668279280442
 31
0.0
  0
LINE
  5
37D2
330
18
100
AcDbEntity
  8
0
100
AcDbLine
 10
913.0503309775813
 20
1042.668279280442
 30
0.0
 11
910.0503309775813
 21
1042.668279280442
 31
0.0
  0
ARC
  5
37D3
330
18
100
AcDbEntity
  8
0
100
AcDbCircle
 10
910.0503309775813
 20
1040.668279280442
 30
0.0
 40
2.0
100
AcDbArc
 50
90.0
 51
180.0
  0
ARC
  5
37D4
330
18
100
AcDbEntity
  8
0
100
AcDbCircle
 10
1206.050330977348
 20
1040.668279280442
 30
0.0
 40
2.0
100
AcDbArc
 50
0.0
 51
90.0
  0
LINE
  5
37D5
330
18
100
AcDbEntity
  8
0
100
AcDbLine
 10
1206.050330977232
 20
1027.668279280209
 30
0.0
 11
910.0503309772321
 21
1027.668279280442
 31
0.0
  0
ARC
  5
37D6
330
18
100
AcDbEntity
  8
0
100
AcDbCircle
 10
910.0503309772321
 20
1029.668279280442
 30
0.0
 40
2.0
100
AcDbArc
 50
180.0
 51
270.0
  0
LINE
  5
37D7
330
18
100
AcDbEntity
  8
0
100
AcDbLine
 10
913.0503309775813
 20
1042.668279280442
 30
0.0
 11
1206.050330977348
 21
1042.668279280442
 31
0.0
  0
ARC
  5
37D9
330
18
100
AcDbEntity
  8
0
100
AcDbCircle
 10
656.4203475997637
 20
378.2157673184047
 30
0.0
 40
1.0
100
AcDbArc
 50
270.0
 51
0.0
  0
LINE
  5
37DA
330
18
100
AcDbEntity
  8
0
100
AcDbLine
 10
657.4203475997637
 20
378.2157673184047
 30
0.0
 11
657.420347599298
 21
869.2157673172404
 31
0.0
  0
LINE
  5
37DB
330
18
100
AcDbEntity
  8
0
100
AcDbLine
 10
655.4203475994145
 20
871.2157673172406
 30
0.0
 11
644.4203475994145
 21
871.215767317939
 31
0.0
  0
ARC
  5
37DC
330
18
100
AcDbEntity
  8
0
100
AcDbCircle
 10
655.4203475992981
 20
869.2157673172404
 30
0.0
 40
2.0
100
AcDbArc
 50
0.0
 51
90.0
  0
ARC
  5
37DE
330
18
100
AcDbEntity
  8
0
100
AcDbCircle
 10
644.420347599298
 20
869.2157673179391
 30
0.0
 40
2.0
100
AcDbArc
 50
90.0
 51
180.0
  0
LINE
  5
37DF
330
18
100
AcDbEntity
  8
0
100
AcDbLine
 10
1647.005276493859
 20
377.2157673180554
 30
0.0
 11
1465.005276494674
 21
377.2157673180554
 31
0.0
  0
ARC
  5
37E0
330
18
100
AcDbEntity
  8
0
100
AcDbCircle
 10
1465.005276494674
 20
378.2157673180555
 30
0.0
 40
1.0
100
AcDbArc
 50
180.0
 51
270.0
  0
LINE
  5
37E1
330
18
100
AcDbEntity
  8
0
100
AcDbLine
 10
1464.005276494674
 20
378.2157673180555
 30
0.0
 11
1464.00527649514
 21
869.2157673168912
 31
0.0
  0
LINE
  5
37E2
330
18
100
AcDbEntity
  8
0
100
AcDbLine
 10
1466.005276495023
 20
871.2157673168913
 30
0.0
 11
1477.005276495023
 21
871.2157673175898
 31
0.0
  0
ARC
  5
37E3
330
18
100
AcDbEntity
  8
0
100
AcDbCircle
 10
1466.005276495139
 20
869.2157673168912
 30
0.0
 40
2.0
100
AcDbArc
 50
90.0
 51
180.0
  0
LINE
  5
37E4
330
18
100
AcDbEntity
  8
0
100
AcDbLine
 10
1479.00527649514
 20
869.2157673175897
 30
0.0
 11
1479.005276494325
 21
377.2157673175898
 31
0.0
  0
ARC
  5
37E5
330
18
100
AcDbEntity
  8
0
100
AcDbCircle
 10
1477.005276495139
 20
869.2157673175897
 30
0.0
 40
2.0
100
AcDbArc
 50
0.0
 51
90.0
  0
LINE
  5
37E6
330
18
100
AcDbEntity
  8
0
100
AcDbLine
 10
1585.005276494266
 20
871.215767319336
 30
0.0
 11
1527.005276494266
 21
871.215767319336
 31
0.0
  0
ARC
  5
37E7
330
18
100
AcDbEntity
  8
0
100
AcDbCircle
 10
1189.550331250488
 20
852.7157673175898
 30
0.0
 40
18.5
100
AcDbArc
 50
0.0
 51
90.0
  0
ARC
  5
37E8
330
18
100
AcDbEntity
  8
0
100
AcDbCircle
 10
1189.550330976941
 20
852.7157673182882
 30
0.0
 40
18.5
100
AcDbArc
 50
0.0
 51
90.0
  0
CIRCLE
  5
37E9
330
18
100
AcDbEntity
  8
0
 62
     4
100
AcDbCircle
 10
1117.05033176062
 20
1119.668279280442
 30
0.0
 40
29.0
  0
ARC
  5
37EA
330
18
100
AcDbEntity
  8
0
 62
     4
100
AcDbCircle
 10
1117.05033176062
 20
1110.668279280442
 30
0.0
 40
10.0
100
AcDbArc
 50
270.0
 51
90.0
  0
CIRCLE
  5
37EB
330
18
100
AcDbEntity
  8
0
100
AcDbCircle
 10
1117.05033176062
 20
1119.668279280442
 30
0.0
 40
32.0
  0
ARC
  5
37EC
330
18
100
AcDbEntity
  8
0
 62
     4
100
AcDbCircle
 10
1111.265243273417
 20
1112.773879292443
 30
0.0
 40
10.0
100
AcDbArc
 50
50.00000000020966
 51
230.0000000002097
  0
ARC
  5
37ED
330
18
100
AcDbEntity
  8
0
 62
     4
100
AcDbCircle
 10
1117.05033176062
 20
1119.668279280442
 30
0.0
 40
19.0
100
AcDbArc
 50
230.0000000002097
 51
270.0
  0
LINE
  5
37EE
330
18
100
AcDbEntity
  8
0
100
AcDbLine
 10
1479.005276494266
 20
871.215767319336
 30
0.0
 11
1633.005276494267
 21
871.215767319336
 31
0.0
  0
LINE
  5
37EF
330
18
100
AcDbEntity
  8
0
100
AcDbLine
 10
1481.005276494266
 20
918.215767319336
 30
0.0
 11
1481.005276494266
 21
871.215767319336
 31
0.0
  0
LINE
  5
37F0
330
18
100
AcDbEntity
  8
0
100
AcDbLine
 10
1631.005276494266
 20
918.2157673191031
 30
0.0
 11
1631.005276494266
 21
871.215767319336
 31
0.0
  0
LINE
  5
37F1
330
18
100
AcDbEntity
  8
0
100
AcDbLine
 10
1484.005276494266
 20
921.215767319336
 30
0.0
 11
1628.005276494266
 21
921.2157673191031
 31
0.0
  0
LINE
  5
37F2
330
18
100
AcDbEntity
  8
0
100
AcDbLine
 10
1481.005276494266
 20
918.215767319336
 30
0.0
 11
1484.005276494266
 21
921.215767319336
 31
0.0
  0
LINE
  5
37F3
330
18
100
AcDbEntity
  8
0
100
AcDbLine
 10
1628.005276494266
 20
921.2157673191031
 30
0.0
 11
1631.005276494266
 21
918.2157673191031
 31
0.0
  0
LINE
  5
37F4
330
18
100
AcDbEntity
  8
0
100
AcDbLine
 10
1484.005276494266
 20
921.215767319336
 30
0.0
 11
1484.005276494266
 21
871.215767319336
 31
0.0
  0
LINE
  5
37F5
330
18
100
AcDbEntity
  8
0
100
AcDbLine
 10
1628.005276494266
 20
921.2157673191031
 30
0.0
 11
1628.005276494266
 21
871.215767319336
 31
0.0
  0
LINE
  5
37F6
330
18
100
AcDbEntity
  8
0
100
AcDbLine
 10
1494.005276494324
 20
899.2157673192195
 30
0.0
 11
1618.005276494237
 21
899.215767318754
 31
0.0
  0
LINE
  5
37F7
330
18
100
AcDbEntity
  8
0
100
AcDbLine
 10
1491.005276494325
 20
896.2157673192196
 30
0.0
 11
1491.005276494266
 21
873.2157673193359
 31
0.0
  0
LINE
  5
37F8
330
18
100
AcDbEntity
  8
0
100
AcDbLine
 10
1621.005276494237
 20
896.2157673187538
 30
0.0
 11
1621.005276494267
 21
873.2157673193359
 31
0.0
  0
LINE
  5
37F9
330
18
100
AcDbEntity
  8
0
100
AcDbLine
 10
1493.005276494266
 20
871.215767319336
 30
0.0
 11
1491.005276494266
 21
873.2157673193359
 31
0.0
  0
LINE
  5
37FA
330
18
100
AcDbEntity
  8
0
100
AcDbLine
 10
1619.005276494267
 20
871.215767319336
 30
0.0
 11
1621.005276494267
 21
873.2157673193359
 31
0.0
  0
ARC
  5
37FB
330
18
100
AcDbEntity
  8
0
100
AcDbCircle
 10
1494.005276494324
 20
896.2157673192196
 30
0.0
 40
3.0
100
AcDbArc
 50
90.0
 51
180.0
  0
ARC
  5
37FC
330
18
100
AcDbEntity
  8
0
100
AcDbCircle
 10
1618.005276494237
 20
896.2157673187538
 30
0.0
 40
3.0
100
AcDbArc
 50
0.0
 51
90.0
  0
LINE
  5
37FD
330
18
100
AcDbEntity
  8
0
100
AcDbLine
 10
1631.005276494238
 20
914.3450096318483
 30
0.0
 11
1631.005276494208
 21
904.3450096318483
 31
0.0
  0
LINE
  5
37FE
330
18
100
AcDbEntity
  8
0
100
AcDbLine
 10
1633.005276494267
 20
787.2157673010588
 30
0.0
 11
1633.005276494267
 21
871.2157673198017
 31
0.0
  0
LINE
  5
37FF
330
18
100
AcDbEntity
  8
0
100
AcDbLine
 10
1479.005276494266
 20
787.215767285692
 30
0.0
 11
1479.005276494295
 21
871.2157673188704
 31
0.0
  0
LINE
  5
3800
330
18
100
AcDbEntity
  8
0
100
AcDbLine
 10
1633.005276494267
 20
787.2157673010588
 30
0.0
 11
1479.005276494266
 21
787.215767285692
 31
0.0
  0
LINE
  5
3801
330
18
100
AcDbEntity
  8
0
100
AcDbLine
 10
1479.005276494295
 20
871.2157673188704
 30
0.0
 11
1633.005276494267
 21
871.2157673198017
 31
0.0
  0
CIRCLE
  5
3802
330
18
100
AcDbEntity
  8
0
 62
     4
100
AcDbCircle
 10
1556.005276494208
 20
874.2157673191032
 30
0.0
 40
1.118033988749894
  0
CIRCLE
  5
3803
330
18
100
AcDbEntity
  8
0
 62
     4
100
AcDbCircle
 10
1556.005276494208
 20
874.2157673191032
 30
0.0
 40
1.5
  0
LINE
  5
3804
330
18
100
AcDbEntity
  8
0
100
AcDbLine
 10
1524.005276494266
 20
880.2157673192196
 30
0.0
 11
1524.005276494266
 21
871.2157673192196
 31
0.0
  0
LINE
  5
3806
330
18
100
AcDbEntity
  8
0
100
AcDbLine
 10
1588.005276494266
 20
871.2157673192196
 30
0.0
 11
1588.005276494266
 21
880.2157673192196
 31
0.0
  0
LINE
  5
3807
330
18
100
AcDbEntity
  8
0
100
AcDbLine
 10
1585.005276494266
 20
883.2157673192195
 30
0.0
 11
1527.005276494266
 21
883.2157673192195
 31
0.0
  0
LINE
  5
3808
330
18
100
AcDbEntity
  8
0
100
AcDbLine
 10
1585.005276494266
 20
883.2157673192195
 30
0.0
 11
1588.005276494266
 21
880.2157673192196
 31
0.0
  0
LINE
  5
3809
330
18
100
AcDbEntity
  8
0
100
AcDbLine
 10
1527.005276494266
 20
883.2157673192195
 30
0.0
 11
1524.005276494266
 21
880.2157673192196
 31
0.0
  0
CIRCLE
  5
380A
330
18
100
AcDbEntity
  8
0
 62
     4
100
AcDbCircle
 10
565.4203475995891
 20
874.2157673189867
 30
0.0
 40
1.118033988749894
  0
CIRCLE
  5
380B
330
18
100
AcDbEntity
  8
0
 62
     4
100
AcDbCircle
 10
565.4203475995891
 20
874.2157673189867
 30
0.0
 40
1.5
  0
LINE
  5
380C
330
18
100
AcDbEntity
  8
0
100
AcDbLine
 10
533.4203475996473
 20
880.2157673191031
 30
0.0
 11
533.4203475996473
 21
871.2157673191031
 31
0.0
  0
LINE
  5
380D
330
18
100
AcDbEntity
  8
0
100
AcDbLine
 10
533.4203475996473
 20
871.2157673191031
 30
0.0
 11
597.4203475996473
 21
871.2157673191031
 31
0.0
  0
LINE
  5
380E
330
18
100
AcDbEntity
  8
0
100
AcDbLine
 10
597.4203475996473
 20
871.2157673191031
 30
0.0
 11
597.4203475996473
 21
880.2157673191031
 31
0.0
  0
LINE
  5
380F
330
18
100
AcDbEntity
  8
0
100
AcDbLine
 10
594.4203475996473
 20
883.2157673191032
 30
0.0
 11
536.4203475996474
 21
883.2157673191032
 31
0.0
  0
LINE
  5
3810
330
18
100
AcDbEntity
  8
0
100
AcDbLine
 10
594.4203475996473
 20
883.2157673191032
 30
0.0
 11
597.4203475996473
 21
880.2157673191031
 31
0.0
  0
LINE
  5
3811
330
18
100
AcDbEntity
  8
0
100
AcDbLine
 10
536.4203475996474
 20
883.2157673191032
 30
0.0
 11
533.4203475996473
 21
880.2157673191031
 31
0.0
  0
LINE
  5
3812
330
18
100
AcDbEntity
  8
0
100
AcDbLine
 10
1085.05033176062
 20
880.2157673203836
 30
0.0
 11
1085.05033176062
 21
871.2157673203837
 31
0.0
  0
LINE
  5
3813
330
18
100
AcDbEntity
  8
0
100
AcDbLine
 10
1085.05033176062
 20
871.2157673203837
 30
0.0
 11
1149.05033176062
 21
871.2157673203837
 31
0.0
  0
LINE
  5
3814
330
18
100
AcDbEntity
  8
0
100
AcDbLine
 10
1149.05033176062
 20
871.2157673203837
 30
0.0
 11
1149.05033176062
 21
880.2157673203836
 31
0.0
  0
LINE
  5
3815
330
18
100
AcDbEntity
  8
0
100
AcDbLine
 10
1146.05033176062
 20
883.2157673203838
 30
0.0
 11
1088.05033176062
 21
883.2157673203838
 31
0.0
  0
LINE
  5
3816
330
18
100
AcDbEntity
  8
0
100
AcDbLine
 10
1146.05033176062
 20
883.2157673203838
 30
0.0
 11
1149.05033176062
 21
880.2157673203836
 31
0.0
  0
LINE
  5
3817
330
18
100
AcDbEntity
  8
0
100
AcDbLine
 10
1088.05033176062
 20
883.2157673203838
 30
0.0
 11
1085.05033176062
 21
880.2157673203836
 31
0.0
  0
ARC
  5
3819
330
18
100
AcDbEntity
  8
0
100
AcDbCircle
 10
474.4203475998801
 20
378.2157673184047
 30
0.0
 40
1.0
100
AcDbArc
 50
180.0
 51
270.0
  0
LINE
  5
381A
330
18
100
AcDbEntity
  8
0
100
AcDbLine
 10
473.4203475998802
 20
378.2157673184047
 30
0.0
 11
473.4203476003458
 21
869.2157673172404
 31
0.0
  0
LINE
  5
381B
330
18
100
AcDbEntity
  8
0
100
AcDbLine
 10
475.4203476002294
 20
871.2157673172406
 30
0.0
 11
486.4203476002294
 21
871.215767317939
 31
0.0
  0
ARC
  5
381C
330
18
100
AcDbEntity
  8
0
100
AcDbCircle
 10
475.4203476003458
 20
869.2157673172404
 30
0.0
 40
2.0
100
AcDbArc
 50
90.0
 51
180.0
  0
ARC
  5
381E
330
18
100
AcDbEntity
  8
0
100
AcDbCircle
 10
486.4203476003458
 20
869.2157673179391
 30
0.0
 40
2.0
100
AcDbArc
 50
0.0
 51
90.0
  0
LINE
  5
381F
330
18
100
AcDbEntity
  8
0
100
AcDbLine
 10
489.4203475998219
 20
378.215767311769
 30
0.0
 11
489.4203475998219
 21
379.2157673116526
 31
0.0
  0
LINE
  5
3820
330
18
100
AcDbEntity
  8
0
100
AcDbLine
 10
641.4203475997928
 20
787.215767311769
 30
0.0
 11
641.4203475997928
 21
786.2157673120018
 31
0.0
  0
LINE
  5
3821
330
18
100
AcDbEntity
  8
0
100
AcDbLine
 10
641.420347599822
 20
378.215767311769
 30
0.0
 11
489.4203475998219
 21
378.215767311769
 31
0.0
  0
LINE
  5
3822
330
18
100
AcDbEntity
  8
0
100
AcDbLine
 10
642.4203475999384
 20
786.2157673116525
 30
0.0
 11
641.420347599822
 21
786.215767311769
 31
0.0
  0
LINE
  5
3823
330
18
100
AcDbEntity
  8
0
100
AcDbLine
 10
642.4203475998219
 20
377.2157673175067
 30
0.0
 11
642.4203475998219
 21
786.2157673116525
 31
0.0
  0
LINE
  5
3824
330
18
100
AcDbEntity
  8
0
100
AcDbLine
 10
641.4203475999384
 20
787.215767311769
 30
0.0
 11
489.4203475997056
 21
787.215767311769
 31
0.0
  0
LINE
  5
3825
330
18
100
AcDbEntity
  8
0
100
AcDbLine
 10
488.4203475998219
 20
786.215767311769
 30
0.0
 11
488.4203475998219
 21
377.2157673187041
 31
0.0
  0
LINE
  5
3826
330
18
100
AcDbEntity
  8
0
100
AcDbLine
 10
488.4203475998219
 20
379.215767311769
 30
0.0
 11
489.4203475998219
 21
379.2157673116526
 31
0.0
  0
LINE
  5
3827
330
18
100
AcDbEntity
  8
0
100
AcDbLine
 10
489.4203475998219
 20
786.2157673118854
 30
0.0
 11
488.4203475998219
 21
786.215767311769
 31
0.0
  0
LINE
  5
3828
330
18
100
AcDbEntity
  8
0
100
AcDbLine
 10
1049.852646030587
 20
1027.668279280209
 30
0.0
 11
1049.852646030587
 21
1042.668279280326
 31
0.0
  0
LINE
  5
3829
330
18
100
AcDbEntity
  8
0
100
AcDbLine
 10
1208.050330977232
 20
1209.668279281141
 30
0.0
 11
1208.050330977348
 21
1198.668279280908
 31
0.0
  0
ARC
  5
382A
330
18
100
AcDbEntity
  8
0
100
AcDbCircle
 10
1206.050330977232
 20
1209.668279281141
 30
0.0
 40
2.0
100
AcDbArc
 50
0.0
 51
90.0
  0
LINE
  5
382B
330
18
100
AcDbEntity
  8
0
100
AcDbLine
 10
908.0503309772321
 20
1209.668279280908
 30
0.0
 11
908.0503309775814
 21
1198.668279280908
 31
0.0
  0
LINE
  5
382C
330
18
100
AcDbEntity
  8
0
100
AcDbLine
 10
913.0503309775813
 20
1196.668279280908
 30
0.0
 11
910.0503309775813
 21
1196.668279280908
 31
0.0
  0
ARC
  5
382D
330
18
100
AcDbEntity
  8
0
100
AcDbCircle
 10
910.0503309775813
 20
1198.668279280908
 30
0.0
 40
2.0
100
AcDbArc
 50
180.0
 51
270.0
  0
ARC
  5
382E
330
18
100
AcDbEntity
  8
0
100
AcDbCircle
 10
1206.050330977348
 20
1198.668279280908
 30
0.0
 40
2.0
100
AcDbArc
 50
270.0
 51
0.0
  0
LINE
  5
382F
330
18
100
AcDbEntity
  8
0
100
AcDbLine
 10
1206.050330977232
 20
1211.668279281141
 30
0.0
 11
910.0503309772321
 21
1211.668279280908
 31
0.0
  0
ARC
  5
3830
330
18
100
AcDbEntity
  8
0
100
AcDbCircle
 10
910.0503309772321
 20
1209.668279280908
 30
0.0
 40
2.0
100
AcDbArc
 50
90.0
 51
180.0
  0
LINE
  5
3831
330
18
100
AcDbEntity
  8
0
100
AcDbLine
 10
913.0503309775813
 20
1196.668279280908
 30
0.0
 11
1206.050330977348
 21
1196.668279280908
 31
0.0
  0
LINE
  5
3832
330
18
100
AcDbEntity
  8
0
100
AcDbLine
 10
1049.852646030587
 20
1211.668279281141
 30
0.0
 11
1049.852646030587
 21
1196.668279281024
 31
0.0
  0
LINE
  5
3833
330
18
100
AcDbEntity
  8
0
 62
     4
100
AcDbLine
 10
1591.905276494144
 20
420.9657673175898
 30
0.0
 11
1607.105276493923
 21
420.9657673173569
 31
0.0
  0
LINE
  5
3834
330
18
100
AcDbEntity
  8
0
 62
     4
100
AcDbLine
 10
1589.905276494144
 20
401.4657673173569
 30
0.0
 11
1609.105276494069
 21
401.4657673171241
 31
0.0
  0
LINE
  5
3835
330
18
100
AcDbEntity
  8
0
 62
     4
100
AcDbLine
 10
1585.905276494173
 20
414.9657673175897
 30
0.0
 11
1585.905276494173
 21
405.4657673173569
 31
0.0
  0
LINE
  5
3836
330
18
100
AcDbEntity
  8
0
 62
     4
100
AcDbLine
 10
1589.75527649383
 20
422.5657673174501
 30
0.0
 11
1609.255276494033
 21
422.5657673174501
 31
0.0
  0
LINE
  5
3837
330
18
100
AcDbEntity
  8
0
 62
     4
100
AcDbLine
 10
1589.755276494034
 20
399.8657673172638
 30
0.0
 11
1609.255276494092
 21
399.8657673174967
 31
0.0
  0
LINE
  5
3838
330
18
100
AcDbEntity
  8
0
 62
     4
100
AcDbLine
 10
1584.155276493911
 20
416.9657673174733
 30
0.0
 11
1584.15527649397
 21
405.4657673172405
 31
0.0
  0
ARC
  5
3839
330
18
100
AcDbEntity
  8
0
 62
     4
100
AcDbCircle
 10
1589.755276493917
 20
416.9657673174733
 30
0.0
 40
5.599999999999999
100
AcDbArc
 50
90.00000000166753
 51
180.0
  0
ARC
  5
383A
330
18
100
AcDbEntity
  8
0
 62
     4
100
AcDbCircle
 10
1589.905276494115
 20
405.4657673170076
 30
0.0
 40
4.0
100
AcDbArc
 50
180.0
 51
270.0
  0
ARC
  5
383B
330
18
100
AcDbEntity
  8
0
 62
     4
100
AcDbCircle
 10
1589.755276493917
 20
405.4657673170076
 30
0.0
 40
5.599999999999999
100
AcDbArc
 50
180.0
 51
269.9999999983325
  0
LINE
  5
383C
330
18
100
AcDbEntity
  8
0
 62
     4
100
AcDbLine
 10
1613.105276493894
 20
414.9657673173569
 30
0.0
 11
1613.105276493836
 21
405.4657673173569
 31
0.0
  0
LINE
  5
383D
330
18
100
AcDbEntity
  8
0
 62
     4
100
AcDbLine
 10
1614.855276494098
 20
416.9657673174733
 30
0.0
 11
1614.85527649404
 21
405.4657673172405
 31
0.0
  0
ARC
  5
383E
330
18
100
AcDbEntity
  8
0
 62
     4
100
AcDbCircle
 10
1609.255276494092
 20
416.9657673174733
 30
0.0
 40
5.599999999999999
100
AcDbArc
 50
0.0
 51
89.99999999833248
  0
ARC
  5
383F
330
18
100
AcDbEntity
  8
0
 62
     4
100
AcDbCircle
 10
1609.105276493894
 20
405.4657673170076
 30
0.0
 40
4.0
100
AcDbArc
 50
270.0
 51
0.0
  0
ARC
  5
3840
330
18
100
AcDbEntity
  8
0
 62
     4
100
AcDbCircle
 10
1609.255276494092
 20
405.4657673170076
 30
0.0
 40
5.599999999999999
100
AcDbArc
 50
270.0000000016675
 51
0.0
  0
LINE
  5
3841
330
18
100
AcDbEntity
  8
0
 62
     4
100
AcDbLine
 10
1598.505276494005
 20
417.7768450078074
 30
0.0
 11
1598.505276494005
 21
412.9983593366559
 31
0.0
  0
LINE
  5
3842
330
18
100
AcDbEntity
  8
0
 62
     4
100
AcDbLine
 10
1600.505276494004
 20
417.7768450078074
 30
0.0
 11
1600.505276494004
 21
412.9983593366559
 31
0.0
  0
LINE
  5
3843
330
18
100
AcDbEntity
  8
0
 62
     4
100
AcDbLine
 10
1598.505276494005
 20
417.7768450078074
 30
0.0
 11
1600.505276494004
 21
417.7768450078074
 31
0.0
  0
LINE
  5
3844
330
18
100
AcDbEntity
  8
0
 62
     4
100
AcDbLine
 10
1600.505276494004
 20
412.9983593366559
 30
0.0
 11
1598.505276494005
 21
412.9983593366559
 31
0.0
  0
LINE
  5
3845
330
18
100
AcDbEntity
  8
0
 62
     4
100
AcDbLine
 10
1592.079309793
 20
409.3397244153529
 30
0.0
 11
1592.079309793
 21
404.5612387442015
 31
0.0
  0
LINE
  5
3846
330
18
100
AcDbEntity
  8
0
 62
     4
100
AcDbLine
 10
1594.079309793
 20
409.3397244153529
 30
0.0
 11
1594.079309793
 21
404.5612387442015
 31
0.0
  0
LINE
  5
3847
330
18
100
AcDbEntity
  8
0
 62
     4
100
AcDbLine
 10
1592.079309793
 20
409.3397244153529
 30
0.0
 11
1594.079309793
 21
409.3397244153529
 31
0.0
  0
LINE
  5
3848
330
18
100
AcDbEntity
  8
0
 62
     4
100
AcDbLine
 10
1594.079309793
 20
404.5612387442015
 30
0.0
 11
1592.079309793
 21
404.5612387442015
 31
0.0
  0
LINE
  5
3849
330
18
100
AcDbEntity
  8
0
 62
     4
100
AcDbLine
 10
1606.931243195038
 20
409.3397244153529
 30
0.0
 11
1606.931243195038
 21
404.5612387442015
 31
0.0
  0
LINE
  5
384A
330
18
100
AcDbEntity
  8
0
 62
     4
100
AcDbLine
 10
1604.931243195038
 20
409.3397244153529
 30
0.0
 11
1604.931243195038
 21
404.5612387442015
 31
0.0
  0
LINE
  5
384B
330
18
100
AcDbEntity
  8
0
 62
     4
100
AcDbLine
 10
1606.931243195038
 20
409.3397244153529
 30
0.0
 11
1604.931243195038
 21
409.3397244153529
 31
0.0
  0
LINE
  5
384C
330
18
100
AcDbEntity
  8
0
 62
     4
100
AcDbLine
 10
1604.931243195038
 20
404.5612387442015
 30
0.0
 11
1606.931243195038
 21
404.5612387442015
 31
0.0
  0
LINE
  5
384D
330
18
100
AcDbEntity
  8
0
 62
     4
100
AcDbLine
 10
1585.905276494173
 20
414.9657673175897
 30
0.0
 11
1591.905276494144
 21
420.9657673175898
 31
0.0
  0
LINE
  5
384E
330
18
100
AcDbEntity
  8
0
 62
     4
100
AcDbLine
 10
1607.105276493923
 20
420.9657673173569
 30
0.0
 11
1613.105276493894
 21
414.9657673173569
 31
0.0
  0
CIRCLE
  5
384F
330
18
100
AcDbEntity
  8
0
 62
     4
100
AcDbCircle
 10
1599.505276494005
 20
441.2157673171241
 30
0.0
 40
9.0
  0
LINE
  5
3850
330
18
100
AcDbEntity
  8
0
 62
     4
100
AcDbLine
 10
1595.152514748552
 20
440.0735688737113
 30
0.0
 11
1595.636148982026
 21
440.2004477313239
 31
0.0
  0
LINE
  5
3851
330
18
100
AcDbEntity
  8
0
 62
     4
100
AcDbLine
 10
1595.255139164903
 20
441.5157703688818
 30
0.0
 11
1595.655133061387
 21
441.5157703688818
 31
0.0
  0
LINE
  5
3852
330
18
100
AcDbEntity
  8
0
 62
     4
100
AcDbLine
 10
1595.255139164903
 20
443.9157642653663
 30
0.0
 11
1595.255139164903
 21
441.5157703688818
 31
0.0
  0
LINE
  5
3853
330
18
100
AcDbEntity
  8
0
 62
     4
100
AcDbLine
 10
1595.255139164903
 20
443.9157642653663
 30
0.0
 11
1596.50518494127
 21
443.9157642653663
 31
0.0
  0
LINE
  5
3854
330
18
100
AcDbEntity
  8
0
 62
     4
100
AcDbLine
 10
1595.655133061387
 20
443.5157551100928
 30
0.0
 11
1595.655133061387
 21
442.9157642653662
 31
0.0
  0
LINE
  5
3855
330
18
100
AcDbEntity
  8
0
 62
     4
100
AcDbLine
 10
1595.655133061387
 20
443.5157551100928
 30
0.0
 11
1596.50518494127
 21
443.5157551100928
 31
0.0
  0
LINE
  5
3856
330
18
100
AcDbEntity
  8
0
 62
     4
100
AcDbLine
 10
1595.655133061387
 20
442.9157642653662
 30
0.0
 11
1596.305187993028
 21
442.9157642653662
 31
0.0
  0
LINE
  5
3857
330
18
100
AcDbEntity
  8
0
 62
     4
100
AcDbLine
 10
1595.655133061387
 20
442.5157551100928
 30
0.0
 11
1596.305187993028
 21
442.5157551100928
 31
0.0
  0
LINE
  5
3858
330
18
100
AcDbEntity
  8
0
 62
     4
100
AcDbLine
 10
1596.50518494127
 20
443.9157642653663
 30
0.0
 11
1596.50518494127
 21
443.5157551100928
 31
0.0
  0
LINE
  5
3859
330
18
100
AcDbEntity
  8
0
 62
     4
100
AcDbLine
 10
1596.305187993028
 20
442.9157642653662
 30
0.0
 11
1596.305187993028
 21
442.5157551100928
 31
0.0
  0
LINE
  5
385A
330
18
100
AcDbEntity
  8
0
 62
     4
100
AcDbLine
 10
1600.205136113145
 20
441.5157703688818
 30
0.0
 11
1601.305187993028
 21
441.5157703688818
 31
0.0
  0
LINE
  5
385B
330
18
100
AcDbEntity
  8
0
 62
     4
100
AcDbLine
 10
1597.50518494127
 20
443.9157490065772
 30
0.0
 11
1597.50518494127
 21
442.1157612136084
 31
0.0
  0
LINE
  5
385C
330
18
100
AcDbEntity
  8
0
 62
     4
100
AcDbLine
 10
1597.905178837755
 20
442.2157215407569
 30
0.0
 11
1597.905178837755
 21
443.9157490065772
 31
0.0
  0
LINE
  5
385D
330
18
100
AcDbEntity
  8
0
 62
     4
100
AcDbLine
 10
1597.905178837755
 20
443.9157490065772
 30
0.0
 11
1597.50518494127
 21
443.9157490065772
 31
0.0
  0
LINE
  5
385E
330
18
100
AcDbEntity
  8
0
 62
     4
100
AcDbLine
 10
1598.705181889512
 20
443.9157490065772
 30
0.0
 11
1598.705181889512
 21
442.2154926589209
 31
0.0
  0
LINE
  5
385F
330
18
100
AcDbEntity
  8
0
 62
     4
100
AcDbLine
 10
1599.105175785997
 20
443.9157490065772
 30
0.0
 11
1599.105175785997
 21
442.1157612136084
 31
0.0
  0
LINE
  5
3860
330
18
100
AcDbEntity
  8
0
 62
     4
100
AcDbLine
 10
1599.105226509549
 20
442.1157269409377
 30
0.0
 11
1598.7052266526
 21
441.5157272449214
 31
0.0
  0
LINE
  5
3861
330
18
100
AcDbEntity
  8
0
 62
     4
100
AcDbLine
 10
1597.50524025438
 20
442.1156757405478
 30
0.0
 11
1597.905226044633
 21
441.5156971147735
 31
0.0
  0
LINE
  5
3862
330
18
100
AcDbEntity
  8
0
 62
     4
100
AcDbLine
 10
1598.105175785997
 20
441.9157490065772
 30
0.0
 11
1598.50518494127
 21
441.9157490065772
 31
0.0
  0
LINE
  5
3863
330
18
100
AcDbEntity
  8
0
 62
     4
100
AcDbLine
 10
1598.705181889512
 20
443.9157490065772
 30
0.0
 11
1599.105175785997
 21
443.9157490065772
 31
0.0
  0
LINE
  5
3864
330
18
100
AcDbEntity
  8
0
 62
     4
100
AcDbLine
 10
1597.905178837755
 20
441.5157551100929
 30
0.0
 11
1598.705181889512
 21
441.5157551100929
 31
0.0
  0
LINE
  5
3865
330
18
100
AcDbEntity
  8
0
 62
     4
100
AcDbLine
 10
1601.205181889512
 20
443.9157490065772
 30
0.0
 11
1600.205136113145
 21
443.9157490065772
 31
0.0
  0
LINE
  5
3866
330
18
100
AcDbEntity
  8
0
 62
     4
100
AcDbLine
 10
1599.905133061387
 20
443.5157398513037
 30
0.0
 11
1599.905133061387
 21
442.9157490065772
 31
0.0
  0
LINE
  5
3867
330
18
100
AcDbEntity
  8
0
 62
     4
100
AcDbLine
 10
1600.305126957872
 20
443.3824085524756
 30
0.0
 11
1600.305126957872
 21
443.0490803054054
 31
0.0
  0
LINE
  5
3868
330
18
100
AcDbEntity
  8
0
 62
     4
100
AcDbLine
 10
1600.205136113145
 20
442.5157551100928
 30
0.0
 11
1601.00518494127
 21
442.5157551100928
 31
0.0
  0
LINE
  5
3869
330
18
100
AcDbEntity
  8
0
 62
     4
100
AcDbLine
 10
1600.405133061387
 20
442.9157490065772
 30
0.0
 11
1601.205181889512
 21
442.9157490065772
 31
0.0
  0
LINE
  5
386A
330
18
100
AcDbEntity
  8
0
 62
     4
100
AcDbLine
 10
1600.405178837754
 20
443.5157551100928
 30
0.0
 11
1600.905133061387
 21
443.5157551100928
 31
0.0
  0
LINE
  5
386B
330
18
100
AcDbEntity
  8
0
 62
     4
100
AcDbLine
 10
1601.205184750535
 20
443.9156786730964
 30
0.0
 11
1601.505186848619
 21
443.4156750968177
 31
0.0
  0
LINE
  5
386C
330
18
100
AcDbEntity
  8
0
 62
     4
100
AcDbLine
 10
1601.105195693948
 20
443.2156225970466
 30
0.0
 11
1601.505201272943
 21
443.4156252673346
 31
0.0
  0
LINE
  5
386D
330
18
100
AcDbEntity
  8
0
 62
     4
100
AcDbLine
 10
1601.105166130044
 20
443.2157190373618
 30
0.0
 11
1600.905169181802
 21
443.5157143405158
 31
0.0
  0
LINE
  5
386E
330
18
100
AcDbEntity
  8
0
 62
     4
100
AcDbLine
 10
1601.10513000963
 20
442.3824238112647
 30
0.0
 11
1601.10513000963
 21
442.0156940749365
 31
0.0
  0
LINE
  5
386F
330
18
100
AcDbEntity
  8
0
 62
     4
100
AcDbLine
 10
1601.505139164903
 20
442.5157551100928
 30
0.0
 11
1601.505139164903
 21
441.8157429030616
 31
0.0
  0
LINE
  5
3870
330
18
100
AcDbEntity
  8
0
 62
     4
100
AcDbLine
 10
1603.755139164903
 20
443.9157490065772
 30
0.0
 11
1602.305126957872
 21
443.9157490065772
 31
0.0
  0
LINE
  5
3871
330
18
100
AcDbEntity
  8
0
 62
     4
100
AcDbLine
 10
1602.305126957872
 20
443.9157490065772
 30
0.0
 11
1602.305126957872
 21
441.5157551100929
 31
0.0
  0
LINE
  5
3872
330
18
100
AcDbEntity
  8
0
 62
     4
100
AcDbLine
 10
1602.705136113145
 20
441.9157490065772
 30
0.0
 11
1602.705136113145
 21
442.5157551100928
 31
0.0
  0
LINE
  5
3873
330
18
100
AcDbEntity
  8
0
 62
     4
100
AcDbLine
 10
1602.705136113145
 20
442.5157551100928
 30
0.0
 11
1603.505139164903
 21
442.5157551100928
 31
0.0
  0
LINE
  5
3874
330
18
100
AcDbEntity
  8
0
 62
     4
100
AcDbLine
 10
1603.505139164903
 20
442.5157551100928
 30
0.0
 11
1603.505139164903
 21
442.9157490065772
 31
0.0
  0
LINE
  5
3875
330
18
100
AcDbEntity
  8
0
 62
     4
100
AcDbLine
 10
1603.505139164903
 20
442.9157490065772
 30
0.0
 11
1602.705136113145
 21
442.9157490065772
 31
0.0
  0
LINE
  5
3876
330
18
100
AcDbEntity
  8
0
 62
     4
100
AcDbLine
 10
1602.705136113145
 20
442.9157490065772
 30
0.0
 11
1602.705136113145
 21
443.5157551100928
 31
0.0
  0
LINE
  5
3877
330
18
100
AcDbEntity
  8
0
 62
     4
100
AcDbLine
 10
1595.655133061387
 20
442.5157551100928
 30
0.0
 11
1595.655133061387
 21
441.5157703688818
 31
0.0
  0
LINE
  5
3878
330
18
100
AcDbEntity
  8
0
 62
     4
100
AcDbLine
 10
1601.305169873216
 20
441.515754752465
 30
0.0
 11
1601.505157403924
 21
441.8157361677367
 31
0.0
  0
LINE
  5
3879
330
18
100
AcDbEntity
  8
0
 62
     4
100
AcDbLine
 10
1601.005230717637
 20
441.9157490065772
 30
0.0
 11
1600.370861821153
 21
441.9157490065772
 31
0.0
  0
LINE
  5
387A
330
18
100
AcDbEntity
  8
0
 62
     4
100
AcDbLine
 10
1600.205205075719
 20
442.5156593850333
 30
0.0
 11
1599.905205332019
 21
442.9156590035636
 31
0.0
  0
LINE
  5
387B
330
18
100
AcDbEntity
  8
0
 62
     4
100
AcDbLine
 10
1599.905213021018
 20
443.515680246659
 30
0.0
 11
1600.205213003137
 21
443.9156801036078
 31
0.0
  0
LINE
  5
387C
330
18
100
AcDbEntity
  8
0
 62
     4
100
AcDbLine
 10
1601.205229454019
 20
442.9156411221701
 30
0.0
 11
1601.505201988199
 21
442.5156777432639
 31
0.0
  0
LINE
  5
387D
330
18
100
AcDbEntity
  8
0
 62
     4
100
AcDbLine
 10
1601.005192809083
 20
442.5156746438224
 30
0.0
 11
1601.105214171388
 21
442.3823128274161
 31
0.0
  0
LINE
  5
387E
330
18
100
AcDbEntity
  8
0
 62
     4
100
AcDbLine
 10
1600.405214183309
 20
442.915662460633
 30
0.0
 11
1600.305220298745
 21
443.0489875605781
 31
0.0
  0
LINE
  5
387F
330
18
100
AcDbEntity
  8
0
 62
     4
100
AcDbLine
 10
1600.305208318212
 20
443.3823513320167
 30
0.0
 11
1600.405218832471
 21
443.5156986048895
 31
0.0
  0
LINE
  5
3880
330
18
100
AcDbEntity
  8
0
 62
     4
100
AcDbLine
 10
1602.305126957872
 20
441.5157551100929
 30
0.0
 11
1603.755139164903
 21
441.5157551100929
 31
0.0
  0
LINE
  5
3881
330
18
100
AcDbEntity
  8
0
 62
     4
100
AcDbLine
 10
1603.755139164903
 20
441.9157490065772
 30
0.0
 11
1602.705136113145
 21
441.9157490065772
 31
0.0
  0
LINE
  5
3882
330
18
100
AcDbEntity
  8
0
 62
     4
100
AcDbLine
 10
1601.005222492196
 20
441.915716820069
 30
0.0
 11
1601.10516851423
 21
442.0156629017074
 31
0.0
  0
LINE
  5
3883
330
18
100
AcDbEntity
  8
0
 62
     4
100
AcDbLine
 10
1600.20518904207
 20
441.5157183042246
 30
0.0
 11
1599.905184410789
 21
441.8157228759009
 31
0.0
  0
LINE
  5
3884
330
18
100
AcDbEntity
  8
0
 62
     4
100
AcDbLine
 10
1600.37088077543
 20
441.9156952431876
 30
0.0
 11
1600.188061945417
 21
442.0985140732009
 31
0.0
  0
LINE
  5
3885
330
18
100
AcDbEntity
  8
0
 62
     4
100
AcDbLine
 10
1599.905184410789
 20
441.8157228759009
 30
0.0
 11
1600.188018791654
 21
442.0985572269637
 31
0.0
  0
LINE
  5
3886
330
18
100
AcDbEntity
  8
0
 62
     4
100
AcDbLine
 10
1597.905230097749
 20
442.2156709364135
 30
0.0
 11
1598.105277948358
 21
441.9157090714652
 31
0.0
  0
LINE
  5
3887
330
18
100
AcDbEntity
  8
0
 62
     4
100
AcDbLine
 10
1598.705200486161
 20
442.2154789498526
 30
0.0
 11
1598.505286567189
 21
441.9156842759329
 31
0.0
  0
LINE
  5
3888
330
18
100
AcDbEntity
  8
0
 62
     4
100
AcDbLine
 10
1603.755139164903
 20
443.5157551100928
 30
0.0
 11
1602.705136113145
 21
443.5157551100928
 31
0.0
  0
LINE
  5
3889
330
18
100
AcDbEntity
  8
0
 62
     4
100
AcDbLine
 10
1603.755139164903
 20
443.9157490065772
 30
0.0
 11
1603.755139164903
 21
443.5157551100928
 31
0.0
  0
LINE
  5
388A
330
18
100
AcDbEntity
  8
0
 62
     4
100
AcDbLine
 10
1603.755139164903
 20
441.9157490065772
 30
0.0
 11
1603.755139164903
 21
441.5157551100929
 31
0.0
  0
LINE
  5
388B
330
18
100
AcDbEntity
  8
0
 62
     4
100
AcDbLine
 10
1602.249382071473
 20
439.2942519715506
 30
0.0
 11
1602.780828766801
 21
438.9221348097999
 31
0.0
  0
LINE
  5
388C
330
18
100
AcDbEntity
  8
0
 62
     4
100
AcDbLine
 10
1603.190167956331
 20
438.635502271958
 30
0.0
 11
1603.723859124162
 21
438.2618023684699
 31
0.0
  0
LINE
  5
388D
330
18
100
AcDbEntity
  8
0
 62
     4
100
AcDbLine
 10
1602.249375634172
 20
439.2942075064857
 30
0.0
 11
1604.041459374406
 21
440.2093439629752
 31
0.0
  0
LINE
  5
388E
330
18
100
AcDbEntity
  8
0
 62
     4
100
AcDbLine
 10
1604.041478924729
 20
440.2094104817588
 30
0.0
 11
1603.72385101793
 21
438.2618290713508
 31
0.0
  0
CIRCLE
  5
388F
330
18
100
AcDbEntity
  8
0
 62
     4
100
AcDbCircle
 10
1599.505123906114
 20
441.2157673171241
 30
0.0
 40
6.749999046325696
  0
ARC
  5
3890
330
18
100
AcDbEntity
  8
0
 62
     4
100
AcDbCircle
 10
1599.505123906114
 20
441.2157673171241
 30
0.0
 40
3.999999046325698
100
AcDbArc
 50
194.7034115197317
 51
325.0003280098098
  0
ARC
  5
3891
330
18
100
AcDbEntity
  8
0
 62
     4
100
AcDbCircle
 10
1599.505123906114
 20
441.2157673171241
 30
0.0
 40
4.499999046325698
100
AcDbArc
 50
194.7030290305169
 51
325.0001948282273
  0
CIRCLE
  5
3892
330
18
100
AcDbEntity
  8
0
 62
     4
100
AcDbCircle
 10
1599.505429081895
 20
441.2157673171241
 30
0.0
 40
10.399993896484
  0
LINE
  5
3893
330
18
100
AcDbEntity
  8
0
100
AcDbLine
 10
490.5870142677303
 20
378.215767311769
 30
0.0
 11
492.4203475999092
 21
367.2157673186375
 31
0.0
  0
LINE
  5
3894
330
18
100
AcDbEntity
  8
0
100
AcDbLine
 10
510.2536809321172
 20
378.215767311769
 30
0.0
 11
508.4203475999093
 21
367.2157673186375
 31
0.0
  0
LINE
  5
3895
330
18
100
AcDbEntity
  8
0
100
AcDbLine
 10
492.4203475999092
 20
367.2157673186375
 30
0.0
 11
508.4203475999093
 21
367.2157673186375
 31
0.0
  0
LINE
  5
3896
330
18
100
AcDbEntity
  8
0
100
AcDbLine
 10
640.2536809320881
 20
378.215767311769
 30
0.0
 11
638.4203475999092
 21
367.2157673186375
 31
0.0
  0
LINE
  5
3897
330
18
100
AcDbEntity
  8
0
100
AcDbLine
 10
620.5870142677013
 20
378.215767311769
 30
0.0
 11
622.4203475999092
 21
367.2157673186375
 31
0.0
  0
LINE
  5
3898
330
18
100
AcDbEntity
  8
0
100
AcDbLine
 10
638.4203475999092
 20
367.2157673186375
 30
0.0
 11
622.4203475999092
 21
367.2157673186375
 31
0.0
  0
LINE
  5
3899
330
18
100
AcDbEntity
  8
0
100
AcDbLine
 10
641.4203475997928
 20
379.2157673118854
 30
0.0
 11
642.4203475998219
 21
379.215767311769
 31
0.0
  0
LINE
  5
389A
330
18
100
AcDbEntity
  8
0
100
AcDbLine
 10
489.4203475998219
 20
786.2157673118854
 30
0.0
 11
489.4203475998219
 21
787.215767311769
 31
0.0
  0
LINE
  5
389B
330
18
100
AcDbEntity
  8
0
100
AcDbLine
 10
641.4203475997928
 20
379.2157673116526
 30
0.0
 11
641.420347599822
 21
378.215767311769
 31
0.0
  0
LINE
  5
389C
330
18
100
AcDbEntity
  8
0
100
AcDbLine
 10
490.7536809332523
 20
377.2157673187539
 30
0.0
 11
474.4203475998801
 21
377.2157673184047
 31
0.0
  0
LINE
  5
389D
330
18
100
AcDbEntity
  8
0
100
AcDbLine
 10
620.7536809334269
 20
377.2157673177062
 30
0.0
 11
510.0870142665662
 21
377.2157673186375
 31
0.0
  0
LINE
  5
389E
330
18
100
AcDbEntity
  8
0
100
AcDbLine
 10
1481.338609827609
 20
377.2157673186375
 30
0.0
 11
1483.005276494266
 21
367.2157673187539
 31
0.0
  0
LINE
  5
389F
330
18
100
AcDbEntity
  8
0
100
AcDbLine
 10
1500.671943160923
 20
377.2157673184047
 30
0.0
 11
1499.005276494266
 21
367.2157673187539
 31
0.0
  0
LINE
  5
38A0
330
18
100
AcDbEntity
  8
0
100
AcDbLine
 10
1483.005276494266
 20
367.2157673187539
 30
0.0
 11
1499.005276494266
 21
367.2157673187539
 31
0.0
  0
LINE
  5
38A1
330
18
100
AcDbEntity
  8
0
100
AcDbLine
 10
1630.671943160749
 20
377.2157673174734
 30
0.0
 11
1629.005276494266
 21
367.2157673187539
 31
0.0
  0
LINE
  5
38A2
330
18
100
AcDbEntity
  8
0
100
AcDbLine
 10
1611.338609827726
 20
377.2157673177062
 30
0.0
 11
1613.005276494266
 21
367.2157673187539
 31
0.0
  0
LINE
  5
38A3
330
18
100
AcDbEntity
  8
0
100
AcDbLine
 10
1629.005276494266
 20
367.2157673187539
 30
0.0
 11
1613.005276494266
 21
367.2157673187539
 31
0.0
  0
LINE
  5
38A4
330
18
100
AcDbEntity
  8
0
100
AcDbLine
 10
949.7169976436563
 20
377.2157673181719
 30
0.0
 11
948.0503309770574
 21
367.2157673186375
 31
0.0
  0
LINE
  5
38A5
330
18
100
AcDbEntity
  8
0
100
AcDbLine
 10
930.3836643104586
 20
377.2157673182883
 30
0.0
 11
932.0503309770574
 21
367.2157673186375
 31
0.0
  0
LINE
  5
38A6
330
18
100
AcDbEntity
  8
0
100
AcDbLine
 10
948.0503309770574
 20
367.2157673186375
 30
0.0
 11
932.0503309770574
 21
367.2157673186375
 31
0.0
  0
LINE
  5
38A7
330
18
100
AcDbEntity
  8
0
100
AcDbLine
 10
1184.716997643394
 20
377.215767317939
 30
0.0
 11
1183.050330976795
 21
367.2157673184047
 31
0.0
  0
LINE
  5
38A8
330
18
100
AcDbEntity
  8
0
100
AcDbLine
 10
1165.383664310197
 20
377.2157673180554
 30
0.0
 11
1167.050330976795
 21
367.2157673184047
 31
0.0
  0
LINE
  5
38A9
330
18
100
AcDbEntity
  8
0
100
AcDbLine
 10
1183.050330976795
 20
367.2157673184047
 30
0.0
 11
1167.050330976795
 21
367.2157673184047
 31
0.0
  0
LINE
  5
38AA
330
18
100
AcDbEntity
  8
0
100
AcDbLine
 10
1082.050331762686
 20
1042.668279280442
 30
0.0
 11
1082.050331762686
 21
1196.668279280558
 31
0.0
  0
LINE
  5
38AB
330
18
100
AcDbEntity
  8
0
100
AcDbLine
 10
908.0503317625698
 20
1042.668279280791
 30
0.0
 11
908.0503317625698
 21
1196.668279280791
 31
0.0
  0
LINE
  5
38AC
330
18
100
AcDbEntity
  8
0
100
AcDbLine
 10
908.0503317625698
 20
1042.668279280791
 30
0.0
 11
1082.050331762686
 21
1042.668279280442
 31
0.0
  0
LINE
  5
38AD
330
18
100
AcDbEntity
  8
0
100
AcDbLine
 10
908.0503317625698
 20
1196.668279280791
 30
0.0
 11
1082.050331762686
 21
1196.668279280558
 31
0.0
  0
LINE
  5
38AE
330
18
100
AcDbEntity
  8
0
 62
     4
100
AcDbLine
 10
1025.529817058166
 20
1092.668279278812
 30
0.0
 11
1025.529817058166
 21
1179.668279279045
 31
0.0
  0
LINE
  5
38AF
330
18
100
AcDbEntity
  8
0
 62
     4
100
AcDbLine
 10
933.2773349773924
 20
1092.668279278579
 30
0.0
 11
933.2773349775671
 21
1179.668279279161
 31
0.0
  0
LINE
  5
38B0
330
18
100
AcDbEntity
  8
0
 62
     4
100
AcDbLine
 10
1022.529817058166
 20
1182.668279279045
 30
0.0
 11
936.277334977567
 21
1182.668279279162
 31
0.0
  0
LINE
  5
38B1
330
18
100
AcDbEntity
  8
0
 62
     4
100
AcDbLine
 10
1022.529817058166
 20
1089.668279278812
 30
0.0
 11
936.2773349773924
 21
1089.668279278579
 31
0.0
  0
LINE
  5
38B2
330
18
100
AcDbEntity
  8
0
 62
     4
100
AcDbLine
 10
934.2773349775962
 20
1085.168279278929
 30
0.0
 11
1024.529817058545
 21
1085.168279278929
 31
0.0
  0
LINE
  5
38B3
330
18
100
AcDbEntity
  8
0
 62
     4
100
AcDbLine
 10
936.2773349772178
 20
1054.668279279511
 30
0.0
 11
1022.529817058341
 21
1054.668279279394
 31
0.0
  0
LINE
  5
38B4
330
18
100
AcDbEntity
  8
0
 62
     4
100
AcDbLine
 10
1025.529817058544
 20
1084.168279278929
 30
0.0
 11
1025.529817058341
 21
1057.668279279394
 31
0.0
  0
LINE
  5
38B5
330
18
100
AcDbEntity
  8
0
 62
     4
100
AcDbLine
 10
933.2773349775962
 20
1084.168279278929
 30
0.0
 11
933.2773349772178
 21
1057.668279279511
 31
0.0
  0
LINE
  5
38B6
330
18
100
AcDbEntity
  8
0
100
AcDbLine
 10
1049.05033176257
 20
1047.668279280326
 30
0.0
 11
1049.050331762599
 21
1191.668279281141
 31
0.0
  0
LINE
  5
38B7
330
18
100
AcDbEntity
  8
0
100
AcDbLine
 10
1075.050331762511
 20
1047.668279280326
 30
0.0
 11
1075.05033176257
 21
1191.668279281141
 31
0.0
  0
ARC
  5
38B8
330
18
100
AcDbEntity
  8
0
 62
     4
100
AcDbCircle
 10
1022.529817058166
 20
1179.668279279045
 30
0.0
 40
3.0
100
AcDbArc
 50
0.0
 51
90.0
  0
ARC
  5
38B9
330
18
100
AcDbEntity
  8
0
 62
     4
100
AcDbCircle
 10
936.277334977567
 20
1179.668279279161
 30
0.0
 40
3.0
100
AcDbArc
 50
90.0
 51
180.0
  0
ARC
  5
38BA
330
18
100
AcDbEntity
  8
0
 62
     4
100
AcDbCircle
 10
936.2773349773924
 20
1092.668279278579
 30
0.0
 40
3.0
100
AcDbArc
 50
180.0
 51
270.0
  0
ARC
  5
38BB
330
18
100
AcDbEntity
  8
0
 62
     4
100
AcDbCircle
 10
1022.529817058166
 20
1092.668279278812
 30
0.0
 40
3.0
100
AcDbArc
 50
270.0
 51
0.0
  0
ARC
  5
38BC
330
18
100
AcDbEntity
  8
0
 62
     4
100
AcDbCircle
 10
1024.529817058545
 20
1084.168279278929
 30
0.0
 40
1.0
100
AcDbArc
 50
0.0
 51
90.0
  0
ARC
  5
38BD
330
18
100
AcDbEntity
  8
0
 62
     4
100
AcDbCircle
 10
934.2773349775962
 20
1084.168279278929
 30
0.0
 40
1.0
100
AcDbArc
 50
90.0
 51
180.0
  0
ARC
  5
38BE
330
18
100
AcDbEntity
  8
0
 62
     4
100
AcDbCircle
 10
1022.529817058341
 20
1057.668279279394
 30
0.0
 40
3.0
100
AcDbArc
 50
270.0
 51
0.0
  0
ARC
  5
38BF
330
18
100
AcDbEntity
  8
0
 62
     4
100
AcDbCircle
 10
936.2773349772178
 20
1057.668279279511
 30
0.0
 40
3.0
100
AcDbArc
 50
180.0
 51
270.0
  0
LINE
  5
38C0
330
18
100
AcDbEntity
  8
0
100
AcDbLine
 10
932.6938207980857
 20
1044.668279280791
 30
0.0
 11
1082.050331762715
 21
1044.668279280442
 31
0.0
  0
LINE
  5
38C1
330
18
100
AcDbEntity
  8
0
100
AcDbLine
 10
932.6938207980857
 20
1194.668279280558
 30
0.0
 11
1082.050331762686
 21
1194.668279280558
 31
0.0
  0
LINE
  5
38C2
330
18
100
AcDbEntity
  8
0
100
AcDbLine
 10
931.6199393635178
 20
1047.668279280558
 30
0.0
 11
1075.050331762541
 21
1047.668279280442
 31
0.0
  0
LINE
  5
38C3
330
18
100
AcDbEntity
  8
0
100
AcDbLine
 10
931.6199393635178
 20
1191.668279281141
 30
0.0
 11
1075.050331762541
 21
1191.668279281141
 31
0.0
  0
LINE
  5
38C4
330
18
100
AcDbEntity
  8
0
100
AcDbLine
 10
924.6938207981147
 20
1052.668279280791
 30
0.0
 11
924.6938207980857
 21
1186.668279280558
 31
0.0
  0
LINE
  5
38C5
330
18
100
AcDbEntity
  8
0
100
AcDbLine
 10
926.6199393635179
 20
1052.668279280558
 30
0.0
 11
926.6199393635179
 21
1186.66827928114
 31
0.0
  0
ARC
  5
38C6
330
18
100
AcDbEntity
  8
0
100
AcDbCircle
 10
932.6938207980857
 20
1186.668279280558
 30
0.0
 40
8.0
100
AcDbArc
 50
90.0
 51
180.0
  0
ARC
  5
38C7
330
18
100
AcDbEntity
  8
0
100
AcDbCircle
 10
932.6938207981147
 20
1052.668279280791
 30
0.0
 40
8.0
100
AcDbArc
 50
180.0
 51
270.0
  0
ARC
  5
38C8
330
18
100
AcDbEntity
  8
0
100
AcDbCircle
 10
931.6199393635178
 20
1186.66827928114
 30
0.0
 40
5.0
100
AcDbArc
 50
90.0
 51
180.0
  0
ARC
  5
38C9
330
18
100
AcDbEntity
  8
0
100
AcDbCircle
 10
931.6199393635178
 20
1052.668279280558
 30
0.0
 40
5.0
100
AcDbArc
 50
180.0
 51
270.0
  0
LINE
  5
38CA
330
18
100
AcDbEntity
  8
0
100
AcDbLine
 10
1049.05033176257
 20
1191.668279281141
 30
0.0
 11
1052.050331761929
 21
1194.668279280558
 31
0.0
  0
LINE
  5
38CB
330
18
100
AcDbEntity
  8
0
100
AcDbLine
 10
1075.05033176257
 20
1191.668279281141
 30
0.0
 11
1072.05033176321
 21
1194.668279280558
 31
0.0
  0
LINE
  5
38CC
330
18
100
AcDbEntity
  8
0
100
AcDbLine
 10
1049.05033176257
 20
1047.668279280442
 30
0.0
 11
1052.050331761929
 21
1044.668279281024
 31
0.0
  0
LINE
  5
38CD
330
18
100
AcDbEntity
  8
0
100
AcDbLine
 10
1075.05033176257
 20
1047.668279280442
 30
0.0
 11
1072.05033176321
 21
1044.668279281024
 31
0.0
  0
LINE
  5
38D7
330
18
100
AcDbEntity
  8
0
 62
     4
100
AcDbLine
 10
1210.65033176275
 20
1116.168282780702
 30
0.0
 11
1208.750332762734
 21
1116.168282780702
 31
0.0
  0
LINE
  5
38D8
330
18
100
AcDbEntity
  8
0
 62
     4
100
AcDbLine
 10
1214.650333762649
 20
1123.568274780664
 30
0.0
 11
1214.650333762649
 21
1115.768280780663
 31
0.0
  0
LINE
  5
38D9
330
18
100
AcDbEntity
  8
0
 62
     4
100
AcDbLine
 10
1214.550325762495
 20
1123.668282780702
 30
0.0
 11
1210.750333762509
 21
1123.668282780702
 31
0.0
  0
LINE
  5
38DA
330
18
100
AcDbEntity
  8
0
 62
     4
100
AcDbLine
 10
1210.65033176275
 20
1123.568274780664
 30
0.0
 11
1210.65033176275
 21
1115.768280780663
 31
0.0
  0
LINE
  5
38DB
330
18
100
AcDbEntity
  8
0
 62
     4
100
AcDbLine
 10
1210.65033176275
 20
1123.168281780694
 30
0.0
 11
1208.750332762734
 21
1123.168281780694
 31
0.0
  0
LINE
  5
38DC
330
18
100
AcDbEntity
  8
0
 62
     4
100
AcDbLine
 10
1208.650333762649
 20
1123.068276780679
 30
0.0
 11
1208.650333762649
 21
1116.268281780671
 31
0.0
  0
LINE
  5
38DD
330
18
100
AcDbEntity
  8
0
 62
     4
100
AcDbLine
 10
1214.550325762495
 20
1115.668281780694
 30
0.0
 11
1210.750333762509
 21
1115.668281780694
 31
0.0
  0
LINE
  5
38DE
330
18
100
AcDbEntity
  8
0
 62
     4
100
AcDbLine
 10
1208.650333762649
 20
1047.168279280675
 30
0.0
 11
1208.050331762744
 21
1047.168279280675
 31
0.0
  0
LINE
  5
38DF
330
18
100
AcDbEntity
  8
0
 62
     4
100
AcDbLine
 10
1208.650333762649
 20
1192.168279280675
 30
0.0
 11
1208.650333762649
 21
1047.168279280675
 31
0.0
  0
ARC
  5
38E0
330
18
100
AcDbEntity
  8
0
 62
     4
100
AcDbCircle
 10
1210.750333762451
 20
1115.768280780663
 30
0.0
 40
0.099999
100
AcDbArc
 50
180.0000180026177
 51
270.0
  0
ARC
  5
38E1
330
18
100
AcDbEntity
  8
0
 62
     4
100
AcDbCircle
 10
1210.750333762451
 20
1123.568274780547
 30
0.0
 40
0.099999
100
AcDbArc
 50
89.99996400143462
 51
180.000001000516
  0
ARC
  5
38E2
330
18
100
AcDbEntity
  8
0
 62
     4
100
AcDbCircle
 10
1208.750332762676
 20
1116.268281780554
 30
0.0
 40
0.099999
100
AcDbArc
 50
180.0000180026177
 51
270.0
  0
ARC
  5
38E3
330
18
100
AcDbEntity
  8
0
 62
     4
100
AcDbCircle
 10
1208.750332762676
 20
1123.068276780563
 30
0.0
 40
0.099999
100
AcDbArc
 50
89.99996400143462
 51
180.000001000516
  0
ARC
  5
38E4
330
18
100
AcDbEntity
  8
0
 62
     4
100
AcDbCircle
 10
1214.550325762437
 20
1115.768280780663
 30
0.0
 40
0.099999
100
AcDbArc
 50
270.0
 51
359.9999819973823
  0
ARC
  5
38E5
330
18
100
AcDbEntity
  8
0
 62
     4
100
AcDbCircle
 10
1214.550325762437
 20
1123.568274780547
 30
0.0
 40
0.099999
100
AcDbArc
 50
359.9999819973823
 51
89.99996400143462
  0
LINE
  5
38E6
330
18
100
AcDbEntity
  8
0
 62
     4
100
AcDbLine
 10
1208.650333762649
 20
1192.168279280675
 30
0.0
 11
1208.050331762744
 21
1192.168279280675
 31
0.0
  0
ARC
  5
38E7
330
18
100
AcDbEntity
  8
0
 62
     4
100
AcDbCircle
 10
1604.505276494063
 20
463.4157663171863
 30
0.0
 40
0.2
100
AcDbArc
 50
269.9999910020262
 51
0.0000010005159917
  0
ARC
  5
38E8
330
18
100
AcDbEntity
  8
0
 62
     4
100
AcDbCircle
 10
1604.505276494063
 20
479.0157663172794
 30
0.0
 40
0.2
100
AcDbArc
 50
359.9999969984521
 51
90.0
  0
ARC
  5
38E9
330
18
100
AcDbEntity
  8
0
 62
     4
100
AcDbCircle
 10
1594.505274494047
 20
479.0157663172794
 30
0.0
 40
0.2
100
AcDbArc
 50
90.0
 51
180.000003001548
  0
ARC
  5
38EA
330
18
100
AcDbEntity
  8
0
 62
     4
100
AcDbCircle
 10
1594.505274494047
 20
463.4157663171863
 30
0.0
 40
0.2
100
AcDbArc
 50
180.000003001548
 51
270.0000050025799
  0
ARC
  5
38EB
330
18
100
AcDbEntity
  8
0
 62
     4
100
AcDbCircle
 10
1604.005238494006
 20
478.5157723172087
 30
0.0
 40
0.4
100
AcDbArc
 50
359.9995260022139
 51
90.00060199713201
  0
ARC
  5
38EC
330
18
100
AcDbEntity
  8
0
 62
     4
100
AcDbCircle
 10
1595.005225494024
 20
478.5157573172109
 30
0.0
 40
0.4
100
AcDbArc
 50
90.00056399753464
 51
180.0010130024313
  0
ARC
  5
38ED
330
18
100
AcDbEntity
  8
0
 62
     4
100
AcDbCircle
 10
1595.005240494021
 20
463.9157963171819
 30
0.0
 40
0.4
100
AcDbArc
 50
180.0008899989953
 51
269.9993769987023
  0
ARC
  5
38EE
330
18
100
AcDbEntity
  8
0
 62
     4
100
AcDbCircle
 10
1604.005253494004
 20
463.9157963171819
 30
0.0
 40
0.4
100
AcDbArc
 50
269.9993219970032
 51
359.9996459974318
  0
ARC
  5
38EF
330
18
100
AcDbEntity
  8
0
 62
     4
100
AcDbCircle
 10
1606.505276494063
 20
461.215780317223
 30
0.0
 40
0.5
100
AcDbArc
 50
269.9999640014346
 51
0.0000010005159917
  0
ARC
  5
38F0
330
18
100
AcDbEntity
  8
0
 62
     4
100
AcDbCircle
 10
1606.505276494063
 20
481.2157273172852
 30
0.0
 40
0.5
100
AcDbArc
 50
0.000018002617744
 51
90.0
  0
ARC
  5
38F1
330
18
100
AcDbEntity
  8
0
 62
     4
100
AcDbCircle
 10
1592.505274494047
 20
481.2157273172852
 30
0.0
 40
0.5
100
AcDbArc
 50
90.0
 51
179.9999819973822
  0
ARC
  5
38F2
330
18
100
AcDbEntity
  8
0
 62
     4
100
AcDbCircle
 10
1592.505274494047
 20
461.215780317223
 30
0.0
 40
0.5
100
AcDbArc
 50
179.9999819973822
 51
269.9999640014346
  0
LINE
  5
38F3
330
18
100
AcDbEntity
  8
0
 62
     4
100
AcDbLine
 10
1592.505274493989
 20
460.7157653172253
 30
0.0
 11
1597.055273493912
 21
460.7157653172253
 31
0.0
  0
LINE
  5
38F4
330
18
100
AcDbEntity
  8
0
 62
     4
100
AcDbLine
 10
1594.505274493989
 20
479.2157673172405
 30
0.0
 11
1604.505276494004
 21
479.2157673172405
 31
0.0
  0
LINE
  5
38F5
330
18
100
AcDbEntity
  8
0
 62
     4
100
AcDbLine
 10
1604.705277493966
 20
463.4157663171863
 30
0.0
 11
1604.705277493966
 21
479.0157663171631
 31
0.0
  0
LINE
  5
38F6
330
18
100
AcDbEntity
  8
0
 62
     4
100
AcDbLine
 10
1594.305277493942
 20
463.4157663171863
 30
0.0
 11
1594.305277493942
 21
479.0157663171631
 31
0.0
  0
LINE
  5
38F7
330
18
100
AcDbEntity
  8
0
 62
     4
100
AcDbLine
 10
1594.505274493989
 20
463.2157653172253
 30
0.0
 11
1604.505276494004
 21
463.2157653172253
 31
0.0
  0
LINE
  5
38F8
330
18
100
AcDbEntity
  8
0
 62
     4
100
AcDbLine
 10
1603.505265493921
 20
476.4156913171973
 30
0.0
 11
1595.505278493903
 21
476.4156913171973
 31
0.0
  0
LINE
  5
38F9
330
18
100
AcDbEntity
  8
0
 62
     4
100
AcDbLine
 10
1604.005238493948
 20
478.9156913171973
 30
0.0
 11
1595.005225493965
 21
478.9156913171973
 31
0.0
  0
LINE
  5
38FA
330
18
100
AcDbEntity
  8
0
 62
     4
100
AcDbLine
 10
1604.005253493946
 20
463.5157303172381
 30
0.0
 11
1595.005240493963
 21
463.5157303172381
 31
0.0
  0
LINE
  5
38FB
330
18
100
AcDbEntity
  8
0
 62
     4
100
AcDbLine
 10
1604.405276493912
 20
463.9157893171286
 30
0.0
 11
1604.405276493912
 21
478.51574931715
 31
0.0
  0
LINE
  5
38FC
330
18
100
AcDbEntity
  8
0
 62
     4
100
AcDbLine
 10
1594.605276493981
 20
463.9157853172146
 30
0.0
 11
1594.605276493981
 21
478.5157453171195
 31
0.0
  0
LINE
  5
38FD
330
18
100
AcDbEntity
  8
0
 62
     4
100
AcDbLine
 10
1592.005274493989
 20
461.2157653172253
 30
0.0
 11
1592.005274493989
 21
481.215712317171
 31
0.0
  0
LINE
  5
38FE
330
18
100
AcDbEntity
  8
0
 62
     4
100
AcDbLine
 10
1607.005276494005
 20
461.2157653172253
 30
0.0
 11
1607.005276494005
 21
481.215712317171
 31
0.0
  0
LINE
  5
38FF
330
18
100
AcDbEntity
  8
0
 62
     4
100
AcDbLine
 10
1592.505274493989
 20
460.7157653172253
 30
0.0
 11
1597.055273493912
 21
460.7157653172253
 31
0.0
  0
LINE
  5
3900
330
18
100
AcDbEntity
  8
0
 62
     4
100
AcDbLine
 10
1605.455273493935
 20
460.7157653172253
 30
0.0
 11
1606.505276494004
 21
460.7157653172253
 31
0.0
  0
LINE
  5
3901
330
18
100
AcDbEntity
  8
0
 62
     4
100
AcDbLine
 10
1597.055273493912
 20
481.7157673172405
 30
0.0
 11
1592.505274493989
 21
481.7157673172405
 31
0.0
  0
LINE
  5
3902
330
18
100
AcDbEntity
  8
0
 62
     4
100
AcDbLine
 10
1606.505276494004
 20
481.7157673172405
 30
0.0
 11
1605.455273493935
 21
481.7157673172405
 31
0.0
  0
LINE
  5
3903
330
18
100
AcDbEntity
  8
0
 62
     4
100
AcDbLine
 10
1597.055273493912
 20
460.7157653172253
 30
0.0
 11
1605.455273493935
 21
460.7157653172253
 31
0.0
  0
LINE
  5
3904
330
18
100
AcDbEntity
  8
0
 62
     4
100
AcDbLine
 10
1597.055273493912
 20
481.7157673172405
 30
0.0
 11
1605.455273493935
 21
481.7157673172405
 31
0.0
  0
LINE
  5
3908
330
18
100
AcDbEntity
  8
0
 62
     4
100
AcDbLine
 10
1593.406129717783
 20
505.1257673170403
 30
0.0
 11
1605.604423270168
 21
505.1257673172731
 31
0.0
  0
LINE
  5
3909
330
18
100
AcDbEntity
  8
0
 62
     4
100
AcDbLine
 10
1604.091754572771
 20
497.3057673172079
 30
0.0
 11
1594.918798415208
 21
497.3057673172079
 31
0.0
  0
LINE
  5
390A
330
18
100
AcDbEntity
  8
0
 62
     4
100
AcDbLine
 10
1591.436514211804
 20
502.778470961748
 30
0.0
 11
1591.964375156196
 21
499.7848227842696
 31
0.0
  0
ARC
  5
390B
330
18
100
AcDbEntity
  8
0
 62
     4
100
AcDbCircle
 10
1593.406129717812
 20
503.1257673170403
 30
0.0
 40
2.0
100
AcDbArc
 50
90.0
 51
189.9999999989055
  0
ARC
  5
390C
330
18
100
AcDbEntity
  8
0
 62
     4
100
AcDbCircle
 10
1594.918798415237
 20
500.3057673172079
 30
0.0
 40
3.0
100
AcDbArc
 50
189.9999999989055
 51
270.0
  0
LINE
  5
390D
330
18
100
AcDbEntity
  8
0
 62
     4
100
AcDbLine
 10
1607.574038776234
 20
502.7784709619809
 30
0.0
 11
1607.046177831813
 21
499.7848227842696
 31
0.0
  0
ARC
  5
390E
330
18
100
AcDbEntity
  8
0
 62
     4
100
AcDbCircle
 10
1604.091754572771
 20
500.3057673172079
 30
0.0
 40
3.0
100
AcDbArc
 50
270.0
 51
350.0000000010945
  0
ARC
  5
390F
330
18
100
AcDbEntity
  8
0
 62
     4
100
AcDbCircle
 10
1605.604423270197
 20
503.125767317273
 30
0.0
 40
2.0
100
AcDbArc
 50
350.0000000010945
 51
90.0
  0
CIRCLE
  5
3910
330
18
100
AcDbEntity
  8
0
 62
     4
100
AcDbCircle
 10
1599.505276493975
 20
503.1257673171567
 30
0.0
 40
0.6
  0
CIRCLE
  5
3911
330
18
100
AcDbEntity
  8
0
 62
     4
100
AcDbCircle
 10
1597.105276493981
 20
503.1257673171567
 30
0.0
 40
0.6
  0
CIRCLE
  5
3912
330
18
100
AcDbEntity
  8
0
 62
     4
100
AcDbCircle
 10
1594.705276493987
 20
503.1257673171567
 30
0.0
 40
0.6
  0
CIRCLE
  5
3913
330
18
100
AcDbEntity
  8
0
 62
     4
100
AcDbCircle
 10
1601.90527649397
 20
503.1257673171567
 30
0.0
 40
0.6
  0
CIRCLE
  5
3914
330
18
100
AcDbEntity
  8
0
 62
     4
100
AcDbCircle
 10
1604.305276493963
 20
503.1257673171567
 30
0.0
 40
0.6
  0
CIRCLE
  5
3915
330
18
100
AcDbEntity
  8
0
 62
     4
100
AcDbCircle
 10
1600.705276493987
 20
499.5257673171799
 30
0.0
 40
0.6
  0
CIRCLE
  5
3916
330
18
100
AcDbEntity
  8
0
 62
     4
100
AcDbCircle
 10
1603.105276493981
 20
499.5257673171799
 30
0.0
 40
0.6
  0
CIRCLE
  5
3917
330
18
100
AcDbEntity
  8
0
 62
     4
100
AcDbCircle
 10
1598.305276494022
 20
499.5257673171799
 30
0.0
 40
0.6
  0
CIRCLE
  5
3918
330
18
100
AcDbEntity
  8
0
 62
     4
100
AcDbCircle
 10
1595.905276493999
 20
499.5257673171799
 30
0.0
 40
0.6
  0
LINE
  5
3919
330
18
100
AcDbEntity
  8
0
 62
     4
100
AcDbLine
 10
1498.505276494034
 20
435.2157673129331
 30
0.0
 11
1563.505276494034
 21
435.2157673129331
 31
0.0
  0
LINE
  5
391A
330
18
100
AcDbEntity
  8
0
 62
     4
100
AcDbLine
 10
1563.505276494034
 20
435.2157673129331
 30
0.0
 11
1563.505276494034
 21
399.2157673129332
 31
0.0
  0
LINE
  5
391B
330
18
100
AcDbEntity
  8
0
 62
     4
100
AcDbLine
 10
1498.505276494034
 20
399.2157673129332
 30
0.0
 11
1563.505276494034
 21
399.2157673129332
 31
0.0
  0
LINE
  5
391C
330
18
100
AcDbEntity
  8
0
 62
     4
100
AcDbLine
 10
1498.505276494034
 20
435.2157673129331
 30
0.0
 11
1498.505276494034
 21
399.2157673129332
 31
0.0
  0
LINE
  5
391D
330
18
100
AcDbEntity
  8
0
 62
     4
100
AcDbLine
 10
1517.505276494033
 20
430.2157673130495
 30
0.0
 11
1559.505276494063
 21
430.2157673125839
 31
0.0
  0
LINE
  5
391E
330
18
100
AcDbEntity
  8
0
 62
     4
100
AcDbLine
 10
1559.505276494063
 20
430.2157673125839
 30
0.0
 11
1559.505276494063
 21
426.2157673127003
 31
0.0
  0
LINE
  5
391F
330
18
100
AcDbEntity
  8
0
 62
     4
100
AcDbLine
 10
1517.505276494033
 20
430.2157673131659
 30
0.0
 11
1517.505276494004
 21
426.2157673128167
 31
0.0
  0
LINE
  5
3920
330
18
100
AcDbEntity
  8
0
 62
     4
100
AcDbLine
 10
1517.505276494004
 20
425.2157673128167
 30
0.0
 11
1559.505276494063
 21
425.2157673127003
 31
0.0
  0
LINE
  5
3922
330
18
100
AcDbEntity
  8
0
 62
     4
100
AcDbLine
 10
1517.505276494004
 20
421.2157673128167
 30
0.0
 11
1559.505276494034
 21
421.2157673127003
 31
0.0
  0
LINE
  5
3923
330
18
100
AcDbEntity
  8
0
 62
     4
100
AcDbLine
 10
1517.505276494004
 20
426.2157673128167
 30
0.0
 11
1559.505276494063
 21
426.2157673127003
 31
0.0
  0
LINE
  5
3924
330
18
100
AcDbEntity
  8
0
 62
     4
100
AcDbLine
 10
1517.505276494004
 20
420.2157673127003
 30
0.0
 11
1559.505276494034
 21
420.2157673128168
 31
0.0
  0
LINE
  5
3925
330
18
100
AcDbEntity
  8
0
 62
     4
100
AcDbLine
 10
1517.505276494004
 20
416.2157673127003
 30
0.0
 11
1559.505276494034
 21
416.2157673128167
 31
0.0
  0
LINE
  5
3926
330
18
100
AcDbEntity
  8
0
 62
     4
100
AcDbLine
 10
1517.505276494004
 20
415.2157673127003
 30
0.0
 11
1559.505276494034
 21
415.2157673127003
 31
0.0
  0
LINE
  5
3927
330
18
100
AcDbEntity
  8
0
 62
     4
100
AcDbLine
 10
1559.505276494063
 20
425.2157673127003
 30
0.0
 11
1559.505276494034
 21
421.2157673127003
 31
0.0
  0
LINE
  5
3928
330
18
100
AcDbEntity
  8
0
 62
     4
100
AcDbLine
 10
1559.505276494034
 20
420.2157673128168
 30
0.0
 11
1559.505276494034
 21
416.2157673128167
 31
0.0
  0
LINE
  5
3929
330
18
100
AcDbEntity
  8
0
 62
     4
100
AcDbLine
 10
1559.505276494034
 20
415.2157673127003
 30
0.0
 11
1559.505276494034
 21
411.2157673125839
 31
0.0
  0
LINE
  5
392A
330
18
100
AcDbEntity
  8
0
 62
     4
100
AcDbLine
 10
1517.505276494004
 20
411.2157673127003
 30
0.0
 11
1559.505276494034
 21
411.2157673125839
 31
0.0
  0
LINE
  5
392E
330
18
100
AcDbEntity
  8
0
 62
     4
100
AcDbLine
 10
1517.505276494004
 20
415.2157673127003
 30
0.0
 11
1517.505276494004
 21
411.2157673125839
 31
0.0
  0
LINE
  5
392F
330
18
100
AcDbEntity
  8
0
 62
     4
100
AcDbLine
 10
1517.505276493975
 20
420.2157673124674
 30
0.0
 11
1517.505276494004
 21
416.2157673125839
 31
0.0
  0
LINE
  5
3930
330
18
100
AcDbEntity
  8
0
 62
     4
100
AcDbLine
 10
1517.505276494004
 20
425.2157673128167
 30
0.0
 11
1517.505276493975
 21
421.2157673127003
 31
0.0
  0
CIRCLE
  5
3939
330
18
100
AcDbEntity
  8
0
 62
     4
100
AcDbCircle
 10
1616.005276494674
 20
387.2157673133988
 30
0.0
 40
2.75
  0
LINE
  5
393A
330
18
100
AcDbEntity
  8
0
 62
     4
100
AcDbLine
 10
1616.505276494674
 20
385.7157673133988
 30
0.0
 11
1616.505276494674
 21
386.7157673133988
 31
0.0
  0
LINE
  5
393B
330
18
100
AcDbEntity
  8
0
 62
     4
100
AcDbLine
 10
1615.505276494674
 20
385.7157673133988
 30
0.0
 11
1615.505276494674
 21
386.7157673133988
 31
0.0
  0
LINE
  5
393C
330
18
100
AcDbEntity
  8
0
 62
     4
100
AcDbLine
 10
1615.505276494674
 20
388.7157673133988
 30
0.0
 11
1616.505276494674
 21
388.7157673133988
 31
0.0
  0
LINE
  5
393D
330
18
100
AcDbEntity
  8
0
 62
     4
100
AcDbLine
 10
1615.505276494674
 20
385.7157673133988
 30
0.0
 11
1616.505276494674
 21
385.7157673133988
 31
0.0
  0
LINE
  5
393E
330
18
100
AcDbEntity
  8
0
 62
     4
100
AcDbLine
 10
1617.505276494208
 20
387.7157673133988
 30
0.0
 11
1616.505276494674
 21
387.7157673133988
 31
0.0
  0
LINE
  5
393F
330
18
100
AcDbEntity
  8
0
 62
     4
100
AcDbLine
 10
1617.505276494208
 20
386.7157673133988
 30
0.0
 11
1616.505276494674
 21
386.7157673133988
 31
0.0
  0
LINE
  5
3940
330
18
100
AcDbEntity
  8
0
 62
     4
100
AcDbLine
 10
1614.505276494208
 20
386.7157673133988
 30
0.0
 11
1614.505276494208
 21
387.7157673133988
 31
0.0
  0
LINE
  5
3941
330
18
100
AcDbEntity
  8
0
 62
     4
100
AcDbLine
 10
1617.505276494208
 20
386.7157673133988
 30
0.0
 11
1617.505276494208
 21
387.7157673133988
 31
0.0
  0
LINE
  5
3942
330
18
100
AcDbEntity
  8
0
 62
     4
100
AcDbLine
 10
1615.505276494674
 20
386.7157673133988
 30
0.0
 11
1614.505276494208
 21
386.7157673133988
 31
0.0
  0
LINE
  5
3943
330
18
100
AcDbEntity
  8
0
 62
     4
100
AcDbLine
 10
1616.505276494674
 20
387.7157673133988
 30
0.0
 11
1616.505276494674
 21
388.7157673133988
 31
0.0
  0
LINE
  5
3944
330
18
100
AcDbEntity
  8
0
 62
     4
100
AcDbLine
 10
1615.505276494674
 20
387.7157673133988
 30
0.0
 11
1614.505276494208
 21
387.7157673133988
 31
0.0
  0
LINE
  5
3945
330
18
100
AcDbEntity
  8
0
 62
     4
100
AcDbLine
 10
1615.505276494674
 20
387.7157673133988
 30
0.0
 11
1615.505276494674
 21
388.7157673133988
 31
0.0
  0
CIRCLE
  5
3946
330
18
100
AcDbEntity
  8
0
 62
     4
100
AcDbCircle
 10
1496.005276494557
 20
387.2157673133988
 30
0.0
 40
2.75
  0
LINE
  5
3947
330
18
100
AcDbEntity
  8
0
 62
     4
100
AcDbLine
 10
1496.505276494558
 20
385.7157673133988
 30
0.0
 11
1496.505276494558
 21
386.7157673133988
 31
0.0
  0
LINE
  5
3948
330
18
100
AcDbEntity
  8
0
 62
     4
100
AcDbLine
 10
1495.505276494558
 20
385.7157673133988
 30
0.0
 11
1495.505276494558
 21
386.7157673133988
 31
0.0
  0
LINE
  5
3949
330
18
100
AcDbEntity
  8
0
 62
     4
100
AcDbLine
 10
1495.505276494558
 20
388.7157673133988
 30
0.0
 11
1496.505276494558
 21
388.7157673133988
 31
0.0
  0
LINE
  5
394A
330
18
100
AcDbEntity
  8
0
 62
     4
100
AcDbLine
 10
1495.505276494558
 20
385.7157673133988
 30
0.0
 11
1496.505276494558
 21
385.7157673133988
 31
0.0
  0
LINE
  5
394B
330
18
100
AcDbEntity
  8
0
 62
     4
100
AcDbLine
 10
1497.505276494092
 20
387.7157673133988
 30
0.0
 11
1496.505276494558
 21
387.7157673133988
 31
0.0
  0
LINE
  5
394C
330
18
100
AcDbEntity
  8
0
 62
     4
100
AcDbLine
 10
1497.505276494092
 20
386.7157673133988
 30
0.0
 11
1496.505276494558
 21
386.7157673133988
 31
0.0
  0
LINE
  5
394D
330
18
100
AcDbEntity
  8
0
 62
     4
100
AcDbLine
 10
1494.505276494092
 20
386.7157673133988
 30
0.0
 11
1494.505276494092
 21
387.7157673133988
 31
0.0
  0
LINE
  5
394E
330
18
100
AcDbEntity
  8
0
 62
     4
100
AcDbLine
 10
1497.505276494092
 20
386.7157673133988
 30
0.0
 11
1497.505276494092
 21
387.7157673133988
 31
0.0
  0
LINE
  5
394F
330
18
100
AcDbEntity
  8
0
 62
     4
100
AcDbLine
 10
1495.505276494558
 20
386.7157673133988
 30
0.0
 11
1494.505276494092
 21
386.7157673133988
 31
0.0
  0
LINE
  5
3950
330
18
100
AcDbEntity
  8
0
 62
     4
100
AcDbLine
 10
1496.505276494558
 20
387.7157673133988
 30
0.0
 11
1496.505276494558
 21
388.7157673133988
 31
0.0
  0
LINE
  5
3951
330
18
100
AcDbEntity
  8
0
 62
     4
100
AcDbLine
 10
1495.505276494558
 20
387.7157673133988
 30
0.0
 11
1494.505276494092
 21
387.7157673133988
 31
0.0
  0
LINE
  5
3952
330
18
100
AcDbEntity
  8
0
 62
     4
100
AcDbLine
 10
1495.505276494558
 20
387.7157673133988
 30
0.0
 11
1495.505276494558
 21
388.7157673133988
 31
0.0
  0
CIRCLE
  5
3953
330
18
100
AcDbEntity
  8
0
 62
     4
100
AcDbCircle
 10
1616.005276494761
 20
547.2157672951216
 30
0.0
 40
2.75
  0
LINE
  5
3954
330
18
100
AcDbEntity
  8
0
 62
     4
100
AcDbLine
 10
1616.505276494761
 20
545.7157672951216
 30
0.0
 11
1616.505276494761
 21
546.7157672951215
 31
0.0
  0
LINE
  5
3955
330
18
100
AcDbEntity
  8
0
 62
     4
100
AcDbLine
 10
1615.505276494761
 20
545.7157672951216
 30
0.0
 11
1615.505276494761
 21
546.7157672951215
 31
0.0
  0
LINE
  5
3956
330
18
100
AcDbEntity
  8
0
 62
     4
100
AcDbLine
 10
1615.505276494761
 20
548.7157672951216
 30
0.0
 11
1616.505276494761
 21
548.7157672951216
 31
0.0
  0
LINE
  5
3957
330
18
100
AcDbEntity
  8
0
 62
     4
100
AcDbLine
 10
1615.505276494761
 20
545.7157672951216
 30
0.0
 11
1616.505276494761
 21
545.7157672951216
 31
0.0
  0
LINE
  5
3958
330
18
100
AcDbEntity
  8
0
 62
     4
100
AcDbLine
 10
1617.505276494296
 20
547.7157672951216
 30
0.0
 11
1616.505276494761
 21
547.7157672951216
 31
0.0
  0
LINE
  5
3959
330
18
100
AcDbEntity
  8
0
 62
     4
100
AcDbLine
 10
1617.505276494296
 20
546.7157672951215
 30
0.0
 11
1616.505276494761
 21
546.7157672951215
 31
0.0
  0
LINE
  5
395A
330
18
100
AcDbEntity
  8
0
 62
     4
100
AcDbLine
 10
1614.505276494296
 20
546.7157672951215
 30
0.0
 11
1614.505276494296
 21
547.7157672951216
 31
0.0
  0
LINE
  5
395B
330
18
100
AcDbEntity
  8
0
 62
     4
100
AcDbLine
 10
1617.505276494296
 20
546.7157672951215
 30
0.0
 11
1617.505276494296
 21
547.7157672951216
 31
0.0
  0
LINE
  5
395C
330
18
100
AcDbEntity
  8
0
 62
     4
100
AcDbLine
 10
1615.505276494761
 20
546.7157672951215
 30
0.0
 11
1614.505276494296
 21
546.7157672951215
 31
0.0
  0
LINE
  5
395D
330
18
100
AcDbEntity
  8
0
 62
     4
100
AcDbLine
 10
1616.505276494761
 20
547.7157672951216
 30
0.0
 11
1616.505276494761
 21
548.7157672951216
 31
0.0
  0
LINE
  5
395E
330
18
100
AcDbEntity
  8
0
 62
     4
100
AcDbLine
 10
1615.505276494761
 20
547.7157672951216
 30
0.0
 11
1614.505276494296
 21
547.7157672951216
 31
0.0
  0
LINE
  5
395F
330
18
100
AcDbEntity
  8
0
 62
     4
100
AcDbLine
 10
1615.505276494761
 20
547.7157672951216
 30
0.0
 11
1615.505276494761
 21
548.7157672951216
 31
0.0
  0
CIRCLE
  5
3960
330
18
100
AcDbEntity
  8
0
 62
     4
100
AcDbCircle
 10
1496.005298073069
 20
547.2157672950052
 30
0.0
 40
2.75
  0
LINE
  5
3961
330
18
100
AcDbEntity
  8
0
 62
     4
100
AcDbLine
 10
1496.505298073069
 20
545.7157672950052
 30
0.0
 11
1496.505298073069
 21
546.7157672950052
 31
0.0
  0
LINE
  5
3962
330
18
100
AcDbEntity
  8
0
 62
     4
100
AcDbLine
 10
1495.505298073069
 20
545.7157672950052
 30
0.0
 11
1495.505298073069
 21
546.7157672950052
 31
0.0
  0
LINE
  5
3963
330
18
100
AcDbEntity
  8
0
 62
     4
100
AcDbLine
 10
1495.505298073069
 20
548.7157672950051
 30
0.0
 11
1496.505298073069
 21
548.7157672950051
 31
0.0
  0
LINE
  5
3964
330
18
100
AcDbEntity
  8
0
 62
     4
100
AcDbLine
 10
1495.505298073069
 20
545.7157672950052
 30
0.0
 11
1496.505298073069
 21
545.7157672950052
 31
0.0
  0
LINE
  5
3965
330
18
100
AcDbEntity
  8
0
 62
     4
100
AcDbLine
 10
1497.505298072603
 20
547.7157672950052
 30
0.0
 11
1496.505298073069
 21
547.7157672950052
 31
0.0
  0
LINE
  5
3966
330
18
100
AcDbEntity
  8
0
 62
     4
100
AcDbLine
 10
1497.505298072603
 20
546.7157672950052
 30
0.0
 11
1496.505298073069
 21
546.7157672950052
 31
0.0
  0
LINE
  5
3967
330
18
100
AcDbEntity
  8
0
 62
     4
100
AcDbLine
 10
1494.505298072603
 20
546.7157672950052
 30
0.0
 11
1494.505298072603
 21
547.7157672950052
 31
0.0
  0
LINE
  5
3968
330
18
100
AcDbEntity
  8
0
 62
     4
100
AcDbLine
 10
1497.505298072603
 20
546.7157672950052
 30
0.0
 11
1497.505298072603
 21
547.7157672950052
 31
0.0
  0
LINE
  5
3969
330
18
100
AcDbEntity
  8
0
 62
     4
100
AcDbLine
 10
1495.505298073069
 20
546.7157672950052
 30
0.0
 11
1494.505298072603
 21
546.7157672950052
 31
0.0
  0
LINE
  5
396A
330
18
100
AcDbEntity
  8
0
 62
     4
100
AcDbLine
 10
1496.505298073069
 20
547.7157672950052
 30
0.0
 11
1496.505298073069
 21
548.7157672950051
 31
0.0
  0
LINE
  5
396B
330
18
100
AcDbEntity
  8
0
 62
     4
100
AcDbLine
 10
1495.505298073069
 20
547.7157672950052
 30
0.0
 11
1494.505298072603
 21
547.7157672950052
 31
0.0
  0
LINE
  5
396C
330
18
100
AcDbEntity
  8
0
 62
     4
100
AcDbLine
 10
1495.505298073069
 20
547.7157672950052
 30
0.0
 11
1495.505298073069
 21
548.7157672950051
 31
0.0
  0
CIRCLE
  5
396D
330
18
100
AcDbEntity
  8
0
 62
     4
100
AcDbCircle
 10
1472.005276494499
 20
559.2157673178226
 30
0.0
 40
2.75
  0
LINE
  5
396E
330
18
100
AcDbEntity
  8
0
 62
     4
100
AcDbLine
 10
1472.505276494499
 20
557.7157673178226
 30
0.0
 11
1472.505276494499
 21
558.7157673178226
 31
0.0
  0
LINE
  5
396F
330
18
100
AcDbEntity
  8
0
 62
     4
100
AcDbLine
 10
1471.505276494499
 20
557.7157673178226
 30
0.0
 11
1471.505276494499
 21
558.7157673178226
 31
0.0
  0
LINE
  5
3970
330
18
100
AcDbEntity
  8
0
 62
     4
100
AcDbLine
 10
1471.505276494499
 20
560.7157673178225
 30
0.0
 11
1472.505276494499
 21
560.7157673178225
 31
0.0
  0
LINE
  5
3971
330
18
100
AcDbEntity
  8
0
 62
     4
100
AcDbLine
 10
1471.505276494499
 20
557.7157673178226
 30
0.0
 11
1472.505276494499
 21
557.7157673178226
 31
0.0
  0
LINE
  5
3972
330
18
100
AcDbEntity
  8
0
 62
     4
100
AcDbLine
 10
1473.505276494034
 20
559.7157673178226
 30
0.0
 11
1472.505276494499
 21
559.7157673178226
 31
0.0
  0
LINE
  5
3973
330
18
100
AcDbEntity
  8
0
 62
     4
100
AcDbLine
 10
1473.505276494034
 20
558.7157673178226
 30
0.0
 11
1472.505276494499
 21
558.7157673178226
 31
0.0
  0
LINE
  5
3974
330
18
100
AcDbEntity
  8
0
 62
     4
100
AcDbLine
 10
1470.505276494034
 20
558.7157673178226
 30
0.0
 11
1470.505276494034
 21
559.7157673178226
 31
0.0
  0
LINE
  5
3975
330
18
100
AcDbEntity
  8
0
 62
     4
100
AcDbLine
 10
1473.505276494034
 20
558.7157673178226
 30
0.0
 11
1473.505276494034
 21
559.7157673178226
 31
0.0
  0
LINE
  5
3976
330
18
100
AcDbEntity
  8
0
 62
     4
100
AcDbLine
 10
1471.505276494499
 20
558.7157673178226
 30
0.0
 11
1470.505276494034
 21
558.7157673178226
 31
0.0
  0
LINE
  5
3977
330
18
100
AcDbEntity
  8
0
 62
     4
100
AcDbLine
 10
1472.505276494499
 20
559.7157673178226
 30
0.0
 11
1472.505276494499
 21
560.7157673178225
 31
0.0
  0
LINE
  5
3978
330
18
100
AcDbEntity
  8
0
 62
     4
100
AcDbLine
 10
1471.505276494499
 20
559.7157673178226
 30
0.0
 11
1470.505276494034
 21
559.7157673178226
 31
0.0
  0
LINE
  5
3979
330
18
100
AcDbEntity
  8
0
 62
     4
100
AcDbLine
 10
1471.505276494499
 20
559.7157673178226
 30
0.0
 11
1471.505276494499
 21
560.7157673178225
 31
0.0
  0
CIRCLE
  5
397A
330
18
100
AcDbEntity
  8
0
 62
     4
100
AcDbCircle
 10
1488.505279494318
 20
561.2157722983028
 30
0.0
 40
2.75
  0
LINE
  5
397B
330
18
100
AcDbEntity
  8
0
 62
     4
100
AcDbLine
 10
1489.005279494318
 20
559.7157722983029
 30
0.0
 11
1489.005279494318
 21
560.7157722983028
 31
0.0
  0
LINE
  5
397C
330
18
100
AcDbEntity
  8
0
 62
     4
100
AcDbLine
 10
1488.005279494318
 20
559.7157722983029
 30
0.0
 11
1488.005279494318
 21
560.7157722983028
 31
0.0
  0
LINE
  5
397D
330
18
100
AcDbEntity
  8
0
 62
     4
100
AcDbLine
 10
1488.005279494318
 20
562.7157722983029
 30
0.0
 11
1489.005279494318
 21
562.7157722983029
 31
0.0
  0
LINE
  5
397E
330
18
100
AcDbEntity
  8
0
 62
     4
100
AcDbLine
 10
1488.005279494318
 20
559.7157722983029
 30
0.0
 11
1489.005279494318
 21
559.7157722983029
 31
0.0
  0
LINE
  5
397F
330
18
100
AcDbEntity
  8
0
 62
     4
100
AcDbLine
 10
1490.005279493853
 20
561.7157722983029
 30
0.0
 11
1489.005279494318
 21
561.7157722983029
 31
0.0
  0
LINE
  5
3980
330
18
100
AcDbEntity
  8
0
 62
     4
100
AcDbLine
 10
1490.005279493853
 20
560.7157722983028
 30
0.0
 11
1489.005279494318
 21
560.7157722983028
 31
0.0
  0
LINE
  5
3981
330
18
100
AcDbEntity
  8
0
 62
     4
100
AcDbLine
 10
1487.005279493853
 20
560.7157722983028
 30
0.0
 11
1487.005279493853
 21
561.7157722983029
 31
0.0
  0
LINE
  5
3982
330
18
100
AcDbEntity
  8
0
 62
     4
100
AcDbLine
 10
1490.005279493853
 20
560.7157722983028
 30
0.0
 11
1490.005279493853
 21
561.7157722983029
 31
0.0
  0
LINE
  5
3983
330
18
100
AcDbEntity
  8
0
 62
     4
100
AcDbLine
 10
1488.005279494318
 20
560.7157722983028
 30
0.0
 11
1487.005279493853
 21
560.7157722983028
 31
0.0
  0
LINE
  5
3984
330
18
100
AcDbEntity
  8
0
 62
     4
100
AcDbLine
 10
1489.005279494318
 20
561.7157722983029
 30
0.0
 11
1489.005279494318
 21
562.7157722983029
 31
0.0
  0
LINE
  5
3985
330
18
100
AcDbEntity
  8
0
 62
     4
100
AcDbLine
 10
1488.005279494318
 20
561.7157722983029
 30
0.0
 11
1487.005279493853
 21
561.7157722983029
 31
0.0
  0
LINE
  5
3986
330
18
100
AcDbEntity
  8
0
 62
     4
100
AcDbLine
 10
1488.005279494318
 20
561.7157722983029
 30
0.0
 11
1488.005279494318
 21
562.7157722983029
 31
0.0
  0
CIRCLE
  5
3987
330
18
100
AcDbEntity
  8
0
 62
     4
100
AcDbCircle
 10
1623.505279494318
 20
561.2157722983028
 30
0.0
 40
2.75
  0
LINE
  5
3988
330
18
100
AcDbEntity
  8
0
 62
     4
100
AcDbLine
 10
1624.005279494318
 20
559.7157722983029
 30
0.0
 11
1624.005279494318
 21
560.7157722983028
 31
0.0
  0
LINE
  5
3989
330
18
100
AcDbEntity
  8
0
 62
     4
100
AcDbLine
 10
1623.005279494318
 20
559.7157722983029
 30
0.0
 11
1623.005279494318
 21
560.7157722983028
 31
0.0
  0
LINE
  5
398A
330
18
100
AcDbEntity
  8
0
 62
     4
100
AcDbLine
 10
1623.005279494318
 20
562.7157722983029
 30
0.0
 11
1624.005279494318
 21
562.7157722983029
 31
0.0
  0
LINE
  5
398B
330
18
100
AcDbEntity
  8
0
 62
     4
100
AcDbLine
 10
1623.005279494318
 20
559.7157722983029
 30
0.0
 11
1624.005279494318
 21
559.7157722983029
 31
0.0
  0
LINE
  5
398C
330
18
100
AcDbEntity
  8
0
 62
     4
100
AcDbLine
 10
1625.005279493853
 20
561.7157722983029
 30
0.0
 11
1624.005279494318
 21
561.7157722983029
 31
0.0
  0
LINE
  5
398D
330
18
100
AcDbEntity
  8
0
 62
     4
100
AcDbLine
 10
1625.005279493853
 20
560.7157722983028
 30
0.0
 11
1624.005279494318
 21
560.7157722983028
 31
0.0
  0
LINE
  5
398E
330
18
100
AcDbEntity
  8
0
 62
     4
100
AcDbLine
 10
1622.005279493853
 20
560.7157722983028
 30
0.0
 11
1622.005279493853
 21
561.7157722983029
 31
0.0
  0
LINE
  5
398F
330
18
100
AcDbEntity
  8
0
 62
     4
100
AcDbLine
 10
1625.005279493853
 20
560.7157722983028
 30
0.0
 11
1625.005279493853
 21
561.7157722983029
 31
0.0
  0
LINE
  5
3990
330
18
100
AcDbEntity
  8
0
 62
     4
100
AcDbLine
 10
1623.005279494318
 20
560.7157722983028
 30
0.0
 11
1622.005279493853
 21
560.7157722983028
 31
0.0
  0
LINE
  5
3991
330
18
100
AcDbEntity
  8
0
 62
     4
100
AcDbLine
 10
1624.005279494318
 20
561.7157722983029
 30
0.0
 11
1624.005279494318
 21
562.7157722983029
 31
0.0
  0
LINE
  5
3992
330
18
100
AcDbEntity
  8
0
 62
     4
100
AcDbLine
 10
1623.005279494318
 20
561.7157722983029
 30
0.0
 11
1622.005279493853
 21
561.7157722983029
 31
0.0
  0
LINE
  5
3993
330
18
100
AcDbEntity
  8
0
 62
     4
100
AcDbLine
 10
1623.005279494318
 20
561.7157722983029
 30
0.0
 11
1623.005279494318
 21
562.7157722983029
 31
0.0
  0
CIRCLE
  5
3994
330
18
100
AcDbEntity
  8
0
 62
     4
100
AcDbCircle
 10
1640.005276494034
 20
559.2157673178226
 30
0.0
 40
2.75
  0
LINE
  5
3995
330
18
100
AcDbEntity
  8
0
 62
     4
100
AcDbLine
 10
1640.505276494033
 20
557.7157673178226
 30
0.0
 11
1640.505276494033
 21
558.7157673178226
 31
0.0
  0
LINE
  5
3996
330
18
100
AcDbEntity
  8
0
 62
     4
100
AcDbLine
 10
1639.505276494034
 20
557.7157673178226
 30
0.0
 11
1639.505276494034
 21
558.7157673178226
 31
0.0
  0
LINE
  5
3997
330
18
100
AcDbEntity
  8
0
 62
     4
100
AcDbLine
 10
1639.505276494034
 20
560.7157673178225
 30
0.0
 11
1640.505276494033
 21
560.7157673178225
 31
0.0
  0
LINE
  5
3998
330
18
100
AcDbEntity
  8
0
 62
     4
100
AcDbLine
 10
1639.505276494034
 20
557.7157673178226
 30
0.0
 11
1640.505276494033
 21
557.7157673178226
 31
0.0
  0
LINE
  5
3999
330
18
100
AcDbEntity
  8
0
 62
     4
100
AcDbLine
 10
1641.505276493568
 20
559.7157673178226
 30
0.0
 11
1640.505276494033
 21
559.7157673178226
 31
0.0
  0
LINE
  5
399A
330
18
100
AcDbEntity
  8
0
 62
     4
100
AcDbLine
 10
1641.505276493568
 20
558.7157673178226
 30
0.0
 11
1640.505276494033
 21
558.7157673178226
 31
0.0
  0
LINE
  5
399B
330
18
100
AcDbEntity
  8
0
 62
     4
100
AcDbLine
 10
1638.505276493568
 20
558.7157673178226
 30
0.0
 11
1638.505276493568
 21
559.7157673178226
 31
0.0
  0
LINE
  5
399C
330
18
100
AcDbEntity
  8
0
 62
     4
100
AcDbLine
 10
1641.505276493568
 20
558.7157673178226
 30
0.0
 11
1641.505276493568
 21
559.7157673178226
 31
0.0
  0
LINE
  5
399D
330
18
100
AcDbEntity
  8
0
 62
     4
100
AcDbLine
 10
1639.505276494034
 20
558.7157673178226
 30
0.0
 11
1638.505276493568
 21
558.7157673178226
 31
0.0
  0
LINE
  5
399E
330
18
100
AcDbEntity
  8
0
 62
     4
100
AcDbLine
 10
1640.505276494033
 20
559.7157673178226
 30
0.0
 11
1640.505276494033
 21
560.7157673178225
 31
0.0
  0
LINE
  5
399F
330
18
100
AcDbEntity
  8
0
 62
     4
100
AcDbLine
 10
1639.505276494034
 20
559.7157673178226
 30
0.0
 11
1638.505276493568
 21
559.7157673178226
 31
0.0
  0
LINE
  5
39A0
330
18
100
AcDbEntity
  8
0
 62
     4
100
AcDbLine
 10
1639.505276494034
 20
559.7157673178226
 30
0.0
 11
1639.505276494034
 21
560.7157673178225
 31
0.0
  0
CIRCLE
  5
39A1
330
18
100
AcDbEntity
  8
0
 62
     4
100
AcDbCircle
 10
1640.005276494034
 20
762.2157673178226
 30
0.0
 40
2.75
  0
LINE
  5
39A2
330
18
100
AcDbEntity
  8
0
 62
     4
100
AcDbLine
 10
1640.505276494033
 20
760.7157673178225
 30
0.0
 11
1640.505276494033
 21
761.7157673178226
 31
0.0
  0
LINE
  5
39A3
330
18
100
AcDbEntity
  8
0
 62
     4
100
AcDbLine
 10
1639.505276494034
 20
760.7157673178225
 30
0.0
 11
1639.505276494034
 21
761.7157673178226
 31
0.0
  0
LINE
  5
39A4
330
18
100
AcDbEntity
  8
0
 62
     4
100
AcDbLine
 10
1639.505276494034
 20
763.7157673178226
 30
0.0
 11
1640.505276494033
 21
763.7157673178226
 31
0.0
  0
LINE
  5
39A5
330
18
100
AcDbEntity
  8
0
 62
     4
100
AcDbLine
 10
1639.505276494034
 20
760.7157673178225
 30
0.0
 11
1640.505276494033
 21
760.7157673178225
 31
0.0
  0
LINE
  5
39A6
330
18
100
AcDbEntity
  8
0
 62
     4
100
AcDbLine
 10
1641.505276493568
 20
762.7157673178226
 30
0.0
 11
1640.505276494033
 21
762.7157673178226
 31
0.0
  0
LINE
  5
39A7
330
18
100
AcDbEntity
  8
0
 62
     4
100
AcDbLine
 10
1641.505276493568
 20
761.7157673178226
 30
0.0
 11
1640.505276494033
 21
761.7157673178226
 31
0.0
  0
LINE
  5
39A8
330
18
100
AcDbEntity
  8
0
 62
     4
100
AcDbLine
 10
1638.505276493568
 20
761.7157673178226
 30
0.0
 11
1638.505276493568
 21
762.7157673178226
 31
0.0
  0
LINE
  5
39A9
330
18
100
AcDbEntity
  8
0
 62
     4
100
AcDbLine
 10
1641.505276493568
 20
761.7157673178226
 30
0.0
 11
1641.505276493568
 21
762.7157673178226
 31
0.0
  0
LINE
  5
39AA
330
18
100
AcDbEntity
  8
0
 62
     4
100
AcDbLine
 10
1639.505276494034
 20
761.7157673178226
 30
0.0
 11
1638.505276493568
 21
761.7157673178226
 31
0.0
  0
LINE
  5
39AB
330
18
100
AcDbEntity
  8
0
 62
     4
100
AcDbLine
 10
1640.505276494033
 20
762.7157673178226
 30
0.0
 11
1640.505276494033
 21
763.7157673178226
 31
0.0
  0
LINE
  5
39AC
330
18
100
AcDbEntity
  8
0
 62
     4
100
AcDbLine
 10
1639.505276494034
 20
762.7157673178226
 30
0.0
 11
1638.505276493568
 21
762.7157673178226
 31
0.0
  0
LINE
  5
39AD
330
18
100
AcDbEntity
  8
0
 62
     4
100
AcDbLine
 10
1639.505276494034
 20
762.7157673178226
 30
0.0
 11
1639.505276494034
 21
763.7157673178226
 31
0.0
  0
CIRCLE
  5
39AE
330
18
100
AcDbEntity
  8
0
 62
     4
100
AcDbCircle
 10
1623.505279494318
 20
781.2157712984117
 30
0.0
 40
2.75
  0
LINE
  5
39AF
330
18
100
AcDbEntity
  8
0
 62
     4
100
AcDbLine
 10
1624.005279494318
 20
779.7157712984117
 30
0.0
 11
1624.005279494318
 21
780.7157712984117
 31
0.0
  0
LINE
  5
39B0
330
18
100
AcDbEntity
  8
0
 62
     4
100
AcDbLine
 10
1623.005279494318
 20
779.7157712984117
 30
0.0
 11
1623.005279494318
 21
780.7157712984117
 31
0.0
  0
LINE
  5
39B1
330
18
100
AcDbEntity
  8
0
 62
     4
100
AcDbLine
 10
1623.005279494318
 20
782.7157712984117
 30
0.0
 11
1624.005279494318
 21
782.7157712984117
 31
0.0
  0
LINE
  5
39B2
330
18
100
AcDbEntity
  8
0
 62
     4
100
AcDbLine
 10
1623.005279494318
 20
779.7157712984117
 30
0.0
 11
1624.005279494318
 21
779.7157712984117
 31
0.0
  0
LINE
  5
39B3
330
18
100
AcDbEntity
  8
0
 62
     4
100
AcDbLine
 10
1625.005279493853
 20
781.7157712984116
 30
0.0
 11
1624.005279494318
 21
781.7157712984116
 31
0.0
  0
LINE
  5
39B4
330
18
100
AcDbEntity
  8
0
 62
     4
100
AcDbLine
 10
1625.005279493853
 20
780.7157712984117
 30
0.0
 11
1624.005279494318
 21
780.7157712984117
 31
0.0
  0
LINE
  5
39B5
330
18
100
AcDbEntity
  8
0
 62
     4
100
AcDbLine
 10
1622.005279493853
 20
780.7157712984117
 30
0.0
 11
1622.005279493853
 21
781.7157712984116
 31
0.0
  0
LINE
  5
39B6
330
18
100
AcDbEntity
  8
0
 62
     4
100
AcDbLine
 10
1625.005279493853
 20
780.7157712984117
 30
0.0
 11
1625.005279493853
 21
781.7157712984116
 31
0.0
  0
LINE
  5
39B7
330
18
100
AcDbEntity
  8
0
 62
     4
100
AcDbLine
 10
1623.005279494318
 20
780.7157712984117
 30
0.0
 11
1622.005279493853
 21
780.7157712984117
 31
0.0
  0
LINE
  5
39B8
330
18
100
AcDbEntity
  8
0
 62
     4
100
AcDbLine
 10
1624.005279494318
 20
781.7157712984116
 30
0.0
 11
1624.005279494318
 21
782.7157712984117
 31
0.0
  0
LINE
  5
39B9
330
18
100
AcDbEntity
  8
0
 62
     4
100
AcDbLine
 10
1623.005279494318
 20
781.7157712984116
 30
0.0
 11
1622.005279493853
 21
781.7157712984116
 31
0.0
  0
LINE
  5
39BA
330
18
100
AcDbEntity
  8
0
 62
     4
100
AcDbLine
 10
1623.005279494318
 20
781.7157712984116
 30
0.0
 11
1623.005279494318
 21
782.7157712984117
 31
0.0
  0
CIRCLE
  5
39BB
330
18
100
AcDbEntity
  8
0
 62
     4
100
AcDbCircle
 10
1616.005276494383
 20
793.2157673189867
 30
0.0
 40
2.75
  0
LINE
  5
39BC
330
18
100
AcDbEntity
  8
0
 62
     4
100
AcDbLine
 10
1616.505276494383
 20
791.7157673189867
 30
0.0
 11
1616.505276494383
 21
792.7157673189867
 31
0.0
  0
LINE
  5
39BD
330
18
100
AcDbEntity
  8
0
 62
     4
100
AcDbLine
 10
1615.505276494383
 20
791.7157673189867
 30
0.0
 11
1615.505276494383
 21
792.7157673189867
 31
0.0
  0
LINE
  5
39BE
330
18
100
AcDbEntity
  8
0
 62
     4
100
AcDbLine
 10
1615.505276494383
 20
794.7157673189868
 30
0.0
 11
1616.505276494383
 21
794.7157673189868
 31
0.0
  0
LINE
  5
39BF
330
18
100
AcDbEntity
  8
0
 62
     4
100
AcDbLine
 10
1615.505276494383
 20
791.7157673189867
 30
0.0
 11
1616.505276494383
 21
791.7157673189867
 31
0.0
  0
LINE
  5
39C0
330
18
100
AcDbEntity
  8
0
 62
     4
100
AcDbLine
 10
1617.505276493917
 20
793.7157673189867
 30
0.0
 11
1616.505276494383
 21
793.7157673189867
 31
0.0
  0
LINE
  5
39C1
330
18
100
AcDbEntity
  8
0
 62
     4
100
AcDbLine
 10
1617.505276493917
 20
792.7157673189867
 30
0.0
 11
1616.505276494383
 21
792.7157673189867
 31
0.0
  0
LINE
  5
39C2
330
18
100
AcDbEntity
  8
0
 62
     4
100
AcDbLine
 10
1614.505276493917
 20
792.7157673189867
 30
0.0
 11
1614.505276493917
 21
793.7157673189867
 31
0.0
  0
LINE
  5
39C3
330
18
100
AcDbEntity
  8
0
 62
     4
100
AcDbLine
 10
1617.505276493917
 20
792.7157673189867
 30
0.0
 11
1617.505276493917
 21
793.7157673189867
 31
0.0
  0
LINE
  5
39C4
330
18
100
AcDbEntity
  8
0
 62
     4
100
AcDbLine
 10
1615.505276494383
 20
792.7157673189867
 30
0.0
 11
1614.505276493917
 21
792.7157673189867
 31
0.0
  0
LINE
  5
39C5
330
18
100
AcDbEntity
  8
0
 62
     4
100
AcDbLine
 10
1616.505276494383
 20
793.7157673189867
 30
0.0
 11
1616.505276494383
 21
794.7157673189868
 31
0.0
  0
LINE
  5
39C6
330
18
100
AcDbEntity
  8
0
 62
     4
100
AcDbLine
 10
1615.505276494383
 20
793.7157673189867
 30
0.0
 11
1614.505276493917
 21
793.7157673189867
 31
0.0
  0
LINE
  5
39C7
330
18
100
AcDbEntity
  8
0
 62
     4
100
AcDbLine
 10
1615.505276494383
 20
793.7157673189867
 30
0.0
 11
1615.505276494383
 21
794.7157673189868
 31
0.0
  0
CIRCLE
  5
39C8
330
18
100
AcDbEntity
  8
0
 62
     4
100
AcDbCircle
 10
1496.005276494267
 20
793.2157673189867
 30
0.0
 40
2.75
  0
LINE
  5
39C9
330
18
100
AcDbEntity
  8
0
 62
     4
100
AcDbLine
 10
1496.505276494266
 20
791.7157673189867
 30
0.0
 11
1496.505276494266
 21
792.7157673189867
 31
0.0
  0
LINE
  5
39CA
330
18
100
AcDbEntity
  8
0
 62
     4
100
AcDbLine
 10
1495.505276494266
 20
791.7157673189867
 30
0.0
 11
1495.505276494266
 21
792.7157673189867
 31
0.0
  0
LINE
  5
39CB
330
18
100
AcDbEntity
  8
0
 62
     4
100
AcDbLine
 10
1495.505276494266
 20
794.7157673189868
 30
0.0
 11
1496.505276494266
 21
794.7157673189868
 31
0.0
  0
LINE
  5
39CC
330
18
100
AcDbEntity
  8
0
 62
     4
100
AcDbLine
 10
1495.505276494266
 20
791.7157673189867
 30
0.0
 11
1496.505276494266
 21
791.7157673189867
 31
0.0
  0
LINE
  5
39CD
330
18
100
AcDbEntity
  8
0
 62
     4
100
AcDbLine
 10
1497.505276493801
 20
793.7157673189867
 30
0.0
 11
1496.505276494266
 21
793.7157673189867
 31
0.0
  0
LINE
  5
39CE
330
18
100
AcDbEntity
  8
0
 62
     4
100
AcDbLine
 10
1497.505276493801
 20
792.7157673189867
 30
0.0
 11
1496.505276494266
 21
792.7157673189867
 31
0.0
  0
LINE
  5
39CF
330
18
100
AcDbEntity
  8
0
 62
     4
100
AcDbLine
 10
1494.505276493801
 20
792.7157673189867
 30
0.0
 11
1494.505276493801
 21
793.7157673189867
 31
0.0
  0
LINE
  5
39D0
330
18
100
AcDbEntity
  8
0
 62
     4
100
AcDbLine
 10
1497.505276493801
 20
792.7157673189867
 30
0.0
 11
1497.505276493801
 21
793.7157673189867
 31
0.0
  0
LINE
  5
39D1
330
18
100
AcDbEntity
  8
0
 62
     4
100
AcDbLine
 10
1495.505276494266
 20
792.7157673189867
 30
0.0
 11
1494.505276493801
 21
792.7157673189867
 31
0.0
  0
LINE
  5
39D2
330
18
100
AcDbEntity
  8
0
 62
     4
100
AcDbLine
 10
1496.505276494266
 20
793.7157673189867
 30
0.0
 11
1496.505276494266
 21
794.7157673189868
 31
0.0
  0
LINE
  5
39D3
330
18
100
AcDbEntity
  8
0
 62
     4
100
AcDbLine
 10
1495.505276494266
 20
793.7157673189867
 30
0.0
 11
1494.505276493801
 21
793.7157673189867
 31
0.0
  0
LINE
  5
39D4
330
18
100
AcDbEntity
  8
0
 62
     4
100
AcDbLine
 10
1495.505276494266
 20
793.7157673189867
 30
0.0
 11
1495.505276494266
 21
794.7157673189868
 31
0.0
  0
CIRCLE
  5
39D5
330
18
100
AcDbEntity
  8
0
 62
     4
100
AcDbCircle
 10
1488.505279494318
 20
781.2157712984117
 30
0.0
 40
2.75
  0
LINE
  5
39D6
330
18
100
AcDbEntity
  8
0
 62
     4
100
AcDbLine
 10
1489.005279494318
 20
779.7157712984117
 30
0.0
 11
1489.005279494318
 21
780.7157712984117
 31
0.0
  0
LINE
  5
39D7
330
18
100
AcDbEntity
  8
0
 62
     4
100
AcDbLine
 10
1488.005279494318
 20
779.7157712984117
 30
0.0
 11
1488.005279494318
 21
780.7157712984117
 31
0.0
  0
LINE
  5
39D8
330
18
100
AcDbEntity
  8
0
 62
     4
100
AcDbLine
 10
1488.005279494318
 20
782.7157712984117
 30
0.0
 11
1489.005279494318
 21
782.7157712984117
 31
0.0
  0
LINE
  5
39D9
330
18
100
AcDbEntity
  8
0
 62
     4
100
AcDbLine
 10
1488.005279494318
 20
779.7157712984117
 30
0.0
 11
1489.005279494318
 21
779.7157712984117
 31
0.0
  0
LINE
  5
39DA
330
18
100
AcDbEntity
  8
0
 62
     4
100
AcDbLine
 10
1490.005279493853
 20
781.7157712984116
 30
0.0
 11
1489.005279494318
 21
781.7157712984116
 31
0.0
  0
LINE
  5
39DB
330
18
100
AcDbEntity
  8
0
 62
     4
100
AcDbLine
 10
1490.005279493853
 20
780.7157712984117
 30
0.0
 11
1489.005279494318
 21
780.7157712984117
 31
0.0
  0
LINE
  5
39DC
330
18
100
AcDbEntity
  8
0
 62
     4
100
AcDbLine
 10
1487.005279493853
 20
780.7157712984117
 30
0.0
 11
1487.005279493853
 21
781.7157712984116
 31
0.0
  0
LINE
  5
39DD
330
18
100
AcDbEntity
  8
0
 62
     4
100
AcDbLine
 10
1490.005279493853
 20
780.7157712984117
 30
0.0
 11
1490.005279493853
 21
781.7157712984116
 31
0.0
  0
LINE
  5
39DE
330
18
100
AcDbEntity
  8
0
 62
     4
100
AcDbLine
 10
1488.005279494318
 20
780.7157712984117
 30
0.0
 11
1487.005279493853
 21
780.7157712984117
 31
0.0
  0
LINE
  5
39DF
330
18
100
AcDbEntity
  8
0
 62
     4
100
AcDbLine
 10
1489.005279494318
 20
781.7157712984116
 30
0.0
 11
1489.005279494318
 21
782.7157712984117
 31
0.0
  0
LINE
  5
39E0
330
18
100
AcDbEntity
  8
0
 62
     4
100
AcDbLine
 10
1488.005279494318
 20
781.7157712984116
 30
0.0
 11
1487.005279493853
 21
781.7157712984116
 31
0.0
  0
LINE
  5
39E1
330
18
100
AcDbEntity
  8
0
 62
     4
100
AcDbLine
 10
1488.005279494318
 20
781.7157712984116
 30
0.0
 11
1488.005279494318
 21
782.7157712984117
 31
0.0
  0
CIRCLE
  5
39E2
330
18
100
AcDbEntity
  8
0
 62
     4
100
AcDbCircle
 10
1472.005276494499
 20
762.2157673178226
 30
0.0
 40
2.75
  0
LINE
  5
39E3
330
18
100
AcDbEntity
  8
0
 62
     4
100
AcDbLine
 10
1472.505276494499
 20
760.7157673178225
 30
0.0
 11
1472.505276494499
 21
761.7157673178226
 31
0.0
  0
LINE
  5
39E4
330
18
100
AcDbEntity
  8
0
 62
     4
100
AcDbLine
 10
1471.505276494499
 20
760.7157673178225
 30
0.0
 11
1471.505276494499
 21
761.7157673178226
 31
0.0
  0
LINE
  5
39E5
330
18
100
AcDbEntity
  8
0
 62
     4
100
AcDbLine
 10
1471.505276494499
 20
763.7157673178226
 30
0.0
 11
1472.505276494499
 21
763.7157673178226
 31
0.0
  0
LINE
  5
39E6
330
18
100
AcDbEntity
  8
0
 62
     4
100
AcDbLine
 10
1471.505276494499
 20
760.7157673178225
 30
0.0
 11
1472.505276494499
 21
760.7157673178225
 31
0.0
  0
LINE
  5
39E7
330
18
100
AcDbEntity
  8
0
 62
     4
100
AcDbLine
 10
1473.505276494034
 20
762.7157673178226
 30
0.0
 11
1472.505276494499
 21
762.7157673178226
 31
0.0
  0
LINE
  5
39E8
330
18
100
AcDbEntity
  8
0
 62
     4
100
AcDbLine
 10
1473.505276494034
 20
761.7157673178226
 30
0.0
 11
1472.505276494499
 21
761.7157673178226
 31
0.0
  0
LINE
  5
39E9
330
18
100
AcDbEntity
  8
0
 62
     4
100
AcDbLine
 10
1470.505276494034
 20
761.7157673178226
 30
0.0
 11
1470.505276494034
 21
762.7157673178226
 31
0.0
  0
LINE
  5
39EA
330
18
100
AcDbEntity
  8
0
 62
     4
100
AcDbLine
 10
1473.505276494034
 20
761.7157673178226
 30
0.0
 11
1473.505276494034
 21
762.7157673178226
 31
0.0
  0
LINE
  5
39EB
330
18
100
AcDbEntity
  8
0
 62
     4
100
AcDbLine
 10
1471.505276494499
 20
761.7157673178226
 30
0.0
 11
1470.505276494034
 21
761.7157673178226
 31
0.0
  0
LINE
  5
39EC
330
18
100
AcDbEntity
  8
0
 62
     4
100
AcDbLine
 10
1472.505276494499
 20
762.7157673178226
 30
0.0
 11
1472.505276494499
 21
763.7157673178226
 31
0.0
  0
LINE
  5
39ED
330
18
100
AcDbEntity
  8
0
 62
     4
100
AcDbLine
 10
1471.505276494499
 20
762.7157673178226
 30
0.0
 11
1470.505276494034
 21
762.7157673178226
 31
0.0
  0
LINE
  5
39EE
330
18
100
AcDbEntity
  8
0
 62
     4
100
AcDbLine
 10
1471.505276494499
 20
762.7157673178226
 30
0.0
 11
1471.505276494499
 21
763.7157673178226
 31
0.0
  0
LINE
  5
39EF
330
18
100
AcDbEntity
  8
0
100
AcDbLine
 10
533.4203475996473
 20
880.2157673191031
 30
0.0
 11
597.4203475996473
 21
880.2157673191031
 31
0.0
  0
LINE
  5
39F0
330
18
100
AcDbEntity
  8
0
100
AcDbLine
 10
1524.005276494266
 20
880.2157673192196
 30
0.0
 11
1588.005276494266
 21
880.2157673192196
 31
0.0
  0
LINE
  5
39F1
330
18
100
AcDbEntity
  8
0
100
AcDbLine
 10
1085.05033176062
 20
880.2157673203836
 30
0.0
 11
1149.05033176062
 21
880.2157673203836
 31
0.0
  0
LINE
  5
39F2
330
18
100
AcDbEntity
  8
0
 62
     4
100
AcDbLine
 10
528.4308304768492
 20
850.4901805480695
 30
0.0
 11
528.4308304768492
 21
845.1921867329147
 31
0.0
  0
LINE
  5
39F3
330
18
100
AcDbEntity
  8
0
 62
     4
100
AcDbLine
 10
586.7975147742981
 20
850.4901805481859
 30
0.0
 11
586.7975147742981
 21
845.1921867330311
 31
0.0
  0
LINE
  5
39F4
330
18
100
AcDbEntity
  8
0
 62
     4
100
AcDbLine
 10
586.7975147742981
 20
850.4901805481859
 30
0.0
 11
528.4308304768492
 21
850.4901805480695
 31
0.0
  0
LINE
  5
39F5
330
18
100
AcDbEntity
  8
0
 62
     4
100
AcDbLine
 10
586.7975147742981
 20
845.1921867330311
 30
0.0
 11
528.4308304768492
 21
845.1921867329147
 31
0.0
  0
LINE
  5
39F6
330
18
100
AcDbEntity
  8
0
 62
     4
100
AcDbLine
 10
592.9203182966885
 20
839.689306891778
 30
0.0
 11
504.9203182967175
 21
839.689306891778
 31
0.0
  0
LINE
  5
39F7
330
18
100
AcDbEntity
  8
0
 62
     4
100
AcDbLine
 10
504.9203182967175
 20
839.689306891778
 30
0.0
 11
504.9203182967175
 21
836.5669044258757
 31
0.0
  0
LINE
  5
39F8
330
18
100
AcDbEntity
  8
0
 62
     4
100
AcDbLine
 10
592.9203182966885
 20
839.689306891778
 30
0.0
 11
592.9203182966594
 21
836.5669044254101
 31
0.0
  0
LINE
  5
39F9
330
18
100
AcDbEntity
  8
0
 62
     4
100
AcDbLine
 10
519.4203182967466
 20
842.9677787597976
 30
0.0
 11
512.4203182967467
 21
842.967778759681
 31
0.0
  0
LINE
  5
39FA
330
18
100
AcDbEntity
  8
0
 62
     4
100
AcDbLine
 10
519.4203182967466
 20
840.1576600158804
 30
0.0
 11
512.4203182967757
 21
840.1576600158804
 31
0.0
  0
LINE
  5
39FB
330
18
100
AcDbEntity
  8
0
 62
     4
100
AcDbLine
 10
511.4203182967466
 20
841.967778759681
 30
0.0
 11
511.4203182967758
 21
841.1576600158806
 31
0.0
  0
LINE
  5
39FC
330
18
100
AcDbEntity
  8
0
 62
     4
100
AcDbLine
 10
520.4203182967467
 20
841.9677787597974
 30
0.0
 11
520.4203182967467
 21
841.1576600158806
 31
0.0
  0
ARC
  5
39FD
330
18
100
AcDbEntity
  8
0
 62
     4
100
AcDbCircle
 10
512.4203182967467
 20
841.967778759681
 30
0.0
 40
1.0
100
AcDbArc
 50
90.0
 51
180.0
  0
ARC
  5
39FE
330
18
100
AcDbEntity
  8
0
 62
     4
100
AcDbCircle
 10
519.4203182967466
 20
841.9677787597974
 30
0.0
 40
1.0
100
AcDbArc
 50
0.0
 51
90.0
  0
ARC
  5
39FF
330
18
100
AcDbEntity
  8
0
 62
     4
100
AcDbCircle
 10
512.4203182967757
 20
841.1576600158806
 30
0.0
 40
1.0
100
AcDbArc
 50
180.0
 51
270.0
  0
ARC
  5
3A00
330
18
100
AcDbEntity
  8
0
 62
     4
100
AcDbCircle
 10
519.4203182967466
 20
841.1576600158806
 30
0.0
 40
1.0
100
AcDbArc
 50
270.0
 51
0.0
  0
LINE
  5
3A01
330
18
100
AcDbEntity
  8
0
 62
     4
100
AcDbLine
 10
530.4203182967467
 20
842.9677787597976
 30
0.0
 11
523.4203182967466
 21
842.967778759681
 31
0.0
  0
LINE
  5
3A02
330
18
100
AcDbEntity
  8
0
 62
     4
100
AcDbLine
 10
530.4203182967467
 20
840.1576600158804
 30
0.0
 11
523.4203182967758
 21
840.1576600158804
 31
0.0
  0
LINE
  5
3A03
330
18
100
AcDbEntity
  8
0
 62
     4
100
AcDbLine
 10
522.4203182967467
 20
841.967778759681
 30
0.0
 11
522.4203182967758
 21
841.1576600158806
 31
0.0
  0
LINE
  5
3A04
330
18
100
AcDbEntity
  8
0
 62
     4
100
AcDbLine
 10
531.4203182967466
 20
841.9677787597974
 30
0.0
 11
531.4203182967466
 21
841.1576600158806
 31
0.0
  0
ARC
  5
3A05
330
18
100
AcDbEntity
  8
0
 62
     4
100
AcDbCircle
 10
523.4203182967466
 20
841.967778759681
 30
0.0
 40
1.0
100
AcDbArc
 50
90.0
 51
180.0
  0
ARC
  5
3A06
330
18
100
AcDbEntity
  8
0
 62
     4
100
AcDbCircle
 10
530.4203182967467
 20
841.9677787597974
 30
0.0
 40
1.0
100
AcDbArc
 50
0.0
 51
90.0
  0
ARC
  5
3A07
330
18
100
AcDbEntity
  8
0
 62
     4
100
AcDbCircle
 10
523.4203182967758
 20
841.1576600158806
 30
0.0
 40
1.0
100
AcDbArc
 50
180.0
 51
270.0
  0
ARC
  5
3A08
330
18
100
AcDbEntity
  8
0
 62
     4
100
AcDbCircle
 10
530.4203182967467
 20
841.1576600158806
 30
0.0
 40
1.0
100
AcDbArc
 50
270.0
 51
0.0
  0
LINE
  5
3A09
330
18
100
AcDbEntity
  8
0
 62
     4
100
AcDbLine
 10
541.4203182967467
 20
842.9677787594481
 30
0.0
 11
534.4203182967467
 21
842.9677787593318
 31
0.0
  0
LINE
  5
3A0A
330
18
100
AcDbEntity
  8
0
 62
     4
100
AcDbLine
 10
541.4203182967467
 20
840.1576600155312
 30
0.0
 11
534.4203182967758
 21
840.1576600155312
 31
0.0
  0
LINE
  5
3A0B
330
18
100
AcDbEntity
  8
0
 62
     4
100
AcDbLine
 10
533.4203182967467
 20
841.9677787593318
 30
0.0
 11
533.4203182967757
 21
841.1576600155312
 31
0.0
  0
LINE
  5
3A0C
330
18
100
AcDbEntity
  8
0
 62
     4
100
AcDbLine
 10
542.4203182967467
 20
841.9677787594482
 30
0.0
 11
542.4203182967467
 21
841.1576600155312
 31
0.0
  0
ARC
  5
3A0D
330
18
100
AcDbEntity
  8
0
 62
     4
100
AcDbCircle
 10
534.4203182967467
 20
841.9677787593318
 30
0.0
 40
1.0
100
AcDbArc
 50
90.0
 51
180.0
  0
ARC
  5
3A0E
330
18
100
AcDbEntity
  8
0
 62
     4
100
AcDbCircle
 10
541.4203182967467
 20
841.9677787594482
 30
0.0
 40
1.0
100
AcDbArc
 50
0.0
 51
90.0
  0
ARC
  5
3A0F
330
18
100
AcDbEntity
  8
0
 62
     4
100
AcDbCircle
 10
534.4203182967758
 20
841.1576600155312
 30
0.0
 40
1.0
100
AcDbArc
 50
180.0
 51
270.0
  0
ARC
  5
3A10
330
18
100
AcDbEntity
  8
0
 62
     4
100
AcDbCircle
 10
541.4203182967467
 20
841.1576600155312
 30
0.0
 40
1.0
100
AcDbArc
 50
270.0
 51
0.0
  0
LINE
  5
3A11
330
18
100
AcDbEntity
  8
0
 62
     4
100
AcDbLine
 10
552.4203182967466
 20
842.9677787594481
 30
0.0
 11
545.4203182967467
 21
842.9677787593318
 31
0.0
  0
LINE
  5
3A12
330
18
100
AcDbEntity
  8
0
 62
     4
100
AcDbLine
 10
552.4203182967466
 20
840.1576600155312
 30
0.0
 11
545.4203182967757
 21
840.1576600155312
 31
0.0
  0
LINE
  5
3A13
330
18
100
AcDbEntity
  8
0
 62
     4
100
AcDbLine
 10
544.4203182967466
 20
841.9677787593318
 30
0.0
 11
544.4203182967758
 21
841.1576600155312
 31
0.0
  0
LINE
  5
3A14
330
18
100
AcDbEntity
  8
0
 62
     4
100
AcDbLine
 10
553.4203182967466
 20
841.9677787594482
 30
0.0
 11
553.4203182967466
 21
841.1576600155312
 31
0.0
  0
ARC
  5
3A15
330
18
100
AcDbEntity
  8
0
 62
     4
100
AcDbCircle
 10
545.4203182967467
 20
841.9677787593318
 30
0.0
 40
1.0
100
AcDbArc
 50
90.0
 51
180.0
  0
ARC
  5
3A16
330
18
100
AcDbEntity
  8
0
 62
     4
100
AcDbCircle
 10
552.4203182967466
 20
841.9677787594482
 30
0.0
 40
1.0
100
AcDbArc
 50
0.0
 51
90.0
  0
ARC
  5
3A17
330
18
100
AcDbEntity
  8
0
 62
     4
100
AcDbCircle
 10
545.4203182967757
 20
841.1576600155312
 30
0.0
 40
1.0
100
AcDbArc
 50
180.0
 51
270.0
  0
ARC
  5
3A18
330
18
100
AcDbEntity
  8
0
 62
     4
100
AcDbCircle
 10
552.4203182967466
 20
841.1576600155312
 30
0.0
 40
1.0
100
AcDbArc
 50
270.0
 51
0.0
  0
LINE
  5
3A19
330
18
100
AcDbEntity
  8
0
 62
     4
100
AcDbLine
 10
563.4203182967467
 20
842.9677787590989
 30
0.0
 11
556.4203182967466
 21
842.9677787589826
 31
0.0
  0
LINE
  5
3A1A
330
18
100
AcDbEntity
  8
0
 62
     4
100
AcDbLine
 10
563.4203182967467
 20
840.157660015182
 30
0.0
 11
556.4203182967758
 21
840.157660015182
 31
0.0
  0
LINE
  5
3A1B
330
18
100
AcDbEntity
  8
0
 62
     4
100
AcDbLine
 10
555.4203182967467
 20
841.9677787589826
 30
0.0
 11
555.4203182967758
 21
841.1576600151819
 31
0.0
  0
LINE
  5
3A1C
330
18
100
AcDbEntity
  8
0
 62
     4
100
AcDbLine
 10
564.4203182967467
 20
841.9677787590989
 30
0.0
 11
564.4203182967467
 21
841.1576600151819
 31
0.0
  0
ARC
  5
3A1D
330
18
100
AcDbEntity
  8
0
 62
     4
100
AcDbCircle
 10
556.4203182967466
 20
841.9677787589826
 30
0.0
 40
1.0
100
AcDbArc
 50
90.0
 51
180.0
  0
ARC
  5
3A1E
330
18
100
AcDbEntity
  8
0
 62
     4
100
AcDbCircle
 10
563.4203182967467
 20
841.9677787590989
 30
0.0
 40
1.0
100
AcDbArc
 50
0.0
 51
90.0
  0
ARC
  5
3A1F
330
18
100
AcDbEntity
  8
0
 62
     4
100
AcDbCircle
 10
556.4203182967758
 20
841.1576600151819
 30
0.0
 40
1.0
100
AcDbArc
 50
180.0
 51
270.0
  0
ARC
  5
3A20
330
18
100
AcDbEntity
  8
0
 62
     4
100
AcDbCircle
 10
563.4203182967467
 20
841.1576600151819
 30
0.0
 40
1.0
100
AcDbArc
 50
270.0
 51
0.0
  0
LINE
  5
3A21
330
18
100
AcDbEntity
  8
0
 62
     4
100
AcDbLine
 10
574.4203182967466
 20
842.9677787587497
 30
0.0
 11
567.4203182967467
 21
842.9677787586333
 31
0.0
  0
LINE
  5
3A22
330
18
100
AcDbEntity
  8
0
 62
     4
100
AcDbLine
 10
574.4203182967466
 20
840.1576600148327
 30
0.0
 11
567.4203182967757
 21
840.1576600148327
 31
0.0
  0
LINE
  5
3A23
330
18
100
AcDbEntity
  8
0
 62
     4
100
AcDbLine
 10
566.4203182967467
 20
841.9677787586334
 30
0.0
 11
566.4203182967757
 21
841.1576600148327
 31
0.0
  0
LINE
  5
3A24
330
18
100
AcDbEntity
  8
0
 62
     4
100
AcDbLine
 10
575.4203182967467
 20
841.9677787587497
 30
0.0
 11
575.4203182967467
 21
841.1576600148327
 31
0.0
  0
ARC
  5
3A25
330
18
100
AcDbEntity
  8
0
 62
     4
100
AcDbCircle
 10
567.4203182967467
 20
841.9677787586334
 30
0.0
 40
1.0
100
AcDbArc
 50
90.0
 51
180.0
  0
ARC
  5
3A26
330
18
100
AcDbEntity
  8
0
 62
     4
100
AcDbCircle
 10
574.4203182967466
 20
841.9677787587497
 30
0.0
 40
1.0
100
AcDbArc
 50
0.0
 51
90.0
  0
ARC
  5
3A27
330
18
100
AcDbEntity
  8
0
 62
     4
100
AcDbCircle
 10
567.4203182967757
 20
841.1576600148327
 30
0.0
 40
1.0
100
AcDbArc
 50
180.0
 51
270.0
  0
ARC
  5
3A28
330
18
100
AcDbEntity
  8
0
 62
     4
100
AcDbCircle
 10
574.4203182967466
 20
841.1576600148327
 30
0.0
 40
1.0
100
AcDbArc
 50
270.0
 51
0.0
  0
LINE
  5
3A29
330
18
100
AcDbEntity
  8
0
 62
     4
100
AcDbLine
 10
585.4203182967467
 20
842.9677787587497
 30
0.0
 11
578.4203182967466
 21
842.9677787586333
 31
0.0
  0
LINE
  5
3A2A
330
18
100
AcDbEntity
  8
0
 62
     4
100
AcDbLine
 10
585.4203182967467
 20
840.1576600148327
 30
0.0
 11
578.4203182967758
 21
840.1576600148327
 31
0.0
  0
LINE
  5
3A2B
330
18
100
AcDbEntity
  8
0
 62
     4
100
AcDbLine
 10
577.4203182967466
 20
841.9677787586334
 30
0.0
 11
577.4203182967758
 21
841.1576600148327
 31
0.0
  0
LINE
  5
3A2C
330
18
100
AcDbEntity
  8
0
 62
     4
100
AcDbLine
 10
586.4203182967466
 20
841.9677787587497
 30
0.0
 11
586.4203182967466
 21
841.1576600148327
 31
0.0
  0
ARC
  5
3A2D
330
18
100
AcDbEntity
  8
0
 62
     4
100
AcDbCircle
 10
578.4203182967466
 20
841.9677787586334
 30
0.0
 40
1.0
100
AcDbArc
 50
90.0
 51
180.0
  0
ARC
  5
3A2E
330
18
100
AcDbEntity
  8
0
 62
     4
100
AcDbCircle
 10
585.4203182967467
 20
841.9677787587497
 30
0.0
 40
1.0
100
AcDbArc
 50
0.0
 51
90.0
  0
ARC
  5
3A2F
330
18
100
AcDbEntity
  8
0
 62
     4
100
AcDbCircle
 10
578.4203182967758
 20
841.1576600148327
 30
0.0
 40
1.0
100
AcDbArc
 50
180.0
 51
270.0
  0
ARC
  5
3A30
330
18
100
AcDbEntity
  8
0
 62
     4
100
AcDbCircle
 10
585.4203182967467
 20
841.1576600148327
 30
0.0
 40
1.0
100
AcDbArc
 50
270.0
 51
0.0
  0
LINE
  5
3A4B
330
18
100
AcDbEntity
  8
0
 62
     4
100
AcDbLine
 10
504.9203182968049
 20
863.2926110037587
 30
0.0
 11
504.9203182968049
 21
845.4361318837836
 31
0.0
  0
LINE
  5
3A4C
330
18
100
AcDbEntity
  8
0
 62
     4
100
AcDbLine
 10
592.9203182967175
 20
863.2926110037587
 30
0.0
 11
592.9203182967175
 21
845.4361318836673
 31
0.0
  0
LINE
  5
3A4D
330
18
100
AcDbEntity
  8
0
 62
     4
100
AcDbLine
 10
590.9203182967176
 20
865.2926110037588
 30
0.0
 11
506.9203182968049
 21
865.2926110037588
 31
0.0
  0
LINE
  5
3A4E
330
18
100
AcDbEntity
  8
0
 62
     4
100
AcDbLine
 10
590.9203182967176
 20
843.4361318836673
 30
0.0
 11
506.9203182968049
 21
843.4361318837837
 31
0.0
  0
ARC
  5
3A4F
330
18
100
AcDbEntity
  8
0
 62
     4
100
AcDbCircle
 10
590.9203182967176
 20
863.2926110037587
 30
0.0
 40
2.0
100
AcDbArc
 50
0.0
 51
90.0
  0
ARC
  5
3A50
330
18
100
AcDbEntity
  8
0
 62
     4
100
AcDbCircle
 10
590.9203182967176
 20
845.4361318836673
 30
0.0
 40
2.0
100
AcDbArc
 50
270.0
 51
0.0
  0
ARC
  5
3A51
330
18
100
AcDbEntity
  8
0
 62
     4
100
AcDbCircle
 10
506.9203182968049
 20
845.4361318837836
 30
0.0
 40
2.0
100
AcDbArc
 50
180.0
 51
270.0
  0
ARC
  5
3A52
330
18
100
AcDbEntity
  8
0
 62
     4
100
AcDbCircle
 10
506.9203182968049
 20
863.2926110037587
 30
0.0
 40
2.0
100
AcDbArc
 50
90.0
 51
180.0
  0
LINE
  5
3A55
330
18
100
AcDbEntity
  8
0
 62
     4
100
AcDbLine
 10
612.9203838211106
 20
844.9535800572702
 30
0.0
 11
617.9203838211106
 21
844.9535800570375
 31
0.0
  0
LINE
  5
3A56
330
18
100
AcDbEntity
  8
0
 62
     4
100
AcDbLine
 10
612.9203838211106
 20
845.5748152892557
 30
0.0
 11
617.9203838211106
 21
845.5748152890228
 31
0.0
  0
LINE
  5
3A57
330
18
100
AcDbEntity
  8
0
 62
     4
100
AcDbLine
 10
612.9203838211106
 20
850.3893883370547
 30
0.0
 11
617.9203838211106
 21
850.3893883370547
 31
0.0
  0
LINE
  5
3A58
330
18
100
AcDbEntity
  8
0
 62
     4
100
AcDbLine
 10
612.9203838211106
 20
851.0106235691564
 30
0.0
 11
617.9203838211106
 21
851.01062356904
 31
0.0
  0
LINE
  5
3A59
330
18
100
AcDbEntity
  8
0
 62
     4
100
AcDbLine
 10
612.9203838211106
 20
855.0486525771193
 30
0.0
 11
617.9203838211106
 21
855.0486525768866
 31
0.0
  0
LINE
  5
3A5A
330
18
100
AcDbEntity
  8
0
 62
     4
100
AcDbLine
 10
612.9203838211106
 20
855.6698878092211
 30
0.0
 11
617.9203838211106
 21
855.6698878091047
 31
0.0
  0
LINE
  5
3A5B
330
18
100
AcDbEntity
  8
0
 62
     4
100
AcDbLine
 10
612.9203838211106
 20
859.7079168169512
 30
0.0
 11
617.9203838211106
 21
859.7079168171839
 31
0.0
  0
LINE
  5
3A5C
330
18
100
AcDbEntity
  8
0
 62
     4
100
AcDbLine
 10
612.9203838211106
 20
860.3291520489365
 30
0.0
 11
617.9203838211106
 21
860.3291520490529
 31
0.0
  0
LINE
  5
3A5D
330
18
100
AcDbEntity
  8
0
 62
     4
100
AcDbLine
 10
611.4203838211105
 20
845.2641976729719
 30
0.0
 11
603.4203838210815
 21
845.2641976730884
 31
0.0
  0
LINE
  5
3A5E
330
18
100
AcDbEntity
  8
0
 62
     4
100
AcDbLine
 10
606.9203838211105
 20
840.6049334331401
 30
0.0
 11
603.4203838210815
 21
840.6049334331401
 31
0.0
  0
LINE
  5
3A5F
330
18
100
AcDbEntity
  8
0
 62
     4
100
AcDbLine
 10
612.9203838210523
 20
860.3291520489365
 30
0.0
 11
612.9203838210523
 21
859.7079168168347
 31
0.0
  0
LINE
  5
3A60
330
18
100
AcDbEntity
  8
0
 62
     4
100
AcDbLine
 10
617.9203838211106
 20
860.3291520491692
 30
0.0
 11
617.9203838211106
 21
859.7079168171839
 31
0.0
  0
LINE
  5
3A61
330
18
100
AcDbEntity
  8
0
 62
     4
100
AcDbLine
 10
603.4203838210815
 20
845.2641976730884
 30
0.0
 11
603.4203838210815
 21
840.6049334330237
 31
0.0
  0
LINE
  5
3A62
330
18
100
AcDbEntity
  8
0
 62
     4
100
AcDbLine
 10
612.9203838210814
 20
845.574815289372
 30
0.0
 11
612.9203838210814
 21
844.9535800572702
 31
0.0
  0
LINE
  5
3A63
330
18
100
AcDbEntity
  8
0
 62
     4
100
AcDbLine
 10
617.9203838211106
 20
845.5748152890228
 30
0.0
 11
617.9203838211106
 21
844.9535800570375
 31
0.0
  0
LINE
  5
3A64
330
18
100
AcDbEntity
  8
0
 62
     4
100
AcDbLine
 10
617.9203838211397
 20
851.0106235692727
 30
0.0
 11
617.9203838211106
 21
850.3893883370547
 31
0.0
  0
LINE
  5
3A65
330
18
100
AcDbEntity
  8
0
 62
     4
100
AcDbLine
 10
612.9203838210523
 20
851.0106235692727
 30
0.0
 11
612.9203838210814
 21
850.3893883371711
 31
0.0
  0
LINE
  5
3A66
330
18
100
AcDbEntity
  8
0
 62
     4
100
AcDbLine
 10
612.9203838210523
 20
855.6698878092211
 30
0.0
 11
612.9203838210523
 21
855.0486525771193
 31
0.0
  0
LINE
  5
3A67
330
18
100
AcDbEntity
  8
0
 62
     4
100
AcDbLine
 10
617.9203838211397
 20
855.6698878093374
 30
0.0
 11
617.9203838211397
 21
855.0486525770029
 31
0.0
  0
LINE
  5
3A68
330
18
100
AcDbEntity
  8
0
 62
     4
100
AcDbLine
 10
959.0888973664114
 20
1072.058204199326
 30
0.0
 11
959.0888973664114
 21
1067.278281919331
 31
0.0
  0
LINE
  5
3A69
330
18
100
AcDbEntity
  8
0
 62
     4
100
AcDbLine
 10
961.0008662784094
 20
1072.058204199326
 30
0.0
 11
961.0008662784094
 21
1067.278281919331
 31
0.0
  0
LINE
  5
3A6A
330
18
100
AcDbEntity
  8
0
 62
     4
100
AcDbLine
 10
961.0008662784094
 20
1072.058204199326
 30
0.0
 11
959.0888973664986
 21
1072.058204199326
 31
0.0
  0
LINE
  5
3A6B
330
18
100
AcDbEntity
  8
0
 62
     4
100
AcDbLine
 10
961.0008662784094
 20
1067.278281919331
 30
0.0
 11
959.0888973664986
 21
1067.278281919331
 31
0.0
  0
LINE
  5
3A6C
330
18
100
AcDbEntity
  8
0
 62
     4
100
AcDbLine
 10
975.8186253463936
 20
1072.058204199326
 30
0.0
 11
975.8186253463936
 21
1067.278281919331
 31
0.0
  0
LINE
  5
3A6D
330
18
100
AcDbEntity
  8
0
 62
     4
100
AcDbLine
 10
977.7305942583916
 20
1072.058204199326
 30
0.0
 11
977.7305942583916
 21
1067.278281919331
 31
0.0
  0
LINE
  5
3A6E
330
18
100
AcDbEntity
  8
0
 62
     4
100
AcDbLine
 10
977.7305942583916
 20
1072.058204199326
 30
0.0
 11
975.8186253465101
 21
1072.058204199326
 31
0.0
  0
LINE
  5
3A6F
330
18
100
AcDbEntity
  8
0
 62
     4
100
AcDbLine
 10
977.7305942583916
 20
1067.278281919331
 30
0.0
 11
975.8186253465101
 21
1067.278281919331
 31
0.0
  0
LINE
  5
3A70
330
18
100
AcDbEntity
  8
0
 62
     4
100
AcDbLine
 10
990.1583921864075
 20
1072.058204199326
 30
0.0
 11
990.1583921864075
 21
1067.278281919331
 31
0.0
  0
LINE
  5
3A71
330
18
100
AcDbEntity
  8
0
 62
     4
100
AcDbLine
 10
992.0703610984055
 20
1072.058204199326
 30
0.0
 11
992.0703610984055
 21
1067.278281919331
 31
0.0
  0
LINE
  5
3A72
330
18
100
AcDbEntity
  8
0
 62
     4
100
AcDbLine
 10
992.0703610984055
 20
1072.058204199326
 30
0.0
 11
990.158392186524
 21
1072.058204199326
 31
0.0
  0
LINE
  5
3A73
330
18
100
AcDbEntity
  8
0
 62
     4
100
AcDbLine
 10
992.0703610984055
 20
1067.278281919331
 30
0.0
 11
990.158392186524
 21
1067.278281919331
 31
0.0
  0
LINE
  5
3A74
330
18
100
AcDbEntity
  8
0
 62
     4
100
AcDbLine
 10
1004.498159026392
 20
1072.058204199326
 30
0.0
 11
1004.498159026392
 21
1067.278281919331
 31
0.0
  0
LINE
  5
3A75
330
18
100
AcDbEntity
  8
0
 62
     4
100
AcDbLine
 10
1006.41012793839
 20
1072.058204199326
 30
0.0
 11
1006.41012793839
 21
1067.278281919331
 31
0.0
  0
LINE
  5
3A76
330
18
100
AcDbEntity
  8
0
 62
     4
100
AcDbLine
 10
1006.41012793839
 20
1072.058204199326
 30
0.0
 11
1004.498159026509
 21
1072.058204199326
 31
0.0
  0
LINE
  5
3A77
330
18
100
AcDbEntity
  8
0
 62
     4
100
AcDbLine
 10
1006.41012793839
 20
1067.278281919331
 30
0.0
 11
1004.498159026509
 21
1067.278281919331
 31
0.0
  0
LINE
  5
3A7C
330
18
100
AcDbEntity
  8
0
 62
     4
100
AcDbLine
 10
945.7051149823964
 20
1081.140056531316
 30
0.0
 11
960.0448818226141
 21
1081.140056531316
 31
0.0
  0
LINE
  5
3A7D
330
18
100
AcDbEntity
  8
0
 62
     4
100
AcDbLine
 10
960.0448818224977
 20
1073.492180883324
 30
0.0
 11
960.0448818226141
 21
1081.140056531316
 31
0.0
  0
LINE
  5
3A7E
330
18
100
AcDbEntity
  8
0
 62
     4
100
AcDbLine
 10
945.7051149823964
 20
1077.750095391318
 30
0.0
 11
945.7051149823964
 21
1081.140056531316
 31
0.0
  0
LINE
  5
3A80
330
18
100
AcDbEntity
  8
0
 62
     4
100
AcDbLine
 10
1019.529817058108
 20
1180.168279278928
 30
0.0
 11
957.2773349773925
 21
1180.168279278696
 31
0.0
  0
LINE
  5
3A81
330
18
100
AcDbEntity
  8
0
 62
     4
100
AcDbLine
 10
1021.529817058283
 20
1094.168279278929
 30
0.0
 11
1021.529817058166
 21
1178.168279278929
 31
0.0
  0
LINE
  5
3A82
330
18
100
AcDbEntity
  8
0
 62
     4
100
AcDbLine
 10
933.2773349773342
 20
1092.168279278929
 30
0.0
 11
943.2773349773341
 21
1092.168279278929
 31
0.0
  0
LINE
  5
3A83
330
18
100
AcDbEntity
  8
0
 62
     4
100
AcDbLine
 10
943.2773349773341
 20
1180.168279278928
 30
0.0
 11
943.2773349773341
 21
1092.168279278929
 31
0.0
  0
LINE
  5
3A84
330
18
100
AcDbEntity
  8
0
 62
     4
100
AcDbLine
 10
955.2773349773342
 20
1178.168279278812
 30
0.0
 11
955.2773349773342
 21
1094.168279278929
 31
0.0
  0
LINE
  5
3A85
330
18
100
AcDbEntity
  8
0
 62
     4
100
AcDbLine
 10
957.2773349772759
 20
1092.168279278812
 30
0.0
 11
1019.529817058224
 21
1092.168279278812
 31
0.0
  0
LINE
  5
3A86
330
18
100
AcDbEntity
  8
0
 62
     4
100
AcDbLine
 10
943.2773349773341
 20
1180.168279278928
 30
0.0
 11
933.2773349773342
 21
1180.168279278928
 31
0.0
  0
LINE
  5
3A87
330
18
100
AcDbEntity
  8
0
 62
     4
100
AcDbLine
 10
936.2773349773343
 20
1180.168279278928
 30
0.0
 11
936.2773349773343
 21
1092.168279278929
 31
0.0
  0
ARC
  5
3A88
330
18
100
AcDbEntity
  8
0
 62
     4
100
AcDbCircle
 10
1019.529817058224
 20
1094.168279278812
 30
0.0
 40
2.0
100
AcDbArc
 50
270.0
 51
0.0
  0
ARC
  5
3A89
330
18
100
AcDbEntity
  8
0
 62
     4
100
AcDbCircle
 10
1019.529817058108
 20
1178.168279278929
 30
0.0
 40
2.0
100
AcDbArc
 50
0.0
 51
90.0
  0
ARC
  5
3A8A
330
18
100
AcDbEntity
  8
0
 62
     4
100
AcDbCircle
 10
957.2773349772759
 20
1178.168279278696
 30
0.0
 40
2.0
100
AcDbArc
 50
90.0
 51
180.0
  0
ARC
  5
3A8B
330
18
100
AcDbEntity
  8
0
 62
     4
100
AcDbCircle
 10
957.2773349772759
 20
1094.168279278812
 30
0.0
 40
2.0
100
AcDbArc
 50
180.0
 51
270.0
  0
LINE
  5
3A8C
330
18
100
AcDbEntity
  8
0
 62
     4
100
AcDbLine
 10
952.7773349773342
 20
1162.668279278812
 30
0.0
 11
945.7773349773342
 21
1162.668279278929
 31
0.0
  0
LINE
  5
3A8D
330
18
100
AcDbEntity
  8
0
 62
     4
100
AcDbLine
 10
953.7773349773342
 20
1161.668279278812
 30
0.0
 11
953.7773349773342
 21
1154.668279278812
 31
0.0
  0
LINE
  5
3A8E
330
18
100
AcDbEntity
  8
0
 62
     4
100
AcDbLine
 10
944.7773349773342
 20
1161.668279278929
 30
0.0
 11
944.7773349773342
 21
1154.668279278929
 31
0.0
  0
LINE
  5
3A8F
330
18
100
AcDbEntity
  8
0
 62
     4
100
AcDbLine
 10
952.7773349773342
 20
1153.668279278812
 30
0.0
 11
945.7773349773342
 21
1153.668279278929
 31
0.0
  0
LINE
  5
3A90
330
18
100
AcDbEntity
  8
0
 62
     4
100
AcDbLine
 10
952.7773349773342
 20
1173.668279278812
 30
0.0
 11
945.7773349773342
 21
1173.668279278929
 31
0.0
  0
LINE
  5
3A91
330
18
100
AcDbEntity
  8
0
 62
     4
100
AcDbLine
 10
953.7773349773342
 20
1172.668279278812
 30
0.0
 11
953.7773349773342
 21
1165.668279278812
 31
0.0
  0
LINE
  5
3A92
330
18
100
AcDbEntity
  8
0
 62
     4
100
AcDbLine
 10
944.7773349773342
 20
1172.668279278929
 30
0.0
 11
944.7773349773342
 21
1165.668279278929
 31
0.0
  0
LINE
  5
3A93
330
18
100
AcDbEntity
  8
0
 62
     4
100
AcDbLine
 10
952.7773349773342
 20
1164.668279278812
 30
0.0
 11
945.7773349773342
 21
1164.668279278929
 31
0.0
  0
LWPOLYLINE
  5
3A94
330
18
100
AcDbEntity
  8
0
 62
     4
100
AcDbPolyline
 90
        4
 70
     1
 43
0.0
 10
975.9956597564306
 20
1156.657767098768
 10
975.9956597564306
 20
1098.291082801319
 10
959.0277133169147
 20
1098.291082801319
 10
959.0277133169147
 20
1156.657767098768
  0
ARC
  5
3AB3
330
18
100
AcDbEntity
  8
0
 62
     4
100
AcDbCircle
 10
952.7773349772759
 20
1172.668279278812
 30
0.0
 40
1.0
100
AcDbArc
 50
0.0
 51
90.0
  0
ARC
  5
3AB4
330
18
100
AcDbEntity
  8
0
 62
     4
100
AcDbCircle
 10
952.7773349772759
 20
1165.668279278696
 30
0.0
 40
1.0
100
AcDbArc
 50
270.0
 51
0.0
  0
ARC
  5
3AB5
330
18
100
AcDbEntity
  8
0
 62
     4
100
AcDbCircle
 10
945.7773349772761
 20
1165.668279278929
 30
0.0
 40
1.0
100
AcDbArc
 50
180.0
 51
270.0
  0
ARC
  5
3AB6
330
18
100
AcDbEntity
  8
0
 62
     4
100
AcDbCircle
 10
945.7773349772761
 20
1172.668279278929
 30
0.0
 40
1.0
100
AcDbArc
 50
90.0
 51
180.0
  0
ARC
  5
3AB7
330
18
100
AcDbEntity
  8
0
 62
     4
100
AcDbCircle
 10
952.7773349772759
 20
1161.668279278812
 30
0.0
 40
1.0
100
AcDbArc
 50
0.0
 51
90.0
  0
ARC
  5
3AB8
330
18
100
AcDbEntity
  8
0
 62
     4
100
AcDbCircle
 10
952.7773349772759
 20
1154.668279278696
 30
0.0
 40
1.0
100
AcDbArc
 50
270.0
 51
0.0
  0
ARC
  5
3AB9
330
18
100
AcDbEntity
  8
0
 62
     4
100
AcDbCircle
 10
945.7773349772761
 20
1154.668279278929
 30
0.0
 40
1.0
100
AcDbArc
 50
180.0
 51
270.0
  0
ARC
  5
3ABA
330
18
100
AcDbEntity
  8
0
 62
     4
100
AcDbCircle
 10
945.7773349772761
 20
1161.668279278929
 30
0.0
 40
1.0
100
AcDbArc
 50
90.0
 51
180.0
  0
LINE
  5
3ABB
330
18
100
AcDbEntity
  8
0
 62
     4
100
AcDbLine
 10
952.7773349773342
 20
1151.668279278812
 30
0.0
 11
945.7773349773342
 21
1151.668279278929
 31
0.0
  0
LINE
  5
3ABC
330
18
100
AcDbEntity
  8
0
 62
     4
100
AcDbLine
 10
953.7773349773342
 20
1150.668279278812
 30
0.0
 11
953.7773349773342
 21
1143.668279278812
 31
0.0
  0
LINE
  5
3ABD
330
18
100
AcDbEntity
  8
0
 62
     4
100
AcDbLine
 10
944.7773349773342
 20
1150.668279278929
 30
0.0
 11
944.7773349773342
 21
1143.668279278929
 31
0.0
  0
LINE
  5
3ABE
330
18
100
AcDbEntity
  8
0
 62
     4
100
AcDbLine
 10
952.7773349773342
 20
1142.668279278812
 30
0.0
 11
945.7773349773342
 21
1142.668279278929
 31
0.0
  0
ARC
  5
3ABF
330
18
100
AcDbEntity
  8
0
 62
     4
100
AcDbCircle
 10
952.7773349772759
 20
1150.668279278812
 30
0.0
 40
1.0
100
AcDbArc
 50
0.0
 51
90.0
  0
ARC
  5
3AC0
330
18
100
AcDbEntity
  8
0
 62
     4
100
AcDbCircle
 10
952.7773349772759
 20
1143.668279278696
 30
0.0
 40
1.0
100
AcDbArc
 50
270.0
 51
0.0
  0
ARC
  5
3AC1
330
18
100
AcDbEntity
  8
0
 62
     4
100
AcDbCircle
 10
945.7773349772761
 20
1143.668279278929
 30
0.0
 40
1.0
100
AcDbArc
 50
180.0
 51
270.0
  0
ARC
  5
3AC2
330
18
100
AcDbEntity
  8
0
 62
     4
100
AcDbCircle
 10
945.7773349772761
 20
1150.668279278929
 30
0.0
 40
1.0
100
AcDbArc
 50
90.0
 51
180.0
  0
LINE
  5
3AC3
330
18
100
AcDbEntity
  8
0
 62
     4
100
AcDbLine
 10
952.7773349771013
 20
1140.668279278812
 30
0.0
 11
945.7773349771015
 21
1140.668279278929
 31
0.0
  0
LINE
  5
3AC4
330
18
100
AcDbEntity
  8
0
 62
     4
100
AcDbLine
 10
953.7773349771013
 20
1139.668279278812
 30
0.0
 11
953.7773349771013
 21
1132.668279278812
 31
0.0
  0
LINE
  5
3AC5
330
18
100
AcDbEntity
  8
0
 62
     4
100
AcDbLine
 10
944.7773349771013
 20
1139.668279278929
 30
0.0
 11
944.7773349771013
 21
1132.668279278929
 31
0.0
  0
LINE
  5
3AC6
330
18
100
AcDbEntity
  8
0
 62
     4
100
AcDbLine
 10
952.7773349771013
 20
1131.668279278812
 30
0.0
 11
945.7773349771015
 21
1131.668279278929
 31
0.0
  0
ARC
  5
3AC7
330
18
100
AcDbEntity
  8
0
 62
     4
100
AcDbCircle
 10
952.7773349770432
 20
1139.668279278812
 30
0.0
 40
1.0
100
AcDbArc
 50
0.0
 51
90.0
  0
ARC
  5
3AC8
330
18
100
AcDbEntity
  8
0
 62
     4
100
AcDbCircle
 10
952.7773349770432
 20
1132.668279278696
 30
0.0
 40
1.0
100
AcDbArc
 50
270.0
 51
0.0
  0
ARC
  5
3AC9
330
18
100
AcDbEntity
  8
0
 62
     4
100
AcDbCircle
 10
945.7773349770432
 20
1132.668279278929
 30
0.0
 40
1.0
100
AcDbArc
 50
180.0
 51
270.0
  0
ARC
  5
3ACA
330
18
100
AcDbEntity
  8
0
 62
     4
100
AcDbCircle
 10
945.7773349770432
 20
1139.668279278929
 30
0.0
 40
1.0
100
AcDbArc
 50
90.0
 51
180.0
  0
LINE
  5
3ACB
330
18
100
AcDbEntity
  8
0
 62
     4
100
AcDbLine
 10
952.7773349768686
 20
1129.668279278812
 30
0.0
 11
945.7773349768686
 21
1129.668279278929
 31
0.0
  0
LINE
  5
3ACC
330
18
100
AcDbEntity
  8
0
 62
     4
100
AcDbLine
 10
953.7773349768686
 20
1128.668279278812
 30
0.0
 11
953.7773349768686
 21
1121.668279278812
 31
0.0
  0
LINE
  5
3ACD
330
18
100
AcDbEntity
  8
0
 62
     4
100
AcDbLine
 10
944.7773349768686
 20
1128.668279278929
 30
0.0
 11
944.7773349768686
 21
1121.668279278929
 31
0.0
  0
LINE
  5
3ACE
330
18
100
AcDbEntity
  8
0
 62
     4
100
AcDbLine
 10
952.7773349768686
 20
1120.668279278812
 30
0.0
 11
945.7773349768686
 21
1120.668279278929
 31
0.0
  0
ARC
  5
3ACF
330
18
100
AcDbEntity
  8
0
 62
     4
100
AcDbCircle
 10
952.7773349768104
 20
1128.668279278812
 30
0.0
 40
1.0
100
AcDbArc
 50
0.0
 51
90.0
  0
ARC
  5
3AD0
330
18
100
AcDbEntity
  8
0
 62
     4
100
AcDbCircle
 10
952.7773349768104
 20
1121.668279278696
 30
0.0
 40
1.0
100
AcDbArc
 50
270.0
 51
0.0
  0
ARC
  5
3AD1
330
18
100
AcDbEntity
  8
0
 62
     4
100
AcDbCircle
 10
945.7773349768103
 20
1121.668279278929
 30
0.0
 40
1.0
100
AcDbArc
 50
180.0
 51
270.0
  0
ARC
  5
3AD2
330
18
100
AcDbEntity
  8
0
 62
     4
100
AcDbCircle
 10
945.7773349768103
 20
1128.668279278929
 30
0.0
 40
1.0
100
AcDbArc
 50
90.0
 51
180.0
  0
LINE
  5
3AD3
330
18
100
AcDbEntity
  8
0
 62
     4
100
AcDbLine
 10
952.7773349766357
 20
1118.668279278812
 30
0.0
 11
945.7773349766357
 21
1118.668279278929
 31
0.0
  0
LINE
  5
3AD4
330
18
100
AcDbEntity
  8
0
 62
     4
100
AcDbLine
 10
953.7773349766357
 20
1117.668279278812
 30
0.0
 11
953.7773349766357
 21
1110.668279278812
 31
0.0
  0
LINE
  5
3AD5
330
18
100
AcDbEntity
  8
0
 62
     4
100
AcDbLine
 10
944.7773349766357
 20
1117.668279278928
 30
0.0
 11
944.7773349766357
 21
1110.668279278929
 31
0.0
  0
LINE
  5
3AD6
330
18
100
AcDbEntity
  8
0
 62
     4
100
AcDbLine
 10
952.7773349766357
 20
1109.668279278812
 30
0.0
 11
945.7773349766357
 21
1109.668279278928
 31
0.0
  0
ARC
  5
3AD7
330
18
100
AcDbEntity
  8
0
 62
     4
100
AcDbCircle
 10
952.7773349765775
 20
1117.668279278812
 30
0.0
 40
1.0
100
AcDbArc
 50
0.0
 51
90.0
  0
ARC
  5
3AD8
330
18
100
AcDbEntity
  8
0
 62
     4
100
AcDbCircle
 10
952.7773349765775
 20
1110.668279278696
 30
0.0
 40
1.0
100
AcDbArc
 50
270.0
 51
0.0
  0
ARC
  5
3AD9
330
18
100
AcDbEntity
  8
0
 62
     4
100
AcDbCircle
 10
945.7773349765774
 20
1110.668279278929
 30
0.0
 40
1.0
100
AcDbArc
 50
180.0
 51
270.0
  0
ARC
  5
3ADA
330
18
100
AcDbEntity
  8
0
 62
     4
100
AcDbCircle
 10
945.7773349765774
 20
1117.668279278928
 30
0.0
 40
1.0
100
AcDbArc
 50
90.0
 51
180.0
  0
LINE
  5
3ADB
330
18
100
AcDbEntity
  8
0
 62
     4
100
AcDbLine
 10
952.7773349766357
 20
1107.668279278812
 30
0.0
 11
945.7773349766357
 21
1107.668279278929
 31
0.0
  0
LINE
  5
3ADC
330
18
100
AcDbEntity
  8
0
 62
     4
100
AcDbLine
 10
953.7773349766357
 20
1106.668279278812
 30
0.0
 11
953.7773349766357
 21
1099.668279278812
 31
0.0
  0
LINE
  5
3ADD
330
18
100
AcDbEntity
  8
0
 62
     4
100
AcDbLine
 10
944.7773349766357
 20
1106.668279278929
 30
0.0
 11
944.7773349766357
 21
1099.668279278929
 31
0.0
  0
LINE
  5
3ADE
330
18
100
AcDbEntity
  8
0
 62
     4
100
AcDbLine
 10
952.7773349766357
 20
1098.668279278812
 30
0.0
 11
945.7773349766357
 21
1098.668279278929
 31
0.0
  0
ARC
  5
3ADF
330
18
100
AcDbEntity
  8
0
 62
     4
100
AcDbCircle
 10
952.7773349765775
 20
1106.668279278812
 30
0.0
 40
1.0
100
AcDbArc
 50
0.0
 51
90.0
  0
ARC
  5
3AE0
330
18
100
AcDbEntity
  8
0
 62
     4
100
AcDbCircle
 10
952.7773349765775
 20
1099.668279278696
 30
0.0
 40
1.0
100
AcDbArc
 50
270.0
 51
0.0
  0
ARC
  5
3AE1
330
18
100
AcDbEntity
  8
0
 62
     4
100
AcDbCircle
 10
945.7773349765774
 20
1099.668279278929
 30
0.0
 40
1.0
100
AcDbArc
 50
180.0
 51
270.0
  0
ARC
  5
3AE2
330
18
100
AcDbEntity
  8
0
 62
     4
100
AcDbCircle
 10
945.7773349765774
 20
1106.668279278929
 30
0.0
 40
1.0
100
AcDbArc
 50
90.0
 51
180.0
  0
LINE
  5
3AE9
330
18
100
AcDbEntity
  8
0
 62
     4
100
AcDbLine
 10
940.7051149823674
 20
1076.168243059444
 30
0.0
 11
950.7051149823382
 21
1076.168243059561
 31
0.0
  0
LINE
  5
3AEA
330
18
100
AcDbEntity
  8
0
 62
     4
100
AcDbLine
 10
940.7051149823091
 20
1063.168243059095
 30
0.0
 11
950.7051149823382
 21
1063.168243059328
 31
0.0
  0
LINE
  5
3AEB
330
18
100
AcDbEntity
  8
0
 62
     4
100
AcDbLine
 10
940.2051149823673
 20
1075.668243059444
 30
0.0
 11
940.2051149823092
 21
1063.668243059095
 31
0.0
  0
LINE
  5
3AEC
330
18
100
AcDbEntity
  8
0
 62
     4
100
AcDbLine
 10
951.2051149823383
 20
1075.668243059561
 30
0.0
 11
951.2051149823383
 21
1063.668243059328
 31
0.0
  0
ARC
  5
3AED
330
18
100
AcDbEntity
  8
0
 62
     4
100
AcDbCircle
 10
950.7051149823382
 20
1075.668243059561
 30
0.0
 40
0.5
100
AcDbArc
 50
0.0
 51
90.0
  0
ARC
  5
3AEE
330
18
100
AcDbEntity
  8
0
 62
     4
100
AcDbCircle
 10
950.7051149823382
 20
1063.668243059328
 30
0.0
 40
0.5
100
AcDbArc
 50
270.0
 51
0.0
  0
ARC
  5
3AEF
330
18
100
AcDbEntity
  8
0
 62
     4
100
AcDbCircle
 10
940.7051149823091
 20
1063.668243059095
 30
0.0
 40
0.5
100
AcDbArc
 50
180.0
 51
270.0
  0
ARC
  5
3AF0
330
18
100
AcDbEntity
  8
0
 62
     4
100
AcDbCircle
 10
940.7051149823674
 20
1075.668243059444
 30
0.0
 40
0.5
100
AcDbArc
 50
90.00000000166753
 51
180.0
  0
LINE
  5
3AF1
330
18
100
AcDbEntity
  8
0
 62
     4
100
AcDbLine
 10
621.9203838211979
 20
838.6199925049659
 30
0.0
 11
621.9203838210814
 21
842.5898743614308
 31
0.0
  0
LINE
  5
3AF2
330
18
100
AcDbEntity
  8
0
 62
     4
100
AcDbLine
 10
608.9203838211979
 20
838.6199925048495
 30
0.0
 11
608.9203838211106
 21
842.5898743613142
 31
0.0
  0
LINE
  5
3AF3
330
18
100
AcDbEntity
  8
0
 62
     4
100
AcDbLine
 10
609.4203838211106
 20
843.0898743613143
 30
0.0
 11
621.4203838210814
 21
843.0898743614307
 31
0.0
  0
LINE
  5
3AF4
330
18
100
AcDbEntity
  8
0
 62
     4
100
AcDbLine
 10
609.4203838211979
 20
838.1199925048495
 30
0.0
 11
621.4203838211979
 21
838.1199925049658
 31
0.0
  0
ARC
  5
3AF5
330
18
100
AcDbEntity
  8
0
 62
     4
100
AcDbCircle
 10
609.4203838211106
 20
842.5898743613142
 30
0.0
 40
0.5
100
AcDbArc
 50
90.00000000166753
 51
180.0
  0
ARC
  5
3AF6
330
18
100
AcDbEntity
  8
0
 62
     4
100
AcDbCircle
 10
621.4203838210814
 20
842.5898743614308
 30
0.0
 40
0.5
100
AcDbArc
 50
0.0
 51
90.00000000166753
  0
ARC
  5
3AF7
330
18
100
AcDbEntity
  8
0
 62
     4
100
AcDbCircle
 10
621.4203838211979
 20
838.6199925049659
 30
0.0
 40
0.5
100
AcDbArc
 50
270.0
 51
0.0
  0
ARC
  5
3AF8
330
18
100
AcDbEntity
  8
0
 62
     4
100
AcDbCircle
 10
609.4203838211979
 20
838.6199925048495
 30
0.0
 40
0.5
100
AcDbArc
 50
180.0
 51
270.0
  0
ENDSEC
  0
SECTION
  2
OBJECTS
  0
DICTIONARY
  5
C
330
0
100
AcDbDictionary
281
     1
  3
ACAD_COLOR
350
2ED
  3
ACAD_GROUP
350
D
  3
ACAD_LAYOUT
350
2EE
  3
ACAD_MATERIAL
350
2EC
  3
ACAD_MLEADERSTYLE
350
57E
  3
ACAD_MLINESTYLE
350
1B
  3
ACAD_PLOTSETTINGS
350
2EF
  3
ACAD_PLOTSTYLENAME
350
2EA
  3
ACAD_SCALELIST
350
55C
  3
ACAD_TABLESTYLE
350
55A
  3
ACAD_VISUALSTYLE
350
549
  3
ACDB_RECOMPOSE_DATA
350
596
  3
AcDbVariableDictionary
350
51F
  0
DICTIONARY
  5
598
330
8
100
AcDbDictionary
280
     1
281
     1
  0
DICTIONARY
  5
646
330
2
100
AcDbDictionary
280
     1
281
     1
  3
ACAD_LAYERFILTERS
360
CB7
  3
ACAD_LAYERSTATES
360
647
  3
ACLYDICTIONARY
360
CB6
  0
DICTIONARY
  5
586
330
E
100
AcDbDictionary
280
     1
281
     1
  3
ADSK_XREC_LAYER_RECONCILED
360
587
  0
DICTIONARY
  5
CB1
330
18
100
AcDbDictionary
280
     1
281
     1
  3
ACAD_SORTENTS
360
CB2
  0
DICTIONARY
  5
2ED
102
{ACAD_REACTORS
330
C
102
}
330
C
100
AcDbDictionary
281
     1
  0
DICTIONARY
  5
D
102
{ACAD_REACTORS
330
C
102
}
330
C
100
AcDbDictionary
281
     1
  0
DICTIONARY
  5
2EE
102
{ACAD_REACTORS
330
C
102
}
330
C
100
AcDbDictionary
281
     1
  3
Model
350
2F0
  3
レイアウト1
350
2F1
  0
DICTIONARY
  5
2EC
102
{ACAD_REACTORS
330
C
102
}
330
C
100
AcDbDictionary
281
     1
  3
ByBlock
350
539
  3
ByLayer
350
531
  3
Global
350
541
  0
DICTIONARY
  5
57E
102
{ACAD_REACTORS
330
C
102
}
330
C
100
AcDbDictionary
281
     1
  3
Standard
350
57F
  0
DICTIONARY
  5
1B
102
{ACAD_REACTORS
330
C
102
}
330
C
100
AcDbDictionary
281
     1
  3
STANDARD
350
1C
  0
DICTIONARY
  5
2EF
102
{ACAD_REACTORS
330
C
102
}
330
C
100
AcDbDictionary
281
     1
  0
ACDBDICTIONARYWDFLT
  5
2EA
102
{ACAD_REACTORS
330
C
102
}
330
C
100
AcDbDictionary
281
     1
  3
Normal
350
2EB
100
AcDbDictionaryWithDefault
340
2EB
  0
DICTIONARY
  5
55C
102
{ACAD_REACTORS
330
C
102
}
330
C
100
AcDbDictionary
281
     1
  3
A0
350
55D
  3
A1
350
55E
  3
A2
350
55F
  3
A3
350
560
  3
A4
350
561
  3
A5
350
562
  3
A6
350
563
  3
A7
350
564
  3
A8
350
565
  3
A9
350
566
  3
B0
350
567
  3
B1
350
568
  3
B2
350
569
  3
B3
350
56A
  3
B4
350
56B
  3
B5
350
56C
  3
B6
350
56D
  3
B7
350
56E
  3
B8
350
56F
  3
B9
350
570
  3
C0
350
571
  3
C1
350
572
  3
C2
350
573
  3
C3
350
574
  3
C4
350
575
  3
C5
350
576
  3
C6
350
577
  3
C7
350
578
  3
C8
350
579
  3
C9
350
57A
  3
D0
350
57B
  3
D1
350
57C
  3
D2
350
57D
  0
DICTIONARY
  5
55A
102
{ACAD_REACTORS
330
C
102
}
330
C
100
AcDbDictionary
281
     1
  3
Standard
350
55B
  0
DICTIONARY
  5
549
102
{ACAD_REACTORS
330
C
102
}
330
C
100
AcDbDictionary
281
     1
  3
2dWireframe
350
54F
  3
3D Hidden
350
551
  3
3dWireframe
350
550
  3
Basic
350
54E
  3
Brighten
350
555
  3
ColorChange
350
559
  3
Conceptual
350
552
  3
Dim
350
554
  3
Facepattern
350
558
  3
Flat
350
54A
  3
FlatWithEdges
350
54B
  3
Gouraud
350
54C
  3
GouraudWithEdges
350
54D
  3
Linepattern
350
557
  3
Realistic
350
553
  3
Thicken
350
556
  0
XRECORD
  5
596
102
{ACAD_REACTORS
330
C
102
}
330
C
100
AcDbXrecord
280
     1
 90
        1
330
55B
  0
DICTIONARY
  5
51F
102
{ACAD_REACTORS
330
C
102
}
330
C
100
AcDbDictionary
281
     1
  3
CANNOSCALE
350
5AB
  3
CMLEADERSTYLE
350
5AA
  3
CTABLESTYLE
350
5A9
  3
DIMASSOC
350
520
  3
INDEXCTL
350
5AD
  3
PROJECTNAME
350
521
  3
SORTENTS
350
5AC
  0
DICTIONARY
  5
CB7
102
{ACAD_REACTORS
330
646
102
}
330
646
100
AcDbDictionary
281
     1
  0
DICTIONARY
  5
647
102
{ACAD_REACTORS
330
646
102
}
330
646
100
AcDbDictionary
281
     1
  0
DICTIONARY
  5
CB6
102
{ACAD_REACTORS
330
646
102
}
330
646
100
AcDbDictionary
281
     1
1001
ACAD
1000
<All
  0
XRECORD
  5
587
102
{ACAD_REACTORS
330
586
102
}
330
586
100
AcDbXrecord
280
     1
290
     1
  0
SORTENTSTABLE
  5
CB2
102
{ACAD_REACTORS
330
CB1
102
}
330
CB1
100
AcDbSortentsTable
330
18
  0
LAYOUT
  5
2F0
102
{ACAD_REACTORS
330
2EE
102
}
330
2EE
100
AcDbPlotSettings
  1

  2
\\Calsvr\iR-ADV C5045
  4
A3
  6

 40
5.873749732971191
 41
5.873747825622558
 42
5.873748779296875
 43
5.873748779296875
 44
296.9259948730469
 45
419.9466552734374
 46
0.0
 47
0.0
 48
0.0
 49
0.0
140
0.0
141
0.0
142
1.0
143
1.0
 70
 11936
 72
     1
 73
     1
 74
     2
  7
標準1.ctb
 75
     0
147
0.9781566107714617
 76
     0
 77
     2
 78
   300
148
0.0
149
0.0
100
AcDbLayout
  1
Model
 70
     1
 71
     0
 10
0.0
 20
0.0
 11
12.0
 21
9.0
 12
0.0
 22
0.0
 32
0.0
 14
0.0
 24
0.0
 34
0.0
 15
0.0
 25
0.0
 35
0.0
146
0.0
 13
0.0
 23
0.0
 33
0.0
 16
1.0
 26
0.0
 36
0.0
 17
0.0
 27
1.0
 37
0.0
 76
     0
330
18
331
528
1001
ACAD_PSEXT
1000
\\Calsvr\iR-ADV C5045
1000
Canon iR-ADV C5045/5051 LIPSLX
1000
\\Calsvr
1000

1070
     0
  0
LAYOUT
  5
2F1
102
{ACAD_REACTORS
330
2EE
102
}
330
2EE
100
AcDbPlotSettings
  1

  2
\\Keiso01\LP-9200PS2
  4

  6

 40
0.0
 41
0.0
 42
0.0
 43
0.0
 44
0.0
 45
0.0
 46
0.0
 47
0.0
 48
0.0
 49
0.0
140
0.0
141
0.0
142
1.0
143
1.0
 70
   688
 72
     0
 73
     0
 74
     5
  7
標準1.ctb
 75
    16
147
1.0
 76
     0
 77
     2
 78
   300
148
0.0
149
0.0
100
AcDbLayout
  1
レイアウト1
 70
     0
 71
     1
 10
0.0
 20
0.0
 11
420.0
 21
297.0
 12
0.0
 22
0.0
 32
0.0
 14
1.000000000000000E+20
 24
1.000000000000000E+20
 34
1.000000000000000E+20
 15
-1.000000000000000E+20
 25
-1.000000000000000E+20
 35
-1.000000000000000E+20
146
0.0
 13
0.0
 23
0.0
 33
0.0
 16
1.0
 26
0.0
 36
0.0
 17
0.0
 27
1.0
 37
0.0
 76
     0
330
15
  0
MATERIAL
  5
539
102
{ACAD_XDICTIONARY
360
53A
102
}
102
{ACAD_REACTORS
330
2EC
102
}
330
2EC
100
AcDbMaterial
  1
ByBlock
 72
     0
 43
0.0208333333333333
 43
0.0
 43
0.0
 43
0.0
 43
0.0
 43
0.0208333333333333
 43
0.0
 43
0.0
 43
0.0
 43
0.0
 43
1.0
 43
0.0
 43
0.0
 43
0.0
 43
0.0
 43
1.0
 77
     0
 47
0.0208333333333333
 47
0.0
 47
0.0
 47
0.0
 47
0.0
 47
0.0208333333333333
 47
0.0
 47
0.0
 47
0.0
 47
0.0
 47
1.0
 47
0.0
 47
0.0
 47
0.0
 47
0.0
 47
1.0
171
     0
 49
0.0208333333333333
 49
0.0
 49
0.0
 49
0.0
 49
0.0
 49
0.0208333333333333
 49
0.0
 49
0.0
 49
0.0
 49
0.0
 49
1.0
 49
0.0
 49
0.0
 49
0.0
 49
0.0
 49
1.0
175
     0
142
0.0208333333333333
142
0.0
142
0.0
142
0.0
142
0.0
142
0.0208333333333333
142
0.0
142
0.0
142
0.0
142
0.0
142
1.0
142
0.0
142
0.0
142
0.0
142
0.0
142
1.0
179
     0
144
0.0208333333333333
144
0.0
144
0.0
144
0.0
144
0.0
144
0.0208333333333333
144
0.0
144
0.0
144
0.0
144
0.0
144
1.0
144
0.0
144
0.0
144
0.0
144
0.0
144
1.0
147
0.0208333333333333
147
0.0
147
0.0
147
0.0
147
0.0
147
0.0208333333333333
147
0.0
147
0.0
147
0.0
147
0.0
147
1.0
147
0.0
147
0.0
147
0.0
147
0.0
147
1.0
  0
MATERIAL
  5
531
102
{ACAD_XDICTIONARY
360
532
102
}
102
{ACAD_REACTORS
330
2EC
102
}
330
2EC
100
AcDbMaterial
  1
ByLayer
 72
     0
 43
0.0208333333333333
 43
0.0
 43
0.0
 43
0.0
 43
0.0
 43
0.0208333333333333
 43
0.0
 43
0.0
 43
0.0
 43
0.0
 43
1.0
 43
0.0
 43
0.0
 43
0.0
 43
0.0
 43
1.0
 77
     0
 47
0.0208333333333333
 47
0.0
 47
0.0
 47
0.0
 47
0.0
 47
0.0208333333333333
 47
0.0
 47
0.0
 47
0.0
 47
0.0
 47
1.0
 47
0.0
 47
0.0
 47
0.0
 47
0.0
 47
1.0
171
     0
 49
0.0208333333333333
 49
0.0
 49
0.0
 49
0.0
 49
0.0
 49
0.0208333333333333
 49
0.0
 49
0.0
 49
0.0
 49
0.0
 49
1.0
 49
0.0
 49
0.0
 49
0.0
 49
0.0
 49
1.0
175
     0
142
0.0208333333333333
142
0.0
142
0.0
142
0.0
142
0.0
142
0.0208333333333333
142
0.0
142
0.0
142
0.0
142
0.0
142
1.0
142
0.0
142
0.0
142
0.0
142
0.0
142
1.0
179
     0
144
0.0208333333333333
144
0.0
144
0.0
144
0.0
144
0.0
144
0.0208333333333333
144
0.0
144
0.0
144
0.0
144
0.0
144
1.0
144
0.0
144
0.0
144
0.0
144
0.0
144
1.0
147
0.0208333333333333
147
0.0
147
0.0
147
0.0
147
0.0
147
0.0208333333333333
147
0.0
147
0.0
147
0.0
147
0.0
147
1.0
147
0.0
147
0.0
147
0.0
147
0.0
147
1.0
  0
MATERIAL
  5
541
102
{ACAD_XDICTIONARY
360
542
102
}
102
{ACAD_REACTORS
330
2EC
102
}
330
2EC
100
AcDbMaterial
  1
Global
 72
     0
 43
0.0208333333333333
 43
0.0
 43
0.0
 43
0.0
 43
0.0
 43
0.0208333333333333
 43
0.0
 43
0.0
 43
0.0
 43
0.0
 43
1.0
 43
0.0
 43
0.0
 43
0.0
 43
0.0
 43
1.0
 77
     0
 47
0.0208333333333333
 47
0.0
 47
0.0
 47
0.0
 47
0.0
 47
0.0208333333333333
 47
0.0
 47
0.0
 47
0.0
 47
0.0
 47
1.0
 47
0.0
 47
0.0
 47
0.0
 47
0.0
 47
1.0
171
     0
 49
0.0208333333333333
 49
0.0
 49
0.0
 49
0.0
 49
0.0
 49
0.0208333333333333
 49
0.0
 49
0.0
 49
0.0
 49
0.0
 49
1.0
 49
0.0
 49
0.0
 49
0.0
 49
0.0
 49
1.0
175
     0
142
0.0208333333333333
142
0.0
142
0.0
142
0.0
142
0.0
142
0.0208333333333333
142
0.0
142
0.0
142
0.0
142
0.0
142
1.0
142
0.0
142
0.0
142
0.0
142
0.0
142
1.0
179
     0
144
0.0208333333333333
144
0.0
144
0.0
144
0.0
144
0.0
144
0.0208333333333333
144
0.0
144
0.0
144
0.0
144
0.0
144
1.0
144
0.0
144
0.0
144
0.0
144
0.0
144
1.0
147
0.0208333333333333
147
0.0
147
0.0
147
0.0
147
0.0
147
0.0208333333333333
147
0.0
147
0.0
147
0.0
147
0.0
147
1.0
147
0.0
147
0.0
147
0.0
147
0.0
147
1.0
  0
MLEADERSTYLE
  5
57F
102
{ACAD_REACTORS
330
57E
102
}
330
57E
100
AcDbMLeaderStyle
170
     0
171
     1
172
     0
 90
        2
 40
0.0
 41
0.0
173
     1
 91
-1023410172
340
12
 92
       -2
290
     1
 42
2.0
291
     0
 43
0.0
  3
Standard
341
20
 44
2.5
300

342
F
174
     6
178
     6
175
     1
176
     0
 93
-1023410173
 45
2.5
292
     0
297
     0
 46
4.0
 94
-1056964608
 47
1.0
 49
1.0
140
1.0
293
     1
141
0.0
294
     1
177
     0
142
1.0
295
     0
296
     0
143
0.125
1001
ACAD_MLEADERVER
1070
     2
  0
MLINESTYLE
  5
1C
102
{ACAD_REACTORS
330
1B
102
}
330
1B
100
AcDbMlineStyle
  2
STANDARD
 70
     0
  3

 62
   256
 51
90.0
 52
90.0
 71
     2
 49
0.5
 62
   256
  6
BYLAYER
 49
-0.5
 62
   256
  6
BYLAYER
  0
ACDBPLACEHOLDER
  5
2EB
102
{ACAD_REACTORS
330
2EA
102
}
330
2EA
  0
SCALE
  5
55D
102
{ACAD_REACTORS
330
55C
102
}
330
55C
100
AcDbScale
 70
     0
300
1:1
140
1.0
141
1.0
290
     1
  0
SCALE
  5
55E
102
{ACAD_REACTORS
330
55C
102
}
330
55C
100
AcDbScale
 70
     0
300
1:2
140
1.0
141
2.0
290
     0
  0
SCALE
  5
55F
102
{ACAD_REACTORS
330
55C
102
}
330
55C
100
AcDbScale
 70
     0
300
1:4
140
1.0
141
4.0
290
     0
  0
SCALE
  5
560
102
{ACAD_REACTORS
330
55C
102
}
330
55C
100
AcDbScale
 70
     0
300
1:5
140
1.0
141
5.0
290
     0
  0
SCALE
  5
561
102
{ACAD_REACTORS
330
55C
102
}
330
55C
100
AcDbScale
 70
     0
300
1:8
140
1.0
141
8.0
290
     0
  0
SCALE
  5
562
102
{ACAD_REACTORS
330
55C
102
}
330
55C
100
AcDbScale
 70
     0
300
1:10
140
1.0
141
10.0
290
     0
  0
SCALE
  5
563
102
{ACAD_REACTORS
330
55C
102
}
330
55C
100
AcDbScale
 70
     0
300
1:16
140
1.0
141
16.0
290
     0
  0
SCALE
  5
564
102
{ACAD_REACTORS
330
55C
102
}
330
55C
100
AcDbScale
 70
     0
300
1:20
140
1.0
141
20.0
290
     0
  0
SCALE
  5
565
102
{ACAD_REACTORS
330
55C
102
}
330
55C
100
AcDbScale
 70
     0
300
1:30
140
1.0
141
30.0
290
     0
  0
SCALE
  5
566
102
{ACAD_REACTORS
330
55C
102
}
330
55C
100
AcDbScale
 70
     0
300
1:40
140
1.0
141
40.0
290
     0
  0
SCALE
  5
567
102
{ACAD_REACTORS
330
55C
102
}
330
55C
100
AcDbScale
 70
     0
300
1:50
140
1.0
141
50.0
290
     0
  0
SCALE
  5
568
102
{ACAD_REACTORS
330
55C
102
}
330
55C
100
AcDbScale
 70
     0
300
1:100
140
1.0
141
100.0
290
     0
  0
SCALE
  5
569
102
{ACAD_REACTORS
330
55C
102
}
330
55C
100
AcDbScale
 70
     0
300
2:1
140
2.0
141
1.0
290
     0
  0
SCALE
  5
56A
102
{ACAD_REACTORS
330
55C
102
}
330
55C
100
AcDbScale
 70
     0
300
4:1
140
4.0
141
1.0
290
     0
  0
SCALE
  5
56B
102
{ACAD_REACTORS
330
55C
102
}
330
55C
100
AcDbScale
 70
     0
300
8:1
140
8.0
141
1.0
290
     0
  0
SCALE
  5
56C
102
{ACAD_REACTORS
330
55C
102
}
330
55C
100
AcDbScale
 70
     0
300
10:1
140
10.0
141
1.0
290
     0
  0
SCALE
  5
56D
102
{ACAD_REACTORS
330
55C
102
}
330
55C
100
AcDbScale
 70
     0
300
100:1
140
100.0
141
1.0
290
     0
  0
SCALE
  5
56E
102
{ACAD_REACTORS
330
55C
102
}
330
55C
100
AcDbScale
 70
     0
300
1/128" = 1'-0"
140
0.0078125
141
12.0
290
     0
  0
SCALE
  5
56F
102
{ACAD_REACTORS
330
55C
102
}
330
55C
100
AcDbScale
 70
     0
300
1/64" = 1'-0"
140
0.015625
141
12.0
290
     0
  0
SCALE
  5
570
102
{ACAD_REACTORS
330
55C
102
}
330
55C
100
AcDbScale
 70
     0
300
1/32" = 1'-0"
140
0.03125
141
12.0
290
     0
  0
SCALE
  5
571
102
{ACAD_REACTORS
330
55C
102
}
330
55C
100
AcDbScale
 70
     0
300
1/16" = 1'-0"
140
0.0625
141
12.0
290
     0
  0
SCALE
  5
572
102
{ACAD_REACTORS
330
55C
102
}
330
55C
100
AcDbScale
 70
     0
300
3/32" = 1'-0"
140
0.09375
141
12.0
290
     0
  0
SCALE
  5
573
102
{ACAD_REACTORS
330
55C
102
}
330
55C
100
AcDbScale
 70
     0
300
1/8" = 1'-0"
140
0.125
141
12.0
290
     0
  0
SCALE
  5
574
102
{ACAD_REACTORS
330
55C
102
}
330
55C
100
AcDbScale
 70
     0
300
3/16" = 1'-0"
140
0.1875
141
12.0
290
     0
  0
SCALE
  5
575
102
{ACAD_REACTORS
330
55C
102
}
330
55C
100
AcDbScale
 70
     0
300
1/4" = 1'-0"
140
0.25
141
12.0
290
     0
  0
SCALE
  5
576
102
{ACAD_REACTORS
330
55C
102
}
330
55C
100
AcDbScale
 70
     0
300
3/8" = 1'-0"
140
0.375
141
12.0
290
     0
  0
SCALE
  5
577
102
{ACAD_REACTORS
330
55C
102
}
330
55C
100
AcDbScale
 70
     0
300
1/2" = 1'-0"
140
0.5
141
12.0
290
     0
  0
SCALE
  5
578
102
{ACAD_REACTORS
330
55C
102
}
330
55C
100
AcDbScale
 70
     0
300
3/4" = 1'-0"
140
0.75
141
12.0
290
     0
  0
SCALE
  5
579
102
{ACAD_REACTORS
330
55C
102
}
330
55C
100
AcDbScale
 70
     0
300
1" = 1'-0"
140
1.0
141
12.0
290
     0
  0
SCALE
  5
57A
102
{ACAD_REACTORS
330
55C
102
}
330
55C
100
AcDbScale
 70
     0
300
1-1/2" = 1'-0"
140
1.5
141
12.0
290
     0
  0
SCALE
  5
57B
102
{ACAD_REACTORS
330
55C
102
}
330
55C
100
AcDbScale
 70
     0
300
3" = 1'-0"
140
3.0
141
12.0
290
     0
  0
SCALE
  5
57C
102
{ACAD_REACTORS
330
55C
102
}
330
55C
100
AcDbScale
 70
     0
300
6" = 1'-0"
140
6.0
141
12.0
290
     0
  0
SCALE
  5
57D
102
{ACAD_REACTORS
330
55C
102
}
330
55C
100
AcDbScale
 70
     0
300
1'-0" = 1'-0"
140
12.0
141
12.0
290
     0
  0
TABLESTYLE
  5
55B
102
{ACAD_XDICTIONARY
360
594
102
}
102
{ACAD_REACTORS
330
55A
102
}
330
55A
100
AcDbTableStyle
  3
Standard
 70
     0
 71
     0
 40
1.5
 41
1.5
280
     0
281
     0
  7
STANDARD
140
4.5
170
     2
 62
     0
 63
     7
283
     0
274
    -2
284
     1
 64
     0
275
    -2
285
     1
 65
     0
276
    -2
286
     1
 66
     0
277
    -2
287
     1
 67
     0
278
    -2
288
     1
 68
     0
279
    -2
289
     1
 69
     0
  7
STANDARD
140
6.0
170
     5
 62
     0
 63
     7
283
     0
274
    -2
284
     1
 64
     0
275
    -2
285
     1
 65
     0
276
    -2
286
     1
 66
     0
277
    -2
287
     1
 67
     0
278
    -2
288
     1
 68
     0
279
    -2
289
     1
 69
     0
  7
STANDARD
140
4.5
170
     5
 62
     0
 63
     7
283
     0
274
    -2
284
     1
 64
     0
275
    -2
285
     1
 65
     0
276
    -2
286
     1
 66
     0
277
    -2
287
     1
 67
     0
278
    -2
288
     1
 68
     0
279
    -2
289
     1
 69
     0
  0
VISUALSTYLE
  5
54F
102
{ACAD_REACTORS
330
549
102
}
330
549
100
AcDbVisualStyle
  2
2dWireframe
 70
     4
 71
     0
 72
     2
 73
     0
 90
        0
 40
-0.6
 41
-30.0
 62
     5
 63
     7
 74
     1
 91
        4
 64
     7
 65
   257
 75
     1
175
     1
 42
1.0
 92
        0
 66
   257
 43
1.0
 76
     1
 77
     6
 78
     2
 67
     7
 79
     5
170
     0
171
     0
290
     0
174
     0
 93
        1
 44
0.0
173
     0
291
     0
 45
0.0
1001
ACAD
1000
AcDbSavedByObjectVersion
1070
     0
  0
VISUALSTYLE
  5
551
102
{ACAD_REACTORS
330
549
102
}
330
549
100
AcDbVisualStyle
  2
3D Hidden
 70
     6
 71
     1
 72
     2
 73
     2
 90
        0
 40
-0.6
 41
-30.0
 62
     5
 63
     7
 74
     2
 91
        2
 64
     7
 65
   257
 75
     2
175
     1
 42
40.0
 92
        0
 66
   257
 43
1.0
 76
     1
 77
     6
 78
     2
 67
     7
 79
     3
170
     0
171
     0
290
     0
174
     0
 93
        1
 44
0.0
173
     0
291
     0
 45
0.0
1001
ACAD
1000
AcDbSavedByObjectVersion
1070
     0
  0
VISUALSTYLE
  5
550
102
{ACAD_REACTORS
330
549
102
}
330
549
100
AcDbVisualStyle
  2
3dWireframe
 70
     5
 71
     0
 72
     2
 73
     0
 90
        0
 40
-0.6
 41
-30.0
 62
     5
 63
     7
 74
     1
 91
        4
 64
     7
 65
   257
 75
     1
175
     1
 42
1.0
 92
        0
 66
   257
 43
1.0
 76
     1
 77
     6
 78
     2
 67
     7
 79
     5
170
     0
171
     0
290
     0
174
     0
 93
        1
 44
0.0
173
     0
291
     0
 45
0.0
1001
ACAD
1000
AcDbSavedByObjectVersion
1070
     0
  0
VISUALSTYLE
  5
54E
102
{ACAD_REACTORS
330
549
102
}
330
549
100
AcDbVisualStyle
  2
Basic
 70
     7
 71
     1
 72
     0
 73
     1
 90
        0
 40
-0.6
 41
-30.0
 62
     5
 63
     7
 74
     0
 91
        4
 64
     7
 65
   257
 75
     1
175
     1
 42
1.0
 92
        8
 66
     7
 43
1.0
 76
     1
 77
     6
 78
     2
 67
     7
 79
     5
170
     0
171
     0
290
     0
174
     0
 93
        1
 44
0.0
173
     0
291
     1
 45
0.0
1001
ACAD
1000
AcDbSavedByObjectVersion
1070
     0
  0
VISUALSTYLE
  5
555
102
{ACAD_REACTORS
330
549
102
}
330
549
100
AcDbVisualStyle
  2
Brighten
 70
    12
 71
     2
 72
     2
 73
     0
 90
        0
 40
-0.6
 41
-30.0
 62
     5
 63
     7
 74
     1
 91
        4
 64
     7
 65
   257
 75
     1
175
     1
 42
1.0
 92
        8
 66
     7
 43
1.0
 76
     1
 77
     6
 78
     2
 67
     7
 79
     5
170
     0
171
     0
290
     0
174
     0
 93
        1
 44
50.0
173
     0
291
     1
 45
0.0
1001
ACAD
1000
AcDbSavedByObjectVersion
1070
     0
  0
VISUALSTYLE
  5
559
102
{ACAD_REACTORS
330
549
102
}
330
549
100
AcDbVisualStyle
  2
ColorChange
 70
    16
 71
     2
 72
     2
 73
     3
 90
        0
 40
-0.6
 41
-30.0
 62
     5
 63
     8
 74
     1
 91
        4
 64
     7
 65
   257
 75
     1
175
     1
 42
1.0
 92
        8
 66
     8
 43
1.0
 76
     1
 77
     6
 78
     2
 67
     7
 79
     5
170
     0
171
     0
290
     0
174
     0
 93
        1
 44
0.0
173
     0
291
     1
 45
0.0
1001
ACAD
1000
AcDbSavedByObjectVersion
1070
     0
  0
VISUALSTYLE
  5
552
102
{ACAD_REACTORS
330
549
102
}
330
549
100
AcDbVisualStyle
  2
Conceptual
 70
     9
 71
     3
 72
     2
 73
     0
 90
        0
 40
-0.6
 41
-30.0
 62
     5
 63
     7
 74
     2
 91
        2
 64
     7
 65
   257
 75
     1
175
     1
 42
40.0
 92
        8
 66
     7
 43
1.0
 76
     1
 77
     6
 78
     2
 67
     7
 79
     3
170
     0
171
     0
290
     0
174
     0
 93
        1
 44
0.0
173
     0
291
     0
 45
0.0
1001
ACAD
1000
AcDbSavedByObjectVersion
1070
     0
  0
VISUALSTYLE
  5
554
102
{ACAD_REACTORS
330
549
102
}
330
549
100
AcDbVisualStyle
  2
Dim
 70
    11
 71
     2
 72
     2
 73
     0
 90
        0
 40
-0.6
 41
-30.0
 62
     5
 63
     7
 74
     1
 91
        4
 64
     7
 65
   257
 75
     1
175
     1
 42
1.0
 92
        8
 66
     7
 43
1.0
 76
     1
 77
     6
 78
     2
 67
     7
 79
     5
170
     0
171
     0
290
     0
174
     0
 93
        1
 44
-50.0
173
     0
291
     1
 45
0.0
1001
ACAD
1000
AcDbSavedByObjectVersion
1070
     0
  0
VISUALSTYLE
  5
558
102
{ACAD_REACTORS
330
549
102
}
330
549
100
AcDbVisualStyle
  2
Facepattern
 70
    15
 71
     2
 72
     2
 73
     0
 90
        0
 40
-0.6
 41
-30.0
 62
     5
 63
     7
 74
     1
 91
        4
 64
     7
 65
   257
 75
     1
175
     1
 42
1.0
 92
        8
 66
     7
 43
1.0
 76
     1
 77
     6
 78
     2
 67
     7
 79
     5
170
     0
171
     0
290
     0
174
     0
 93
        1
 44
0.0
173
     0
291
     1
 45
0.0
1001
ACAD
1000
AcDbSavedByObjectVersion
1070
     0
  0
VISUALSTYLE
  5
54A
102
{ACAD_REACTORS
330
549
102
}
330
549
100
AcDbVisualStyle
  2
Flat
 70
     0
 71
     2
 72
     1
 73
     1
 90
        2
 40
-0.6
 41
30.0
 62
     5
 63
     7
 74
     0
 91
        4
 64
     7
 65
   257
 75
     1
175
     1
 42
1.0
 92
        8
 66
     7
 43
1.0
 76
     1
 77
     6
 78
     2
 67
     7
 79
     5
170
     0
171
     0
290
     0
174
     0
 93
       13
 44
0.0
173
     0
291
     1
 45
0.0
1001
ACAD
1000
AcDbSavedByObjectVersion
1070
     0
  0
VISUALSTYLE
  5
54B
102
{ACAD_REACTORS
330
549
102
}
330
549
100
AcDbVisualStyle
  2
FlatWithEdges
 70
     1
 71
     2
 72
     1
 73
     1
 90
        2
 40
-0.6
 41
30.0
 62
     5
 63
     7
 74
     1
 91
        4
 64
     7
 65
   257
 75
     1
175
     1
 42
1.0
 92
        0
 66
   257
 43
1.0
 76
     1
 77
     6
 78
     2
 67
     7
 79
     5
170
     0
171
     0
290
     0
174
     0
 93
       13
 44
0.0
173
     0
291
     1
 45
0.0
1001
ACAD
1000
AcDbSavedByObjectVersion
1070
     0
  0
VISUALSTYLE
  5
54C
102
{ACAD_REACTORS
330
549
102
}
330
549
100
AcDbVisualStyle
  2
Gouraud
 70
     2
 71
     2
 72
     2
 73
     1
 90
        2
 40
-0.6
 41
30.0
 62
     5
 63
     7
 74
     0
 91
        4
 64
     7
 65
   257
 75
     1
175
     1
 42
1.0
 92
        0
 66
     7
 43
1.0
 76
     1
 77
     6
 78
     2
 67
     7
 79
     5
170
     0
171
     0
290
     0
174
     0
 93
       13
 44
0.0
173
     0
291
     1
 45
0.0
1001
ACAD
1000
AcDbSavedByObjectVersion
1070
     0
  0
VISUALSTYLE
  5
54D
102
{ACAD_REACTORS
330
549
102
}
330
549
100
AcDbVisualStyle
  2
GouraudWithEdges
 70
     3
 71
     2
 72
     2
 73
     1
 90
        2
 40
-0.6
 41
30.0
 62
     5
 63
     7
 74
     1
 91
        4
 64
     7
 65
   257
 75
     1
175
     1
 42
1.0
 92
        0
 66
   257
 43
1.0
 76
     1
 77
     6
 78
     2
 67
     7
 79
     5
170
     0
171
     0
290
     0
174
     0
 93
       13
 44
0.0
173
     0
291
     1
 45
0.0
1001
ACAD
1000
AcDbSavedByObjectVersion
1070
     0
  0
VISUALSTYLE
  5
557
102
{ACAD_REACTORS
330
549
102
}
330
549
100
AcDbVisualStyle
  2
Linepattern
 70
    14
 71
     2
 72
     2
 73
     0
 90
        0
 40
-0.6
 41
-30.0
 62
     5
 63
     7
 74
     1
 91
        4
 64
     7
 65
   257
 75
     7
175
     7
 42
1.0
 92
        8
 66
     7
 43
1.0
 76
     1
 77
     6
 78
     2
 67
     7
 79
     5
170
     0
171
     0
290
     0
174
     0
 93
        1
 44
0.0
173
     0
291
     1
 45
0.0
1001
ACAD
1000
AcDbSavedByObjectVersion
1070
     0
  0
VISUALSTYLE
  5
553
102
{ACAD_REACTORS
330
549
102
}
330
549
100
AcDbVisualStyle
  2
Realistic
 70
     8
 71
     2
 72
     2
 73
     0
 90
        0
 40
-0.6
 41
-30.0
 62
     5
 63
     7
 74
     1
 91
        0
 64
     7
 65
   257
 75
     1
175
     1
 42
1.0
 92
        8
 66
     8
 43
1.0
 76
     1
 77
     6
 78
     2
 67
     7
 79
     5
170
     0
171
     0
290
     0
174
     0
 93
       13
 44
0.0
173
     0
291
     0
 45
0.0
1001
ACAD
1000
AcDbSavedByObjectVersion
1070
     0
  0
VISUALSTYLE
  5
556
102
{ACAD_REACTORS
330
549
102
}
330
549
100
AcDbVisualStyle
  2
Thicken
 70
    13
 71
     2
 72
     2
 73
     0
 90
        0
 40
-0.6
 41
-30.0
 62
     5
 63
     7
 74
     1
 91
        4
 64
     7
 65
   257
 75
     1
175
     1
 42
1.0
 92
       12
 66
     7
 43
1.0
 76
     1
 77
     6
 78
     2
 67
     7
 79
     5
170
     0
171
     0
290
     0
174
     0
 93
        1
 44
0.0
173
     0
291
     1
 45
0.0
1001
ACAD
1000
AcDbSavedByObjectVersion
1070
     0
  0
DICTIONARYVAR
  5
5AB
102
{ACAD_REACTORS
330
51F
102
}
330
51F
100
DictionaryVariables
280
     0
  1
1:1
  0
DICTIONARYVAR
  5
5AA
102
{ACAD_REACTORS
330
51F
102
}
330
51F
100
DictionaryVariables
280
     0
  1
STANDARD
  0
DICTIONARYVAR
  5
5A9
102
{ACAD_REACTORS
330
51F
102
}
330
51F
100
DictionaryVariables
280
     0
  1
STANDARD
  0
DICTIONARYVAR
  5
520
102
{ACAD_REACTORS
330
51F
102
}
330
51F
100
DictionaryVariables
280
     0
  1
1
  0
DICTIONARYVAR
  5
5AD
102
{ACAD_REACTORS
330
51F
102
}
330
51F
100
DictionaryVariables
280
     0
  1
0
  0
DICTIONARYVAR
  5
521
102
{ACAD_REACTORS
330
51F
102
}
330
51F
100
DictionaryVariables
280
     0
  1

  0
DICTIONARYVAR
  5
5AC
102
{ACAD_REACTORS
330
51F
102
}
330
51F
100
DictionaryVariables
280
     0
  1
127
  0
DICTIONARY
  5
53A
330
539
100
AcDbDictionary
280
     1
281
     1
  3
ACAD_XREC_ROUNDTRIP
360
3B9D
  3
BUMPTILE
360
53C
  3
DIFFUSETILE
360
53B
  3
OPACITYTILE
360
53F
  3
REFLECTIONTILE
360
53E
  3
REFRACTIONTILE
360
540
  3
SPECULARTILE
360
53D
  0
DICTIONARY
  5
532
330
531
100
AcDbDictionary
280
     1
281
     1
  3
ACAD_XREC_ROUNDTRIP
360
3B9C
  3
BUMPTILE
360
534
  3
DIFFUSETILE
360
533
  3
OPACITYTILE
360
537
  3
REFLECTIONTILE
360
536
  3
REFRACTIONTILE
360
538
  3
SPECULARTILE
360
535
  0
DICTIONARY
  5
542
330
541
100
AcDbDictionary
280
     1
281
     1
  3
ACAD_XREC_ROUNDTRIP
360
3B9E
  3
BUMPTILE
360
544
  3
DIFFUSETILE
360
543
  3
OPACITYTILE
360
547
  3
REFLECTIONTILE
360
546
  3
REFRACTIONTILE
360
548
  3
SPECULARTILE
360
545
  0
DICTIONARY
  5
594
330
55B
100
AcDbDictionary
280
     1
281
     1
  3
ACAD_ROUNDTRIP_2008_TABLESTYLE_CELLSTYLEMAP
360
3B9B
  3
ACAD_XREC_ROUNDTRIP
360
3B9F
  0
XRECORD
  5
3B9D
102
{ACAD_REACTORS
330
53A
102
}
330
53A
100
AcDbXrecord
280
     1
102
MATERIAL
148
0.0
149
0.0
149
0.0
 93
        0
 94
      127
282
     0
 72
     0
 77
     0
171
     0
175
     0
179
     0
273
     0
  0
XRECORD
  5
53C
102
{ACAD_REACTORS
330
53A
102
}
330
53A
100
AcDbXrecord
280
     1
270
     1
271
     1
  0
XRECORD
  5
53B
102
{ACAD_REACTORS
330
53A
102
}
330
53A
100
AcDbXrecord
280
     1
270
     1
271
     1
  0
XRECORD
  5
53F
102
{ACAD_REACTORS
330
53A
102
}
330
53A
100
AcDbXrecord
280
     1
270
     1
271
     1
  0
XRECORD
  5
53E
102
{ACAD_REACTORS
330
53A
102
}
330
53A
100
AcDbXrecord
280
     1
270
     1
271
     1
  0
XRECORD
  5
540
102
{ACAD_REACTORS
330
53A
102
}
330
53A
100
AcDbXrecord
280
     1
270
     1
271
     1
  0
XRECORD
  5
53D
102
{ACAD_REACTORS
330
53A
102
}
330
53A
100
AcDbXrecord
280
     1
270
     1
271
     1
  0
XRECORD
  5
3B9C
102
{ACAD_REACTORS
330
532
102
}
330
532
100
AcDbXrecord
280
     1
102
MATERIAL
148
0.0
149
0.0
149
0.0
 93
        0
 94
      127
282
     0
 72
     0
 77
     0
171
     0
175
     0
179
     0
273
     0
  0
XRECORD
  5
534
102
{ACAD_REACTORS
330
532
102
}
330
532
100
AcDbXrecord
280
     1
270
     1
271
     1
  0
XRECORD
  5
533
102
{ACAD_REACTORS
330
532
102
}
330
532
100
AcDbXrecord
280
     1
270
     1
271
     1
  0
XRECORD
  5
537
102
{ACAD_REACTORS
330
532
102
}
330
532
100
AcDbXrecord
280
     1
270
     1
271
     1
  0
XRECORD
  5
536
102
{ACAD_REACTORS
330
532
102
}
330
532
100
AcDbXrecord
280
     1
270
     1
271
     1
  0
XRECORD
  5
538
102
{ACAD_REACTORS
330
532
102
}
330
532
100
AcDbXrecord
280
     1
270
     1
271
     1
  0
XRECORD
  5
535
102
{ACAD_REACTORS
330
532
102
}
330
532
100
AcDbXrecord
280
     1
270
     1
271
     1
  0
XRECORD
  5
3B9E
102
{ACAD_REACTORS
330
542
102
}
330
542
100
AcDbXrecord
280
     1
102
MATERIAL
148
0.0
149
0.0
149
0.0
 93
        0
 94
      127
282
     0
 72
     0
 77
     0
171
     0
175
     0
179
     0
273
     0
  0
XRECORD
  5
544
102
{ACAD_REACTORS
330
542
102
}
330
542
100
AcDbXrecord
280
     1
270
     1
271
     1
  0
XRECORD
  5
543
102
{ACAD_REACTORS
330
542
102
}
330
542
100
AcDbXrecord
280
     1
270
     1
271
     1
  0
XRECORD
  5
547
102
{ACAD_REACTORS
330
542
102
}
330
542
100
AcDbXrecord
280
     1
270
     1
271
     1
  0
XRECORD
  5
546
102
{ACAD_REACTORS
330
542
102
}
330
542
100
AcDbXrecord
280
     1
270
     1
271
     1
  0
XRECORD
  5
548
102
{ACAD_REACTORS
330
542
102
}
330
542
100
AcDbXrecord
280
     1
270
     1
271
     1
  0
XRECORD
  5
545
102
{ACAD_REACTORS
330
542
102
}
330
542
100
AcDbXrecord
280
     1
270
     1
271
     1
  0
CELLSTYLEMAP
  5
3B9B
102
{ACAD_REACTORS
330
594
102
}
330
594
100
AcDbCellStyleMap
 90
        3
300
CELLSTYLE
  1
TABLEFORMAT_BEGIN
 90
        5
170
     1
 91
        0
 92
    32768
 62
   257
 93
        1
300
CONTENTFORMAT
  1
CONTENTFORMAT_BEGIN
 90
        0
 91
        0
 92
      512
 93
        0
300

 40
0.0
140
1.0
 94
        5
 62
     0
340
F
144
6.0
309
CONTENTFORMAT_END
171
     1
301
MARGIN
  1
CELLMARGIN_BEGIN
 40
1.5
 40
1.5
 40
1.5
 40
1.5
 40
4.5
 40
4.5
309
CELLMARGIN_END
 94
        6
 95
        1
302
GRIDFORMAT
  1
GRIDFORMAT_BEGIN
 90
        0
 91
        1
 62
     0
 92
       -2
340
0
 93
        0
 40
1.125
309
GRIDFORMAT_END
 95
        2
302
GRIDFORMAT
  1
GRIDFORMAT_BEGIN
 90
        0
 91
        1
 62
     0
 92
       -2
340
0
 93
        0
 40
1.125
309
GRIDFORMAT_END
 95
        4
302
GRIDFORMAT
  1
GRIDFORMAT_BEGIN
 90
        0
 91
        1
 62
     0
 92
       -2
340
0
 93
        0
 40
1.125
309
GRIDFORMAT_END
 95
        8
302
GRIDFORMAT
  1
GRIDFORMAT_BEGIN
 90
        0
 91
        1
 62
     0
 92
       -2
340
0
 93
        0
 40
1.125
309
GRIDFORMAT_END
 95
       16
302
GRIDFORMAT
  1
GRIDFORMAT_BEGIN
 90
        0
 91
        1
 62
     0
 92
       -2
340
0
 93
        0
 40
1.125
309
GRIDFORMAT_END
 95
       32
302
GRIDFORMAT
  1
GRIDFORMAT_BEGIN
 90
        0
 91
        1
 62
     0
 92
       -2
340
0
 93
        0
 40
1.125
309
GRIDFORMAT_END
309
TABLEFORMAT_END
  1
CELLSTYLE_BEGIN
 90
        1
 91
        1
300
_TITLE
309
CELLSTYLE_END
300
CELLSTYLE
  1
TABLEFORMAT_BEGIN
 90
        5
170
     1
 91
        0
 92
        0
 62
   257
 93
        1
300
CONTENTFORMAT
  1
CONTENTFORMAT_BEGIN
 90
        0
 91
        0
 92
      512
 93
        0
300

 40
0.0
140
1.0
 94
        5
 62
     0
340
F
144
4.5
309
CONTENTFORMAT_END
171
     1
301
MARGIN
  1
CELLMARGIN_BEGIN
 40
1.5
 40
1.5
 40
1.5
 40
1.5
 40
4.5
 40
4.5
309
CELLMARGIN_END
 94
        6
 95
        1
302
GRIDFORMAT
  1
GRIDFORMAT_BEGIN
 90
        0
 91
        1
 62
     0
 92
       -2
340
0
 93
        0
 40
1.125
309
GRIDFORMAT_END
 95
        2
302
GRIDFORMAT
  1
GRIDFORMAT_BEGIN
 90
        0
 91
        1
 62
     0
 92
       -2
340
0
 93
        0
 40
1.125
309
GRIDFORMAT_END
 95
        4
302
GRIDFORMAT
  1
GRIDFORMAT_BEGIN
 90
        0
 91
        1
 62
     0
 92
       -2
340
0
 93
        0
 40
1.125
309
GRIDFORMAT_END
 95
        8
302
GRIDFORMAT
  1
GRIDFORMAT_BEGIN
 90
        0
 91
        1
 62
     0
 92
       -2
340
0
 93
        0
 40
1.125
309
GRIDFORMAT_END
 95
       16
302
GRIDFORMAT
  1
GRIDFORMAT_BEGIN
 90
        0
 91
        1
 62
     0
 92
       -2
340
0
 93
        0
 40
1.125
309
GRIDFORMAT_END
 95
       32
302
GRIDFORMAT
  1
GRIDFORMAT_BEGIN
 90
        0
 91
        1
 62
     0
 92
       -2
340
0
 93
        0
 40
1.125
309
GRIDFORMAT_END
309
TABLEFORMAT_END
  1
CELLSTYLE_BEGIN
 90
        2
 91
        1
300
_HEADER
309
CELLSTYLE_END
300
CELLSTYLE
  1
TABLEFORMAT_BEGIN
 90
        5
170
     1
 91
        0
 92
        0
 62
   257
 93
        1
300
CONTENTFORMAT
  1
CONTENTFORMAT_BEGIN
 90
        0
 91
        0
 92
      512
 93
        0
300

 40
0.0
140
1.0
 94
        2
 62
     0
340
F
144
4.5
309
CONTENTFORMAT_END
171
     1
301
MARGIN
  1
CELLMARGIN_BEGIN
 40
1.5
 40
1.5
 40
1.5
 40
1.5
 40
4.5
 40
4.5
309
CELLMARGIN_END
 94
        6
 95
        1
302
GRIDFORMAT
  1
GRIDFORMAT_BEGIN
 90
        0
 91
        1
 62
     0
 92
       -2
340
0
 93
        0
 40
1.125
309
GRIDFORMAT_END
 95
        2
302
GRIDFORMAT
  1
GRIDFORMAT_BEGIN
 90
        0
 91
        1
 62
     0
 92
       -2
340
0
 93
        0
 40
1.125
309
GRIDFORMAT_END
 95
        4
302
GRIDFORMAT
  1
GRIDFORMAT_BEGIN
 90
        0
 91
        1
 62
     0
 92
       -2
340
0
 93
        0
 40
1.125
309
GRIDFORMAT_END
 95
        8
302
GRIDFORMAT
  1
GRIDFORMAT_BEGIN
 90
        0
 91
        1
 62
     0
 92
       -2
340
0
 93
        0
 40
1.125
309
GRIDFORMAT_END
 95
       16
302
GRIDFORMAT
  1
GRIDFORMAT_BEGIN
 90
        0
 91
        1
 62
     0
 92
       -2
340
0
 93
        0
 40
1.125
309
GRIDFORMAT_END
 95
       32
302
GRIDFORMAT
  1
GRIDFORMAT_BEGIN
 90
        0
 91
        1
 62
     0
 92
       -2
340
0
 93
        0
 40
1.125
309
GRIDFORMAT_END
309
TABLEFORMAT_END
  1
CELLSTYLE_BEGIN
 90
        3
 91
        2
300
_DATA
309
CELLSTYLE_END
  0
XRECORD
  5
3B9F
102
{ACAD_REACTORS
330
594
102
}
330
594
100
AcDbXrecord
280
     1
102
ACAD_ROUNDTRIP_PRE2007_TABLESTYLE
 90
      512
 91
        0
  1

 92
      512
 93
        0
  2

 94
      512
 95
        0
  3

  0
ENDSEC
  0
EOF
