  0
SECTION
  2
HEADER
  9
$ACADVER
  1
AC1018
  9
$ACADMAINTVER
 70
   104
  9
$DWGCODEPAGE
  3
ANSI_932
  9
$LASTSAVEDBY
  1
kawabe
  9
$INSBASE
 10
0.0
 20
0.0
 30
0.0
  9
$EXTMIN
 10
167.0575185930274
 20
225.339084503672
 30
0.0
  9
$EXTMAX
 10
1061.554974595455
 20
734.9640759146659
 30
0.0
  9
$LIMMIN
 10
0.0
 20
0.0
  9
$LIMMAX
 10
1260.0
 20
891.0
  9
$ORTHOMODE
 70
     0
  9
$REGENMODE
 70
     1
  9
$FILLMODE
 70
     1
  9
$QTEXTMODE
 70
     0
  9
$MIRRTEXT
 70
     1
  9
$LTSCALE
 40
1.0
  9
$ATTMODE
 70
     1
  9
$TEXTSIZE
 40
2.5
  9
$TRACEWID
 40
1.0
  9
$TEXTSTYLE
  7
STANDARD
  9
$CLAYER
  8
0
  9
$CELTYPE
  6
BYLAYER
  9
$CECOLOR
 62
   256
  9
$CELTSCALE
 40
1.0
  9
$DISPSILH
 70
     0
  9
$DIMSCALE
 40
1.0
  9
$DIMASZ
 40
2.5
  9
$DIMEXO
 40
1.0
  9
$DIMDLI
 40
8.0
  9
$DIMRND
 40
0.0
  9
$DIMDLE
 40
0.0
  9
$DIMEXE
 40
1.25
  9
$DIMTP
 40
0.0
  9
$DIMTM
 40
0.0
  9
$DIMTXT
 40
2.5
  9
$DIMCEN
 40
0.0
  9
$DIMTSZ
 40
0.0
  9
$DIMTOL
 70
     0
  9
$DIMLIM
 70
     0
  9
$DIMTIH
 70
     0
  9
$DIMTOH
 70
     0
  9
$DIMSE1
 70
     0
  9
$DIMSE2
 70
     0
  9
$DIMTAD
 70
     3
  9
$DIMZIN
 70
     8
  9
$DIMBLK
  1

  9
$DIMASO
 70
     1
  9
$DIMSHO
 70
     1
  9
$DIMPOST
  1

  9
$DIMAPOST
  1

  9
$DIMALT
 70
     0
  9
$DIMALTD
 70
     4
  9
$DIMALTF
 40
0.0394
  9
$DIMLFAC
 40
1.0
  9
$DIMTOFL
 70
     1
  9
$DIMTVP
 40
0.0
  9
$DIMTIX
 70
     0
  9
$DIMSOXD
 70
     0
  9
$DIMSAH
 70
     1
  9
$DIMBLK1
  1
OPEN30
  9
$DIMBLK2
  1
OPEN30
  9
$DIMSTYLE
  2
STANDARD
  9
$DIMCLRD
 70
     4
  9
$DIMCLRE
 70
     4
  9
$DIMCLRT
 70
     3
  9
$DIMTFAC
 40
1.0
  9
$DIMGAP
 40
1.0
  9
$DIMJUST
 70
     0
  9
$DIMSD1
 70
     0
  9
$DIMSD2
 70
     0
  9
$DIMTOLJ
 70
     1
  9
$DIMTZIN
 70
     8
  9
$DIMALTZ
 70
     0
  9
$DIMALTTZ
 70
     0
  9
$DIMUPT
 70
     0
  9
$DIMDEC
 70
     4
  9
$DIMTDEC
 70
     4
  9
$DIMALTU
 70
     8
  9
$DIMALTTD
 70
     4
  9
$DIMTXSTY
  7
STANDARD
  9
$DIMAUNIT
 70
     0
  9
$DIMADEC
 70
     3
  9
$DIMALTRND
 40
0.0
  9
$DIMAZIN
 70
     2
  9
$DIMDSEP
 70
    46
  9
$DIMATFIT
 70
     3
  9
$DIMFRAC
 70
     0
  9
$DIMLDRBLK
  1
OPEN30
  9
$DIMLUNIT
 70
     2
  9
$DIMLWD
 70
    -2
  9
$DIMLWE
 70
    -2
  9
$DIMTMOVE
 70
     0
  9
$LUNITS
 70
     2
  9
$LUPREC
 70
     4
  9
$SKETCHINC
 40
1.0
  9
$FILLETRAD
 40
0.0
  9
$AUNITS
 70
     0
  9
$AUPREC
 70
     0
  9
$MENU
  1
acad
  9
$ELEVATION
 40
0.0
  9
$PELEVATION
 40
0.0
  9
$THICKNESS
 40
0.0
  9
$LIMCHECK
 70
     0
  9
$CHAMFERA
 40
0.0
  9
$CHAMFERB
 40
0.0
  9
$CHAMFERC
 40
20.0
  9
$CHAMFERD
 40
0.0
  9
$SKPOLY
 70
     0
  9
$TDCREATE
 40
2451570.536335903
  9
$TDUCREATE
 40
2451570.161335903
  9
$TDUPDATE
 40
2456409.594922049
  9
$TDUUPDATE
 40
2456409.219922048
  9
$TDINDWG
 40
0.1420159838
  9
$TDUSRTIMER
 40
0.1420159838
  9
$USRTIMER
 70
     1
  9
$ANGBASE
 50
0.0
  9
$ANGDIR
 70
     0
  9
$PDMODE
 70
     3
  9
$PDSIZE
 40
0.0
  9
$PLINEWID
 40
0.0
  9
$SPLFRAME
 70
     0
  9
$SPLINETYPE
 70
     6
  9
$SPLINESEGS
 70
     8
  9
$HANDSEED
  5
44AD
  9
$SURFTAB1
 70
     6
  9
$SURFTAB2
 70
     6
  9
$SURFTYPE
 70
     6
  9
$SURFU
 70
     6
  9
$SURFV
 70
     6
  9
$UCSBASE
  2

  9
$UCSNAME
  2

  9
$UCSORG
 10
0.0
 20
0.0
 30
0.0
  9
$UCSXDIR
 10
1.0
 20
0.0
 30
0.0
  9
$UCSYDIR
 10
0.0
 20
1.0
 30
0.0
  9
$UCSORTHOREF
  2

  9
$UCSORTHOVIEW
 70
     0
  9
$UCSORGTOP
 10
0.0
 20
0.0
 30
0.0
  9
$UCSORGBOTTOM
 10
0.0
 20
0.0
 30
0.0
  9
$UCSORGLEFT
 10
0.0
 20
0.0
 30
0.0
  9
$UCSORGRIGHT
 10
0.0
 20
0.0
 30
0.0
  9
$UCSORGFRONT
 10
0.0
 20
0.0
 30
0.0
  9
$UCSORGBACK
 10
0.0
 20
0.0
 30
0.0
  9
$PUCSBASE
  2

  9
$PUCSNAME
  2

  9
$PUCSORG
 10
0.0
 20
0.0
 30
0.0
  9
$PUCSXDIR
 10
1.0
 20
0.0
 30
0.0
  9
$PUCSYDIR
 10
0.0
 20
1.0
 30
0.0
  9
$PUCSORTHOREF
  2

  9
$PUCSORTHOVIEW
 70
     0
  9
$PUCSORGTOP
 10
0.0
 20
0.0
 30
0.0
  9
$PUCSORGBOTTOM
 10
0.0
 20
0.0
 30
0.0
  9
$PUCSORGLEFT
 10
0.0
 20
0.0
 30
0.0
  9
$PUCSORGRIGHT
 10
0.0
 20
0.0
 30
0.0
  9
$PUCSORGFRONT
 10
0.0
 20
0.0
 30
0.0
  9
$PUCSORGBACK
 10
0.0
 20
0.0
 30
0.0
  9
$USERI1
 70
     0
  9
$USERI2
 70
     0
  9
$USERI3
 70
     0
  9
$USERI4
 70
     0
  9
$USERI5
 70
     0
  9
$USERR1
 40
0.0
  9
$USERR2
 40
0.0
  9
$USERR3
 40
0.0
  9
$USERR4
 40
0.0
  9
$USERR5
 40
0.0
  9
$WORLDVIEW
 70
     1
  9
$SHADEDGE
 70
     3
  9
$SHADEDIF
 70
    70
  9
$TILEMODE
 70
     1
  9
$MAXACTVP
 70
    48
  9
$PINSBASE
 10
0.0
 20
0.0
 30
0.0
  9
$PLIMCHECK
 70
     0
  9
$PEXTMIN
 10
1.000000000000000E+20
 20
1.000000000000000E+20
 30
1.000000000000000E+20
  9
$PEXTMAX
 10
-1.000000000000000E+20
 20
-1.000000000000000E+20
 30
-1.000000000000000E+20
  9
$PLIMMIN
 10
0.0
 20
0.0
  9
$PLIMMAX
 10
420.0
 20
297.0
  9
$UNITMODE
 70
     0
  9
$VISRETAIN
 70
     0
  9
$PLINEGEN
 70
     0
  9
$PSLTSCALE
 70
     0
  9
$TREEDEPTH
 70
  3020
  9
$CMLSTYLE
  2
STANDARD
  9
$CMLJUST
 70
     0
  9
$CMLSCALE
 40
20.0
  9
$PROXYGRAPHICS
 70
     1
  9
$MEASUREMENT
 70
     1
  9
$CELWEIGHT
370
    -1
  9
$ENDCAPS
280
     0
  9
$JOINSTYLE
280
     0
  9
$LWDISPLAY
290
     0
  9
$INSUNITS
 70
     0
  9
$HYPERLINKBASE
  1

  9
$STYLESHEET
  1
標準1.ctb
  9
$XEDIT
290
     1
  9
$CEPSNTYPE
380
     0
  9
$PSTYLEMODE
290
     1
  9
$FINGERPRINTGUID
  2
{5F48A7CD-59E2-44B5-85E7-03D7F49E3F49}
  9
$VERSIONGUID
  2
{694E0286-2B0B-4895-95D7-2D0D2B18424D}
  9
$EXTNAMES
290
     1
  9
$PSVPSCALE
 40
0.0
  9
$OLESTARTUP
290
     0
  9
$SORTENTS
280
   127
  9
$INDEXCTL
280
     0
  9
$HIDETEXT
280
     0
  9
$XCLIPFRAME
290
     0
  9
$HALOGAP
280
     0
  9
$OBSCOLOR
 70
   257
  9
$OBSLTYPE
280
     0
  9
$INTERSECTIONDISPLAY
280
     0
  9
$INTERSECTIONCOLOR
 70
   257
  9
$DIMASSOC
280
     1
  9
$PROJECTNAME
  1

  0
ENDSEC
  0
SECTION
  2
CLASSES
  0
CLASS
  1
ACDBDICTIONARYWDFLT
  2
AcDbDictionaryWithDefault
  3
ObjectDBX Classes
 90
        0
 91
        1
280
     0
281
     0
  0
CLASS
  1
DICTIONARYVAR
  2
AcDbDictionaryVar
  3
ObjectDBX Classes
 90
        0
 91
        7
280
     0
281
     0
  0
CLASS
  1
MATERIAL
  2
AcDbMaterial
  3
ObjectDBX Classes
 90
     1153
 91
        3
280
     0
281
     0
  0
CLASS
  1
VISUALSTYLE
  2
AcDbVisualStyle
  3
ObjectDBX Classes
 90
     4095
 91
       16
280
     0
281
     0
  0
CLASS
  1
TABLESTYLE
  2
AcDbTableStyle
  3
ObjectDBX Classes
 90
     4095
 91
        1
280
     0
281
     0
  0
CLASS
  1
SCALE
  2
AcDbScale
  3
ObjectDBX Classes
 90
     1153
 91
       33
280
     0
281
     0
  0
CLASS
  1
MLEADERSTYLE
  2
AcDbMLeaderStyle
  3
ACDB_MLEADERSTYLE_CLASS
 90
     4095
 91
        1
280
     0
281
     0
  0
CLASS
  1
CELLSTYLEMAP
  2
AcDbCellStyleMap
  3
ObjectDBX Classes
 90
     1152
 91
        2
280
     0
281
     0
  0
CLASS
  1
SORTENTSTABLE
  2
AcDbSortentsTable
  3
ObjectDBX Classes
 90
        0
 91
        1
280
     0
281
     0
  0
CLASS
  1
DIMASSOC
  2
AcDbDimAssoc
  3
"AcDbDimAssoc|Product Desc:     AcDim ARX App For Dimension|Company:          Autodesk, Inc.|WEB Address:      www.autodesk.com"
 90
        0
 91
        0
280
     0
281
     0
  0
ENDSEC
  0
SECTION
  2
TABLES
  0
TABLE
  2
VPORT
  5
8
102
{ACAD_XDICTIONARY
360
598
102
}
330
0
100
AcDbSymbolTable
 70
     1
  0
VPORT
  5
528
330
8
100
AcDbSymbolTableRecord
100
AcDbViewportTableRecord
  2
*Active
 70
     0
 10
0.0
 20
0.0
 11
1.0
 21
1.0
 12
723.0586217992752
 22
480.8107367557237
 13
0.0
 23
0.0
 14
3.0
 24
3.0
 15
15.0
 25
15.0
 16
0.0
 26
0.0
 36
1.0
 17
0.0
 27
0.0
 37
0.0
 40
589.4756031012741
 41
2.248815165876777
 42
50.0
 43
0.0
 44
0.0
 50
0.0
 51
0.0
 71
     0
 72
   100
 73
     1
 74
     0
 75
     0
 76
     0
 77
     0
 78
     0
281
     0
 65
     1
110
0.0
120
0.0
130
0.0
111
1.0
121
0.0
131
0.0
112
0.0
122
1.0
132
0.0
 79
     0
146
0.0
  0
ENDTAB
  0
TABLE
  2
LTYPE
  5
5
330
0
100
AcDbSymbolTable
 70
     4
  0
LTYPE
  5
12
330
5
100
AcDbSymbolTableRecord
100
AcDbLinetypeTableRecord
  2
BYBLOCK
 70
     0
  3

 72
    65
 73
     0
 40
0.0
  0
LTYPE
  5
13
330
5
100
AcDbSymbolTableRecord
100
AcDbLinetypeTableRecord
  2
BYLAYER
 70
     0
  3

 72
    65
 73
     0
 40
0.0
  0
LTYPE
  5
14
330
5
100
AcDbSymbolTableRecord
100
AcDbLinetypeTableRecord
  2
CONTINUOUS
 70
     0
  3
Solid line
 72
    65
 73
     0
 40
0.0
  0
LTYPE
  5
807
330
5
100
AcDbSymbolTableRecord
100
AcDbLinetypeTableRecord
  2
DASHED
 70
     0
  3
__ __ __ __ __ __ __ __ __ __ __ __ __ __ __ __
 72
    65
 73
     2
 40
15.0
 49
12.0
 74
     0
 49
-3.0
 74
     0
  0
LTYPE
  5
1ED8
330
5
100
AcDbSymbolTableRecord
100
AcDbLinetypeTableRecord
  2
CENTER
 70
     0
  3
Center ____ _ ____ _ ____ _ ____ _ ____ _ ____
 72
    65
 73
     4
 40
50.8
 49
31.75
 74
     0
 49
-6.349999999999999
 74
     0
 49
6.349999999999999
 74
     0
 49
-6.349999999999999
 74
     0
  0
LTYPE
  5
1ED9
330
5
100
AcDbSymbolTableRecord
100
AcDbLinetypeTableRecord
  2
PHANTOM
 70
     0
  3
Phantom ______  __  __  ______  __  __  ______
 72
    65
 73
     6
 40
63.5
 49
31.75
 74
     0
 49
-6.349999999999999
 74
     0
 49
6.349999999999999
 74
     0
 49
-6.349999999999999
 74
     0
 49
6.349999999999999
 74
     0
 49
-6.349999999999999
 74
     0
  0
ENDTAB
  0
TABLE
  2
LAYER
  5
2
102
{ACAD_XDICTIONARY
360
646
102
}
330
0
100
AcDbSymbolTable
 70
     2
  0
LAYER
  5
E
102
{ACAD_XDICTIONARY
360
586
102
}
330
2
100
AcDbSymbolTableRecord
100
AcDbLayerTableRecord
  2
0
 70
     0
 62
     7
  6
CONTINUOUS
370
    -3
390
2EB
  0
LAYER
  5
808
330
2
100
AcDbSymbolTableRecord
100
AcDbLayerTableRecord
  2
Defpoints
 70
     0
 62
     7
  6
CONTINUOUS
290
     0
370
    20
390
2EB
  0
ENDTAB
  0
TABLE
  2
STYLE
  5
3
330
0
100
AcDbSymbolTable
 70
     2
  0
STYLE
  5
F
330
3
100
AcDbSymbolTableRecord
100
AcDbTextStyleTableRecord
  2
STANDARD
 70
     0
 40
0.0
 41
1.0
 50
0.0
 71
     0
 42
2.5
  3
txt.shx
  4
extfont.shx
  0
STYLE
  5
70
330
3
100
AcDbSymbolTableRecord
100
AcDbTextStyleTableRecord
  2

 70
     1
 40
0.0
 41
1.0
 50
0.0
 71
     0
 42
2.5
  3
ltypeshp.shx
  4

  0
ENDTAB
  0
TABLE
  2
VIEW
  5
6
330
0
100
AcDbSymbolTable
 70
     0
  0
ENDTAB
  0
TABLE
  2
UCS
  5
7
330
0
100
AcDbSymbolTable
 70
     0
  0
ENDTAB
  0
TABLE
  2
APPID
  5
9
330
0
100
AcDbSymbolTable
 70
     9
  0
APPID
  5
10
330
9
100
AcDbSymbolTableRecord
100
AcDbRegAppTableRecord
  2
ACAD
 70
     0
  0
APPID
  5
580
330
9
100
AcDbSymbolTableRecord
100
AcDbRegAppTableRecord
  2
ACAD_MLEADERVER
 70
     0
  0
APPID
  5
5F8
330
9
100
AcDbSymbolTableRecord
100
AcDbRegAppTableRecord
  2
AcadAnnoPO
 70
     0
  0
APPID
  5
60D
330
9
100
AcDbSymbolTableRecord
100
AcDbRegAppTableRecord
  2
ACAD_PSEXT
 70
     0
  0
APPID
  5
644
330
9
100
AcDbSymbolTableRecord
100
AcDbRegAppTableRecord
  2
ACAD_DSTYLE_DIMJAG
 70
     0
  0
APPID
  5
645
330
9
100
AcDbSymbolTableRecord
100
AcDbRegAppTableRecord
  2
ACAD_DSTYLE_DIMTALN
 70
     0
  0
APPID
  5
CCF
330
9
100
AcDbSymbolTableRecord
100
AcDbRegAppTableRecord
  2
GENIUS_GENODEF_13
 70
     0
  0
APPID
  5
CD0
330
9
100
AcDbSymbolTableRecord
100
AcDbRegAppTableRecord
  2
GENIUS_GENOBJ-N-CEN_13
 70
     0
  0
APPID
  5
3B46
330
9
100
AcDbSymbolTableRecord
100
AcDbRegAppTableRecord
  2
ACAD_EXEMPT_FROM_CAD_STANDARDS
 70
     0
  0
ENDTAB
  0
TABLE
  2
DIMSTYLE
  5
A
330
0
100
AcDbSymbolTable
 70
     1
100
AcDbDimStyleTable
 71
     1
340
1D
  0
DIMSTYLE
105
1D
330
A
100
AcDbSymbolTableRecord
100
AcDbDimStyleTableRecord
  2
STANDARD
 70
     0
 41
2.5
 42
1.0
 43
8.0
 44
1.25
 73
     0
 74
     0
 77
     3
 78
     8
 79
     2
140
2.5
141
0.0
143
0.0394
147
1.0
171
     4
172
     1
173
     1
176
     4
177
     4
178
     3
179
     3
273
     8
274
     4
284
     8
340
F
341
20
343
20
344
20
  0
ENDTAB
  0
TABLE
  2
BLOCK_RECORD
  5
1
330
0
100
AcDbSymbolTable
 70
     1
  0
BLOCK_RECORD
  5
18
102
{ACAD_XDICTIONARY
360
CB1
102
}
330
1
100
AcDbSymbolTableRecord
100
AcDbBlockTableRecord
  2
*MODEL_SPACE
340
2F0
  0
BLOCK_RECORD
  5
15
330
1
100
AcDbSymbolTableRecord
100
AcDbBlockTableRecord
  2
*PAPER_SPACE
340
2F1
  0
BLOCK_RECORD
  5
20
330
1
100
AcDbSymbolTableRecord
100
AcDbBlockTableRecord
  2
_OPEN30
340
0
  0
ENDTAB
  0
ENDSEC
  0
SECTION
  2
BLOCKS
  0
BLOCK
  5
19
330
18
100
AcDbEntity
  8
0
100
AcDbBlockBegin
  2
*MODEL_SPACE
 70
     0
 10
0.0
 20
0.0
 30
0.0
  3
*MODEL_SPACE
  1

  0
ENDBLK
  5
1A
330
18
100
AcDbEntity
  8
0
100
AcDbBlockEnd
  0
BLOCK
  5
16
330
15
100
AcDbEntity
 67
     1
  8
0
100
AcDbBlockBegin
  2
*PAPER_SPACE
 70
     0
 10
0.0
 20
0.0
 30
0.0
  3
*PAPER_SPACE
  1

  0
ENDBLK
  5
17
330
15
100
AcDbEntity
 67
     1
  8
0
100
AcDbBlockEnd
  0
BLOCK
  5
24
330
20
100
AcDbEntity
  8
0
100
AcDbBlockBegin
  2
_OPEN30
 70
     0
 10
0.0
 20
0.0
 30
0.0
  3
_OPEN30
  1

  0
LINE
  5
21
330
20
100
AcDbEntity
  8
0
  6
ByBlock
 62
     0
100
AcDbLine
 10
-1.0
 20
0.26794919
 30
0.0
 11
0.0
 21
0.0
 31
0.0
  0
LINE
  5
22
330
20
100
AcDbEntity
  8
0
  6
ByBlock
 62
     0
100
AcDbLine
 10
0.0
 20
0.0
 30
0.0
 11
-1.0
 21
-0.26794919
 31
0.0
  0
LINE
  5
23
330
20
100
AcDbEntity
  8
0
  6
ByBlock
 62
     0
100
AcDbLine
 10
0.0
 20
0.0
 30
0.0
 11
-1.0
 21
0.0
 31
0.0
  0
ENDBLK
  5
25
330
20
100
AcDbEntity
  8
0
100
AcDbBlockEnd
  0
ENDSEC
  0
SECTION
  2
ENTITIES
  0
LINE
  5
3FDE
330
18
100
AcDbEntity
  8
0
100
AcDbLine
 10
1046.554974595746
 20
237.3390844962214
 30
0.0
 11
892.5549745916423
 21
237.3390844971527
 31
0.0
  0
LINE
  5
3FDF
330
18
100
AcDbEntity
  8
0
100
AcDbLine
 10
1046.554974595746
 20
235.3390844970363
 30
0.0
 11
1061.554974595455
 21
235.339084497502
 31
0.0
  0
LINE
  5
3FE0
330
18
100
AcDbEntity
  8
0
100
AcDbLine
 10
1061.554974595455
 20
235.339084497502
 30
0.0
 11
1061.554974595222
 21
452.3390844962213
 31
0.0
  0
LINE
  5
3FE1
330
18
100
AcDbEntity
  8
0
100
AcDbLine
 10
1061.554974595222
 20
452.3390844962213
 30
0.0
 11
1046.554974595426
 21
452.3390844970363
 31
0.0
  0
LINE
  5
3FE2
330
18
100
AcDbEntity
  8
0
100
AcDbLine
 10
1046.554974595426
 20
452.3390844970363
 30
0.0
 11
1046.554974595746
 21
235.3390844987826
 31
0.0
  0
LINE
  5
3FE3
330
18
100
AcDbEntity
  8
0
100
AcDbLine
 10
613.5870758316805
 20
492.3390845025078
 30
0.0
 11
613.5870758316805
 21
458.339084502275
 31
0.0
  0
LINE
  5
3FE4
330
18
100
AcDbEntity
  8
0
100
AcDbLine
 10
619.5870758315932
 20
452.339084502275
 30
0.0
 11
620.5870758316805
 21
452.339084502275
 31
0.0
  0
ARC
  5
3FE5
330
18
100
AcDbEntity
  8
0
100
AcDbCircle
 10
619.5870758316805
 20
458.339084502275
 30
0.0
 40
6.0
100
AcDbArc
 50
180.0
 51
269.9999999983325
  0
LINE
  5
3FE6
330
18
100
AcDbEntity
  8
0
100
AcDbLine
 10
603.5870758317387
 20
502.3390845025078
 30
0.0
 11
597.5870758317096
 21
502.3390845026242
 31
0.0
  0
LINE
  5
3FE7
330
18
100
AcDbEntity
  8
0
100
AcDbLine
 10
587.5870758317096
 20
492.3390845026242
 30
0.0
 11
587.5870758317096
 21
469.837998903904
 31
0.0
  0
ARC
  5
3FE8
330
18
100
AcDbEntity
  8
0
100
AcDbCircle
 10
603.5870758316804
 20
492.3390845025078
 30
0.0
 40
10.0
100
AcDbArc
 50
0.0
 51
90.0
  0
ARC
  5
3FE9
330
18
100
AcDbEntity
  8
0
100
AcDbCircle
 10
597.5870758317096
 20
492.3390845026242
 30
0.0
 40
10.0
100
AcDbArc
 50
90.0
 51
180.0
  0
LINE
  5
3FEA
330
18
100
AcDbEntity
  8
0
100
AcDbLine
 10
465.1566834325704
 20
415.527102435788
 30
0.0
 11
573.767415719215
 21
450.8168685780492
 31
0.0
  0
LINE
  5
3FEB
330
18
100
AcDbEntity
  8
0
100
AcDbLine
 10
472.4911703035095
 20
415.6063487825104
 30
0.0
 11
471.8140790466777
 21
417.6902213965895
 31
0.0
  0
LINE
  5
3FEC
330
18
100
AcDbEntity
  8
0
100
AcDbLine
 10
463.7805956812726
 20
412.8263781582591
 30
0.0
 11
465.1566834326286
 21
415.5271024359044
 31
0.0
  0
LINE
  5
3FED
330
18
100
AcDbEntity
  8
0
100
AcDbLine
 10
564.9003769040491
 20
445.0986487619466
 30
0.0
 11
564.0665611273061
 21
447.6648698509325
 31
0.0
  0
ARC
  5
3FEE
330
18
100
AcDbEntity
  8
0
100
AcDbCircle
 10
567.5870758317095
 20
469.837998903904
 30
0.0
 40
20.0
100
AcDbArc
 50
288.0000000005742
 51
0.0
  0
LINE
  5
3FEF
330
18
100
AcDbEntity
  8
0
100
AcDbLine
 10
590.5870758317096
 20
492.3390845026242
 30
0.0
 11
590.5870758317096
 21
469.837998903904
 31
0.0
  0
LINE
  5
3FF0
330
18
100
AcDbEntity
  8
0
100
AcDbLine
 10
610.5870758316805
 20
492.3390845025078
 30
0.0
 11
610.5870758316805
 21
458.339084502275
 31
0.0
  0
ARC
  5
3FF1
330
18
100
AcDbEntity
  8
0
100
AcDbCircle
 10
597.5870758317096
 20
492.3390845026242
 30
0.0
 40
7.0
100
AcDbArc
 50
90.0
 51
180.0
  0
ARC
  5
3FF2
330
18
100
AcDbEntity
  8
0
100
AcDbCircle
 10
603.5870758316804
 20
492.3390845025078
 30
0.0
 40
7.0
100
AcDbArc
 50
0.0
 51
90.0
  0
LINE
  5
3FF3
330
18
100
AcDbEntity
  8
0
100
AcDbLine
 10
603.5870758316804
 20
499.3390845025078
 30
0.0
 11
597.5870758316514
 21
499.3390845026242
 31
0.0
  0
ARC
  5
3FF4
330
18
100
AcDbEntity
  8
0
100
AcDbCircle
 10
567.5870758317095
 20
469.837998903904
 30
0.0
 40
23.0
100
AcDbArc
 50
296.133756165303
 51
0.0
  0
ARC
  5
3FF5
330
18
100
AcDbEntity
  8
0
100
AcDbCircle
 10
620.5870758317096
 20
463.6724178359964
 30
0.0
 40
11.33333333354162
100
AcDbArc
 50
208.072486936245
 51
270.0
  0
LINE
  5
3FF6
330
18
100
AcDbEntity
  8
0
100
AcDbLine
 10
182.0575185946572
 20
452.3390844944751
 30
0.0
 11
184.0575185945699
 21
452.3390844944751
 31
0.0
  0
LINE
  5
3FF7
330
18
100
AcDbEntity
  8
0
100
AcDbLine
 10
336.0575185946573
 20
452.3390844943588
 30
0.0
 11
336.0575185947737
 21
445.3390844944752
 31
0.0
  0
LINE
  5
3FF8
330
18
100
AcDbEntity
  8
0
100
AcDbLine
 10
182.0575185946572
 20
445.3390844944752
 30
0.0
 11
182.0575185946572
 21
452.3390844944751
 31
0.0
  0
LINE
  5
3FF9
330
18
100
AcDbEntity
  8
0
100
AcDbLine
 10
184.0575185947736
 20
499.3390844944752
 30
0.0
 11
184.0575185945408
 21
452.3390844943588
 31
0.0
  0
LINE
  5
3FFA
330
18
100
AcDbEntity
  8
0
100
AcDbLine
 10
334.0575185947737
 20
499.3390844941258
 30
0.0
 11
334.0575185947737
 21
452.3390844943588
 31
0.0
  0
LINE
  5
3FFB
330
18
100
AcDbEntity
  8
0
100
AcDbLine
 10
187.0575185946572
 20
502.3390844944751
 30
0.0
 11
331.0575185947737
 21
502.3390844942423
 31
0.0
  0
LINE
  5
3FFC
330
18
100
AcDbEntity
  8
0
100
AcDbLine
 10
184.0575185947736
 20
499.3390844944752
 30
0.0
 11
187.0575185946572
 21
502.3390844944751
 31
0.0
  0
LINE
  5
3FFD
330
18
100
AcDbEntity
  8
0
100
AcDbLine
 10
331.0575185947737
 20
502.3390844942423
 30
0.0
 11
334.0575185947737
 21
499.3390844941258
 31
0.0
  0
LINE
  5
3FFE
330
18
100
AcDbEntity
  8
0
100
AcDbLine
 10
187.0575185946572
 20
502.3390844944751
 30
0.0
 11
187.057518595152
 21
419.3073024280256
 31
0.0
  0
LINE
  5
3FFF
330
18
100
AcDbEntity
  8
0
100
AcDbLine
 10
331.0575185947737
 20
502.3390844942423
 30
0.0
 11
331.0575185946573
 21
452.3390844942423
 31
0.0
  0
LINE
  5
4000
330
18
100
AcDbEntity
  8
0
100
AcDbLine
 10
197.0575185947737
 20
480.3390844942423
 30
0.0
 11
321.0575185947737
 21
480.3390844937767
 31
0.0
  0
LINE
  5
4001
330
18
100
AcDbEntity
  8
0
100
AcDbLine
 10
182.0575185946572
 20
452.3390844942423
 30
0.0
 11
182.0575185947737
 21
368.3390844943588
 31
0.0
  0
LINE
  5
4002
330
18
100
AcDbEntity
  8
0
100
AcDbLine
 10
336.0575185947737
 20
452.3390844944751
 30
0.0
 11
336.0575185948901
 21
368.3390844944752
 31
0.0
  0
LINE
  5
4003
330
18
100
AcDbEntity
  8
0
100
AcDbLine
 10
194.0575185947737
 20
477.3390844943588
 30
0.0
 11
194.0575185945408
 21
454.3390844944751
 31
0.0
  0
LINE
  5
4004
330
18
100
AcDbEntity
  8
0
100
AcDbLine
 10
324.0575185947737
 20
477.3390844938931
 30
0.0
 11
324.0575185946573
 21
454.3390844945916
 31
0.0
  0
LINE
  5
4005
330
18
100
AcDbEntity
  8
0
100
AcDbLine
 10
196.0575185945408
 20
452.3390844944751
 30
0.0
 11
194.0575185945408
 21
454.3390844944751
 31
0.0
  0
LINE
  5
4006
330
18
100
AcDbEntity
  8
0
100
AcDbLine
 10
322.0575185947737
 20
452.3390844943588
 30
0.0
 11
324.0575185946573
 21
454.3390844945916
 31
0.0
  0
ARC
  5
4007
330
18
100
AcDbEntity
  8
0
100
AcDbCircle
 10
197.0575185950065
 20
477.3390844941259
 30
0.0
 40
3.0
100
AcDbArc
 50
90.0
 51
180.0
  0
ARC
  5
4008
330
18
100
AcDbEntity
  8
0
100
AcDbCircle
 10
321.0575185949192
 20
477.3390844936602
 30
0.0
 40
3.0
100
AcDbArc
 50
0.0
 51
90.0
  0
LINE
  5
4009
330
18
100
AcDbEntity
  8
0
100
AcDbLine
 10
334.0575185948901
 20
495.4683268069875
 30
0.0
 11
334.0575185946573
 21
485.468326806871
 31
0.0
  0
LINE
  5
400A
330
18
100
AcDbEntity
  8
0
 62
     4
100
AcDbLine
 10
197.0574599865276
 20
447.664869842667
 30
0.0
 11
288.0575185970438
 21
447.6648698430162
 31
0.0
  0
LINE
  5
400B
330
18
100
AcDbEntity
  8
0
 62
     4
100
AcDbLine
 10
294.5575185968401
 20
417.6902216006656
 30
0.0
 11
321.0575185960834
 21
417.6902216003163
 31
0.0
  0
LINE
  5
400C
330
18
100
AcDbEntity
  8
0
100
AcDbLine
 10
192.0575185968692
 20
411.7468818964789
 30
0.0
 11
326.0575185896514
 21
411.7468818964789
 31
0.0
  0
LINE
  5
400D
330
18
100
AcDbEntity
  8
0
100
AcDbLine
 10
190.8377185951603
 20
415.5271024279882
 30
0.0
 11
327.2773185913602
 21
415.5271024275225
 31
0.0
  0
LINE
  5
400E
330
18
100
AcDbEntity
  8
0
 62
     4
100
AcDbLine
 10
293.5575185968401
 20
418.6902216006656
 30
0.0
 11
293.5575185968692
 21
446.6648698432491
 31
0.0
  0
LINE
  5
400F
330
18
100
AcDbEntity
  8
0
 62
     4
100
AcDbLine
 10
324.0575185961124
 20
420.6902216003163
 30
0.0
 11
324.0575185961416
 21
444.6648698428998
 31
0.0
  0
LINE
  5
4010
330
18
100
AcDbEntity
  8
0
 62
     4
100
AcDbLine
 10
291.0575185970729
 20
420.6902216005492
 30
0.0
 11
291.0575185970729
 21
444.6648698430163
 31
0.0
  0
LINE
  5
4011
330
18
100
AcDbEntity
  8
0
 62
     4
100
AcDbLine
 10
194.0574599864985
 20
420.6902216011313
 30
0.0
 11
194.0574599865276
 21
444.6648698426669
 31
0.0
  0
LINE
  5
4012
330
18
100
AcDbEntity
  8
0
 62
     4
100
AcDbLine
 10
197.0574599864694
 20
417.6902216011312
 30
0.0
 11
288.0575185970438
 21
417.6902216005491
 31
0.0
  0
LINE
  5
4013
330
18
100
AcDbEntity
  8
0
 62
     4
100
AcDbLine
 10
294.5575185968692
 20
447.6648698432491
 30
0.0
 11
321.0575185961416
 21
447.6648698428999
 31
0.0
  0
ARC
  5
4014
330
18
100
AcDbEntity
  8
0
 62
     4
100
AcDbCircle
 10
197.0574599865276
 20
444.6648698426669
 30
0.0
 40
3.0
100
AcDbArc
 50
90.0
 51
180.0
  0
ARC
  5
4015
330
18
100
AcDbEntity
  8
0
 62
     4
100
AcDbCircle
 10
288.0575185970729
 20
444.6648698430163
 30
0.0
 40
3.0
100
AcDbArc
 50
0.0
 51
90.0
  0
ARC
  5
4016
330
18
100
AcDbEntity
  8
0
 62
     4
100
AcDbCircle
 10
288.0575185970729
 20
420.6902216005492
 30
0.0
 40
3.0
100
AcDbArc
 50
270.0
 51
0.0
  0
ARC
  5
4017
330
18
100
AcDbEntity
  8
0
 62
     4
100
AcDbCircle
 10
197.0574599864985
 20
420.6902216011313
 30
0.0
 40
3.0
100
AcDbArc
 50
180.0
 51
270.0
  0
ARC
  5
4018
330
18
100
AcDbEntity
  8
0
 62
     4
100
AcDbCircle
 10
321.0575185961416
 20
444.6648698428998
 30
0.0
 40
3.0
100
AcDbArc
 50
0.0
 51
90.0
  0
ARC
  5
4019
330
18
100
AcDbEntity
  8
0
 62
     4
100
AcDbCircle
 10
321.0575185961125
 20
420.6902216003163
 30
0.0
 40
3.0
100
AcDbArc
 50
270.0
 51
0.0
  0
ARC
  5
401A
330
18
100
AcDbEntity
  8
0
 62
     4
100
AcDbCircle
 10
294.5575185968692
 20
446.6648698432491
 30
0.0
 40
1.0
100
AcDbArc
 50
90.0
 51
180.0
  0
ARC
  5
401B
330
18
100
AcDbEntity
  8
0
 62
     4
100
AcDbCircle
 10
294.5575185968401
 20
418.6902216006656
 30
0.0
 40
1.0
100
AcDbArc
 50
180.0
 51
270.0
  0
ARC
  5
401C
330
18
100
AcDbEntity
  8
0
100
AcDbCircle
 10
192.0575185968692
 20
419.7468818964789
 30
0.0
 40
8.0
100
AcDbArc
 50
180.0
 51
270.0
  0
ARC
  5
401D
330
18
100
AcDbEntity
  8
0
100
AcDbCircle
 10
190.8377185951603
 20
419.3073024280256
 30
0.0
 40
3.780199999999999
100
AcDbArc
 50
180.0
 51
270.0
  0
LINE
  5
401E
330
18
100
AcDbEntity
  8
0
100
AcDbLine
 10
184.0575185968691
 20
419.7468818964789
 30
0.0
 11
184.0575185968691
 21
452.3390844943588
 31
0.0
  0
LINE
  5
401F
330
18
100
AcDbEntity
  8
0
100
AcDbLine
 10
331.0575185918633
 20
502.3390844944751
 30
0.0
 11
331.0575185913685
 21
419.30730242756
 31
0.0
  0
ARC
  5
4020
330
18
100
AcDbEntity
  8
0
100
AcDbCircle
 10
326.0575185896514
 20
419.7468818964789
 30
0.0
 40
8.0
100
AcDbArc
 50
270.0
 51
0.0
  0
LINE
  5
4021
330
18
100
AcDbEntity
  8
0
100
AcDbLine
 10
334.0575185896514
 20
419.7468818964789
 30
0.0
 11
334.0575185896514
 21
452.3390844943588
 31
0.0
  0
ARC
  5
4022
330
18
100
AcDbEntity
  8
0
100
AcDbCircle
 10
327.2773185913602
 20
419.30730242756
 30
0.0
 40
3.780199999999999
100
AcDbArc
 50
270.0
 51
0.0
  0
LINE
  5
4023
330
18
100
AcDbEntity
  8
0
100
AcDbLine
 10
187.0575185949192
 20
452.3390844943588
 30
0.0
 11
331.0575185915723
 21
452.3390844944751
 31
0.0
  0
LINE
  5
4024
330
18
100
AcDbEntity
  8
0
100
AcDbLine
 10
334.0575185896514
 20
452.3390844944751
 30
0.0
 11
336.0575185946573
 21
452.3390844943588
 31
0.0
  0
LINE
  5
4025
330
18
100
AcDbEntity
  8
0
100
AcDbLine
 10
892.5549745937377
 20
452.3390845025078
 30
0.0
 11
1046.554974593738
 21
452.3390845025078
 31
0.0
  0
LINE
  5
4027
330
18
100
AcDbEntity
  8
0
100
AcDbLine
 10
894.5549745937379
 20
499.3390845025078
 30
0.0
 11
894.5549745937379
 21
452.3390845025078
 31
0.0
  0
LINE
  5
4028
330
18
100
AcDbEntity
  8
0
100
AcDbLine
 10
1044.554974593738
 20
499.339084502275
 30
0.0
 11
1044.554974593738
 21
452.3390845025078
 31
0.0
  0
LINE
  5
4029
330
18
100
AcDbEntity
  8
0
100
AcDbLine
 10
897.5549745937378
 20
502.3390845025078
 30
0.0
 11
1041.554974593738
 21
502.339084502275
 31
0.0
  0
LINE
  5
402A
330
18
100
AcDbEntity
  8
0
100
AcDbLine
 10
894.5549745937379
 20
499.3390845025078
 30
0.0
 11
897.5549745937378
 21
502.3390845025078
 31
0.0
  0
LINE
  5
402B
330
18
100
AcDbEntity
  8
0
100
AcDbLine
 10
1041.554974593738
 20
502.339084502275
 30
0.0
 11
1044.554974593738
 21
499.339084502275
 31
0.0
  0
LINE
  5
402C
330
18
100
AcDbEntity
  8
0
100
AcDbLine
 10
897.5549745937378
 20
502.3390845025078
 30
0.0
 11
897.5549745937378
 21
452.3390845025078
 31
0.0
  0
LINE
  5
402D
330
18
100
AcDbEntity
  8
0
100
AcDbLine
 10
1041.554974593738
 20
502.339084502275
 30
0.0
 11
1041.554974593738
 21
452.3390845025078
 31
0.0
  0
LINE
  5
402E
330
18
100
AcDbEntity
  8
0
100
AcDbLine
 10
907.554974593796
 20
480.3390845023914
 30
0.0
 11
1031.554974593708
 21
480.3390845019257
 31
0.0
  0
LINE
  5
402F
330
18
100
AcDbEntity
  8
0
100
AcDbLine
 10
892.5549745937377
 20
368.3390845025078
 30
0.0
 11
1046.554974593738
 21
368.3390845025078
 31
0.0
  0
LINE
  5
4032
330
18
100
AcDbEntity
  8
0
100
AcDbLine
 10
904.5549745937959
 20
477.3390845023913
 30
0.0
 11
904.5549745937378
 21
454.3390845025078
 31
0.0
  0
LINE
  5
4033
330
18
100
AcDbEntity
  8
0
100
AcDbLine
 10
1034.554974593709
 20
477.3390845019257
 30
0.0
 11
1034.554974593738
 21
454.3390845025078
 31
0.0
  0
LINE
  5
4034
330
18
100
AcDbEntity
  8
0
100
AcDbLine
 10
906.5549745937378
 20
452.3390845025078
 30
0.0
 11
904.5549745937378
 21
454.3390845025078
 31
0.0
  0
LINE
  5
4035
330
18
100
AcDbEntity
  8
0
100
AcDbLine
 10
1032.554974593738
 20
452.3390845025078
 30
0.0
 11
1034.554974593738
 21
454.3390845025078
 31
0.0
  0
ARC
  5
4036
330
18
100
AcDbEntity
  8
0
100
AcDbCircle
 10
907.554974593796
 20
477.3390845023913
 30
0.0
 40
3.0
100
AcDbArc
 50
90.0
 51
180.0
  0
ARC
  5
4037
330
18
100
AcDbEntity
  8
0
100
AcDbCircle
 10
1031.554974593708
 20
477.3390845019257
 30
0.0
 40
3.0
100
AcDbArc
 50
0.0
 51
90.0
  0
LINE
  5
4038
330
18
100
AcDbEntity
  8
0
100
AcDbLine
 10
1044.554974593709
 20
495.4683268150201
 30
0.0
 11
1044.554974593679
 21
485.4683268150202
 31
0.0
  0
LINE
  5
4039
330
18
100
AcDbEntity
  8
0
100
AcDbLine
 10
746.5870758317096
 20
368.3390845002959
 30
0.0
 11
746.5870758317096
 21
433.8390845009944
 31
0.0
  0
LINE
  5
403A
330
18
100
AcDbEntity
  8
0
100
AcDbLine
 10
728.0870758317096
 20
452.3390845009944
 30
0.0
 11
621.5870758317096
 21
452.3390845012272
 31
0.0
  0
LINE
  5
403B
330
18
100
AcDbEntity
  8
0
100
AcDbLine
 10
620.5870758317387
 20
565.9640759139675
 30
0.0
 11
620.5870758318551
 21
719.9640759139675
 31
0.0
  0
LINE
  5
403C
330
18
100
AcDbEntity
  8
0
100
AcDbLine
 10
746.5870758318551
 20
566.9640759142002
 30
0.0
 11
746.5870758318551
 21
718.9640759142003
 31
0.0
  0
ARC
  5
403D
330
18
100
AcDbEntity
  8
0
100
AcDbCircle
 10
745.5870758317969
 20
718.9640759140838
 30
0.0
 40
1.0
100
AcDbArc
 50
0.0
 51
90.0
  0
LINE
  5
403E
330
18
100
AcDbEntity
  8
0
100
AcDbLine
 10
620.5870758317387
 20
565.9640759139675
 30
0.0
 11
745.5870758318551
 21
565.9640759142003
 31
0.0
  0
ARC
  5
403F
330
18
100
AcDbEntity
  8
0
100
AcDbCircle
 10
745.5870758317969
 20
566.9640759140839
 30
0.0
 40
1.0
100
AcDbArc
 50
270.0
 51
0.0
  0
LINE
  5
4040
330
18
100
AcDbEntity
  8
0
100
AcDbLine
 10
620.5870758318551
 20
719.9640759139675
 30
0.0
 11
745.5870758318551
 21
719.9640759142003
 31
0.0
  0
LINE
  5
4041
330
18
100
AcDbEntity
  8
0
100
AcDbLine
 10
446.5870755580462
 20
237.3390845026242
 30
0.0
 11
446.5870755580754
 21
367.3390845026243
 31
0.0
  0
LINE
  5
4042
330
18
100
AcDbEntity
  8
0
100
AcDbLine
 10
620.5870758317969
 20
565.9640759139675
 30
0.0
 11
620.5870758317969
 21
719.9640759140838
 31
0.0
  0
LINE
  5
4043
330
18
100
AcDbEntity
  8
0
100
AcDbLine
 10
446.5870758316805
 20
565.9640759143167
 30
0.0
 11
446.5870758316805
 21
719.9640759143167
 31
0.0
  0
LINE
  5
4044
330
18
100
AcDbEntity
  8
0
100
AcDbLine
 10
446.5870758316805
 20
565.9640759143167
 30
0.0
 11
620.5870758317969
 21
565.9640759139675
 31
0.0
  0
LINE
  5
4045
330
18
100
AcDbEntity
  8
0
100
AcDbLine
 10
446.5870758316805
 20
719.9640759143167
 30
0.0
 11
620.5870758317969
 21
719.9640759140838
 31
0.0
  0
LINE
  5
4046
330
18
100
AcDbEntity
  8
0
 62
     4
100
AcDbLine
 10
564.066561127277
 20
615.9640759123377
 30
0.0
 11
564.066561127277
 21
702.9640759125705
 31
0.0
  0
LINE
  5
4047
330
18
100
AcDbEntity
  8
0
 62
     4
100
AcDbLine
 10
471.8140790465031
 20
615.9640759121048
 30
0.0
 11
471.8140790466777
 21
702.9640759126869
 31
0.0
  0
LINE
  5
4048
330
18
100
AcDbEntity
  8
0
 62
     4
100
AcDbLine
 10
561.0665611272771
 20
705.9640759125705
 30
0.0
 11
474.8140790466777
 21
705.9640759126868
 31
0.0
  0
LINE
  5
4049
330
18
100
AcDbEntity
  8
0
 62
     4
100
AcDbLine
 10
561.0665611272771
 20
612.9640759123376
 30
0.0
 11
474.8140790465031
 21
612.9640759121047
 31
0.0
  0
LINE
  5
404A
330
18
100
AcDbEntity
  8
0
 62
     4
100
AcDbLine
 10
472.8140790467068
 20
608.464075912454
 30
0.0
 11
563.0665611276554
 21
608.464075912454
 31
0.0
  0
LINE
  5
404B
330
18
100
AcDbEntity
  8
0
 62
     4
100
AcDbLine
 10
474.8140790463285
 20
577.9640759130361
 30
0.0
 11
561.0665611274517
 21
577.9640759129197
 31
0.0
  0
LINE
  5
404C
330
18
100
AcDbEntity
  8
0
 62
     4
100
AcDbLine
 10
564.0665611276554
 20
607.464075912454
 30
0.0
 11
564.0665611274516
 21
580.9640759129197
 31
0.0
  0
LINE
  5
404D
330
18
100
AcDbEntity
  8
0
 62
     4
100
AcDbLine
 10
471.8140790467068
 20
607.464075912454
 30
0.0
 11
471.8140790463285
 21
580.9640759130361
 31
0.0
  0
LINE
  5
404E
330
18
100
AcDbEntity
  8
0
100
AcDbLine
 10
587.5870758316805
 20
570.964075913851
 30
0.0
 11
587.5870758317096
 21
714.9640759146659
 31
0.0
  0
LINE
  5
404F
330
18
100
AcDbEntity
  8
0
100
AcDbLine
 10
613.5870758316222
 20
570.964075913851
 30
0.0
 11
613.5870758316805
 21
714.9640759146659
 31
0.0
  0
ARC
  5
4050
330
18
100
AcDbEntity
  8
0
 62
     4
100
AcDbCircle
 10
561.0665611272771
 20
702.9640759125705
 30
0.0
 40
3.0
100
AcDbArc
 50
0.0
 51
90.0
  0
ARC
  5
4051
330
18
100
AcDbEntity
  8
0
 62
     4
100
AcDbCircle
 10
474.8140790466777
 20
702.9640759126869
 30
0.0
 40
3.0
100
AcDbArc
 50
90.0
 51
180.0
  0
ARC
  5
4052
330
18
100
AcDbEntity
  8
0
 62
     4
100
AcDbCircle
 10
474.8140790465031
 20
615.9640759121048
 30
0.0
 40
3.0
100
AcDbArc
 50
180.0
 51
270.0
  0
ARC
  5
4053
330
18
100
AcDbEntity
  8
0
 62
     4
100
AcDbCircle
 10
561.0665611272771
 20
615.9640759123377
 30
0.0
 40
3.0
100
AcDbArc
 50
270.0
 51
0.0
  0
ARC
  5
4054
330
18
100
AcDbEntity
  8
0
 62
     4
100
AcDbCircle
 10
563.0665611276554
 20
607.464075912454
 30
0.0
 40
1.0
100
AcDbArc
 50
0.0
 51
90.0
  0
ARC
  5
4055
330
18
100
AcDbEntity
  8
0
 62
     4
100
AcDbCircle
 10
472.8140790467068
 20
607.464075912454
 30
0.0
 40
1.0
100
AcDbArc
 50
90.0
 51
180.0
  0
ARC
  5
4056
330
18
100
AcDbEntity
  8
0
 62
     4
100
AcDbCircle
 10
561.0665611274517
 20
580.9640759129197
 30
0.0
 40
3.0
100
AcDbArc
 50
270.0
 51
0.0
  0
ARC
  5
4057
330
18
100
AcDbEntity
  8
0
 62
     4
100
AcDbCircle
 10
474.8140790463285
 20
580.9640759130361
 30
0.0
 40
3.0
100
AcDbArc
 50
180.0
 51
270.0
  0
LINE
  5
4058
330
18
100
AcDbEntity
  8
0
100
AcDbLine
 10
471.2305648671963
 20
567.9640759143167
 30
0.0
 11
620.587075831826
 21
567.9640759139674
 31
0.0
  0
LINE
  5
4059
330
18
100
AcDbEntity
  8
0
100
AcDbLine
 10
471.2305648671963
 20
717.9640759140839
 30
0.0
 11
620.5870758317969
 21
717.9640759140839
 31
0.0
  0
LINE
  5
405A
330
18
100
AcDbEntity
  8
0
100
AcDbLine
 10
470.1566834326285
 20
570.9640759140838
 30
0.0
 11
613.5870758316514
 21
570.9640759139674
 31
0.0
  0
LINE
  5
405B
330
18
100
AcDbEntity
  8
0
100
AcDbLine
 10
470.1566834326285
 20
714.9640759146659
 30
0.0
 11
613.5870758316514
 21
714.9640759146659
 31
0.0
  0
LINE
  5
405C
330
18
100
AcDbEntity
  8
0
100
AcDbLine
 10
463.2305648672254
 20
575.9640759143167
 30
0.0
 11
463.2305648671963
 21
709.9640759140839
 31
0.0
  0
LINE
  5
405D
330
18
100
AcDbEntity
  8
0
100
AcDbLine
 10
465.1566834326286
 20
575.9640759140839
 30
0.0
 11
465.1566834326286
 21
709.9640759146659
 31
0.0
  0
ARC
  5
405E
330
18
100
AcDbEntity
  8
0
100
AcDbCircle
 10
471.2305648671963
 20
709.9640759140839
 30
0.0
 40
8.0
100
AcDbArc
 50
90.0
 51
180.0
  0
ARC
  5
405F
330
18
100
AcDbEntity
  8
0
100
AcDbCircle
 10
471.2305648672254
 20
575.9640759143167
 30
0.0
 40
8.0
100
AcDbArc
 50
180.0
 51
270.0
  0
ARC
  5
4060
330
18
100
AcDbEntity
  8
0
100
AcDbCircle
 10
470.1566834326285
 20
709.9640759146659
 30
0.0
 40
5.0
100
AcDbArc
 50
90.0
 51
180.0
  0
ARC
  5
4061
330
18
100
AcDbEntity
  8
0
100
AcDbCircle
 10
470.1566834326285
 20
575.9640759140839
 30
0.0
 40
5.0
100
AcDbArc
 50
180.0
 51
270.0
  0
LINE
  5
4062
330
18
100
AcDbEntity
  8
0
100
AcDbLine
 10
587.5870758316805
 20
714.9640759146659
 30
0.0
 11
590.5870758310402
 21
717.9640759140839
 31
0.0
  0
LINE
  5
4063
330
18
100
AcDbEntity
  8
0
100
AcDbLine
 10
613.5870758316805
 20
714.9640759146659
 30
0.0
 11
610.5870758323208
 21
717.9640759140839
 31
0.0
  0
LINE
  5
4064
330
18
100
AcDbEntity
  8
0
100
AcDbLine
 10
587.5870758316805
 20
570.9640759139674
 30
0.0
 11
590.5870758310402
 21
567.9640759145495
 31
0.0
  0
LINE
  5
4065
330
18
100
AcDbEntity
  8
0
100
AcDbLine
 10
613.5870758316805
 20
570.9640759139674
 30
0.0
 11
610.5870758323208
 21
567.9640759145495
 31
0.0
  0
LINE
  5
4066
330
18
100
AcDbEntity
  8
0
100
AcDbLine
 10
642.5870758296142
 20
461.3390845012272
 30
0.0
 11
642.5870758296142
 21
452.8390845012272
 31
0.0
  0
LINE
  5
4067
330
18
100
AcDbEntity
  8
0
100
AcDbLine
 10
642.5870758296142
 20
452.8390845012272
 30
0.0
 11
706.5870758296141
 21
452.8390845012272
 31
0.0
  0
LINE
  5
4068
330
18
100
AcDbEntity
  8
0
100
AcDbLine
 10
706.5870758296141
 20
452.8390845012272
 30
0.0
 11
706.5870758296141
 21
461.3390845012272
 31
0.0
  0
LINE
  5
4069
330
18
100
AcDbEntity
  8
0
100
AcDbLine
 10
703.5870758296141
 20
464.3390845012272
 30
0.0
 11
645.5870758296141
 21
464.3390845012272
 31
0.0
  0
LINE
  5
406A
330
18
100
AcDbEntity
  8
0
100
AcDbLine
 10
703.5870758296141
 20
464.3390845012272
 30
0.0
 11
706.5870758296141
 21
461.3390845012272
 31
0.0
  0
LINE
  5
406B
330
18
100
AcDbEntity
  8
0
100
AcDbLine
 10
645.5870758296141
 20
464.3390845012272
 30
0.0
 11
642.5870758296142
 21
461.3390845012272
 31
0.0
  0
CIRCLE
  5
406C
330
18
100
AcDbEntity
  8
0
100
AcDbCircle
 10
674.5870758295851
 20
642.9640759133853
 30
0.0
 40
32.0
  0
CIRCLE
  5
406D
330
18
100
AcDbEntity
  8
0
100
AcDbCircle
 10
674.5870758295851
 20
642.9640759133853
 30
0.0
 40
10.0
  0
LINE
  5
406E
330
18
100
AcDbEntity
  8
0
100
AcDbLine
 10
937.5549745937959
 20
461.3390845025078
 30
0.0
 11
937.5549745937959
 21
452.8390845025078
 31
0.0
  0
LINE
  5
406F
330
18
100
AcDbEntity
  8
0
100
AcDbLine
 10
937.5549745937959
 20
452.8390845025078
 30
0.0
 11
1001.554974593796
 21
452.8390845025078
 31
0.0
  0
LINE
  5
4070
330
18
100
AcDbEntity
  8
0
100
AcDbLine
 10
1001.554974593796
 20
452.8390845025078
 30
0.0
 11
1001.554974593796
 21
461.3390845025078
 31
0.0
  0
LINE
  5
4071
330
18
100
AcDbEntity
  8
0
100
AcDbLine
 10
998.554974593796
 20
464.3390845025078
 30
0.0
 11
940.554974593796
 21
464.3390845025078
 31
0.0
  0
LINE
  5
4072
330
18
100
AcDbEntity
  8
0
100
AcDbLine
 10
998.554974593796
 20
464.3390845025078
 30
0.0
 11
1001.554974593796
 21
461.3390845025078
 31
0.0
  0
LINE
  5
4073
330
18
100
AcDbEntity
  8
0
100
AcDbLine
 10
940.554974593796
 20
464.3390845025078
 30
0.0
 11
937.5549745937959
 21
461.3390845025078
 31
0.0
  0
LINE
  5
4074
330
18
100
AcDbEntity
  8
0
 62
     4
100
AcDbLine
 10
893.0549745942617
 20
365.8390844699115
 30
0.0
 11
893.0549745938542
 21
241.3390844971527
 31
0.0
  0
LINE
  5
4075
330
18
100
AcDbEntity
  8
0
 62
     4
100
AcDbLine
 10
1046.054974593272
 20
365.8390844850455
 30
0.0
 11
1046.054974593796
 21
241.3390844958722
 31
0.0
  0
LINE
  5
4076
330
18
100
AcDbEntity
  8
0
 62
     4
100
AcDbLine
 10
1044.054974593767
 20
239.3390844958722
 30
0.0
 11
895.0549745938252
 21
239.3390844971527
 31
0.0
  0
LINE
  5
4077
330
18
100
AcDbEntity
  8
0
 62
     4
100
AcDbLine
 10
1044.054974593068
 20
367.8390844850455
 30
0.0
 11
895.0549745940579
 21
367.8390844699115
 31
0.0
  0
ARC
  5
4078
330
18
100
AcDbEntity
  8
0
 62
     4
100
AcDbCircle
 10
1044.054974593272
 20
365.8390844850455
 30
0.0
 40
2.0
100
AcDbArc
 50
0.0
 51
90.00000000667011
  0
ARC
  5
4079
330
18
100
AcDbEntity
  8
0
 62
     4
100
AcDbCircle
 10
1044.054974593796
 20
241.3390844958722
 30
0.0
 40
2.0
100
AcDbArc
 50
270.0
 51
0.0
  0
ARC
  5
407A
330
18
100
AcDbEntity
  8
0
 62
     4
100
AcDbCircle
 10
895.0549745942616
 20
365.8390844699115
 30
0.0
 40
2.0
100
AcDbArc
 50
90.00000000500257
 51
180.0
  0
ARC
  5
407B
330
18
100
AcDbEntity
  8
0
 62
     4
100
AcDbCircle
 10
895.0549745938543
 20
241.3390844971527
 30
0.0
 40
2.0
100
AcDbArc
 50
180.0
 51
270.0
  0
LINE
  5
407F
330
18
100
AcDbEntity
  8
0
100
AcDbLine
 10
183.0575185947737
 20
236.3390844968035
 30
0.0
 11
183.0575185947737
 21
237.3390844968035
 31
0.0
  0
LINE
  5
4080
330
18
100
AcDbEntity
  8
0
100
AcDbLine
 10
335.0575185948901
 20
368.3390844968035
 30
0.0
 11
335.0575185947737
 21
367.3390844966871
 31
0.0
  0
LINE
  5
4081
330
18
100
AcDbEntity
  8
0
100
AcDbLine
 10
335.0575185947737
 20
236.3390844968035
 30
0.0
 11
183.0575185947737
 21
236.3390844968035
 31
0.0
  0
LINE
  5
4082
330
18
100
AcDbEntity
  8
0
100
AcDbLine
 10
336.0575185948901
 20
367.3390844968035
 30
0.0
 11
335.0575185947737
 21
367.3390844966871
 31
0.0
  0
LINE
  5
4083
330
18
100
AcDbEntity
  8
0
100
AcDbLine
 10
336.0575185947737
 20
237.3390844968035
 30
0.0
 11
336.0575185947737
 21
367.3390844968035
 31
0.0
  0
LINE
  5
4084
330
18
100
AcDbEntity
  8
0
100
AcDbLine
 10
336.0575185948901
 20
368.3390844944752
 30
0.0
 11
182.057518592911
 21
368.3390844966871
 31
0.0
  0
LINE
  5
4085
330
18
100
AcDbEntity
  8
0
100
AcDbLine
 10
182.0575185947737
 20
367.3390844968035
 30
0.0
 11
182.0575185947737
 21
237.3390844968035
 31
0.0
  0
LINE
  5
4086
330
18
100
AcDbEntity
  8
0
100
AcDbLine
 10
182.0575185947737
 20
237.3390844968035
 30
0.0
 11
183.0575185947737
 21
237.3390844968035
 31
0.0
  0
LINE
  5
4087
330
18
100
AcDbEntity
  8
0
100
AcDbLine
 10
183.0575185947737
 20
367.3390844968035
 30
0.0
 11
182.0575185947737
 21
367.3390844968035
 31
0.0
  0
LINE
  5
4088
330
18
100
AcDbEntity
  8
0
100
AcDbLine
 10
335.0575185947737
 20
237.3390844966871
 30
0.0
 11
336.0575185947737
 21
237.3390844968035
 31
0.0
  0
LINE
  5
4089
330
18
100
AcDbEntity
  8
0
100
AcDbLine
 10
183.0575185947737
 20
367.3390844969199
 30
0.0
 11
183.0575185947737
 21
368.3390844943588
 31
0.0
  0
LINE
  5
408A
330
18
100
AcDbEntity
  8
0
100
AcDbLine
 10
335.0575185947737
 20
237.3390844966871
 30
0.0
 11
335.0575185947737
 21
236.3390844968035
 31
0.0
  0
LINE
  5
408D
330
18
100
AcDbEntity
  8
0
100
AcDbLine
 10
892.5549745916423
 20
235.3390844970363
 30
0.0
 11
877.5549745919333
 21
235.339084497502
 31
0.0
  0
LINE
  5
408E
330
18
100
AcDbEntity
  8
0
100
AcDbLine
 10
877.5549745919333
 20
235.339084497502
 30
0.0
 11
877.5549745921662
 21
452.3390844962213
 31
0.0
  0
LINE
  5
408F
330
18
100
AcDbEntity
  8
0
100
AcDbLine
 10
877.5549745921662
 20
452.3390844962213
 30
0.0
 11
892.5549745919624
 21
452.3390844970363
 31
0.0
  0
LINE
  5
4090
330
18
100
AcDbEntity
  8
0
100
AcDbLine
 10
892.5549745919624
 20
452.3390844970363
 30
0.0
 11
892.5549745916423
 21
235.3390844987826
 31
0.0
  0
LINE
  5
4091
330
18
100
AcDbEntity
  8
0
100
AcDbLine
 10
336.05751859684
 20
235.3390844971527
 30
0.0
 11
351.057518596549
 21
235.3390844976184
 31
0.0
  0
LINE
  5
4092
330
18
100
AcDbEntity
  8
0
100
AcDbLine
 10
351.057518596549
 20
235.3390844976184
 30
0.0
 11
351.0575185963162
 21
452.3390844963378
 31
0.0
  0
LINE
  5
4093
330
18
100
AcDbEntity
  8
0
100
AcDbLine
 10
351.0575185963162
 20
452.3390844963378
 30
0.0
 11
336.0575185965199
 21
452.3390844971527
 31
0.0
  0
LINE
  5
4094
330
18
100
AcDbEntity
  8
0
100
AcDbLine
 10
336.0575185965199
 20
452.3390844971527
 30
0.0
 11
336.05751859684
 21
235.3390844988989
 31
0.0
  0
LINE
  5
4095
330
18
100
AcDbEntity
  8
0
100
AcDbLine
 10
182.0575185927364
 20
235.3390844971527
 30
0.0
 11
167.0575185930274
 21
235.3390844976184
 31
0.0
  0
LINE
  5
4096
330
18
100
AcDbEntity
  8
0
100
AcDbLine
 10
167.0575185930274
 20
235.3390844976184
 30
0.0
 11
167.0575185932603
 21
452.3390844963378
 31
0.0
  0
LINE
  5
4097
330
18
100
AcDbEntity
  8
0
100
AcDbLine
 10
167.0575185932603
 20
452.3390844963378
 30
0.0
 11
182.0575185930565
 21
452.3390844971527
 31
0.0
  0
LINE
  5
4098
330
18
100
AcDbEntity
  8
0
100
AcDbLine
 10
182.0575185930565
 20
452.3390844971527
 30
0.0
 11
182.0575185927364
 21
235.3390844988989
 31
0.0
  0
LINE
  5
4099
330
18
100
AcDbEntity
  8
0
100
AcDbLine
 10
746.5870755579299
 20
734.9640759137346
 30
0.0
 11
746.5870755580754
 21
719.9640759133854
 31
0.0
  0
LINE
  5
409A
330
18
100
AcDbEntity
  8
0
100
AcDbLine
 10
446.5870755579008
 20
734.9640759135017
 30
0.0
 11
446.5870755583664
 21
719.9640759133854
 31
0.0
  0
LINE
  5
409B
330
18
100
AcDbEntity
  8
0
100
AcDbLine
 10
451.5870755583082
 20
719.9640759135018
 30
0.0
 11
446.5870755583664
 21
719.9640759133854
 31
0.0
  0
LINE
  5
409C
330
18
100
AcDbEntity
  8
0
100
AcDbLine
 10
746.5870755579299
 20
734.9640759137346
 30
0.0
 11
446.5870755579008
 21
734.9640759135017
 31
0.0
  0
LINE
  5
409D
330
18
100
AcDbEntity
  8
0
100
AcDbLine
 10
451.5870755583082
 20
719.9640759135018
 30
0.0
 11
746.5870755580754
 21
719.9640759133854
 31
0.0
  0
LINE
  5
409E
330
18
100
AcDbEntity
  8
0
100
AcDbLine
 10
746.5870755579299
 20
550.9640759142002
 30
0.0
 11
746.5870755580754
 21
565.9640759145495
 31
0.0
  0
LINE
  5
409F
330
18
100
AcDbEntity
  8
0
100
AcDbLine
 10
446.5870755579008
 20
550.9640759144331
 30
0.0
 11
446.5870755583664
 21
565.9640759145495
 31
0.0
  0
LINE
  5
40A0
330
18
100
AcDbEntity
  8
0
100
AcDbLine
 10
451.5870755583082
 20
565.964075914433
 30
0.0
 11
446.5870755583664
 21
565.9640759145495
 31
0.0
  0
LINE
  5
40A1
330
18
100
AcDbEntity
  8
0
100
AcDbLine
 10
746.5870755579299
 20
550.9640759142002
 30
0.0
 11
446.5870755579008
 21
550.9640759144331
 31
0.0
  0
LINE
  5
40A2
330
18
100
AcDbEntity
  8
0
100
AcDbLine
 10
451.5870755583082
 20
565.964075914433
 30
0.0
 11
746.5870755580754
 21
565.9640759145495
 31
0.0
  0
LINE
  5
40A3
330
18
100
AcDbEntity
  8
0
100
AcDbLine
 10
941.554974593796
 20
452.8390845025078
 30
0.0
 11
941.5549745936797
 21
452.3390845026242
 31
0.0
  0
LINE
  5
40A4
330
18
100
AcDbEntity
  8
0
100
AcDbLine
 10
997.5549745937961
 20
452.8390845025078
 30
0.0
 11
997.5549745937961
 21
452.3390845025078
 31
0.0
  0
LINE
  5
40A5
330
18
100
AcDbEntity
  8
0
100
AcDbLine
 10
937.5549745937959
 20
461.3390845025078
 30
0.0
 11
1001.554974593796
 21
461.3390845025078
 31
0.0
  0
LINE
  5
40A6
330
18
100
AcDbEntity
  8
0
100
AcDbLine
 10
646.5870758296141
 20
452.8390845012272
 30
0.0
 11
646.5870758294977
 21
452.339084502857
 31
0.0
  0
LINE
  5
40A7
330
18
100
AcDbEntity
  8
0
100
AcDbLine
 10
702.5870758296141
 20
452.8390845012272
 30
0.0
 11
702.5870758296141
 21
452.3390845027406
 31
0.0
  0
LINE
  5
40A8
330
18
100
AcDbEntity
  8
0
100
AcDbLine
 10
642.5870758296142
 20
461.3390845012272
 30
0.0
 11
706.5870758296141
 21
461.3390845012272
 31
0.0
  0
LINE
  5
40A9
330
18
100
AcDbEntity
  8
0
100
AcDbLine
 10
333.8908519269526
 20
236.3390844968035
 30
0.0
 11
332.0575185947737
 21
225.339084503672
 31
0.0
  0
LINE
  5
40AA
330
18
100
AcDbEntity
  8
0
100
AcDbLine
 10
314.2241852625657
 20
236.3390844968035
 30
0.0
 11
316.0575185947737
 21
225.339084503672
 31
0.0
  0
LINE
  5
40AB
330
18
100
AcDbEntity
  8
0
100
AcDbLine
 10
332.0575185947737
 20
225.339084503672
 30
0.0
 11
316.0575185947737
 21
225.339084503672
 31
0.0
  0
LINE
  5
40AC
330
18
100
AcDbEntity
  8
0
100
AcDbLine
 10
184.2241852625948
 20
236.3390844968035
 30
0.0
 11
186.0575185947737
 21
225.339084503672
 31
0.0
  0
LINE
  5
40AD
330
18
100
AcDbEntity
  8
0
100
AcDbLine
 10
203.8908519269817
 20
236.3390844968035
 30
0.0
 11
202.0575185947737
 21
225.339084503672
 31
0.0
  0
LINE
  5
40AE
330
18
100
AcDbEntity
  8
0
100
AcDbLine
 10
186.0575185947737
 20
225.339084503672
 30
0.0
 11
202.0575185947737
 21
225.339084503672
 31
0.0
  0
LINE
  5
40AF
330
18
100
AcDbEntity
  8
0
100
AcDbLine
 10
894.554974593796
 20
237.339084503672
 30
0.0
 11
896.5549745937961
 21
225.339084503672
 31
0.0
  0
LINE
  5
40B0
330
18
100
AcDbEntity
  8
0
100
AcDbLine
 10
914.5549745937961
 20
237.339084503672
 30
0.0
 11
912.5549745937959
 21
225.339084503672
 31
0.0
  0
LINE
  5
40B1
330
18
100
AcDbEntity
  8
0
100
AcDbLine
 10
896.5549745937961
 20
225.339084503672
 30
0.0
 11
912.5549745937959
 21
225.339084503672
 31
0.0
  0
LINE
  5
40B2
330
18
100
AcDbEntity
  8
0
100
AcDbLine
 10
1044.554974593796
 20
237.339084503672
 30
0.0
 11
1042.554974593796
 21
225.339084503672
 31
0.0
  0
LINE
  5
40B3
330
18
100
AcDbEntity
  8
0
100
AcDbLine
 10
1024.554974593796
 20
237.339084503672
 30
0.0
 11
1026.554974593796
 21
225.339084503672
 31
0.0
  0
LINE
  5
40B4
330
18
100
AcDbEntity
  8
0
100
AcDbLine
 10
1042.554974593796
 20
225.339084503672
 30
0.0
 11
1026.554974593796
 21
225.339084503672
 31
0.0
  0
LINE
  5
40B5
330
18
100
AcDbEntity
  8
0
100
AcDbLine
 10
468.9204088915057
 20
235.3390845028571
 30
0.0
 11
470.5870755580171
 21
225.339084503672
 31
0.0
  0
LINE
  5
40B6
330
18
100
AcDbEntity
  8
0
100
AcDbLine
 10
488.2537422245286
 20
235.3390845027407
 30
0.0
 11
486.5870755580171
 21
225.339084503672
 31
0.0
  0
LINE
  5
40B7
330
18
100
AcDbEntity
  8
0
100
AcDbLine
 10
470.5870755580171
 20
225.339084503672
 30
0.0
 11
486.5870755580171
 21
225.339084503672
 31
0.0
  0
LINE
  5
40B8
330
18
100
AcDbEntity
  8
0
100
AcDbLine
 10
710.9204088915348
 20
235.3390845028571
 30
0.0
 11
712.5870755580463
 21
225.339084503672
 31
0.0
  0
LINE
  5
40B9
330
18
100
AcDbEntity
  8
0
100
AcDbLine
 10
730.2537422245578
 20
235.3390845027407
 30
0.0
 11
728.5870755580463
 21
225.339084503672
 31
0.0
  0
LINE
  5
40BA
330
18
100
AcDbEntity
  8
0
100
AcDbLine
 10
712.5870755580463
 20
225.339084503672
 30
0.0
 11
728.5870755580463
 21
225.339084503672
 31
0.0
  0
CIRCLE
  5
40BB
330
18
100
AcDbEntity
  8
0
 62
     4
100
AcDbCircle
 10
932.0599745938297
 20
344.3390844715414
 30
0.0
 40
1.5
  0
CIRCLE
  5
40BC
330
18
100
AcDbEntity
  8
0
 62
     4
100
AcDbCircle
 10
907.0599745938297
 20
344.3390844715414
 30
0.0
 40
1.5
  0
LINE
  5
40BD
330
18
100
AcDbEntity
  8
0
 62
     4
100
AcDbLine
 10
911.0599745938298
 20
340.3390844715413
 30
0.0
 11
928.0599745938298
 21
340.3390844715413
 31
0.0
  0
LINE
  5
40BE
330
18
100
AcDbEntity
  8
0
 62
     4
100
AcDbLine
 10
928.0599745938298
 20
340.3390844715413
 30
0.0
 11
928.0599745938298
 21
348.3390844715414
 31
0.0
  0
LINE
  5
40BF
330
18
100
AcDbEntity
  8
0
 62
     4
100
AcDbLine
 10
928.0599745938298
 20
348.3390844715414
 30
0.0
 11
911.0599745938298
 21
348.3390844715414
 31
0.0
  0
LINE
  5
40C0
330
18
100
AcDbEntity
  8
0
 62
     4
100
AcDbLine
 10
911.0599745938298
 20
348.3390844715414
 30
0.0
 11
911.0599745938298
 21
340.3390844715413
 31
0.0
  0
LINE
  5
40C1
330
18
100
AcDbEntity
  8
0
 62
     4
100
AcDbLine
 10
913.4608278176083
 20
348.2490844714575
 30
0.0
 11
925.659121369993
 21
348.2490844716904
 31
0.0
  0
LINE
  5
40C2
330
18
100
AcDbEntity
  8
0
 62
     4
100
AcDbLine
 10
924.1464526725968
 20
340.4290844716252
 30
0.0
 11
914.9734965150337
 21
340.4290844716252
 31
0.0
  0
LINE
  5
40C3
330
18
100
AcDbEntity
  8
0
 62
     4
100
AcDbLine
 10
911.4912123116292
 20
345.9017881161653
 30
0.0
 11
912.0190732560214
 21
342.9081399386869
 31
0.0
  0
ARC
  5
40C4
330
18
100
AcDbEntity
  8
0
 62
     4
100
AcDbCircle
 10
913.4608278176374
 20
346.2490844714575
 30
0.0
 40
2.0
100
AcDbArc
 50
90.0
 51
189.9999999989041
  0
ARC
  5
40C5
330
18
100
AcDbEntity
  8
0
 62
     4
100
AcDbCircle
 10
914.9734965150628
 20
343.4290844716252
 30
0.0
 40
3.0
100
AcDbArc
 50
189.9999999989041
 51
270.0
  0
LINE
  5
40C6
330
18
100
AcDbEntity
  8
0
 62
     4
100
AcDbLine
 10
927.6287368760595
 20
345.9017881163982
 30
0.0
 11
927.1008759316382
 21
342.9081399386869
 31
0.0
  0
ARC
  5
40C7
330
18
100
AcDbEntity
  8
0
 62
     4
100
AcDbCircle
 10
924.1464526725968
 20
343.4290844716252
 30
0.0
 40
3.0
100
AcDbArc
 50
270.0
 51
350.0000000010958
  0
ARC
  5
40C8
330
18
100
AcDbEntity
  8
0
 62
     4
100
AcDbCircle
 10
925.6591213700222
 20
346.2490844716904
 30
0.0
 40
2.0
100
AcDbArc
 50
350.0000000010958
 51
90.0
  0
CIRCLE
  5
40C9
330
18
100
AcDbEntity
  8
0
 62
     4
100
AcDbCircle
 10
919.5599745938007
 20
346.2490844715739
 30
0.0
 40
0.6
  0
CIRCLE
  5
40CA
330
18
100
AcDbEntity
  8
0
 62
     4
100
AcDbCircle
 10
917.1599745938065
 20
346.2490844715739
 30
0.0
 40
0.6
  0
CIRCLE
  5
40CB
330
18
100
AcDbEntity
  8
0
 62
     4
100
AcDbCircle
 10
914.7599745938123
 20
346.2490844715739
 30
0.0
 40
0.6
  0
CIRCLE
  5
40CC
330
18
100
AcDbEntity
  8
0
 62
     4
100
AcDbCircle
 10
921.9599745937948
 20
346.2490844715739
 30
0.0
 40
0.6
  0
CIRCLE
  5
40CD
330
18
100
AcDbEntity
  8
0
 62
     4
100
AcDbCircle
 10
924.359974593789
 20
346.2490844715739
 30
0.0
 40
0.6
  0
CIRCLE
  5
40CE
330
18
100
AcDbEntity
  8
0
 62
     4
100
AcDbCircle
 10
920.7599745938123
 20
342.6490844715972
 30
0.0
 40
0.6
  0
CIRCLE
  5
40CF
330
18
100
AcDbEntity
  8
0
 62
     4
100
AcDbCircle
 10
923.1599745938066
 20
342.6490844715972
 30
0.0
 40
0.6
  0
CIRCLE
  5
40D0
330
18
100
AcDbEntity
  8
0
 62
     4
100
AcDbCircle
 10
918.3599745938472
 20
342.6490844715972
 30
0.0
 40
0.6
  0
CIRCLE
  5
40D1
330
18
100
AcDbEntity
  8
0
 62
     4
100
AcDbCircle
 10
915.9599745938239
 20
342.6490844715972
 30
0.0
 40
0.6
  0
LINE
  5
40D2
330
18
100
AcDbEntity
  8
0
 62
     4
100
AcDbLine
 10
961.9549745937611
 20
276.0890844972692
 30
0.0
 11
977.1549745935399
 21
276.0890844970363
 31
0.0
  0
LINE
  5
40D3
330
18
100
AcDbEntity
  8
0
 62
     4
100
AcDbLine
 10
959.9549745937611
 20
256.5890844970363
 30
0.0
 11
979.1549745936855
 21
256.5890844968035
 31
0.0
  0
LINE
  5
40D4
330
18
100
AcDbEntity
  8
0
 62
     4
100
AcDbLine
 10
955.9549745937902
 20
270.0890844972692
 30
0.0
 11
955.9549745937902
 21
260.5890844970363
 31
0.0
  0
LINE
  5
40D5
330
18
100
AcDbEntity
  8
0
 62
     4
100
AcDbLine
 10
959.8049745934467
 20
277.6890844971295
 30
0.0
 11
979.3049745936505
 21
277.6890844971295
 31
0.0
  0
LINE
  5
40D6
330
18
100
AcDbEntity
  8
0
 62
     4
100
AcDbLine
 10
959.8049745936505
 20
254.9890844969432
 30
0.0
 11
979.3049745937087
 21
254.989084497176
 31
0.0
  0
LINE
  5
40D7
330
18
100
AcDbEntity
  8
0
 62
     4
100
AcDbLine
 10
954.2049745935283
 20
272.0890844971527
 30
0.0
 11
954.2049745935864
 21
260.5890844969199
 31
0.0
  0
ARC
  5
40D8
330
18
100
AcDbEntity
  8
0
 62
     4
100
AcDbCircle
 10
959.8049745935341
 20
272.0890844971527
 30
0.0
 40
5.599999999999999
100
AcDbArc
 50
90.00000000166753
 51
180.0
  0
ARC
  5
40D9
330
18
100
AcDbEntity
  8
0
 62
     4
100
AcDbCircle
 10
959.954974593732
 20
260.5890844966871
 30
0.0
 40
4.0
100
AcDbArc
 50
180.0
 51
270.0
  0
ARC
  5
40DA
330
18
100
AcDbEntity
  8
0
 62
     4
100
AcDbCircle
 10
959.8049745935341
 20
260.5890844966871
 30
0.0
 40
5.599999999999999
100
AcDbArc
 50
180.0
 51
269.9999999983325
  0
LINE
  5
40DB
330
18
100
AcDbEntity
  8
0
 62
     4
100
AcDbLine
 10
983.1549745935108
 20
270.0890844970363
 30
0.0
 11
983.1549745934525
 21
260.5890844970363
 31
0.0
  0
LINE
  5
40DC
330
18
100
AcDbEntity
  8
0
 62
     4
100
AcDbLine
 10
984.9049745937145
 20
272.0890844971527
 30
0.0
 11
984.9049745936563
 21
260.5890844969199
 31
0.0
  0
ARC
  5
40DD
330
18
100
AcDbEntity
  8
0
 62
     4
100
AcDbCircle
 10
979.3049745937087
 20
272.0890844971527
 30
0.0
 40
5.599999999999999
100
AcDbArc
 50
0.0
 51
89.99999999833248
  0
ARC
  5
40DE
330
18
100
AcDbEntity
  8
0
 62
     4
100
AcDbCircle
 10
979.1549745935109
 20
260.5890844966871
 30
0.0
 40
4.0
100
AcDbArc
 50
270.0
 51
0.0
  0
ARC
  5
40DF
330
18
100
AcDbEntity
  8
0
 62
     4
100
AcDbCircle
 10
979.3049745937087
 20
260.5890844966871
 30
0.0
 40
5.599999999999999
100
AcDbArc
 50
270.0000000016675
 51
0.0
  0
LINE
  5
40E0
330
18
100
AcDbEntity
  8
0
 62
     4
100
AcDbLine
 10
968.5549745936214
 20
272.9001621874868
 30
0.0
 11
968.5549745936214
 21
268.1216765163354
 31
0.0
  0
LINE
  5
40E1
330
18
100
AcDbEntity
  8
0
 62
     4
100
AcDbLine
 10
970.5549745936213
 20
272.9001621874868
 30
0.0
 11
970.5549745936213
 21
268.1216765163354
 31
0.0
  0
LINE
  5
40E2
330
18
100
AcDbEntity
  8
0
 62
     4
100
AcDbLine
 10
968.5549745936214
 20
272.9001621874868
 30
0.0
 11
970.5549745936213
 21
272.9001621874868
 31
0.0
  0
LINE
  5
40E3
330
18
100
AcDbEntity
  8
0
 62
     4
100
AcDbLine
 10
970.5549745936213
 20
268.1216765163354
 30
0.0
 11
968.5549745936214
 21
268.1216765163354
 31
0.0
  0
LINE
  5
40E4
330
18
100
AcDbEntity
  8
0
 62
     4
100
AcDbLine
 10
962.1290078926167
 20
264.4630415950323
 30
0.0
 11
962.1290078926167
 21
259.6845559238809
 31
0.0
  0
LINE
  5
40E5
330
18
100
AcDbEntity
  8
0
 62
     4
100
AcDbLine
 10
964.1290078926168
 20
264.4630415950323
 30
0.0
 11
964.1290078926168
 21
259.6845559238809
 31
0.0
  0
LINE
  5
40E6
330
18
100
AcDbEntity
  8
0
 62
     4
100
AcDbLine
 10
962.1290078926167
 20
264.4630415950323
 30
0.0
 11
964.1290078926168
 21
264.4630415950323
 31
0.0
  0
LINE
  5
40E7
330
18
100
AcDbEntity
  8
0
 62
     4
100
AcDbLine
 10
964.1290078926168
 20
259.6845559238809
 30
0.0
 11
962.1290078926167
 21
259.6845559238809
 31
0.0
  0
LINE
  5
40E8
330
18
100
AcDbEntity
  8
0
 62
     4
100
AcDbLine
 10
976.9809412946552
 20
264.4630415950323
 30
0.0
 11
976.9809412946552
 21
259.6845559238809
 31
0.0
  0
LINE
  5
40E9
330
18
100
AcDbEntity
  8
0
 62
     4
100
AcDbLine
 10
974.9809412946552
 20
264.4630415950323
 30
0.0
 11
974.9809412946552
 21
259.6845559238809
 31
0.0
  0
LINE
  5
40EA
330
18
100
AcDbEntity
  8
0
 62
     4
100
AcDbLine
 10
976.9809412946552
 20
264.4630415950323
 30
0.0
 11
974.9809412946552
 21
264.4630415950323
 31
0.0
  0
LINE
  5
40EB
330
18
100
AcDbEntity
  8
0
 62
     4
100
AcDbLine
 10
974.9809412946552
 20
259.6845559238809
 30
0.0
 11
976.9809412946552
 21
259.6845559238809
 31
0.0
  0
LINE
  5
40EC
330
18
100
AcDbEntity
  8
0
 62
     4
100
AcDbLine
 10
955.9549745937902
 20
270.0890844972692
 30
0.0
 11
961.9549745937611
 21
276.0890844972692
 31
0.0
  0
LINE
  5
40ED
330
18
100
AcDbEntity
  8
0
 62
     4
100
AcDbLine
 10
977.1549745935399
 20
276.0890844970363
 30
0.0
 11
983.1549745935108
 21
270.0890844970363
 31
0.0
  0
CIRCLE
  5
40EE
330
18
100
AcDbEntity
  8
0
 62
     4
100
AcDbCircle
 10
949.5549745936214
 20
266.3390844969199
 30
0.0
 40
1.75
  0
ARC
  5
40EF
330
18
100
AcDbEntity
  8
0
 62
     4
100
AcDbCircle
 10
949.5549745936214
 20
266.3390844969199
 30
0.0
 40
4.0
100
AcDbArc
 50
127.1158732849698
 51
232.8841267150302
  0
LINE
  5
40F0
330
18
100
AcDbEntity
  8
0
 62
     4
100
AcDbLine
 10
956.4257725961715
 20
276.5546184922223
 30
0.0
 11
947.1412588812155
 21
269.5287516362387
 31
0.0
  0
LINE
  5
40F1
330
18
100
AcDbEntity
  8
0
 62
     4
100
AcDbLine
 10
956.4257725961715
 20
256.1235505016175
 30
0.0
 11
947.1412588812155
 21
263.1494173576011
 31
0.0
  0
CIRCLE
  5
40F2
330
18
100
AcDbEntity
  8
0
 62
     4
100
AcDbCircle
 10
989.5549745936214
 20
266.3390844969199
 30
0.0
 40
1.75
  0
ARC
  5
40F3
330
18
100
AcDbEntity
  8
0
 62
     4
100
AcDbCircle
 10
989.5549745936214
 20
266.3390844969199
 30
0.0
 40
4.0
100
AcDbArc
 50
307.1158732849698
 51
52.88412671503014
  0
LINE
  5
40F4
330
18
100
AcDbEntity
  8
0
 62
     4
100
AcDbLine
 10
982.6841765910712
 20
276.5546184922223
 30
0.0
 11
991.9686903060274
 21
269.5287516362387
 31
0.0
  0
LINE
  5
40F5
330
18
100
AcDbEntity
  8
0
 62
     4
100
AcDbLine
 10
982.6841765910712
 20
256.1235505016175
 30
0.0
 11
991.9686903060274
 21
263.1494173576011
 31
0.0
  0
LINE
  5
40F6
330
18
100
AcDbEntity
  8
0
100
AcDbLine
 10
588.3893900996981
 20
550.9640759137346
 30
0.0
 11
588.3893900996981
 21
565.964075913851
 31
0.0
  0
LINE
  5
40F7
330
18
100
AcDbEntity
  8
0
100
AcDbLine
 10
588.3893900996981
 20
734.9640759146659
 30
0.0
 11
588.3893900996981
 21
719.9640759145495
 31
0.0
  0
LINE
  5
40F8
330
18
100
AcDbEntity
  8
0
100
AcDbLine
 10
227.0575185933185
 20
461.3390844944752
 30
0.0
 11
227.0575185933185
 21
452.8390844944751
 31
0.0
  0
LINE
  5
40F9
330
18
100
AcDbEntity
  8
0
100
AcDbLine
 10
227.0575185933185
 20
452.8390844944751
 30
0.0
 11
291.0575185933185
 21
452.8390844944751
 31
0.0
  0
LINE
  5
40FA
330
18
100
AcDbEntity
  8
0
100
AcDbLine
 10
291.0575185933185
 20
452.8390844944751
 30
0.0
 11
291.0575185933185
 21
461.3390844944752
 31
0.0
  0
LINE
  5
40FB
330
18
100
AcDbEntity
  8
0
100
AcDbLine
 10
288.0575185933185
 20
464.3390844944751
 30
0.0
 11
230.0575185933185
 21
464.3390844944751
 31
0.0
  0
LINE
  5
40FC
330
18
100
AcDbEntity
  8
0
100
AcDbLine
 10
288.0575185933185
 20
464.3390844944751
 30
0.0
 11
291.0575185933185
 21
461.3390844944752
 31
0.0
  0
LINE
  5
40FD
330
18
100
AcDbEntity
  8
0
100
AcDbLine
 10
230.0575185933185
 20
464.3390844944751
 30
0.0
 11
227.0575185933185
 21
461.3390844944752
 31
0.0
  0
LINE
  5
40FE
330
18
100
AcDbEntity
  8
0
100
AcDbLine
 10
231.0575185933185
 20
452.8390844944751
 30
0.0
 11
231.0575185932021
 21
452.3390844945915
 31
0.0
  0
LINE
  5
40FF
330
18
100
AcDbEntity
  8
0
100
AcDbLine
 10
287.0575185933185
 20
452.8390844944751
 30
0.0
 11
287.0575185933185
 21
452.3390844944751
 31
0.0
  0
LINE
  5
4100
330
18
100
AcDbEntity
  8
0
100
AcDbLine
 10
227.0575185933185
 20
461.3390844944752
 30
0.0
 11
291.0575185933185
 21
461.3390844944752
 31
0.0
  0
LINE
  5
4109
330
18
100
AcDbEntity
  8
0
 62
     4
100
AcDbLine
 10
222.0680014719464
 20
431.6134977232086
 30
0.0
 11
222.0680014719464
 21
426.3155039080539
 31
0.0
  0
LINE
  5
410A
330
18
100
AcDbEntity
  8
0
 62
     4
100
AcDbLine
 10
280.4346857693954
 20
431.613497723325
 30
0.0
 11
280.4346857693954
 21
426.3155039081702
 31
0.0
  0
LINE
  5
410B
330
18
100
AcDbEntity
  8
0
 62
     4
100
AcDbLine
 10
280.4346857693954
 20
431.613497723325
 30
0.0
 11
222.0680014719464
 21
431.6134977232086
 31
0.0
  0
LINE
  5
410C
330
18
100
AcDbEntity
  8
0
 62
     4
100
AcDbLine
 10
280.4346857693954
 20
426.3155039081702
 30
0.0
 11
222.0680014719464
 21
426.3155039080539
 31
0.0
  0
LINE
  5
410D
330
18
100
AcDbEntity
  8
0
 62
     4
100
AcDbLine
 10
286.5574892917857
 20
420.8126240669171
 30
0.0
 11
198.5574892918148
 21
420.8126240669171
 31
0.0
  0
LINE
  5
410E
330
18
100
AcDbEntity
  8
0
 62
     4
100
AcDbLine
 10
198.5574892918148
 20
420.8126240669171
 30
0.0
 11
198.5574892918148
 21
417.6902216010148
 31
0.0
  0
LINE
  5
410F
330
18
100
AcDbEntity
  8
0
 62
     4
100
AcDbLine
 10
286.5574892917857
 20
420.8126240669171
 30
0.0
 11
286.5574892917566
 21
417.6902216005491
 31
0.0
  0
LINE
  5
4110
330
18
100
AcDbEntity
  8
0
 62
     4
100
AcDbLine
 10
213.0574892918439
 20
424.0910959349366
 30
0.0
 11
206.0574892918439
 21
424.0910959348203
 31
0.0
  0
LINE
  5
4111
330
18
100
AcDbEntity
  8
0
 62
     4
100
AcDbLine
 10
213.0574892918439
 20
421.2809771910197
 30
0.0
 11
206.057489291873
 21
421.2809771910197
 31
0.0
  0
LINE
  5
4112
330
18
100
AcDbEntity
  8
0
 62
     4
100
AcDbLine
 10
205.0574892918439
 20
423.0910959348202
 30
0.0
 11
205.057489291873
 21
422.2809771910196
 31
0.0
  0
LINE
  5
4113
330
18
100
AcDbEntity
  8
0
 62
     4
100
AcDbLine
 10
214.0574892918439
 20
423.0910959349366
 30
0.0
 11
214.0574892918439
 21
422.2809771910196
 31
0.0
  0
ARC
  5
4114
330
18
100
AcDbEntity
  8
0
 62
     4
100
AcDbCircle
 10
206.0574892918439
 20
423.0910959348202
 30
0.0
 40
1.0
100
AcDbArc
 50
90.0
 51
180.0
  0
ARC
  5
4115
330
18
100
AcDbEntity
  8
0
 62
     4
100
AcDbCircle
 10
213.0574892918439
 20
423.0910959349366
 30
0.0
 40
1.0
100
AcDbArc
 50
0.0
 51
90.0
  0
ARC
  5
4116
330
18
100
AcDbEntity
  8
0
 62
     4
100
AcDbCircle
 10
206.057489291873
 20
422.2809771910196
 30
0.0
 40
1.0
100
AcDbArc
 50
180.0
 51
270.0
  0
ARC
  5
4117
330
18
100
AcDbEntity
  8
0
 62
     4
100
AcDbCircle
 10
213.0574892918439
 20
422.2809771910196
 30
0.0
 40
1.0
100
AcDbArc
 50
270.0
 51
0.0
  0
LINE
  5
4118
330
18
100
AcDbEntity
  8
0
 62
     4
100
AcDbLine
 10
224.0574892918439
 20
424.0910959349366
 30
0.0
 11
217.0574892918439
 21
424.0910959348203
 31
0.0
  0
LINE
  5
4119
330
18
100
AcDbEntity
  8
0
 62
     4
100
AcDbLine
 10
224.0574892918439
 20
421.2809771910197
 30
0.0
 11
217.057489291873
 21
421.2809771910197
 31
0.0
  0
LINE
  5
411A
330
18
100
AcDbEntity
  8
0
 62
     4
100
AcDbLine
 10
216.0574892918439
 20
423.0910959348202
 30
0.0
 11
216.057489291873
 21
422.2809771910196
 31
0.0
  0
LINE
  5
411B
330
18
100
AcDbEntity
  8
0
 62
     4
100
AcDbLine
 10
225.0574892918439
 20
423.0910959349366
 30
0.0
 11
225.0574892918439
 21
422.2809771910196
 31
0.0
  0
ARC
  5
411C
330
18
100
AcDbEntity
  8
0
 62
     4
100
AcDbCircle
 10
217.0574892918439
 20
423.0910959348202
 30
0.0
 40
1.0
100
AcDbArc
 50
90.0
 51
180.0
  0
ARC
  5
411D
330
18
100
AcDbEntity
  8
0
 62
     4
100
AcDbCircle
 10
224.0574892918439
 20
423.0910959349366
 30
0.0
 40
1.0
100
AcDbArc
 50
0.0
 51
90.0
  0
ARC
  5
411E
330
18
100
AcDbEntity
  8
0
 62
     4
100
AcDbCircle
 10
217.057489291873
 20
422.2809771910196
 30
0.0
 40
1.0
100
AcDbArc
 50
180.0
 51
270.0
  0
ARC
  5
411F
330
18
100
AcDbEntity
  8
0
 62
     4
100
AcDbCircle
 10
224.0574892918439
 20
422.2809771910196
 30
0.0
 40
1.0
100
AcDbArc
 50
270.0
 51
0.0
  0
LINE
  5
4120
330
18
100
AcDbEntity
  8
0
 62
     4
100
AcDbLine
 10
235.0574892918439
 20
424.0910959345874
 30
0.0
 11
228.0574892918439
 21
424.0910959344709
 31
0.0
  0
LINE
  5
4121
330
18
100
AcDbEntity
  8
0
 62
     4
100
AcDbLine
 10
235.0574892918439
 20
421.2809771906704
 30
0.0
 11
228.057489291873
 21
421.2809771906704
 31
0.0
  0
LINE
  5
4122
330
18
100
AcDbEntity
  8
0
 62
     4
100
AcDbLine
 10
227.0574892918439
 20
423.091095934471
 30
0.0
 11
227.057489291873
 21
422.2809771906704
 31
0.0
  0
LINE
  5
4123
330
18
100
AcDbEntity
  8
0
 62
     4
100
AcDbLine
 10
236.0574892918439
 20
423.0910959345874
 30
0.0
 11
236.0574892918439
 21
422.2809771906704
 31
0.0
  0
ARC
  5
4124
330
18
100
AcDbEntity
  8
0
 62
     4
100
AcDbCircle
 10
228.0574892918439
 20
423.091095934471
 30
0.0
 40
1.0
100
AcDbArc
 50
90.0
 51
180.0
  0
ARC
  5
4125
330
18
100
AcDbEntity
  8
0
 62
     4
100
AcDbCircle
 10
235.0574892918439
 20
423.0910959345874
 30
0.0
 40
1.0
100
AcDbArc
 50
0.0
 51
90.0
  0
ARC
  5
4126
330
18
100
AcDbEntity
  8
0
 62
     4
100
AcDbCircle
 10
228.057489291873
 20
422.2809771906704
 30
0.0
 40
1.0
100
AcDbArc
 50
180.0
 51
270.0
  0
ARC
  5
4127
330
18
100
AcDbEntity
  8
0
 62
     4
100
AcDbCircle
 10
235.0574892918439
 20
422.2809771906704
 30
0.0
 40
1.0
100
AcDbArc
 50
270.0
 51
0.0
  0
LINE
  5
4128
330
18
100
AcDbEntity
  8
0
 62
     4
100
AcDbLine
 10
246.0574892918439
 20
424.0910959345874
 30
0.0
 11
239.0574892918439
 21
424.0910959344709
 31
0.0
  0
LINE
  5
4129
330
18
100
AcDbEntity
  8
0
 62
     4
100
AcDbLine
 10
246.0574892918439
 20
421.2809771906704
 30
0.0
 11
239.057489291873
 21
421.2809771906704
 31
0.0
  0
LINE
  5
412A
330
18
100
AcDbEntity
  8
0
 62
     4
100
AcDbLine
 10
238.0574892918439
 20
423.091095934471
 30
0.0
 11
238.057489291873
 21
422.2809771906704
 31
0.0
  0
LINE
  5
412B
330
18
100
AcDbEntity
  8
0
 62
     4
100
AcDbLine
 10
247.0574892918439
 20
423.0910959345874
 30
0.0
 11
247.0574892918439
 21
422.2809771906704
 31
0.0
  0
ARC
  5
412C
330
18
100
AcDbEntity
  8
0
 62
     4
100
AcDbCircle
 10
239.0574892918439
 20
423.091095934471
 30
0.0
 40
1.0
100
AcDbArc
 50
90.0
 51
180.0
  0
ARC
  5
412D
330
18
100
AcDbEntity
  8
0
 62
     4
100
AcDbCircle
 10
246.0574892918439
 20
423.0910959345874
 30
0.0
 40
1.0
100
AcDbArc
 50
0.0
 51
90.0
  0
ARC
  5
412E
330
18
100
AcDbEntity
  8
0
 62
     4
100
AcDbCircle
 10
239.057489291873
 20
422.2809771906704
 30
0.0
 40
1.0
100
AcDbArc
 50
180.0
 51
270.0
  0
ARC
  5
412F
330
18
100
AcDbEntity
  8
0
 62
     4
100
AcDbCircle
 10
246.0574892918439
 20
422.2809771906704
 30
0.0
 40
1.0
100
AcDbArc
 50
270.0
 51
0.0
  0
LINE
  5
4130
330
18
100
AcDbEntity
  8
0
 62
     4
100
AcDbLine
 10
257.0574892918439
 20
424.0910959342381
 30
0.0
 11
250.0574892918439
 21
424.0910959341217
 31
0.0
  0
LINE
  5
4131
330
18
100
AcDbEntity
  8
0
 62
     4
100
AcDbLine
 10
257.0574892918439
 20
421.2809771903212
 30
0.0
 11
250.057489291873
 21
421.2809771903212
 31
0.0
  0
LINE
  5
4132
330
18
100
AcDbEntity
  8
0
 62
     4
100
AcDbLine
 10
249.0574892918439
 20
423.0910959341217
 30
0.0
 11
249.057489291873
 21
422.2809771903212
 31
0.0
  0
LINE
  5
4133
330
18
100
AcDbEntity
  8
0
 62
     4
100
AcDbLine
 10
258.0574892918439
 20
423.0910959342382
 30
0.0
 11
258.0574892918439
 21
422.2809771903212
 31
0.0
  0
ARC
  5
4134
330
18
100
AcDbEntity
  8
0
 62
     4
100
AcDbCircle
 10
250.0574892918439
 20
423.0910959341217
 30
0.0
 40
1.0
100
AcDbArc
 50
90.0
 51
180.0
  0
ARC
  5
4135
330
18
100
AcDbEntity
  8
0
 62
     4
100
AcDbCircle
 10
257.0574892918439
 20
423.0910959342382
 30
0.0
 40
1.0
100
AcDbArc
 50
0.0
 51
90.0
  0
ARC
  5
4136
330
18
100
AcDbEntity
  8
0
 62
     4
100
AcDbCircle
 10
250.057489291873
 20
422.2809771903212
 30
0.0
 40
1.0
100
AcDbArc
 50
180.0
 51
270.0
  0
ARC
  5
4137
330
18
100
AcDbEntity
  8
0
 62
     4
100
AcDbCircle
 10
257.0574892918439
 20
422.2809771903212
 30
0.0
 40
1.0
100
AcDbArc
 50
270.0
 51
0.0
  0
LINE
  5
4138
330
18
100
AcDbEntity
  8
0
 62
     4
100
AcDbLine
 10
268.0574892918439
 20
424.0910959338889
 30
0.0
 11
261.0574892918439
 21
424.0910959337725
 31
0.0
  0
LINE
  5
4139
330
18
100
AcDbEntity
  8
0
 62
     4
100
AcDbLine
 10
268.0574892918439
 20
421.2809771899719
 30
0.0
 11
261.057489291873
 21
421.2809771899719
 31
0.0
  0
LINE
  5
413A
330
18
100
AcDbEntity
  8
0
 62
     4
100
AcDbLine
 10
260.0574892918439
 20
423.0910959337725
 30
0.0
 11
260.057489291873
 21
422.2809771899719
 31
0.0
  0
LINE
  5
413B
330
18
100
AcDbEntity
  8
0
 62
     4
100
AcDbLine
 10
269.0574892918439
 20
423.0910959338889
 30
0.0
 11
269.0574892918439
 21
422.2809771899719
 31
0.0
  0
ARC
  5
413C
330
18
100
AcDbEntity
  8
0
 62
     4
100
AcDbCircle
 10
261.0574892918439
 20
423.0910959337725
 30
0.0
 40
1.0
100
AcDbArc
 50
90.0
 51
180.0
  0
ARC
  5
413D
330
18
100
AcDbEntity
  8
0
 62
     4
100
AcDbCircle
 10
268.0574892918439
 20
423.0910959338889
 30
0.0
 40
1.0
100
AcDbArc
 50
0.0
 51
90.0
  0
ARC
  5
413E
330
18
100
AcDbEntity
  8
0
 62
     4
100
AcDbCircle
 10
261.057489291873
 20
422.2809771899719
 30
0.0
 40
1.0
100
AcDbArc
 50
180.0
 51
270.0
  0
ARC
  5
413F
330
18
100
AcDbEntity
  8
0
 62
     4
100
AcDbCircle
 10
268.0574892918439
 20
422.2809771899719
 30
0.0
 40
1.0
100
AcDbArc
 50
270.0
 51
0.0
  0
LINE
  5
4140
330
18
100
AcDbEntity
  8
0
 62
     4
100
AcDbLine
 10
279.0574892918439
 20
424.0910959338889
 30
0.0
 11
272.0574892918439
 21
424.0910959337725
 31
0.0
  0
LINE
  5
4141
330
18
100
AcDbEntity
  8
0
 62
     4
100
AcDbLine
 10
279.0574892918439
 20
421.2809771899719
 30
0.0
 11
272.057489291873
 21
421.2809771899719
 31
0.0
  0
LINE
  5
4142
330
18
100
AcDbEntity
  8
0
 62
     4
100
AcDbLine
 10
271.0574892918439
 20
423.0910959337725
 30
0.0
 11
271.057489291873
 21
422.2809771899719
 31
0.0
  0
LINE
  5
4143
330
18
100
AcDbEntity
  8
0
 62
     4
100
AcDbLine
 10
280.0574892918439
 20
423.0910959338889
 30
0.0
 11
280.0574892918439
 21
422.2809771899719
 31
0.0
  0
ARC
  5
4144
330
18
100
AcDbEntity
  8
0
 62
     4
100
AcDbCircle
 10
272.0574892918439
 20
423.0910959337725
 30
0.0
 40
1.0
100
AcDbArc
 50
90.0
 51
180.0
  0
ARC
  5
4145
330
18
100
AcDbEntity
  8
0
 62
     4
100
AcDbCircle
 10
279.0574892918439
 20
423.0910959338889
 30
0.0
 40
1.0
100
AcDbArc
 50
0.0
 51
90.0
  0
ARC
  5
4146
330
18
100
AcDbEntity
  8
0
 62
     4
100
AcDbCircle
 10
272.057489291873
 20
422.2809771899719
 30
0.0
 40
1.0
100
AcDbArc
 50
180.0
 51
270.0
  0
ARC
  5
4147
330
18
100
AcDbEntity
  8
0
 62
     4
100
AcDbCircle
 10
279.0574892918439
 20
422.2809771899719
 30
0.0
 40
1.0
100
AcDbArc
 50
270.0
 51
0.0
  0
LINE
  5
4162
330
18
100
AcDbEntity
  8
0
 62
     4
100
AcDbLine
 10
198.5574892919021
 20
444.4159281788979
 30
0.0
 11
198.5574892919021
 21
426.5594490589228
 31
0.0
  0
LINE
  5
4163
330
18
100
AcDbEntity
  8
0
 62
     4
100
AcDbLine
 10
286.5574892918148
 20
444.4159281788979
 30
0.0
 11
286.5574892918148
 21
426.5594490588064
 31
0.0
  0
LINE
  5
4164
330
18
100
AcDbEntity
  8
0
 62
     4
100
AcDbLine
 10
284.5574892918148
 20
446.4159281788979
 30
0.0
 11
200.5574892919021
 21
446.4159281788979
 31
0.0
  0
LINE
  5
4165
330
18
100
AcDbEntity
  8
0
 62
     4
100
AcDbLine
 10
284.5574892918148
 20
424.5594490588064
 30
0.0
 11
200.5574892919021
 21
424.5594490589228
 31
0.0
  0
ARC
  5
4166
330
18
100
AcDbEntity
  8
0
 62
     4
100
AcDbCircle
 10
284.5574892918148
 20
444.4159281788979
 30
0.0
 40
2.0
100
AcDbArc
 50
0.0
 51
90.0
  0
ARC
  5
4167
330
18
100
AcDbEntity
  8
0
 62
     4
100
AcDbCircle
 10
284.5574892918148
 20
426.5594490588064
 30
0.0
 40
2.0
100
AcDbArc
 50
270.0
 51
0.0
  0
ARC
  5
4168
330
18
100
AcDbEntity
  8
0
 62
     4
100
AcDbCircle
 10
200.5574892919021
 20
426.5594490589228
 30
0.0
 40
2.0
100
AcDbArc
 50
180.0
 51
270.0
  0
ARC
  5
4169
330
18
100
AcDbEntity
  8
0
 62
     4
100
AcDbCircle
 10
200.5574892919021
 20
444.4159281788979
 30
0.0
 40
2.0
100
AcDbArc
 50
90.0
 51
180.0
  0
LINE
  5
416C
330
18
100
AcDbEntity
  8
0
 62
     4
100
AcDbLine
 10
306.5575548162078
 20
426.0768972324094
 30
0.0
 11
311.5575548162078
 21
426.0768972321766
 31
0.0
  0
LINE
  5
416D
330
18
100
AcDbEntity
  8
0
 62
     4
100
AcDbLine
 10
306.5575548162078
 20
426.6981324643948
 30
0.0
 11
311.5575548162078
 21
426.6981324641619
 31
0.0
  0
LINE
  5
416E
330
18
100
AcDbEntity
  8
0
 62
     4
100
AcDbLine
 10
306.5575548162078
 20
431.5127055121938
 30
0.0
 11
311.5575548162078
 21
431.5127055121938
 31
0.0
  0
LINE
  5
416F
330
18
100
AcDbEntity
  8
0
 62
     4
100
AcDbLine
 10
306.5575548162078
 20
432.1339407442955
 30
0.0
 11
311.5575548162078
 21
432.1339407441792
 31
0.0
  0
LINE
  5
4170
330
18
100
AcDbEntity
  8
0
 62
     4
100
AcDbLine
 10
306.5575548162078
 20
436.1719697522585
 30
0.0
 11
311.5575548162078
 21
436.1719697520256
 31
0.0
  0
LINE
  5
4171
330
18
100
AcDbEntity
  8
0
 62
     4
100
AcDbLine
 10
306.5575548162078
 20
436.7932049843602
 30
0.0
 11
311.5575548162078
 21
436.7932049842438
 31
0.0
  0
LINE
  5
4172
330
18
100
AcDbEntity
  8
0
 62
     4
100
AcDbLine
 10
306.5575548162078
 20
440.8312339920903
 30
0.0
 11
311.5575548162078
 21
440.8312339923232
 31
0.0
  0
LINE
  5
4173
330
18
100
AcDbEntity
  8
0
 62
     4
100
AcDbLine
 10
306.5575548162078
 20
441.4524692240757
 30
0.0
 11
311.5575548162078
 21
441.452469224192
 31
0.0
  0
LINE
  5
4174
330
18
100
AcDbEntity
  8
0
 62
     4
100
AcDbLine
 10
305.0575548162078
 20
426.387514848111
 30
0.0
 11
297.0575548161787
 21
426.3875148482275
 31
0.0
  0
LINE
  5
4175
330
18
100
AcDbEntity
  8
0
 62
     4
100
AcDbLine
 10
300.5575548162078
 20
421.7282506082792
 30
0.0
 11
297.0575548161787
 21
421.7282506082792
 31
0.0
  0
LINE
  5
4176
330
18
100
AcDbEntity
  8
0
 62
     4
100
AcDbLine
 10
306.5575548161496
 20
441.4524692240757
 30
0.0
 11
306.5575548161496
 21
440.8312339919739
 31
0.0
  0
LINE
  5
4177
330
18
100
AcDbEntity
  8
0
 62
     4
100
AcDbLine
 10
311.5575548162078
 20
441.4524692243085
 30
0.0
 11
311.5575548162078
 21
440.8312339923232
 31
0.0
  0
LINE
  5
4178
330
18
100
AcDbEntity
  8
0
 62
     4
100
AcDbLine
 10
297.0575548161787
 20
426.3875148482275
 30
0.0
 11
297.0575548161787
 21
421.7282506081629
 31
0.0
  0
LINE
  5
4179
330
18
100
AcDbEntity
  8
0
 62
     4
100
AcDbLine
 10
306.5575548161787
 20
426.6981324645112
 30
0.0
 11
306.5575548161787
 21
426.0768972324094
 31
0.0
  0
LINE
  5
417A
330
18
100
AcDbEntity
  8
0
 62
     4
100
AcDbLine
 10
311.5575548162078
 20
426.6981324641619
 30
0.0
 11
311.5575548162078
 21
426.0768972321766
 31
0.0
  0
LINE
  5
417B
330
18
100
AcDbEntity
  8
0
 62
     4
100
AcDbLine
 10
311.5575548162369
 20
432.133940744412
 30
0.0
 11
311.5575548162078
 21
431.5127055121938
 31
0.0
  0
LINE
  5
417C
330
18
100
AcDbEntity
  8
0
 62
     4
100
AcDbLine
 10
306.5575548161496
 20
432.133940744412
 30
0.0
 11
306.5575548161787
 21
431.5127055123102
 31
0.0
  0
LINE
  5
417D
330
18
100
AcDbEntity
  8
0
 62
     4
100
AcDbLine
 10
306.5575548161496
 20
436.7932049843602
 30
0.0
 11
306.5575548161496
 21
436.1719697522585
 31
0.0
  0
LINE
  5
417E
330
18
100
AcDbEntity
  8
0
 62
     4
100
AcDbLine
 10
311.5575548162369
 20
436.7932049844767
 30
0.0
 11
311.5575548162369
 21
436.171969752142
 31
0.0
  0
LINE
  5
417F
330
18
100
AcDbEntity
  8
0
 62
     4
100
AcDbLine
 10
315.5575548162951
 20
419.743309680105
 30
0.0
 11
315.5575548161787
 21
423.7131915365698
 31
0.0
  0
LINE
  5
4180
330
18
100
AcDbEntity
  8
0
 62
     4
100
AcDbLine
 10
302.5575548162951
 20
419.7433096799886
 30
0.0
 11
302.5575548162078
 21
423.7131915364534
 31
0.0
  0
LINE
  5
4181
330
18
100
AcDbEntity
  8
0
 62
     4
100
AcDbLine
 10
303.0575548162078
 20
424.2131915364534
 30
0.0
 11
315.0575548161787
 21
424.2131915365698
 31
0.0
  0
LINE
  5
4182
330
18
100
AcDbEntity
  8
0
 62
     4
100
AcDbLine
 10
303.0575548162951
 20
419.2433096799886
 30
0.0
 11
315.0575548162951
 21
419.2433096801051
 31
0.0
  0
ARC
  5
4183
330
18
100
AcDbEntity
  8
0
 62
     4
100
AcDbCircle
 10
303.0575548162078
 20
423.7131915364534
 30
0.0
 40
0.5
100
AcDbArc
 50
90.00000000166753
 51
180.0
  0
ARC
  5
4184
330
18
100
AcDbEntity
  8
0
 62
     4
100
AcDbCircle
 10
315.0575548161787
 20
423.7131915365698
 30
0.0
 40
0.5
100
AcDbArc
 50
0.0
 51
90.00000000166753
  0
ARC
  5
4185
330
18
100
AcDbEntity
  8
0
 62
     4
100
AcDbCircle
 10
315.0575548162951
 20
419.743309680105
 30
0.0
 40
0.5
100
AcDbArc
 50
270.0
 51
0.0
  0
ARC
  5
4186
330
18
100
AcDbEntity
  8
0
 62
     4
100
AcDbCircle
 10
303.0575548162951
 20
419.7433096799886
 30
0.0
 40
0.5
100
AcDbArc
 50
180.0
 51
270.0
  0
LINE
  5
4187
330
18
100
AcDbEntity
  8
0
 62
     4
100
AcDbLine
 10
558.0665611272188
 20
703.464075912454
 30
0.0
 11
495.8140790465031
 21
703.4640759122212
 31
0.0
  0
LINE
  5
4188
330
18
100
AcDbEntity
  8
0
 62
     4
100
AcDbLine
 10
560.0665611273934
 20
617.4640759124541
 30
0.0
 11
560.066561127277
 21
701.464075912454
 31
0.0
  0
LINE
  5
4189
330
18
100
AcDbEntity
  8
0
 62
     4
100
AcDbLine
 10
471.8140790464449
 20
615.464075912454
 30
0.0
 11
481.8140790464449
 21
615.464075912454
 31
0.0
  0
LINE
  5
418A
330
18
100
AcDbEntity
  8
0
 62
     4
100
AcDbLine
 10
481.8140790464449
 20
703.464075912454
 30
0.0
 11
481.8140790464449
 21
615.464075912454
 31
0.0
  0
LINE
  5
418B
330
18
100
AcDbEntity
  8
0
 62
     4
100
AcDbLine
 10
493.8140790464449
 20
701.4640759123376
 30
0.0
 11
493.8140790464449
 21
617.4640759124541
 31
0.0
  0
LINE
  5
418C
330
18
100
AcDbEntity
  8
0
 62
     4
100
AcDbLine
 10
495.8140790463867
 20
615.4640759123376
 30
0.0
 11
558.0665611273352
 21
615.4640759123376
 31
0.0
  0
LINE
  5
418D
330
18
100
AcDbEntity
  8
0
 62
     4
100
AcDbLine
 10
481.8140790464449
 20
703.464075912454
 30
0.0
 11
471.8140790464449
 21
703.464075912454
 31
0.0
  0
LINE
  5
418E
330
18
100
AcDbEntity
  8
0
 62
     4
100
AcDbLine
 10
474.8140790464449
 20
703.464075912454
 30
0.0
 11
474.8140790464449
 21
615.464075912454
 31
0.0
  0
ARC
  5
418F
330
18
100
AcDbEntity
  8
0
 62
     4
100
AcDbCircle
 10
558.0665611273352
 20
617.4640759123376
 30
0.0
 40
2.0
100
AcDbArc
 50
270.0
 51
0.0
  0
ARC
  5
4190
330
18
100
AcDbEntity
  8
0
 62
     4
100
AcDbCircle
 10
558.0665611272188
 20
701.464075912454
 30
0.0
 40
2.0
100
AcDbArc
 50
0.0
 51
90.0
  0
ARC
  5
4191
330
18
100
AcDbEntity
  8
0
 62
     4
100
AcDbCircle
 10
495.8140790463867
 20
701.4640759122212
 30
0.0
 40
2.0
100
AcDbArc
 50
90.0
 51
180.0
  0
ARC
  5
4192
330
18
100
AcDbEntity
  8
0
 62
     4
100
AcDbCircle
 10
495.8140790463867
 20
617.4640759123376
 30
0.0
 40
2.0
100
AcDbArc
 50
180.0
 51
270.0
  0
LINE
  5
4193
330
18
100
AcDbEntity
  8
0
 62
     4
100
AcDbLine
 10
491.3140790464449
 20
685.9640759123376
 30
0.0
 11
484.3140790464449
 21
685.964075912454
 31
0.0
  0
LINE
  5
4194
330
18
100
AcDbEntity
  8
0
 62
     4
100
AcDbLine
 10
492.3140790464449
 20
684.9640759123376
 30
0.0
 11
492.3140790464449
 21
677.9640759123376
 31
0.0
  0
LINE
  5
4195
330
18
100
AcDbEntity
  8
0
 62
     4
100
AcDbLine
 10
483.3140790464449
 20
684.964075912454
 30
0.0
 11
483.3140790464449
 21
677.964075912454
 31
0.0
  0
LINE
  5
4196
330
18
100
AcDbEntity
  8
0
 62
     4
100
AcDbLine
 10
491.3140790464449
 20
676.9640759123376
 30
0.0
 11
484.3140790464449
 21
676.964075912454
 31
0.0
  0
LINE
  5
4197
330
18
100
AcDbEntity
  8
0
 62
     4
100
AcDbLine
 10
491.3140790464449
 20
696.9640759123376
 30
0.0
 11
484.3140790464449
 21
696.9640759124541
 31
0.0
  0
LINE
  5
4198
330
18
100
AcDbEntity
  8
0
 62
     4
100
AcDbLine
 10
492.3140790464449
 20
695.9640759123376
 30
0.0
 11
492.3140790464449
 21
688.9640759123376
 31
0.0
  0
LINE
  5
4199
330
18
100
AcDbEntity
  8
0
 62
     4
100
AcDbLine
 10
483.3140790464449
 20
695.964075912454
 30
0.0
 11
483.3140790464449
 21
688.964075912454
 31
0.0
  0
LINE
  5
419A
330
18
100
AcDbEntity
  8
0
 62
     4
100
AcDbLine
 10
491.3140790464449
 20
687.9640759123376
 30
0.0
 11
484.3140790464449
 21
687.9640759124541
 31
0.0
  0
LWPOLYLINE
  5
419B
330
18
100
AcDbEntity
  8
0
 62
     4
100
AcDbPolyline
 90
        4
 70
     1
 43
0.0
 10
514.5324038255412
 20
679.9535637322933
 10
514.5324038255412
 20
621.5868794348444
 10
497.5644573860254
 20
621.5868794348444
 10
497.5644573860254
 20
679.9535637322933
  0
ARC
  5
41BA
330
18
100
AcDbEntity
  8
0
 62
     4
100
AcDbCircle
 10
491.3140790463867
 20
695.9640759123376
 30
0.0
 40
1.0
100
AcDbArc
 50
0.0
 51
90.0
  0
ARC
  5
41BB
330
18
100
AcDbEntity
  8
0
 62
     4
100
AcDbCircle
 10
491.3140790463867
 20
688.9640759122212
 30
0.0
 40
1.0
100
AcDbArc
 50
270.0
 51
0.0
  0
ARC
  5
41BC
330
18
100
AcDbEntity
  8
0
 62
     4
100
AcDbCircle
 10
484.3140790463867
 20
688.964075912454
 30
0.0
 40
1.0
100
AcDbArc
 50
180.0
 51
270.0
  0
ARC
  5
41BD
330
18
100
AcDbEntity
  8
0
 62
     4
100
AcDbCircle
 10
484.3140790463867
 20
695.964075912454
 30
0.0
 40
1.0
100
AcDbArc
 50
90.0
 51
180.0
  0
ARC
  5
41BE
330
18
100
AcDbEntity
  8
0
 62
     4
100
AcDbCircle
 10
491.3140790463867
 20
684.9640759123376
 30
0.0
 40
1.0
100
AcDbArc
 50
0.0
 51
90.0
  0
ARC
  5
41BF
330
18
100
AcDbEntity
  8
0
 62
     4
100
AcDbCircle
 10
491.3140790463867
 20
677.9640759122212
 30
0.0
 40
1.0
100
AcDbArc
 50
270.0
 51
0.0
  0
ARC
  5
41C0
330
18
100
AcDbEntity
  8
0
 62
     4
100
AcDbCircle
 10
484.3140790463867
 20
677.964075912454
 30
0.0
 40
1.0
100
AcDbArc
 50
180.0
 51
270.0
  0
ARC
  5
41C1
330
18
100
AcDbEntity
  8
0
 62
     4
100
AcDbCircle
 10
484.3140790463867
 20
684.964075912454
 30
0.0
 40
1.0
100
AcDbArc
 50
90.0
 51
180.0
  0
LINE
  5
41C2
330
18
100
AcDbEntity
  8
0
 62
     4
100
AcDbLine
 10
491.3140790464449
 20
674.9640759123376
 30
0.0
 11
484.3140790464449
 21
674.964075912454
 31
0.0
  0
LINE
  5
41C3
330
18
100
AcDbEntity
  8
0
 62
     4
100
AcDbLine
 10
492.3140790464449
 20
673.9640759123376
 30
0.0
 11
492.3140790464449
 21
666.9640759123376
 31
0.0
  0
LINE
  5
41C4
330
18
100
AcDbEntity
  8
0
 62
     4
100
AcDbLine
 10
483.3140790464449
 20
673.964075912454
 30
0.0
 11
483.3140790464449
 21
666.964075912454
 31
0.0
  0
LINE
  5
41C5
330
18
100
AcDbEntity
  8
0
 62
     4
100
AcDbLine
 10
491.3140790464449
 20
665.9640759123377
 30
0.0
 11
484.3140790464449
 21
665.964075912454
 31
0.0
  0
ARC
  5
41C6
330
18
100
AcDbEntity
  8
0
 62
     4
100
AcDbCircle
 10
491.3140790463867
 20
673.9640759123376
 30
0.0
 40
1.0
100
AcDbArc
 50
0.0
 51
90.0
  0
ARC
  5
41C7
330
18
100
AcDbEntity
  8
0
 62
     4
100
AcDbCircle
 10
491.3140790463867
 20
666.9640759122212
 30
0.0
 40
1.0
100
AcDbArc
 50
270.0
 51
0.0
  0
ARC
  5
41C8
330
18
100
AcDbEntity
  8
0
 62
     4
100
AcDbCircle
 10
484.3140790463867
 20
666.964075912454
 30
0.0
 40
1.0
100
AcDbArc
 50
180.0
 51
270.0
  0
ARC
  5
41C9
330
18
100
AcDbEntity
  8
0
 62
     4
100
AcDbCircle
 10
484.3140790463867
 20
673.964075912454
 30
0.0
 40
1.0
100
AcDbArc
 50
90.0
 51
180.0
  0
LINE
  5
41CA
330
18
100
AcDbEntity
  8
0
 62
     4
100
AcDbLine
 10
491.314079046212
 20
663.9640759123376
 30
0.0
 11
484.3140790462121
 21
663.964075912454
 31
0.0
  0
LINE
  5
41CB
330
18
100
AcDbEntity
  8
0
 62
     4
100
AcDbLine
 10
492.314079046212
 20
662.9640759123376
 30
0.0
 11
492.314079046212
 21
655.9640759123376
 31
0.0
  0
LINE
  5
41CC
330
18
100
AcDbEntity
  8
0
 62
     4
100
AcDbLine
 10
483.314079046212
 20
662.9640759124541
 30
0.0
 11
483.314079046212
 21
655.964075912454
 31
0.0
  0
LINE
  5
41CD
330
18
100
AcDbEntity
  8
0
 62
     4
100
AcDbLine
 10
491.314079046212
 20
654.9640759123376
 30
0.0
 11
484.3140790462121
 21
654.9640759124541
 31
0.0
  0
ARC
  5
41CE
330
18
100
AcDbEntity
  8
0
 62
     4
100
AcDbCircle
 10
491.3140790461539
 20
662.9640759123376
 30
0.0
 40
1.0
100
AcDbArc
 50
0.0
 51
90.0
  0
ARC
  5
41CF
330
18
100
AcDbEntity
  8
0
 62
     4
100
AcDbCircle
 10
491.3140790461539
 20
655.9640759122212
 30
0.0
 40
1.0
100
AcDbArc
 50
270.0
 51
0.0
  0
ARC
  5
41D0
330
18
100
AcDbEntity
  8
0
 62
     4
100
AcDbCircle
 10
484.3140790461538
 20
655.964075912454
 30
0.0
 40
1.0
100
AcDbArc
 50
180.0
 51
270.0
  0
ARC
  5
41D1
330
18
100
AcDbEntity
  8
0
 62
     4
100
AcDbCircle
 10
484.3140790461538
 20
662.9640759124541
 30
0.0
 40
1.0
100
AcDbArc
 50
90.0
 51
180.0
  0
LINE
  5
41D2
330
18
100
AcDbEntity
  8
0
 62
     4
100
AcDbLine
 10
491.3140790459793
 20
652.9640759123376
 30
0.0
 11
484.3140790459792
 21
652.964075912454
 31
0.0
  0
LINE
  5
41D3
330
18
100
AcDbEntity
  8
0
 62
     4
100
AcDbLine
 10
492.3140790459792
 20
651.9640759123376
 30
0.0
 11
492.3140790459792
 21
644.9640759123376
 31
0.0
  0
LINE
  5
41D4
330
18
100
AcDbEntity
  8
0
 62
     4
100
AcDbLine
 10
483.3140790459792
 20
651.964075912454
 30
0.0
 11
483.3140790459792
 21
644.964075912454
 31
0.0
  0
LINE
  5
41D5
330
18
100
AcDbEntity
  8
0
 62
     4
100
AcDbLine
 10
491.3140790459793
 20
643.9640759123376
 30
0.0
 11
484.3140790459792
 21
643.964075912454
 31
0.0
  0
ARC
  5
41D6
330
18
100
AcDbEntity
  8
0
 62
     4
100
AcDbCircle
 10
491.314079045921
 20
651.9640759123376
 30
0.0
 40
1.0
100
AcDbArc
 50
0.0
 51
90.0
  0
ARC
  5
41D7
330
18
100
AcDbEntity
  8
0
 62
     4
100
AcDbCircle
 10
491.314079045921
 20
644.9640759122212
 30
0.0
 40
1.0
100
AcDbArc
 50
270.0
 51
0.0
  0
ARC
  5
41D8
330
18
100
AcDbEntity
  8
0
 62
     4
100
AcDbCircle
 10
484.314079045921
 20
644.964075912454
 30
0.0
 40
1.0
100
AcDbArc
 50
180.0
 51
270.0
  0
ARC
  5
41D9
330
18
100
AcDbEntity
  8
0
 62
     4
100
AcDbCircle
 10
484.314079045921
 20
651.964075912454
 30
0.0
 40
1.0
100
AcDbArc
 50
90.0
 51
180.0
  0
LINE
  5
41DA
330
18
100
AcDbEntity
  8
0
 62
     4
100
AcDbLine
 10
491.3140790457464
 20
641.9640759123376
 30
0.0
 11
484.3140790457464
 21
641.964075912454
 31
0.0
  0
LINE
  5
41DB
330
18
100
AcDbEntity
  8
0
 62
     4
100
AcDbLine
 10
492.3140790457464
 20
640.9640759123377
 30
0.0
 11
492.3140790457464
 21
633.9640759123376
 31
0.0
  0
LINE
  5
41DC
330
18
100
AcDbEntity
  8
0
 62
     4
100
AcDbLine
 10
483.3140790457464
 20
640.964075912454
 30
0.0
 11
483.3140790457464
 21
633.9640759124541
 31
0.0
  0
LINE
  5
41DD
330
18
100
AcDbEntity
  8
0
 62
     4
100
AcDbLine
 10
491.3140790457464
 20
632.9640759123376
 30
0.0
 11
484.3140790457464
 21
632.964075912454
 31
0.0
  0
ARC
  5
41DE
330
18
100
AcDbEntity
  8
0
 62
     4
100
AcDbCircle
 10
491.3140790456882
 20
640.9640759123377
 30
0.0
 40
1.0
100
AcDbArc
 50
0.0
 51
90.0
  0
ARC
  5
41DF
330
18
100
AcDbEntity
  8
0
 62
     4
100
AcDbCircle
 10
491.3140790456882
 20
633.9640759122212
 30
0.0
 40
1.0
100
AcDbArc
 50
270.0
 51
0.0
  0
ARC
  5
41E0
330
18
100
AcDbEntity
  8
0
 62
     4
100
AcDbCircle
 10
484.3140790456882
 20
633.9640759124541
 30
0.0
 40
1.0
100
AcDbArc
 50
180.0
 51
270.0
  0
ARC
  5
41E1
330
18
100
AcDbEntity
  8
0
 62
     4
100
AcDbCircle
 10
484.3140790456882
 20
640.964075912454
 30
0.0
 40
1.0
100
AcDbArc
 50
90.0
 51
180.0
  0
LINE
  5
41E2
330
18
100
AcDbEntity
  8
0
 62
     4
100
AcDbLine
 10
491.3140790457464
 20
630.9640759123376
 30
0.0
 11
484.3140790457464
 21
630.964075912454
 31
0.0
  0
LINE
  5
41E3
330
18
100
AcDbEntity
  8
0
 62
     4
100
AcDbLine
 10
492.3140790457464
 20
629.9640759123376
 30
0.0
 11
492.3140790457464
 21
622.9640759123376
 31
0.0
  0
LINE
  5
41E4
330
18
100
AcDbEntity
  8
0
 62
     4
100
AcDbLine
 10
483.3140790457464
 20
629.9640759124541
 30
0.0
 11
483.3140790457464
 21
622.964075912454
 31
0.0
  0
LINE
  5
41E5
330
18
100
AcDbEntity
  8
0
 62
     4
100
AcDbLine
 10
491.3140790457464
 20
621.9640759123376
 30
0.0
 11
484.3140790457464
 21
621.9640759124541
 31
0.0
  0
ARC
  5
41E6
330
18
100
AcDbEntity
  8
0
 62
     4
100
AcDbCircle
 10
491.3140790456882
 20
629.9640759123376
 30
0.0
 40
1.0
100
AcDbArc
 50
0.0
 51
90.0
  0
ARC
  5
41E7
330
18
100
AcDbEntity
  8
0
 62
     4
100
AcDbCircle
 10
491.3140790456882
 20
622.9640759122212
 30
0.0
 40
1.0
100
AcDbArc
 50
270.0
 51
0.0
  0
ARC
  5
41E8
330
18
100
AcDbEntity
  8
0
 62
     4
100
AcDbCircle
 10
484.3140790456882
 20
622.964075912454
 30
0.0
 40
1.0
100
AcDbArc
 50
180.0
 51
270.0
  0
ARC
  5
41E9
330
18
100
AcDbEntity
  8
0
 62
     4
100
AcDbCircle
 10
484.3140790456882
 20
629.9640759124541
 30
0.0
 40
1.0
100
AcDbArc
 50
90.0
 51
180.0
  0
LINE
  5
41F0
330
18
100
AcDbEntity
  8
0
 62
     4
100
AcDbLine
 10
497.625641435522
 20
595.3540008328509
 30
0.0
 11
497.625641435522
 21
590.574078552856
 31
0.0
  0
LINE
  5
41F1
330
18
100
AcDbEntity
  8
0
 62
     4
100
AcDbLine
 10
499.5376103475201
 20
595.3540008328509
 30
0.0
 11
499.5376103475201
 21
590.574078552856
 31
0.0
  0
LINE
  5
41F2
330
18
100
AcDbEntity
  8
0
 62
     4
100
AcDbLine
 10
499.5376103475201
 20
595.3540008328509
 30
0.0
 11
497.6256414356093
 21
595.3540008328509
 31
0.0
  0
LINE
  5
41F3
330
18
100
AcDbEntity
  8
0
 62
     4
100
AcDbLine
 10
499.5376103475201
 20
590.574078552856
 30
0.0
 11
497.6256414356093
 21
590.574078552856
 31
0.0
  0
LINE
  5
41F4
330
18
100
AcDbEntity
  8
0
 62
     4
100
AcDbLine
 10
514.3553694155043
 20
595.3540008328509
 30
0.0
 11
514.3553694155043
 21
590.574078552856
 31
0.0
  0
LINE
  5
41F5
330
18
100
AcDbEntity
  8
0
 62
     4
100
AcDbLine
 10
516.2673383275023
 20
595.3540008328509
 30
0.0
 11
516.2673383275023
 21
590.574078552856
 31
0.0
  0
LINE
  5
41F6
330
18
100
AcDbEntity
  8
0
 62
     4
100
AcDbLine
 10
516.2673383275023
 20
595.3540008328509
 30
0.0
 11
514.3553694156207
 21
595.3540008328509
 31
0.0
  0
LINE
  5
41F7
330
18
100
AcDbEntity
  8
0
 62
     4
100
AcDbLine
 10
516.2673383275023
 20
590.574078552856
 30
0.0
 11
514.3553694156207
 21
590.574078552856
 31
0.0
  0
LINE
  5
41F8
330
18
100
AcDbEntity
  8
0
 62
     4
100
AcDbLine
 10
528.6951362555182
 20
595.3540008328509
 30
0.0
 11
528.6951362555182
 21
590.574078552856
 31
0.0
  0
LINE
  5
41F9
330
18
100
AcDbEntity
  8
0
 62
     4
100
AcDbLine
 10
530.6071051675162
 20
595.3540008328509
 30
0.0
 11
530.6071051675162
 21
590.574078552856
 31
0.0
  0
LINE
  5
41FA
330
18
100
AcDbEntity
  8
0
 62
     4
100
AcDbLine
 10
530.6071051675162
 20
595.3540008328509
 30
0.0
 11
528.6951362556346
 21
595.3540008328509
 31
0.0
  0
LINE
  5
41FB
330
18
100
AcDbEntity
  8
0
 62
     4
100
AcDbLine
 10
530.6071051675162
 20
590.574078552856
 30
0.0
 11
528.6951362556346
 21
590.574078552856
 31
0.0
  0
LINE
  5
41FC
330
18
100
AcDbEntity
  8
0
 62
     4
100
AcDbLine
 10
543.0349030955031
 20
595.3540008328509
 30
0.0
 11
543.0349030955031
 21
590.574078552856
 31
0.0
  0
LINE
  5
41FD
330
18
100
AcDbEntity
  8
0
 62
     4
100
AcDbLine
 10
544.946872007501
 20
595.3540008328509
 30
0.0
 11
544.946872007501
 21
590.574078552856
 31
0.0
  0
LINE
  5
41FE
330
18
100
AcDbEntity
  8
0
 62
     4
100
AcDbLine
 10
544.946872007501
 20
595.3540008328509
 30
0.0
 11
543.0349030956194
 21
595.3540008328509
 31
0.0
  0
LINE
  5
41FF
330
18
100
AcDbEntity
  8
0
 62
     4
100
AcDbLine
 10
544.946872007501
 20
590.574078552856
 30
0.0
 11
543.0349030956194
 21
590.574078552856
 31
0.0
  0
LINE
  5
4204
330
18
100
AcDbEntity
  8
0
 62
     4
100
AcDbLine
 10
484.2418590515071
 20
604.4358531648413
 30
0.0
 11
498.5816258917248
 21
604.4358531648413
 31
0.0
  0
LINE
  5
4205
330
18
100
AcDbEntity
  8
0
 62
     4
100
AcDbLine
 10
498.5816258916083
 20
596.7879775168494
 30
0.0
 11
498.5816258917248
 21
604.4358531648413
 31
0.0
  0
LINE
  5
4206
330
18
100
AcDbEntity
  8
0
 62
     4
100
AcDbLine
 10
484.2418590515071
 20
601.0458920248439
 30
0.0
 11
484.2418590515071
 21
604.4358531648413
 31
0.0
  0
LINE
  5
4208
330
18
100
AcDbEntity
  8
0
 62
     4
100
AcDbLine
 10
479.241859051478
 20
599.4640396929699
 30
0.0
 11
489.2418590514489
 21
599.4640396930862
 31
0.0
  0
LINE
  5
4209
330
18
100
AcDbEntity
  8
0
 62
     4
100
AcDbLine
 10
479.2418590514198
 20
586.4640396926206
 30
0.0
 11
489.2418590514489
 21
586.4640396928535
 31
0.0
  0
LINE
  5
420A
330
18
100
AcDbEntity
  8
0
 62
     4
100
AcDbLine
 10
478.741859051478
 20
598.9640396929699
 30
0.0
 11
478.7418590514199
 21
586.9640396926206
 31
0.0
  0
LINE
  5
420B
330
18
100
AcDbEntity
  8
0
 62
     4
100
AcDbLine
 10
489.7418590514489
 20
598.9640396930862
 30
0.0
 11
489.7418590514489
 21
586.9640396928534
 31
0.0
  0
ARC
  5
420C
330
18
100
AcDbEntity
  8
0
 62
     4
100
AcDbCircle
 10
489.2418590514489
 20
598.9640396930862
 30
0.0
 40
0.5
100
AcDbArc
 50
0.0
 51
90.0
  0
ARC
  5
420D
330
18
100
AcDbEntity
  8
0
 62
     4
100
AcDbCircle
 10
489.2418590514489
 20
586.9640396928534
 30
0.0
 40
0.5
100
AcDbArc
 50
270.0
 51
0.0
  0
ARC
  5
420E
330
18
100
AcDbEntity
  8
0
 62
     4
100
AcDbCircle
 10
479.2418590514198
 20
586.9640396926206
 30
0.0
 40
0.5
100
AcDbArc
 50
180.0
 51
270.0
  0
ARC
  5
420F
330
18
100
AcDbEntity
  8
0
 62
     4
100
AcDbCircle
 10
479.241859051478
 20
598.9640396929699
 30
0.0
 40
0.5
100
AcDbArc
 50
90.00000000166753
 51
180.0
  0
LINE
  5
4210
330
18
100
AcDbEntity
  8
0
100
AcDbLine
 10
746.5870755580754
 20
356.3390845029735
 30
0.0
 11
746.5870755580754
 21
433.8390845026242
 31
0.0
  0
LINE
  5
4211
330
18
100
AcDbEntity
  8
0
100
AcDbLine
 10
446.5870755585702
 20
393.8240136004406
 30
0.0
 11
446.5870755581918
 21
235.3390845028571
 31
0.0
  0
LINE
  5
4212
330
18
100
AcDbEntity
  8
0
100
AcDbLine
 10
728.0870755580754
 20
452.3390845026242
 30
0.0
 11
595.3723606725024
 21
452.3390845027406
 31
0.0
  0
ARC
  5
4213
330
18
100
AcDbEntity
  8
0
100
AcDbCircle
 10
595.3723606725024
 20
402.3390845027406
 30
0.0
 40
50.0
100
AcDbArc
 50
90.0
 51
107.7004277916739
  0
LINE
  5
4214
330
18
100
AcDbEntity
  8
0
100
AcDbLine
 10
580.1703519826324
 20
449.9720450637051
 30
0.0
 11
459.4623323433252
 21
411.4482090079345
 31
0.0
  0
LINE
  5
4215
330
18
100
AcDbEntity
  8
0
100
AcDbLine
 10
746.5870755579299
 20
235.3390845028571
 30
0.0
 11
746.5870755579881
 21
433.8390845026242
 31
0.0
  0
LINE
  5
4216
330
18
100
AcDbEntity
  8
0
100
AcDbLine
 10
446.5870755581918
 20
235.3390845026242
 30
0.0
 11
746.5870755579299
 21
235.3390845027407
 31
0.0
  0
ARC
  5
4217
330
18
100
AcDbEntity
  8
0
100
AcDbCircle
 10
728.0870755580754
 20
433.8390845026242
 30
0.0
 40
18.5
100
AcDbArc
 50
0.0
 51
90.0
  0
ARC
  5
4218
330
18
100
AcDbEntity
  8
0
100
AcDbCircle
 10
465.0870755585701
 20
393.8240136004406
 30
0.0
 40
18.5
100
AcDbArc
 50
107.7004277885015
 51
180.0
  0
CIRCLE
  5
4219
330
18
100
AcDbEntity
  8
0
 62
     4
100
AcDbCircle
 10
674.5870758295851
 20
642.9640759133853
 30
0.0
 40
29.0
  0
ARC
  5
421A
330
18
100
AcDbEntity
  8
0
 62
     4
100
AcDbCircle
 10
720.0870758313312
 20
710.2140759161793
 30
0.0
 40
1.75
100
AcDbArc
 50
0.0
 51
180.0
  0
LINE
  5
421B
330
18
100
AcDbEntity
  8
0
 62
     4
100
AcDbLine
 10
718.3370758313895
 20
683.7140759117556
 30
0.0
 11
718.3370758315058
 21
710.2140759161793
 31
0.0
  0
LINE
  5
421C
330
18
100
AcDbEntity
  8
0
 62
     4
100
AcDbLine
 10
721.8370758313895
 20
683.7140759117556
 30
0.0
 11
721.8370758315058
 21
710.2140759161793
 31
0.0
  0
ARC
  5
421D
330
18
100
AcDbEntity
  8
0
 62
     4
100
AcDbCircle
 10
720.0870758313312
 20
683.7140759116391
 30
0.0
 40
1.75
100
AcDbArc
 50
180.0
 51
0.0
  0
ARC
  5
421E
330
18
100
AcDbEntity
  8
0
 62
     4
100
AcDbCircle
 10
713.5870758313313
 20
710.2140759161793
 30
0.0
 40
1.75
100
AcDbArc
 50
0.0
 51
180.0
  0
LINE
  5
421F
330
18
100
AcDbEntity
  8
0
 62
     4
100
AcDbLine
 10
711.8370758313894
 20
683.7140759117556
 30
0.0
 11
711.8370758315059
 21
710.2140759161793
 31
0.0
  0
LINE
  5
4220
330
18
100
AcDbEntity
  8
0
 62
     4
100
AcDbLine
 10
715.3370758313895
 20
683.7140759117556
 30
0.0
 11
715.3370758315059
 21
710.2140759161793
 31
0.0
  0
ARC
  5
4221
330
18
100
AcDbEntity
  8
0
 62
     4
100
AcDbCircle
 10
713.5870758313313
 20
683.7140759116391
 30
0.0
 40
1.75
100
AcDbArc
 50
180.0
 51
0.0
  0
ARC
  5
4222
330
18
100
AcDbEntity
  8
0
 62
     4
100
AcDbCircle
 10
707.0870758313312
 20
710.2140759161793
 30
0.0
 40
1.75
100
AcDbArc
 50
0.0
 51
180.0
  0
LINE
  5
4223
330
18
100
AcDbEntity
  8
0
 62
     4
100
AcDbLine
 10
705.3370758313895
 20
683.7140759117556
 30
0.0
 11
705.3370758315058
 21
710.2140759161793
 31
0.0
  0
LINE
  5
4224
330
18
100
AcDbEntity
  8
0
 62
     4
100
AcDbLine
 10
708.8370758313894
 20
683.7140759117556
 30
0.0
 11
708.8370758315059
 21
710.2140759161793
 31
0.0
  0
ARC
  5
4225
330
18
100
AcDbEntity
  8
0
 62
     4
100
AcDbCircle
 10
707.0870758313312
 20
683.7140759116391
 30
0.0
 40
1.75
100
AcDbArc
 50
180.0
 51
0.0
  0
ARC
  5
4226
330
18
100
AcDbEntity
  8
0
 62
     4
100
AcDbCircle
 10
700.5870758313313
 20
710.2140759161793
 30
0.0
 40
1.75
100
AcDbArc
 50
0.0
 51
180.0
  0
LINE
  5
4227
330
18
100
AcDbEntity
  8
0
 62
     4
100
AcDbLine
 10
698.8370758313894
 20
683.7140759117556
 30
0.0
 11
698.8370758315059
 21
710.2140759161793
 31
0.0
  0
LINE
  5
4228
330
18
100
AcDbEntity
  8
0
 62
     4
100
AcDbLine
 10
702.3370758313895
 20
683.7140759117556
 30
0.0
 11
702.3370758315059
 21
710.2140759161793
 31
0.0
  0
ARC
  5
4229
330
18
100
AcDbEntity
  8
0
 62
     4
100
AcDbCircle
 10
700.5870758313313
 20
683.7140759116391
 30
0.0
 40
1.75
100
AcDbArc
 50
180.0
 51
0.0
  0
ARC
  5
422A
330
18
100
AcDbEntity
  8
0
 62
     4
100
AcDbCircle
 10
694.0870758313312
 20
710.2140759161793
 30
0.0
 40
1.75
100
AcDbArc
 50
0.0
 51
180.0
  0
LINE
  5
422B
330
18
100
AcDbEntity
  8
0
 62
     4
100
AcDbLine
 10
692.3370758313894
 20
683.7140759117556
 30
0.0
 11
692.3370758315058
 21
710.2140759161793
 31
0.0
  0
LINE
  5
422C
330
18
100
AcDbEntity
  8
0
 62
     4
100
AcDbLine
 10
695.8370758313894
 20
683.7140759117556
 30
0.0
 11
695.8370758315059
 21
710.2140759161793
 31
0.0
  0
ARC
  5
422D
330
18
100
AcDbEntity
  8
0
 62
     4
100
AcDbCircle
 10
694.0870758313312
 20
683.7140759116391
 30
0.0
 40
1.75
100
AcDbArc
 50
180.0
 51
0.0
  0
ARC
  5
422E
330
18
100
AcDbEntity
  8
0
 62
     4
100
AcDbCircle
 10
687.5870758313312
 20
710.2140759161793
 30
0.0
 40
1.75
100
AcDbArc
 50
0.0
 51
180.0
  0
LINE
  5
422F
330
18
100
AcDbEntity
  8
0
 62
     4
100
AcDbLine
 10
685.8370758313895
 20
683.7140759117556
 30
0.0
 11
685.8370758315059
 21
710.2140759161793
 31
0.0
  0
LINE
  5
4230
330
18
100
AcDbEntity
  8
0
 62
     4
100
AcDbLine
 10
689.3370758313895
 20
683.7140759117556
 30
0.0
 11
689.3370758315058
 21
710.2140759161793
 31
0.0
  0
ARC
  5
4231
330
18
100
AcDbEntity
  8
0
 62
     4
100
AcDbCircle
 10
687.5870758313312
 20
683.7140759116391
 30
0.0
 40
1.75
100
AcDbArc
 50
180.0
 51
0.0
  0
ARC
  5
4232
330
18
100
AcDbEntity
  8
0
 62
     4
100
AcDbCircle
 10
681.0870758313313
 20
710.2140759161793
 30
0.0
 40
1.75
100
AcDbArc
 50
0.0
 51
180.0
  0
LINE
  5
4233
330
18
100
AcDbEntity
  8
0
 62
     4
100
AcDbLine
 10
679.3370758313894
 20
683.7140759117556
 30
0.0
 11
679.3370758315059
 21
710.2140759161793
 31
0.0
  0
LINE
  5
4234
330
18
100
AcDbEntity
  8
0
 62
     4
100
AcDbLine
 10
682.8370758313894
 20
683.7140759117556
 30
0.0
 11
682.8370758315059
 21
710.2140759161793
 31
0.0
  0
ARC
  5
4235
330
18
100
AcDbEntity
  8
0
 62
     4
100
AcDbCircle
 10
681.0870758313313
 20
683.7140759116391
 30
0.0
 40
1.75
100
AcDbArc
 50
180.0
 51
0.0
  0
ARC
  5
4236
330
18
100
AcDbEntity
  8
0
 62
     4
100
AcDbCircle
 10
674.5870758313312
 20
710.2140759161793
 30
0.0
 40
1.75
100
AcDbArc
 50
0.0
 51
180.0
  0
LINE
  5
4237
330
18
100
AcDbEntity
  8
0
 62
     4
100
AcDbLine
 10
672.8370758313895
 20
683.7140759117556
 30
0.0
 11
672.8370758315058
 21
710.2140759161793
 31
0.0
  0
LINE
  5
4238
330
18
100
AcDbEntity
  8
0
 62
     4
100
AcDbLine
 10
676.3370758313895
 20
683.7140759117556
 30
0.0
 11
676.3370758315058
 21
710.2140759161793
 31
0.0
  0
ARC
  5
4239
330
18
100
AcDbEntity
  8
0
 62
     4
100
AcDbCircle
 10
674.5870758313312
 20
683.7140759116391
 30
0.0
 40
1.75
100
AcDbArc
 50
180.0
 51
0.0
  0
ARC
  5
423A
330
18
100
AcDbEntity
  8
0
 62
     4
100
AcDbCircle
 10
668.0870758313313
 20
710.2140759161793
 30
0.0
 40
1.75
100
AcDbArc
 50
0.0
 51
180.0
  0
LINE
  5
423B
330
18
100
AcDbEntity
  8
0
 62
     4
100
AcDbLine
 10
666.3370758313894
 20
683.7140759117556
 30
0.0
 11
666.3370758315059
 21
710.2140759161793
 31
0.0
  0
LINE
  5
423C
330
18
100
AcDbEntity
  8
0
 62
     4
100
AcDbLine
 10
669.8370758313894
 20
683.7140759117556
 30
0.0
 11
669.8370758315059
 21
710.2140759161793
 31
0.0
  0
ARC
  5
423D
330
18
100
AcDbEntity
  8
0
 62
     4
100
AcDbCircle
 10
668.0870758313313
 20
683.7140759116391
 30
0.0
 40
1.75
100
AcDbArc
 50
180.0
 51
0.0
  0
ARC
  5
423E
330
18
100
AcDbEntity
  8
0
 62
     4
100
AcDbCircle
 10
661.5870758313312
 20
710.2140759161793
 30
0.0
 40
1.75
100
AcDbArc
 50
0.0
 51
180.0
  0
LINE
  5
423F
330
18
100
AcDbEntity
  8
0
 62
     4
100
AcDbLine
 10
659.8370758313895
 20
683.7140759117556
 30
0.0
 11
659.8370758315058
 21
710.2140759161793
 31
0.0
  0
LINE
  5
4240
330
18
100
AcDbEntity
  8
0
 62
     4
100
AcDbLine
 10
663.3370758313894
 20
683.7140759117556
 30
0.0
 11
663.3370758315058
 21
710.2140759161793
 31
0.0
  0
ARC
  5
4241
330
18
100
AcDbEntity
  8
0
 62
     4
100
AcDbCircle
 10
661.5870758313312
 20
683.7140759116391
 30
0.0
 40
1.75
100
AcDbArc
 50
180.0
 51
0.0
  0
ARC
  5
4242
330
18
100
AcDbEntity
  8
0
 62
     4
100
AcDbCircle
 10
655.0870758313313
 20
710.2140759161793
 30
0.0
 40
1.75
100
AcDbArc
 50
0.0
 51
180.0
  0
LINE
  5
4243
330
18
100
AcDbEntity
  8
0
 62
     4
100
AcDbLine
 10
653.3370758313894
 20
683.7140759117556
 30
0.0
 11
653.3370758315059
 21
710.2140759161793
 31
0.0
  0
LINE
  5
4244
330
18
100
AcDbEntity
  8
0
 62
     4
100
AcDbLine
 10
656.8370758313895
 20
683.7140759117556
 30
0.0
 11
656.8370758315059
 21
710.2140759161793
 31
0.0
  0
ARC
  5
4245
330
18
100
AcDbEntity
  8
0
 62
     4
100
AcDbCircle
 10
655.0870758313313
 20
683.7140759116391
 30
0.0
 40
1.75
100
AcDbArc
 50
180.0
 51
0.0
  0
ARC
  5
4246
330
18
100
AcDbEntity
  8
0
 62
     4
100
AcDbCircle
 10
648.5870758313312
 20
710.2140759161793
 30
0.0
 40
1.75
100
AcDbArc
 50
0.0
 51
180.0
  0
LINE
  5
4247
330
18
100
AcDbEntity
  8
0
 62
     4
100
AcDbLine
 10
646.8370758313895
 20
683.7140759117556
 30
0.0
 11
646.8370758315058
 21
710.2140759161793
 31
0.0
  0
LINE
  5
4248
330
18
100
AcDbEntity
  8
0
 62
     4
100
AcDbLine
 10
650.3370758313894
 20
683.7140759117556
 30
0.0
 11
650.3370758315059
 21
710.2140759161793
 31
0.0
  0
ARC
  5
4249
330
18
100
AcDbEntity
  8
0
 62
     4
100
AcDbCircle
 10
648.5870758313312
 20
683.7140759116391
 30
0.0
 40
1.75
100
AcDbArc
 50
180.0
 51
0.0
  0
ARC
  5
424A
330
18
100
AcDbEntity
  8
0
 62
     4
100
AcDbCircle
 10
642.0870758313313
 20
710.2140759161793
 30
0.0
 40
1.75
100
AcDbArc
 50
0.0
 51
180.0
  0
LINE
  5
424B
330
18
100
AcDbEntity
  8
0
 62
     4
100
AcDbLine
 10
640.3370758313895
 20
683.7140759117556
 30
0.0
 11
640.3370758315059
 21
710.2140759161793
 31
0.0
  0
LINE
  5
424C
330
18
100
AcDbEntity
  8
0
 62
     4
100
AcDbLine
 10
643.8370758313895
 20
683.7140759117556
 30
0.0
 11
643.8370758315059
 21
710.2140759161793
 31
0.0
  0
ARC
  5
424D
330
18
100
AcDbEntity
  8
0
 62
     4
100
AcDbCircle
 10
642.0870758313313
 20
683.7140759116391
 30
0.0
 40
1.75
100
AcDbArc
 50
180.0
 51
0.0
  0
ARC
  5
424E
330
18
100
AcDbEntity
  8
0
 62
     4
100
AcDbCircle
 10
635.5870758313312
 20
710.2140759161793
 30
0.0
 40
1.75
100
AcDbArc
 50
0.0
 51
180.0
  0
LINE
  5
424F
330
18
100
AcDbEntity
  8
0
 62
     4
100
AcDbLine
 10
633.8370758313894
 20
683.7140759117556
 30
0.0
 11
633.8370758315059
 21
710.2140759161793
 31
0.0
  0
LINE
  5
4250
330
18
100
AcDbEntity
  8
0
 62
     4
100
AcDbLine
 10
637.3370758313894
 20
683.7140759117556
 30
0.0
 11
637.3370758315059
 21
710.2140759161793
 31
0.0
  0
ARC
  5
4251
330
18
100
AcDbEntity
  8
0
 62
     4
100
AcDbCircle
 10
635.5870758313312
 20
683.7140759116391
 30
0.0
 40
1.75
100
AcDbArc
 50
180.0
 51
0.0
  0
ARC
  5
4252
330
18
100
AcDbEntity
  8
0
 62
     4
100
AcDbCircle
 10
629.0870758313312
 20
710.2140759161793
 30
0.0
 40
1.75
100
AcDbArc
 50
0.0
 51
180.0
  0
LINE
  5
4253
330
18
100
AcDbEntity
  8
0
 62
     4
100
AcDbLine
 10
627.3370758313895
 20
683.7140759117556
 30
0.0
 11
627.3370758315059
 21
710.2140759161793
 31
0.0
  0
LINE
  5
4254
330
18
100
AcDbEntity
  8
0
 62
     4
100
AcDbLine
 10
630.8370758313895
 20
683.7140759117556
 30
0.0
 11
630.8370758315058
 21
710.2140759161793
 31
0.0
  0
ARC
  5
4255
330
18
100
AcDbEntity
  8
0
 62
     4
100
AcDbCircle
 10
629.0870758313312
 20
683.7140759116391
 30
0.0
 40
1.75
100
AcDbArc
 50
180.0
 51
0.0
  0
ARC
  5
4256
330
18
100
AcDbEntity
  8
0
 62
     4
100
AcDbCircle
 10
720.0870758313312
 20
575.7140759115227
 30
0.0
 40
1.75
100
AcDbArc
 50
180.0
 51
0.0
  0
LINE
  5
4257
330
18
100
AcDbEntity
  8
0
 62
     4
100
AcDbLine
 10
718.3370758313895
 20
602.2140759161793
 30
0.0
 11
718.3370758315058
 21
575.7140759116391
 31
0.0
  0
LINE
  5
4258
330
18
100
AcDbEntity
  8
0
 62
     4
100
AcDbLine
 10
721.8370758313895
 20
602.2140759161793
 30
0.0
 11
721.8370758315058
 21
575.7140759116391
 31
0.0
  0
ARC
  5
4259
330
18
100
AcDbEntity
  8
0
 62
     4
100
AcDbCircle
 10
720.0870758313312
 20
602.2140759161793
 30
0.0
 40
1.75
100
AcDbArc
 50
0.0
 51
180.0
  0
ARC
  5
425A
330
18
100
AcDbEntity
  8
0
 62
     4
100
AcDbCircle
 10
713.5870758313313
 20
575.7140759115227
 30
0.0
 40
1.75
100
AcDbArc
 50
180.0
 51
0.0
  0
LINE
  5
425B
330
18
100
AcDbEntity
  8
0
 62
     4
100
AcDbLine
 10
711.8370758313894
 20
602.2140759161793
 30
0.0
 11
711.8370758315059
 21
575.7140759116391
 31
0.0
  0
LINE
  5
425C
330
18
100
AcDbEntity
  8
0
 62
     4
100
AcDbLine
 10
715.3370758313895
 20
602.2140759161793
 30
0.0
 11
715.3370758315059
 21
575.7140759116391
 31
0.0
  0
ARC
  5
425D
330
18
100
AcDbEntity
  8
0
 62
     4
100
AcDbCircle
 10
713.5870758313313
 20
602.2140759161793
 30
0.0
 40
1.75
100
AcDbArc
 50
0.0
 51
180.0
  0
ARC
  5
425E
330
18
100
AcDbEntity
  8
0
 62
     4
100
AcDbCircle
 10
707.0870758313312
 20
575.7140759115227
 30
0.0
 40
1.75
100
AcDbArc
 50
180.0
 51
0.0
  0
LINE
  5
425F
330
18
100
AcDbEntity
  8
0
 62
     4
100
AcDbLine
 10
705.3370758313895
 20
602.2140759161793
 30
0.0
 11
705.3370758315058
 21
575.7140759116391
 31
0.0
  0
LINE
  5
4260
330
18
100
AcDbEntity
  8
0
 62
     4
100
AcDbLine
 10
708.8370758313894
 20
602.2140759161793
 30
0.0
 11
708.8370758315059
 21
575.7140759116391
 31
0.0
  0
ARC
  5
4261
330
18
100
AcDbEntity
  8
0
 62
     4
100
AcDbCircle
 10
707.0870758313312
 20
602.2140759161793
 30
0.0
 40
1.75
100
AcDbArc
 50
0.0
 51
180.0
  0
ARC
  5
4262
330
18
100
AcDbEntity
  8
0
 62
     4
100
AcDbCircle
 10
700.5870758313313
 20
575.7140759115227
 30
0.0
 40
1.75
100
AcDbArc
 50
180.0
 51
0.0
  0
LINE
  5
4263
330
18
100
AcDbEntity
  8
0
 62
     4
100
AcDbLine
 10
698.8370758313894
 20
602.2140759161793
 30
0.0
 11
698.8370758315059
 21
575.7140759116391
 31
0.0
  0
LINE
  5
4264
330
18
100
AcDbEntity
  8
0
 62
     4
100
AcDbLine
 10
702.3370758313895
 20
602.2140759161793
 30
0.0
 11
702.3370758315059
 21
575.7140759116391
 31
0.0
  0
ARC
  5
4265
330
18
100
AcDbEntity
  8
0
 62
     4
100
AcDbCircle
 10
700.5870758313313
 20
602.2140759161793
 30
0.0
 40
1.75
100
AcDbArc
 50
0.0
 51
180.0
  0
ARC
  5
4266
330
18
100
AcDbEntity
  8
0
 62
     4
100
AcDbCircle
 10
694.0870758313312
 20
575.7140759115227
 30
0.0
 40
1.75
100
AcDbArc
 50
180.0
 51
0.0
  0
LINE
  5
4267
330
18
100
AcDbEntity
  8
0
 62
     4
100
AcDbLine
 10
692.3370758313894
 20
602.2140759161793
 30
0.0
 11
692.3370758315058
 21
575.7140759116391
 31
0.0
  0
LINE
  5
4268
330
18
100
AcDbEntity
  8
0
 62
     4
100
AcDbLine
 10
695.8370758313894
 20
602.2140759161793
 30
0.0
 11
695.8370758315059
 21
575.7140759116391
 31
0.0
  0
ARC
  5
4269
330
18
100
AcDbEntity
  8
0
 62
     4
100
AcDbCircle
 10
694.0870758313312
 20
602.2140759161793
 30
0.0
 40
1.75
100
AcDbArc
 50
0.0
 51
180.0
  0
ARC
  5
426A
330
18
100
AcDbEntity
  8
0
 62
     4
100
AcDbCircle
 10
687.5870758313312
 20
575.7140759115227
 30
0.0
 40
1.75
100
AcDbArc
 50
180.0
 51
0.0
  0
LINE
  5
426B
330
18
100
AcDbEntity
  8
0
 62
     4
100
AcDbLine
 10
685.8370758313895
 20
602.2140759161793
 30
0.0
 11
685.8370758315059
 21
575.7140759116391
 31
0.0
  0
LINE
  5
426C
330
18
100
AcDbEntity
  8
0
 62
     4
100
AcDbLine
 10
689.3370758313895
 20
602.2140759161793
 30
0.0
 11
689.3370758315058
 21
575.7140759116391
 31
0.0
  0
ARC
  5
426D
330
18
100
AcDbEntity
  8
0
 62
     4
100
AcDbCircle
 10
687.5870758313312
 20
602.2140759161793
 30
0.0
 40
1.75
100
AcDbArc
 50
0.0
 51
180.0
  0
ARC
  5
426E
330
18
100
AcDbEntity
  8
0
 62
     4
100
AcDbCircle
 10
681.0870758313313
 20
575.7140759115227
 30
0.0
 40
1.75
100
AcDbArc
 50
180.0
 51
0.0
  0
LINE
  5
426F
330
18
100
AcDbEntity
  8
0
 62
     4
100
AcDbLine
 10
679.3370758313894
 20
602.2140759161793
 30
0.0
 11
679.3370758315059
 21
575.7140759116391
 31
0.0
  0
LINE
  5
4270
330
18
100
AcDbEntity
  8
0
 62
     4
100
AcDbLine
 10
682.8370758313894
 20
602.2140759161793
 30
0.0
 11
682.8370758315059
 21
575.7140759116391
 31
0.0
  0
ARC
  5
4271
330
18
100
AcDbEntity
  8
0
 62
     4
100
AcDbCircle
 10
681.0870758313313
 20
602.2140759161793
 30
0.0
 40
1.75
100
AcDbArc
 50
0.0
 51
180.0
  0
ARC
  5
4272
330
18
100
AcDbEntity
  8
0
 62
     4
100
AcDbCircle
 10
674.5870758313312
 20
575.7140759115227
 30
0.0
 40
1.75
100
AcDbArc
 50
180.0
 51
0.0
  0
LINE
  5
4273
330
18
100
AcDbEntity
  8
0
 62
     4
100
AcDbLine
 10
672.8370758313895
 20
602.2140759161793
 30
0.0
 11
672.8370758315058
 21
575.7140759116391
 31
0.0
  0
LINE
  5
4274
330
18
100
AcDbEntity
  8
0
 62
     4
100
AcDbLine
 10
676.3370758313895
 20
602.2140759161793
 30
0.0
 11
676.3370758315058
 21
575.7140759116391
 31
0.0
  0
ARC
  5
4275
330
18
100
AcDbEntity
  8
0
 62
     4
100
AcDbCircle
 10
674.5870758313312
 20
602.2140759161793
 30
0.0
 40
1.75
100
AcDbArc
 50
0.0
 51
180.0
  0
ARC
  5
4276
330
18
100
AcDbEntity
  8
0
 62
     4
100
AcDbCircle
 10
668.0870758313313
 20
575.7140759115227
 30
0.0
 40
1.75
100
AcDbArc
 50
180.0
 51
0.0
  0
LINE
  5
4277
330
18
100
AcDbEntity
  8
0
 62
     4
100
AcDbLine
 10
666.3370758313894
 20
602.2140759161793
 30
0.0
 11
666.3370758315059
 21
575.7140759116391
 31
0.0
  0
LINE
  5
4278
330
18
100
AcDbEntity
  8
0
 62
     4
100
AcDbLine
 10
669.8370758313894
 20
602.2140759161793
 30
0.0
 11
669.8370758315059
 21
575.7140759116391
 31
0.0
  0
ARC
  5
4279
330
18
100
AcDbEntity
  8
0
 62
     4
100
AcDbCircle
 10
668.0870758313313
 20
602.2140759161793
 30
0.0
 40
1.75
100
AcDbArc
 50
0.0
 51
180.0
  0
ARC
  5
427A
330
18
100
AcDbEntity
  8
0
 62
     4
100
AcDbCircle
 10
661.5870758313312
 20
575.7140759115227
 30
0.0
 40
1.75
100
AcDbArc
 50
180.0
 51
0.0
  0
LINE
  5
427B
330
18
100
AcDbEntity
  8
0
 62
     4
100
AcDbLine
 10
659.8370758313895
 20
602.2140759161793
 30
0.0
 11
659.8370758315058
 21
575.7140759116391
 31
0.0
  0
LINE
  5
427C
330
18
100
AcDbEntity
  8
0
 62
     4
100
AcDbLine
 10
663.3370758313894
 20
602.2140759161793
 30
0.0
 11
663.3370758315058
 21
575.7140759116391
 31
0.0
  0
ARC
  5
427D
330
18
100
AcDbEntity
  8
0
 62
     4
100
AcDbCircle
 10
661.5870758313312
 20
602.2140759161793
 30
0.0
 40
1.75
100
AcDbArc
 50
0.0
 51
180.0
  0
ARC
  5
427E
330
18
100
AcDbEntity
  8
0
 62
     4
100
AcDbCircle
 10
655.0870758313313
 20
575.7140759115227
 30
0.0
 40
1.75
100
AcDbArc
 50
180.0
 51
0.0
  0
LINE
  5
427F
330
18
100
AcDbEntity
  8
0
 62
     4
100
AcDbLine
 10
653.3370758313894
 20
602.2140759161793
 30
0.0
 11
653.3370758315059
 21
575.7140759116391
 31
0.0
  0
LINE
  5
4280
330
18
100
AcDbEntity
  8
0
 62
     4
100
AcDbLine
 10
656.8370758313895
 20
602.2140759161793
 30
0.0
 11
656.8370758315059
 21
575.7140759116391
 31
0.0
  0
ARC
  5
4281
330
18
100
AcDbEntity
  8
0
 62
     4
100
AcDbCircle
 10
655.0870758313313
 20
602.2140759161793
 30
0.0
 40
1.75
100
AcDbArc
 50
0.0
 51
180.0
  0
ARC
  5
4282
330
18
100
AcDbEntity
  8
0
 62
     4
100
AcDbCircle
 10
648.5870758313312
 20
575.7140759115227
 30
0.0
 40
1.75
100
AcDbArc
 50
180.0
 51
0.0
  0
LINE
  5
4283
330
18
100
AcDbEntity
  8
0
 62
     4
100
AcDbLine
 10
646.8370758313895
 20
602.2140759161793
 30
0.0
 11
646.8370758315058
 21
575.7140759116391
 31
0.0
  0
LINE
  5
4284
330
18
100
AcDbEntity
  8
0
 62
     4
100
AcDbLine
 10
650.3370758313894
 20
602.2140759161793
 30
0.0
 11
650.3370758315059
 21
575.7140759116391
 31
0.0
  0
ARC
  5
4285
330
18
100
AcDbEntity
  8
0
 62
     4
100
AcDbCircle
 10
648.5870758313312
 20
602.2140759161793
 30
0.0
 40
1.75
100
AcDbArc
 50
0.0
 51
180.0
  0
ARC
  5
4286
330
18
100
AcDbEntity
  8
0
 62
     4
100
AcDbCircle
 10
642.0870758313313
 20
575.7140759115227
 30
0.0
 40
1.75
100
AcDbArc
 50
180.0
 51
0.0
  0
LINE
  5
4287
330
18
100
AcDbEntity
  8
0
 62
     4
100
AcDbLine
 10
640.3370758313895
 20
602.2140759161793
 30
0.0
 11
640.3370758315059
 21
575.7140759116391
 31
0.0
  0
LINE
  5
4288
330
18
100
AcDbEntity
  8
0
 62
     4
100
AcDbLine
 10
643.8370758313895
 20
602.2140759161793
 30
0.0
 11
643.8370758315059
 21
575.7140759116391
 31
0.0
  0
ARC
  5
4289
330
18
100
AcDbEntity
  8
0
 62
     4
100
AcDbCircle
 10
642.0870758313313
 20
602.2140759161793
 30
0.0
 40
1.75
100
AcDbArc
 50
0.0
 51
180.0
  0
ARC
  5
428A
330
18
100
AcDbEntity
  8
0
 62
     4
100
AcDbCircle
 10
635.5870758313312
 20
575.7140759115227
 30
0.0
 40
1.75
100
AcDbArc
 50
180.0
 51
0.0
  0
LINE
  5
428B
330
18
100
AcDbEntity
  8
0
 62
     4
100
AcDbLine
 10
633.8370758313894
 20
602.2140759161793
 30
0.0
 11
633.8370758315059
 21
575.7140759116391
 31
0.0
  0
LINE
  5
428C
330
18
100
AcDbEntity
  8
0
 62
     4
100
AcDbLine
 10
637.3370758313894
 20
602.2140759161793
 30
0.0
 11
637.3370758315059
 21
575.7140759116391
 31
0.0
  0
ARC
  5
428D
330
18
100
AcDbEntity
  8
0
 62
     4
100
AcDbCircle
 10
635.5870758313312
 20
602.2140759161793
 30
0.0
 40
1.75
100
AcDbArc
 50
0.0
 51
180.0
  0
ARC
  5
428E
330
18
100
AcDbEntity
  8
0
 62
     4
100
AcDbCircle
 10
629.0870758313312
 20
575.7140759115227
 30
0.0
 40
1.75
100
AcDbArc
 50
180.0
 51
0.0
  0
LINE
  5
428F
330
18
100
AcDbEntity
  8
0
 62
     4
100
AcDbLine
 10
627.3370758313895
 20
602.2140759161793
 30
0.0
 11
627.3370758315059
 21
575.7140759116391
 31
0.0
  0
LINE
  5
4290
330
18
100
AcDbEntity
  8
0
 62
     4
100
AcDbLine
 10
630.8370758313895
 20
602.2140759161793
 30
0.0
 11
630.8370758315058
 21
575.7140759116391
 31
0.0
  0
ARC
  5
4291
330
18
100
AcDbEntity
  8
0
 62
     4
100
AcDbCircle
 10
629.0870758313312
 20
602.2140759161793
 30
0.0
 40
1.75
100
AcDbArc
 50
0.0
 51
180.0
  0
ARC
  5
4292
330
18
100
AcDbEntity
  8
0
 62
     4
100
AcDbCircle
 10
1036.804974596037
 20
398.3390845273043
 30
0.0
 40
1.75
100
AcDbArc
 50
270.0
 51
90.0
  0
LINE
  5
4293
330
18
100
AcDbEntity
  8
0
 62
     4
100
AcDbLine
 10
984.3049745914967
 20
396.5890845271879
 30
0.0
 11
1036.804974596037
 21
396.5890845274207
 31
0.0
  0
LINE
  5
4294
330
18
100
AcDbEntity
  8
0
 62
     4
100
AcDbLine
 10
984.3049745914967
 20
400.0890845273042
 30
0.0
 11
1036.804974596037
 21
400.0890845274207
 31
0.0
  0
ARC
  5
4295
330
18
100
AcDbEntity
  8
0
 62
     4
100
AcDbCircle
 10
984.3049745914967
 20
398.3390845273043
 30
0.0
 40
1.75
100
AcDbArc
 50
90.0
 51
270.0
  0
ARC
  5
4296
330
18
100
AcDbEntity
  8
0
 62
     4
100
AcDbCircle
 10
1036.804974596037
 20
391.8390845273043
 30
0.0
 40
1.75
100
AcDbArc
 50
270.0
 51
90.0
  0
LINE
  5
4297
330
18
100
AcDbEntity
  8
0
 62
     4
100
AcDbLine
 10
984.3049745914967
 20
390.0890845271879
 30
0.0
 11
1036.804974596037
 21
390.0890845274207
 31
0.0
  0
LINE
  5
4298
330
18
100
AcDbEntity
  8
0
 62
     4
100
AcDbLine
 10
984.3049745914967
 20
393.5890845273043
 30
0.0
 11
1036.804974596037
 21
393.5890845274207
 31
0.0
  0
ARC
  5
4299
330
18
100
AcDbEntity
  8
0
 62
     4
100
AcDbCircle
 10
984.3049745914967
 20
391.8390845273043
 30
0.0
 40
1.75
100
AcDbArc
 50
90.0
 51
270.0
  0
ARC
  5
429A
330
18
100
AcDbEntity
  8
0
 62
     4
100
AcDbCircle
 10
1036.804974596037
 20
385.3390845273043
 30
0.0
 40
1.75
100
AcDbArc
 50
270.0
 51
90.0
  0
LINE
  5
429B
330
18
100
AcDbEntity
  8
0
 62
     4
100
AcDbLine
 10
984.3049745914967
 20
383.5890845271879
 30
0.0
 11
1036.804974596037
 21
383.5890845274207
 31
0.0
  0
LINE
  5
429C
330
18
100
AcDbEntity
  8
0
 62
     4
100
AcDbLine
 10
984.3049745914967
 20
387.0890845273043
 30
0.0
 11
1036.804974596037
 21
387.0890845274207
 31
0.0
  0
ARC
  5
429D
330
18
100
AcDbEntity
  8
0
 62
     4
100
AcDbCircle
 10
984.3049745914967
 20
385.3390845273043
 30
0.0
 40
1.75
100
AcDbArc
 50
90.0
 51
270.0
  0
ARC
  5
429E
330
18
100
AcDbEntity
  8
0
 62
     4
100
AcDbCircle
 10
1036.804974596037
 20
411.3390845273043
 30
0.0
 40
1.75
100
AcDbArc
 50
270.0
 51
90.0
  0
LINE
  5
429F
330
18
100
AcDbEntity
  8
0
 62
     4
100
AcDbLine
 10
984.3049745914967
 20
409.5890845271878
 30
0.0
 11
1036.804974596037
 21
409.5890845274206
 31
0.0
  0
LINE
  5
42A0
330
18
100
AcDbEntity
  8
0
 62
     4
100
AcDbLine
 10
984.3049745914967
 20
413.0890845273042
 30
0.0
 11
1036.804974596037
 21
413.0890845274207
 31
0.0
  0
ARC
  5
42A1
330
18
100
AcDbEntity
  8
0
 62
     4
100
AcDbCircle
 10
984.3049745914967
 20
411.3390845273043
 30
0.0
 40
1.75
100
AcDbArc
 50
90.0
 51
270.0
  0
ARC
  5
42A2
330
18
100
AcDbEntity
  8
0
 62
     4
100
AcDbCircle
 10
1036.804974596037
 20
404.8390845273043
 30
0.0
 40
1.75
100
AcDbArc
 50
270.0
 51
90.0
  0
LINE
  5
42A3
330
18
100
AcDbEntity
  8
0
 62
     4
100
AcDbLine
 10
984.3049745914967
 20
403.0890845271878
 30
0.0
 11
1036.804974596037
 21
403.0890845274207
 31
0.0
  0
LINE
  5
42A4
330
18
100
AcDbEntity
  8
0
 62
     4
100
AcDbLine
 10
984.3049745914967
 20
406.5890845273043
 30
0.0
 11
1036.804974596037
 21
406.5890845274207
 31
0.0
  0
ARC
  5
42A5
330
18
100
AcDbEntity
  8
0
 62
     4
100
AcDbCircle
 10
984.3049745914967
 20
404.8390845273043
 30
0.0
 40
1.75
100
AcDbArc
 50
90.0
 51
270.0
  0
ARC
  5
42A6
330
18
100
AcDbEntity
  8
0
 62
     4
100
AcDbCircle
 10
1036.804974596037
 20
424.3390845273043
 30
0.0
 40
1.75
100
AcDbArc
 50
270.0
 51
90.0
  0
LINE
  5
42A7
330
18
100
AcDbEntity
  8
0
 62
     4
100
AcDbLine
 10
984.3049745914967
 20
422.5890845271878
 30
0.0
 11
1036.804974596037
 21
422.5890845274206
 31
0.0
  0
LINE
  5
42A8
330
18
100
AcDbEntity
  8
0
 62
     4
100
AcDbLine
 10
984.3049745914967
 20
426.0890845273043
 30
0.0
 11
1036.804974596037
 21
426.0890845274206
 31
0.0
  0
ARC
  5
42A9
330
18
100
AcDbEntity
  8
0
 62
     4
100
AcDbCircle
 10
984.3049745914967
 20
424.3390845273043
 30
0.0
 40
1.75
100
AcDbArc
 50
90.0
 51
270.0
  0
ARC
  5
42AA
330
18
100
AcDbEntity
  8
0
 62
     4
100
AcDbCircle
 10
1036.804974596037
 20
417.8390845273042
 30
0.0
 40
1.75
100
AcDbArc
 50
270.0
 51
90.0
  0
LINE
  5
42AB
330
18
100
AcDbEntity
  8
0
 62
     4
100
AcDbLine
 10
984.3049745914967
 20
416.0890845271878
 30
0.0
 11
1036.804974596037
 21
416.0890845274207
 31
0.0
  0
LINE
  5
42AC
330
18
100
AcDbEntity
  8
0
 62
     4
100
AcDbLine
 10
984.3049745914967
 20
419.5890845273043
 30
0.0
 11
1036.804974596037
 21
419.5890845274207
 31
0.0
  0
ARC
  5
42AD
330
18
100
AcDbEntity
  8
0
 62
     4
100
AcDbCircle
 10
984.3049745914967
 20
417.8390845273042
 30
0.0
 40
1.75
100
AcDbArc
 50
90.0
 51
270.0
  0
ARC
  5
42AE
330
18
100
AcDbEntity
  8
0
 62
     4
100
AcDbCircle
 10
902.3049745916715
 20
398.3390845273043
 30
0.0
 40
1.75
100
AcDbArc
 50
90.0
 51
270.0
  0
LINE
  5
42AF
330
18
100
AcDbEntity
  8
0
 62
     4
100
AcDbLine
 10
954.8049745962115
 20
396.5890845271879
 30
0.0
 11
902.3049745916715
 21
396.5890845274207
 31
0.0
  0
LINE
  5
42B0
330
18
100
AcDbEntity
  8
0
 62
     4
100
AcDbLine
 10
954.8049745962115
 20
400.0890845273042
 30
0.0
 11
902.3049745916715
 21
400.0890845274207
 31
0.0
  0
ARC
  5
42B1
330
18
100
AcDbEntity
  8
0
 62
     4
100
AcDbCircle
 10
954.8049745962115
 20
398.3390845273043
 30
0.0
 40
1.75
100
AcDbArc
 50
270.0
 51
90.0
  0
ARC
  5
42B2
330
18
100
AcDbEntity
  8
0
 62
     4
100
AcDbCircle
 10
902.3049745916715
 20
391.8390845273043
 30
0.0
 40
1.75
100
AcDbArc
 50
90.0
 51
270.0
  0
LINE
  5
42B3
330
18
100
AcDbEntity
  8
0
 62
     4
100
AcDbLine
 10
954.8049745962115
 20
390.0890845271879
 30
0.0
 11
902.3049745916715
 21
390.0890845274207
 31
0.0
  0
LINE
  5
42B4
330
18
100
AcDbEntity
  8
0
 62
     4
100
AcDbLine
 10
954.8049745962115
 20
393.5890845273043
 30
0.0
 11
902.3049745916715
 21
393.5890845274207
 31
0.0
  0
ARC
  5
42B5
330
18
100
AcDbEntity
  8
0
 62
     4
100
AcDbCircle
 10
954.8049745962115
 20
391.8390845273043
 30
0.0
 40
1.75
100
AcDbArc
 50
270.0
 51
90.0
  0
ARC
  5
42B6
330
18
100
AcDbEntity
  8
0
 62
     4
100
AcDbCircle
 10
902.3049745916715
 20
385.3390845273043
 30
0.0
 40
1.75
100
AcDbArc
 50
90.0
 51
270.0
  0
LINE
  5
42B7
330
18
100
AcDbEntity
  8
0
 62
     4
100
AcDbLine
 10
954.8049745962115
 20
383.5890845271879
 30
0.0
 11
902.3049745916715
 21
383.5890845274207
 31
0.0
  0
LINE
  5
42B8
330
18
100
AcDbEntity
  8
0
 62
     4
100
AcDbLine
 10
954.8049745962115
 20
387.0890845273043
 30
0.0
 11
902.3049745916715
 21
387.0890845274207
 31
0.0
  0
ARC
  5
42B9
330
18
100
AcDbEntity
  8
0
 62
     4
100
AcDbCircle
 10
954.8049745962115
 20
385.3390845273043
 30
0.0
 40
1.75
100
AcDbArc
 50
270.0
 51
90.0
  0
ARC
  5
42BA
330
18
100
AcDbEntity
  8
0
 62
     4
100
AcDbCircle
 10
902.3049745916715
 20
411.3390845273043
 30
0.0
 40
1.75
100
AcDbArc
 50
90.0
 51
270.0
  0
LINE
  5
42BB
330
18
100
AcDbEntity
  8
0
 62
     4
100
AcDbLine
 10
954.8049745962115
 20
409.5890845271878
 30
0.0
 11
902.3049745916715
 21
409.5890845274206
 31
0.0
  0
LINE
  5
42BC
330
18
100
AcDbEntity
  8
0
 62
     4
100
AcDbLine
 10
954.8049745962115
 20
413.0890845273042
 30
0.0
 11
902.3049745916715
 21
413.0890845274207
 31
0.0
  0
ARC
  5
42BD
330
18
100
AcDbEntity
  8
0
 62
     4
100
AcDbCircle
 10
954.8049745962115
 20
411.3390845273043
 30
0.0
 40
1.75
100
AcDbArc
 50
270.0
 51
90.0
  0
ARC
  5
42BE
330
18
100
AcDbEntity
  8
0
 62
     4
100
AcDbCircle
 10
902.3049745916715
 20
404.8390845273043
 30
0.0
 40
1.75
100
AcDbArc
 50
90.0
 51
270.0
  0
LINE
  5
42BF
330
18
100
AcDbEntity
  8
0
 62
     4
100
AcDbLine
 10
954.8049745962115
 20
403.0890845271878
 30
0.0
 11
902.3049745916715
 21
403.0890845274207
 31
0.0
  0
LINE
  5
42C0
330
18
100
AcDbEntity
  8
0
 62
     4
100
AcDbLine
 10
954.8049745962115
 20
406.5890845273043
 30
0.0
 11
902.3049745916715
 21
406.5890845274207
 31
0.0
  0
ARC
  5
42C1
330
18
100
AcDbEntity
  8
0
 62
     4
100
AcDbCircle
 10
954.8049745962115
 20
404.8390845273043
 30
0.0
 40
1.75
100
AcDbArc
 50
270.0
 51
90.0
  0
ARC
  5
42C2
330
18
100
AcDbEntity
  8
0
 62
     4
100
AcDbCircle
 10
902.3049745916715
 20
424.3390845273043
 30
0.0
 40
1.75
100
AcDbArc
 50
90.0
 51
270.0
  0
LINE
  5
42C3
330
18
100
AcDbEntity
  8
0
 62
     4
100
AcDbLine
 10
954.8049745962115
 20
422.5890845271878
 30
0.0
 11
902.3049745916715
 21
422.5890845274206
 31
0.0
  0
LINE
  5
42C4
330
18
100
AcDbEntity
  8
0
 62
     4
100
AcDbLine
 10
954.8049745962115
 20
426.0890845273043
 30
0.0
 11
902.3049745916715
 21
426.0890845274206
 31
0.0
  0
ARC
  5
42C5
330
18
100
AcDbEntity
  8
0
 62
     4
100
AcDbCircle
 10
954.8049745962115
 20
424.3390845273043
 30
0.0
 40
1.75
100
AcDbArc
 50
270.0
 51
90.0
  0
ARC
  5
42C6
330
18
100
AcDbEntity
  8
0
 62
     4
100
AcDbCircle
 10
902.3049745916715
 20
417.8390845273042
 30
0.0
 40
1.75
100
AcDbArc
 50
90.0
 51
270.0
  0
LINE
  5
42C7
330
18
100
AcDbEntity
  8
0
 62
     4
100
AcDbLine
 10
954.8049745962115
 20
416.0890845271878
 30
0.0
 11
902.3049745916715
 21
416.0890845274207
 31
0.0
  0
LINE
  5
42C8
330
18
100
AcDbEntity
  8
0
 62
     4
100
AcDbLine
 10
954.8049745962115
 20
419.5890845273043
 30
0.0
 11
902.3049745916715
 21
419.5890845274207
 31
0.0
  0
ARC
  5
42C9
330
18
100
AcDbEntity
  8
0
 62
     4
100
AcDbCircle
 10
954.8049745962115
 20
417.8390845273042
 30
0.0
 40
1.75
100
AcDbArc
 50
270.0
 51
90.0
  0
CIRCLE
  5
42CA
330
18
100
AcDbEntity
  8
0
 62
     4
100
AcDbCircle
 10
909.5549745944072
 20
245.3390844954065
 30
0.0
 40
2.75
  0
LINE
  5
42CB
330
18
100
AcDbEntity
  8
0
 62
     4
100
AcDbLine
 10
910.0549745944071
 20
243.8390844954065
 30
0.0
 11
910.0549745944071
 21
244.8390844954065
 31
0.0
  0
LINE
  5
42CC
330
18
100
AcDbEntity
  8
0
 62
     4
100
AcDbLine
 10
909.0549745944072
 20
243.8390844954065
 30
0.0
 11
909.0549745944072
 21
244.8390844954065
 31
0.0
  0
LINE
  5
42CD
330
18
100
AcDbEntity
  8
0
 62
     4
100
AcDbLine
 10
909.0549745944072
 20
246.8390844954065
 30
0.0
 11
910.0549745944071
 21
246.8390844954065
 31
0.0
  0
LINE
  5
42CE
330
18
100
AcDbEntity
  8
0
 62
     4
100
AcDbLine
 10
909.0549745944072
 20
243.8390844954065
 30
0.0
 11
910.0549745944071
 21
243.8390844954065
 31
0.0
  0
LINE
  5
42CF
330
18
100
AcDbEntity
  8
0
 62
     4
100
AcDbLine
 10
911.0549745939415
 20
245.8390844954065
 30
0.0
 11
910.0549745944071
 21
245.8390844954065
 31
0.0
  0
LINE
  5
42D0
330
18
100
AcDbEntity
  8
0
 62
     4
100
AcDbLine
 10
911.0549745939415
 20
244.8390844954065
 30
0.0
 11
910.0549745944071
 21
244.8390844954065
 31
0.0
  0
LINE
  5
42D1
330
18
100
AcDbEntity
  8
0
 62
     4
100
AcDbLine
 10
908.0549745939416
 20
244.8390844954065
 30
0.0
 11
908.0549745939416
 21
245.8390844954065
 31
0.0
  0
LINE
  5
42D2
330
18
100
AcDbEntity
  8
0
 62
     4
100
AcDbLine
 10
911.0549745939415
 20
244.8390844954065
 30
0.0
 11
911.0549745939415
 21
245.8390844954065
 31
0.0
  0
LINE
  5
42D3
330
18
100
AcDbEntity
  8
0
 62
     4
100
AcDbLine
 10
909.0549745944072
 20
244.8390844954065
 30
0.0
 11
908.0549745939416
 21
244.8390844954065
 31
0.0
  0
LINE
  5
42D4
330
18
100
AcDbEntity
  8
0
 62
     4
100
AcDbLine
 10
910.0549745944071
 20
245.8390844954065
 30
0.0
 11
910.0549745944071
 21
246.8390844954065
 31
0.0
  0
LINE
  5
42D5
330
18
100
AcDbEntity
  8
0
 62
     4
100
AcDbLine
 10
909.0549745944072
 20
245.8390844954065
 30
0.0
 11
908.0549745939416
 21
245.8390844954065
 31
0.0
  0
LINE
  5
42D6
330
18
100
AcDbEntity
  8
0
 62
     4
100
AcDbLine
 10
909.0549745944072
 20
245.8390844954065
 30
0.0
 11
909.0549745944072
 21
246.8390844954065
 31
0.0
  0
CIRCLE
  5
42D7
330
18
100
AcDbEntity
  8
0
 62
     4
100
AcDbCircle
 10
1029.554974593243
 20
245.3390844954065
 30
0.0
 40
2.75
  0
LINE
  5
42D8
330
18
100
AcDbEntity
  8
0
 62
     4
100
AcDbLine
 10
1030.054974593243
 20
243.8390844954065
 30
0.0
 11
1030.054974593243
 21
244.8390844954065
 31
0.0
  0
LINE
  5
42D9
330
18
100
AcDbEntity
  8
0
 62
     4
100
AcDbLine
 10
1029.054974593243
 20
243.8390844954065
 30
0.0
 11
1029.054974593243
 21
244.8390844954065
 31
0.0
  0
LINE
  5
42DA
330
18
100
AcDbEntity
  8
0
 62
     4
100
AcDbLine
 10
1029.054974593243
 20
246.8390844954065
 30
0.0
 11
1030.054974593243
 21
246.8390844954065
 31
0.0
  0
LINE
  5
42DB
330
18
100
AcDbEntity
  8
0
 62
     4
100
AcDbLine
 10
1029.054974593243
 20
243.8390844954065
 30
0.0
 11
1030.054974593243
 21
243.8390844954065
 31
0.0
  0
LINE
  5
42DC
330
18
100
AcDbEntity
  8
0
 62
     4
100
AcDbLine
 10
1031.054974592777
 20
245.8390844954065
 30
0.0
 11
1030.054974593243
 21
245.8390844954065
 31
0.0
  0
LINE
  5
42DD
330
18
100
AcDbEntity
  8
0
 62
     4
100
AcDbLine
 10
1031.054974592777
 20
244.8390844954065
 30
0.0
 11
1030.054974593243
 21
244.8390844954065
 31
0.0
  0
LINE
  5
42DE
330
18
100
AcDbEntity
  8
0
 62
     4
100
AcDbLine
 10
1028.054974592777
 20
244.8390844954065
 30
0.0
 11
1028.054974592777
 21
245.8390844954065
 31
0.0
  0
LINE
  5
42DF
330
18
100
AcDbEntity
  8
0
 62
     4
100
AcDbLine
 10
1031.054974592777
 20
244.8390844954065
 30
0.0
 11
1031.054974592777
 21
245.8390844954065
 31
0.0
  0
LINE
  5
42E0
330
18
100
AcDbEntity
  8
0
 62
     4
100
AcDbLine
 10
1029.054974593243
 20
244.8390844954065
 30
0.0
 11
1028.054974592777
 21
244.8390844954065
 31
0.0
  0
LINE
  5
42E1
330
18
100
AcDbEntity
  8
0
 62
     4
100
AcDbLine
 10
1030.054974593243
 20
245.8390844954065
 30
0.0
 11
1030.054974593243
 21
246.8390844954065
 31
0.0
  0
LINE
  5
42E2
330
18
100
AcDbEntity
  8
0
 62
     4
100
AcDbLine
 10
1029.054974593243
 20
245.8390844954065
 30
0.0
 11
1028.054974592777
 21
245.8390844954065
 31
0.0
  0
LINE
  5
42E3
330
18
100
AcDbEntity
  8
0
 62
     4
100
AcDbLine
 10
1029.054974593243
 20
245.8390844954065
 30
0.0
 11
1029.054974593243
 21
246.8390844954065
 31
0.0
  0
CIRCLE
  5
42E4
330
18
100
AcDbEntity
  8
0
 62
     4
100
AcDbCircle
 10
1053.554974595571
 20
347.3390844972692
 30
0.0
 40
2.75
  0
LINE
  5
42E5
330
18
100
AcDbEntity
  8
0
 62
     4
100
AcDbLine
 10
1054.054974595571
 20
345.8390844972691
 30
0.0
 11
1054.054974595571
 21
346.8390844972692
 31
0.0
  0
LINE
  5
42E6
330
18
100
AcDbEntity
  8
0
 62
     4
100
AcDbLine
 10
1053.054974595571
 20
345.8390844972691
 30
0.0
 11
1053.054974595571
 21
346.8390844972692
 31
0.0
  0
LINE
  5
42E7
330
18
100
AcDbEntity
  8
0
 62
     4
100
AcDbLine
 10
1053.054974595571
 20
348.8390844972692
 30
0.0
 11
1054.054974595571
 21
348.8390844972692
 31
0.0
  0
LINE
  5
42E8
330
18
100
AcDbEntity
  8
0
 62
     4
100
AcDbLine
 10
1053.054974595571
 20
345.8390844972691
 30
0.0
 11
1054.054974595571
 21
345.8390844972691
 31
0.0
  0
LINE
  5
42E9
330
18
100
AcDbEntity
  8
0
 62
     4
100
AcDbLine
 10
1055.054974595106
 20
347.8390844972691
 30
0.0
 11
1054.054974595571
 21
347.8390844972691
 31
0.0
  0
LINE
  5
42EA
330
18
100
AcDbEntity
  8
0
 62
     4
100
AcDbLine
 10
1055.054974595106
 20
346.8390844972692
 30
0.0
 11
1054.054974595571
 21
346.8390844972692
 31
0.0
  0
LINE
  5
42EB
330
18
100
AcDbEntity
  8
0
 62
     4
100
AcDbLine
 10
1052.054974595105
 20
346.8390844972692
 30
0.0
 11
1052.054974595105
 21
347.8390844972691
 31
0.0
  0
LINE
  5
42EC
330
18
100
AcDbEntity
  8
0
 62
     4
100
AcDbLine
 10
1055.054974595106
 20
346.8390844972692
 30
0.0
 11
1055.054974595106
 21
347.8390844972691
 31
0.0
  0
LINE
  5
42ED
330
18
100
AcDbEntity
  8
0
 62
     4
100
AcDbLine
 10
1053.054974595571
 20
346.8390844972692
 30
0.0
 11
1052.054974595105
 21
346.8390844972692
 31
0.0
  0
LINE
  5
42EE
330
18
100
AcDbEntity
  8
0
 62
     4
100
AcDbLine
 10
1054.054974595571
 20
347.8390844972691
 30
0.0
 11
1054.054974595571
 21
348.8390844972692
 31
0.0
  0
LINE
  5
42EF
330
18
100
AcDbEntity
  8
0
 62
     4
100
AcDbLine
 10
1053.054974595571
 20
347.8390844972691
 30
0.0
 11
1052.054974595105
 21
347.8390844972691
 31
0.0
  0
LINE
  5
42F0
330
18
100
AcDbEntity
  8
0
 62
     4
100
AcDbLine
 10
1053.054974595571
 20
347.8390844972691
 30
0.0
 11
1053.054974595571
 21
348.8390844972692
 31
0.0
  0
CIRCLE
  5
42F1
330
18
100
AcDbEntity
  8
0
 62
     4
100
AcDbCircle
 10
1029.554974593243
 20
361.8390844716578
 30
0.0
 40
2.75
  0
LINE
  5
42F2
330
18
100
AcDbEntity
  8
0
 62
     4
100
AcDbLine
 10
1030.054974593243
 20
360.3390844716578
 30
0.0
 11
1030.054974593243
 21
361.3390844716578
 31
0.0
  0
LINE
  5
42F3
330
18
100
AcDbEntity
  8
0
 62
     4
100
AcDbLine
 10
1029.054974593243
 20
360.3390844716578
 30
0.0
 11
1029.054974593243
 21
361.3390844716578
 31
0.0
  0
LINE
  5
42F4
330
18
100
AcDbEntity
  8
0
 62
     4
100
AcDbLine
 10
1029.054974593243
 20
363.3390844716578
 30
0.0
 11
1030.054974593243
 21
363.3390844716578
 31
0.0
  0
LINE
  5
42F5
330
18
100
AcDbEntity
  8
0
 62
     4
100
AcDbLine
 10
1029.054974593243
 20
360.3390844716578
 30
0.0
 11
1030.054974593243
 21
360.3390844716578
 31
0.0
  0
LINE
  5
42F6
330
18
100
AcDbEntity
  8
0
 62
     4
100
AcDbLine
 10
1031.054974592777
 20
362.3390844716578
 30
0.0
 11
1030.054974593243
 21
362.3390844716578
 31
0.0
  0
LINE
  5
42F7
330
18
100
AcDbEntity
  8
0
 62
     4
100
AcDbLine
 10
1031.054974592777
 20
361.3390844716578
 30
0.0
 11
1030.054974593243
 21
361.3390844716578
 31
0.0
  0
LINE
  5
42F8
330
18
100
AcDbEntity
  8
0
 62
     4
100
AcDbLine
 10
1028.054974592777
 20
361.3390844716578
 30
0.0
 11
1028.054974592777
 21
362.3390844716578
 31
0.0
  0
LINE
  5
42F9
330
18
100
AcDbEntity
  8
0
 62
     4
100
AcDbLine
 10
1031.054974592777
 20
361.3390844716578
 30
0.0
 11
1031.054974592777
 21
362.3390844716578
 31
0.0
  0
LINE
  5
42FA
330
18
100
AcDbEntity
  8
0
 62
     4
100
AcDbLine
 10
1029.054974593243
 20
361.3390844716578
 30
0.0
 11
1028.054974592777
 21
361.3390844716578
 31
0.0
  0
LINE
  5
42FB
330
18
100
AcDbEntity
  8
0
 62
     4
100
AcDbLine
 10
1030.054974593243
 20
362.3390844716578
 30
0.0
 11
1030.054974593243
 21
363.3390844716578
 31
0.0
  0
LINE
  5
42FC
330
18
100
AcDbEntity
  8
0
 62
     4
100
AcDbLine
 10
1029.054974593243
 20
362.3390844716578
 30
0.0
 11
1028.054974592777
 21
362.3390844716578
 31
0.0
  0
LINE
  5
42FD
330
18
100
AcDbEntity
  8
0
 62
     4
100
AcDbLine
 10
1029.054974593243
 20
362.3390844716578
 30
0.0
 11
1029.054974593243
 21
363.3390844716578
 31
0.0
  0
CIRCLE
  5
42FE
330
18
100
AcDbEntity
  8
0
 62
     4
100
AcDbCircle
 10
1029.554974593679
 20
374.3390845037884
 30
0.0
 40
2.75
  0
LINE
  5
42FF
330
18
100
AcDbEntity
  8
0
 62
     4
100
AcDbLine
 10
1030.05497459368
 20
372.8390845037884
 30
0.0
 11
1030.05497459368
 21
373.8390845037884
 31
0.0
  0
LINE
  5
4300
330
18
100
AcDbEntity
  8
0
 62
     4
100
AcDbLine
 10
1029.054974593679
 20
372.8390845037884
 30
0.0
 11
1029.054974593679
 21
373.8390845037884
 31
0.0
  0
LINE
  5
4301
330
18
100
AcDbEntity
  8
0
 62
     4
100
AcDbLine
 10
1029.054974593679
 20
375.8390845037884
 30
0.0
 11
1030.05497459368
 21
375.8390845037884
 31
0.0
  0
LINE
  5
4302
330
18
100
AcDbEntity
  8
0
 62
     4
100
AcDbLine
 10
1029.054974593679
 20
372.8390845037884
 30
0.0
 11
1030.05497459368
 21
372.8390845037884
 31
0.0
  0
LINE
  5
4303
330
18
100
AcDbEntity
  8
0
 62
     4
100
AcDbLine
 10
1031.054974593214
 20
374.8390845037884
 30
0.0
 11
1030.05497459368
 21
374.8390845037884
 31
0.0
  0
LINE
  5
4304
330
18
100
AcDbEntity
  8
0
 62
     4
100
AcDbLine
 10
1031.054974593214
 20
373.8390845037884
 30
0.0
 11
1030.05497459368
 21
373.8390845037884
 31
0.0
  0
LINE
  5
4305
330
18
100
AcDbEntity
  8
0
 62
     4
100
AcDbLine
 10
1028.054974593214
 20
373.8390845037884
 30
0.0
 11
1028.054974593214
 21
374.8390845037884
 31
0.0
  0
LINE
  5
4306
330
18
100
AcDbEntity
  8
0
 62
     4
100
AcDbLine
 10
1031.054974593214
 20
373.8390845037884
 30
0.0
 11
1031.054974593214
 21
374.8390845037884
 31
0.0
  0
LINE
  5
4307
330
18
100
AcDbEntity
  8
0
 62
     4
100
AcDbLine
 10
1029.054974593679
 20
373.8390845037884
 30
0.0
 11
1028.054974593214
 21
373.8390845037884
 31
0.0
  0
LINE
  5
4308
330
18
100
AcDbEntity
  8
0
 62
     4
100
AcDbLine
 10
1030.05497459368
 20
374.8390845037884
 30
0.0
 11
1030.05497459368
 21
375.8390845037884
 31
0.0
  0
LINE
  5
4309
330
18
100
AcDbEntity
  8
0
 62
     4
100
AcDbLine
 10
1029.054974593679
 20
374.8390845037884
 30
0.0
 11
1028.054974593214
 21
374.8390845037884
 31
0.0
  0
LINE
  5
430A
330
18
100
AcDbEntity
  8
0
 62
     4
100
AcDbLine
 10
1029.054974593679
 20
374.8390845037884
 30
0.0
 11
1029.054974593679
 21
375.8390845037884
 31
0.0
  0
CIRCLE
  5
430B
330
18
100
AcDbEntity
  8
0
 62
     4
100
AcDbCircle
 10
909.5549745944072
 20
361.8390844716578
 30
0.0
 40
2.75
  0
LINE
  5
430C
330
18
100
AcDbEntity
  8
0
 62
     4
100
AcDbLine
 10
910.0549745944071
 20
360.3390844716578
 30
0.0
 11
910.0549745944071
 21
361.3390844716578
 31
0.0
  0
LINE
  5
430D
330
18
100
AcDbEntity
  8
0
 62
     4
100
AcDbLine
 10
909.0549745944072
 20
360.3390844716578
 30
0.0
 11
909.0549745944072
 21
361.3390844716578
 31
0.0
  0
LINE
  5
430E
330
18
100
AcDbEntity
  8
0
 62
     4
100
AcDbLine
 10
909.0549745944072
 20
363.3390844716578
 30
0.0
 11
910.0549745944071
 21
363.3390844716578
 31
0.0
  0
LINE
  5
430F
330
18
100
AcDbEntity
  8
0
 62
     4
100
AcDbLine
 10
909.0549745944072
 20
360.3390844716578
 30
0.0
 11
910.0549745944071
 21
360.3390844716578
 31
0.0
  0
LINE
  5
4310
330
18
100
AcDbEntity
  8
0
 62
     4
100
AcDbLine
 10
911.0549745939415
 20
362.3390844716578
 30
0.0
 11
910.0549745944071
 21
362.3390844716578
 31
0.0
  0
LINE
  5
4311
330
18
100
AcDbEntity
  8
0
 62
     4
100
AcDbLine
 10
911.0549745939415
 20
361.3390844716578
 30
0.0
 11
910.0549745944071
 21
361.3390844716578
 31
0.0
  0
LINE
  5
4312
330
18
100
AcDbEntity
  8
0
 62
     4
100
AcDbLine
 10
908.0549745939416
 20
361.3390844716578
 30
0.0
 11
908.0549745939416
 21
362.3390844716578
 31
0.0
  0
LINE
  5
4313
330
18
100
AcDbEntity
  8
0
 62
     4
100
AcDbLine
 10
911.0549745939415
 20
361.3390844716578
 30
0.0
 11
911.0549745939415
 21
362.3390844716578
 31
0.0
  0
LINE
  5
4314
330
18
100
AcDbEntity
  8
0
 62
     4
100
AcDbLine
 10
909.0549745944072
 20
361.3390844716578
 30
0.0
 11
908.0549745939416
 21
361.3390844716578
 31
0.0
  0
LINE
  5
4315
330
18
100
AcDbEntity
  8
0
 62
     4
100
AcDbLine
 10
910.0549745944071
 20
362.3390844716578
 30
0.0
 11
910.0549745944071
 21
363.3390844716578
 31
0.0
  0
LINE
  5
4316
330
18
100
AcDbEntity
  8
0
 62
     4
100
AcDbLine
 10
909.0549745944072
 20
362.3390844716578
 30
0.0
 11
908.0549745939416
 21
362.3390844716578
 31
0.0
  0
LINE
  5
4317
330
18
100
AcDbEntity
  8
0
 62
     4
100
AcDbLine
 10
909.0549745944072
 20
362.3390844716578
 30
0.0
 11
909.0549745944072
 21
363.3390844716578
 31
0.0
  0
CIRCLE
  5
4318
330
18
100
AcDbEntity
  8
0
 62
     4
100
AcDbCircle
 10
909.5549745948437
 20
374.3390845037884
 30
0.0
 40
2.75
  0
LINE
  5
4319
330
18
100
AcDbEntity
  8
0
 62
     4
100
AcDbLine
 10
910.0549745948438
 20
372.8390845037884
 30
0.0
 11
910.0549745948438
 21
373.8390845037884
 31
0.0
  0
LINE
  5
431A
330
18
100
AcDbEntity
  8
0
 62
     4
100
AcDbLine
 10
909.0549745948438
 20
372.8390845037884
 30
0.0
 11
909.0549745948438
 21
373.8390845037884
 31
0.0
  0
LINE
  5
431B
330
18
100
AcDbEntity
  8
0
 62
     4
100
AcDbLine
 10
909.0549745948438
 20
375.8390845037884
 30
0.0
 11
910.0549745948438
 21
375.8390845037884
 31
0.0
  0
LINE
  5
431C
330
18
100
AcDbEntity
  8
0
 62
     4
100
AcDbLine
 10
909.0549745948438
 20
372.8390845037884
 30
0.0
 11
910.0549745948438
 21
372.8390845037884
 31
0.0
  0
LINE
  5
431D
330
18
100
AcDbEntity
  8
0
 62
     4
100
AcDbLine
 10
911.0549745943782
 20
374.8390845037884
 30
0.0
 11
910.0549745948438
 21
374.8390845037884
 31
0.0
  0
LINE
  5
431E
330
18
100
AcDbEntity
  8
0
 62
     4
100
AcDbLine
 10
911.0549745943782
 20
373.8390845037884
 30
0.0
 11
910.0549745948438
 21
373.8390845037884
 31
0.0
  0
LINE
  5
431F
330
18
100
AcDbEntity
  8
0
 62
     4
100
AcDbLine
 10
908.054974594378
 20
373.8390845037884
 30
0.0
 11
908.054974594378
 21
374.8390845037884
 31
0.0
  0
LINE
  5
4320
330
18
100
AcDbEntity
  8
0
 62
     4
100
AcDbLine
 10
911.0549745943782
 20
373.8390845037884
 30
0.0
 11
911.0549745943782
 21
374.8390845037884
 31
0.0
  0
LINE
  5
4321
330
18
100
AcDbEntity
  8
0
 62
     4
100
AcDbLine
 10
909.0549745948438
 20
373.8390845037884
 30
0.0
 11
908.054974594378
 21
373.8390845037884
 31
0.0
  0
LINE
  5
4322
330
18
100
AcDbEntity
  8
0
 62
     4
100
AcDbLine
 10
910.0549745948438
 20
374.8390845037884
 30
0.0
 11
910.0549745948438
 21
375.8390845037884
 31
0.0
  0
LINE
  5
4323
330
18
100
AcDbEntity
  8
0
 62
     4
100
AcDbLine
 10
909.0549745948438
 20
374.8390845037884
 30
0.0
 11
908.054974594378
 21
374.8390845037884
 31
0.0
  0
LINE
  5
4324
330
18
100
AcDbEntity
  8
0
 62
     4
100
AcDbLine
 10
909.0549745948438
 20
374.8390845037884
 30
0.0
 11
909.0549745948438
 21
375.8390845037884
 31
0.0
  0
CIRCLE
  5
4325
330
18
100
AcDbEntity
  8
0
 62
     4
100
AcDbCircle
 10
885.5549745918169
 20
347.3390844972692
 30
0.0
 40
2.75
  0
LINE
  5
4326
330
18
100
AcDbEntity
  8
0
 62
     4
100
AcDbLine
 10
886.054974591817
 20
345.8390844972691
 30
0.0
 11
886.054974591817
 21
346.8390844972692
 31
0.0
  0
LINE
  5
4327
330
18
100
AcDbEntity
  8
0
 62
     4
100
AcDbLine
 10
885.054974591817
 20
345.8390844972691
 30
0.0
 11
885.054974591817
 21
346.8390844972692
 31
0.0
  0
LINE
  5
4328
330
18
100
AcDbEntity
  8
0
 62
     4
100
AcDbLine
 10
885.054974591817
 20
348.8390844972692
 30
0.0
 11
886.054974591817
 21
348.8390844972692
 31
0.0
  0
LINE
  5
4329
330
18
100
AcDbEntity
  8
0
 62
     4
100
AcDbLine
 10
885.054974591817
 20
345.8390844972691
 30
0.0
 11
886.054974591817
 21
345.8390844972691
 31
0.0
  0
LINE
  5
432A
330
18
100
AcDbEntity
  8
0
 62
     4
100
AcDbLine
 10
887.0549745913512
 20
347.8390844972691
 30
0.0
 11
886.054974591817
 21
347.8390844972691
 31
0.0
  0
LINE
  5
432B
330
18
100
AcDbEntity
  8
0
 62
     4
100
AcDbLine
 10
887.0549745913512
 20
346.8390844972692
 30
0.0
 11
886.054974591817
 21
346.8390844972692
 31
0.0
  0
LINE
  5
432C
330
18
100
AcDbEntity
  8
0
 62
     4
100
AcDbLine
 10
884.0549745913513
 20
346.8390844972692
 30
0.0
 11
884.0549745913513
 21
347.8390844972691
 31
0.0
  0
LINE
  5
432D
330
18
100
AcDbEntity
  8
0
 62
     4
100
AcDbLine
 10
887.0549745913512
 20
346.8390844972692
 30
0.0
 11
887.0549745913512
 21
347.8390844972691
 31
0.0
  0
LINE
  5
432E
330
18
100
AcDbEntity
  8
0
 62
     4
100
AcDbLine
 10
885.054974591817
 20
346.8390844972692
 30
0.0
 11
884.0549745913513
 21
346.8390844972692
 31
0.0
  0
LINE
  5
432F
330
18
100
AcDbEntity
  8
0
 62
     4
100
AcDbLine
 10
886.054974591817
 20
347.8390844972691
 30
0.0
 11
886.054974591817
 21
348.8390844972692
 31
0.0
  0
LINE
  5
4330
330
18
100
AcDbEntity
  8
0
 62
     4
100
AcDbLine
 10
885.054974591817
 20
347.8390844972691
 30
0.0
 11
884.0549745913513
 21
347.8390844972691
 31
0.0
  0
LINE
  5
4331
330
18
100
AcDbEntity
  8
0
 62
     4
100
AcDbLine
 10
885.054974591817
 20
347.8390844972691
 30
0.0
 11
885.054974591817
 21
348.8390844972692
 31
0.0
  0
LINE
  5
4332
330
18
100
AcDbEntity
  8
0
 62
     4
100
AcDbLine
 10
603.8371116299449
 20
303.0890845040212
 30
0.0
 11
490.3370755556307
 21
303.0890845039048
 31
0.0
  0
LINE
  5
4333
330
18
100
AcDbEntity
  8
0
 62
     4
100
AcDbLine
 10
603.837075559938
 20
307.5890845040212
 30
0.0
 11
490.3370364299253
 21
307.5890845037884
 31
0.0
  0
ARC
  5
4334
330
18
100
AcDbEntity
  8
0
 62
     4
100
AcDbCircle
 10
603.837075559938
 20
305.3390845039048
 30
0.0
 40
2.250000000116415
100
AcDbArc
 50
270.0
 51
90.0
  0
ARC
  5
4335
330
18
100
AcDbEntity
  8
0
 62
     4
100
AcDbCircle
 10
490.3370755556307
 20
305.3390845040212
 30
0.0
 40
2.250000000116415
100
AcDbArc
 50
90.0
 51
270.0
  0
LINE
  5
4336
330
18
100
AcDbEntity
  8
0
 62
     4
100
AcDbLine
 10
603.8371116299449
 20
310.5890845040212
 30
0.0
 11
490.3370755556307
 21
310.5890845039048
 31
0.0
  0
LINE
  5
4337
330
18
100
AcDbEntity
  8
0
 62
     4
100
AcDbLine
 10
603.837075559938
 20
315.0890845040212
 30
0.0
 11
490.3370364299253
 21
315.0890845037884
 31
0.0
  0
ARC
  5
4338
330
18
100
AcDbEntity
  8
0
 62
     4
100
AcDbCircle
 10
603.837075559938
 20
312.8390845039048
 30
0.0
 40
2.250000000116415
100
AcDbArc
 50
270.0
 51
90.0
  0
ARC
  5
4339
330
18
100
AcDbEntity
  8
0
 62
     4
100
AcDbCircle
 10
490.3370755556307
 20
312.8390845040212
 30
0.0
 40
2.250000000116415
100
AcDbArc
 50
90.0
 51
270.0
  0
LINE
  5
433A
330
18
100
AcDbEntity
  8
0
 62
     4
100
AcDbLine
 10
603.8371116299449
 20
318.0890845040212
 30
0.0
 11
490.3370755556307
 21
318.0890845039048
 31
0.0
  0
LINE
  5
433B
330
18
100
AcDbEntity
  8
0
 62
     4
100
AcDbLine
 10
603.837075559938
 20
322.5890845040212
 30
0.0
 11
490.3370364299253
 21
322.5890845037884
 31
0.0
  0
ARC
  5
433C
330
18
100
AcDbEntity
  8
0
 62
     4
100
AcDbCircle
 10
603.837075559938
 20
320.3390845039048
 30
0.0
 40
2.250000000116415
100
AcDbArc
 50
270.0
 51
90.0
  0
ARC
  5
433D
330
18
100
AcDbEntity
  8
0
 62
     4
100
AcDbCircle
 10
490.3370755556307
 20
320.3390845040212
 30
0.0
 40
2.250000000116415
100
AcDbArc
 50
90.0
 51
270.0
  0
LINE
  5
433E
330
18
100
AcDbEntity
  8
0
 62
     4
100
AcDbLine
 10
603.8371116299449
 20
325.5890845040212
 30
0.0
 11
490.3370755556307
 21
325.5890845039048
 31
0.0
  0
LINE
  5
433F
330
18
100
AcDbEntity
  8
0
 62
     4
100
AcDbLine
 10
603.837075559938
 20
330.0890845040212
 30
0.0
 11
490.3370364299253
 21
330.0890845037884
 31
0.0
  0
ARC
  5
4340
330
18
100
AcDbEntity
  8
0
 62
     4
100
AcDbCircle
 10
603.837075559938
 20
327.8390845039048
 30
0.0
 40
2.250000000116415
100
AcDbArc
 50
270.0
 51
90.0
  0
ARC
  5
4341
330
18
100
AcDbEntity
  8
0
 62
     4
100
AcDbCircle
 10
490.3370755556307
 20
327.8390845040212
 30
0.0
 40
2.250000000116415
100
AcDbArc
 50
90.0
 51
270.0
  0
LINE
  5
4342
330
18
100
AcDbEntity
  8
0
 62
     4
100
AcDbLine
 10
603.8371116299449
 20
333.0890845040212
 30
0.0
 11
490.3370755556307
 21
333.0890845039048
 31
0.0
  0
LINE
  5
4343
330
18
100
AcDbEntity
  8
0
 62
     4
100
AcDbLine
 10
603.837075559938
 20
337.5890845040212
 30
0.0
 11
490.3370364299253
 21
337.5890845037884
 31
0.0
  0
ARC
  5
4344
330
18
100
AcDbEntity
  8
0
 62
     4
100
AcDbCircle
 10
603.837075559938
 20
335.3390845039048
 30
0.0
 40
2.250000000116415
100
AcDbArc
 50
270.0
 51
90.0
  0
ARC
  5
4345
330
18
100
AcDbEntity
  8
0
 62
     4
100
AcDbCircle
 10
490.3370755556307
 20
335.3390845040213
 30
0.0
 40
2.250000000116415
100
AcDbArc
 50
90.0
 51
270.0
  0
LINE
  5
4346
330
18
100
AcDbEntity
  8
0
 62
     4
100
AcDbLine
 10
603.8371116299449
 20
340.5890845040212
 30
0.0
 11
490.3370755556307
 21
340.5890845039048
 31
0.0
  0
LINE
  5
4347
330
18
100
AcDbEntity
  8
0
 62
     4
100
AcDbLine
 10
603.837075559938
 20
345.0890845040212
 30
0.0
 11
490.3370364299253
 21
345.0890845037884
 31
0.0
  0
ARC
  5
4348
330
18
100
AcDbEntity
  8
0
 62
     4
100
AcDbCircle
 10
603.837075559938
 20
342.8390845039048
 30
0.0
 40
2.250000000116415
100
AcDbArc
 50
270.0
 51
90.0
  0
ARC
  5
4349
330
18
100
AcDbEntity
  8
0
 62
     4
100
AcDbCircle
 10
490.3370755556307
 20
342.8390845040212
 30
0.0
 40
2.250000000116415
100
AcDbArc
 50
90.0
 51
270.0
  0
LINE
  5
434A
330
18
100
AcDbEntity
  8
0
 62
     4
100
AcDbLine
 10
603.8371116299449
 20
348.0890845040212
 30
0.0
 11
490.3370755556307
 21
348.0890845039048
 31
0.0
  0
LINE
  5
434B
330
18
100
AcDbEntity
  8
0
 62
     4
100
AcDbLine
 10
603.837075559938
 20
352.5890845040212
 30
0.0
 11
490.3370364299253
 21
352.5890845037884
 31
0.0
  0
ARC
  5
434C
330
18
100
AcDbEntity
  8
0
 62
     4
100
AcDbCircle
 10
603.837075559938
 20
350.3390845039048
 30
0.0
 40
2.250000000116415
100
AcDbArc
 50
270.0
 51
90.0
  0
ARC
  5
434D
330
18
100
AcDbEntity
  8
0
 62
     4
100
AcDbCircle
 10
490.3370755556307
 20
350.3390845040212
 30
0.0
 40
2.250000000116415
100
AcDbArc
 50
90.0
 51
270.0
  0
LINE
  5
434E
330
18
100
AcDbEntity
  8
0
 62
     4
100
AcDbLine
 10
603.8371116299449
 20
355.5890845040212
 30
0.0
 11
510.3370755556307
 21
355.5890845040212
 31
0.0
  0
LINE
  5
434F
330
18
100
AcDbEntity
  8
0
 62
     4
100
AcDbLine
 10
603.837075559938
 20
360.0890845040212
 30
0.0
 11
510.3370312621327
 21
360.089084503672
 31
0.0
  0
ARC
  5
4350
330
18
100
AcDbEntity
  8
0
 62
     4
100
AcDbCircle
 10
603.837075559938
 20
357.8390845039048
 30
0.0
 40
2.250000000116415
100
AcDbArc
 50
270.0
 51
90.0
  0
ARC
  5
4351
330
18
100
AcDbEntity
  8
0
 62
     4
100
AcDbCircle
 10
510.3370755556307
 20
357.8390845040212
 30
0.0
 40
2.250000000116415
100
AcDbArc
 50
90.0
 51
270.0
  0
LINE
  5
4352
330
18
100
AcDbEntity
  8
0
 62
     4
100
AcDbLine
 10
603.8371116299449
 20
363.0890845040212
 30
0.0
 11
530.3370755556307
 21
363.0890845040212
 31
0.0
  0
LINE
  5
4353
330
18
100
AcDbEntity
  8
0
 62
     4
100
AcDbLine
 10
603.837075559938
 20
367.5890845040212
 30
0.0
 11
530.3370312621328
 21
367.589084503672
 31
0.0
  0
ARC
  5
4354
330
18
100
AcDbEntity
  8
0
 62
     4
100
AcDbCircle
 10
603.837075559938
 20
365.3390845039048
 30
0.0
 40
2.250000000116415
100
AcDbArc
 50
270.0
 51
90.0
  0
ARC
  5
4355
330
18
100
AcDbEntity
  8
0
 62
     4
100
AcDbCircle
 10
530.3370755556307
 20
365.3390845040212
 30
0.0
 40
2.250000000116415
100
AcDbArc
 50
90.0
 51
270.0
  0
LINE
  5
4356
330
18
100
AcDbEntity
  8
0
 62
     4
100
AcDbLine
 10
603.8371116299449
 20
370.5890845040212
 30
0.0
 11
550.3370755556306
 21
370.5890845040212
 31
0.0
  0
LINE
  5
4357
330
18
100
AcDbEntity
  8
0
 62
     4
100
AcDbLine
 10
603.837075559938
 20
375.0890845040212
 30
0.0
 11
550.3370385270309
 21
375.0890845037884
 31
0.0
  0
ARC
  5
4358
330
18
100
AcDbEntity
  8
0
 62
     4
100
AcDbCircle
 10
603.837075559938
 20
372.8390845039048
 30
0.0
 40
2.250000000116415
100
AcDbArc
 50
270.0
 51
90.0
  0
ARC
  5
4359
330
18
100
AcDbEntity
  8
0
 62
     4
100
AcDbCircle
 10
550.3370755556306
 20
372.8390845040213
 30
0.0
 40
2.250000000116415
100
AcDbArc
 50
90.0
 51
270.0
  0
LINE
  5
435A
330
18
100
AcDbEntity
  8
0
 62
     4
100
AcDbLine
 10
603.8371116299449
 20
378.0890845040212
 30
0.0
 11
570.3370755556306
 21
378.0890845040212
 31
0.0
  0
LINE
  5
435B
330
18
100
AcDbEntity
  8
0
 62
     4
100
AcDbLine
 10
603.837075559938
 20
382.5890845040212
 30
0.0
 11
570.3370476213668
 21
382.5890845040212
 31
0.0
  0
ARC
  5
435C
330
18
100
AcDbEntity
  8
0
 62
     4
100
AcDbCircle
 10
603.837075559938
 20
380.3390845039048
 30
0.0
 40
2.250000000116415
100
AcDbArc
 50
270.0
 51
90.0
  0
ARC
  5
435D
330
18
100
AcDbEntity
  8
0
 62
     4
100
AcDbCircle
 10
570.3370755556306
 20
380.3390845040212
 30
0.0
 40
2.250000000116415
100
AcDbArc
 50
90.0
 51
270.0
  0
LINE
  5
435E
330
18
100
AcDbEntity
  8
0
 62
     4
100
AcDbLine
 10
603.8371116299449
 20
385.5890845040212
 30
0.0
 11
590.3370755556307
 21
385.5890845040212
 31
0.0
  0
LINE
  5
435F
330
18
100
AcDbEntity
  8
0
 62
     4
100
AcDbLine
 10
603.837075559938
 20
390.0890845040212
 30
0.0
 11
590.3370476213667
 21
390.0890845040212
 31
0.0
  0
ARC
  5
4360
330
18
100
AcDbEntity
  8
0
 62
     4
100
AcDbCircle
 10
603.837075559938
 20
387.8390845039048
 30
0.0
 40
2.250000000116415
100
AcDbArc
 50
270.0
 51
90.0
  0
ARC
  5
4361
330
18
100
AcDbEntity
  8
0
 62
     4
100
AcDbCircle
 10
590.3370755556307
 20
387.8390845040213
 30
0.0
 40
2.250000000116415
100
AcDbArc
 50
90.0
 51
270.0
  0
LINE
  5
4362
330
18
100
AcDbEntity
  8
0
 62
     4
100
AcDbLine
 10
719.8370567476877
 20
348.0890845030899
 30
0.0
 11
629.3370567434386
 21
348.0890845028571
 31
0.0
  0
LINE
  5
4363
330
18
100
AcDbEntity
  8
0
 62
     4
100
AcDbLine
 10
719.8370567476877
 20
352.5890845028571
 30
0.0
 11
629.3370567434386
 21
352.5890845029735
 31
0.0
  0
ARC
  5
4364
330
18
100
AcDbEntity
  8
0
 62
     4
100
AcDbCircle
 10
719.8370567476877
 20
350.3390845029735
 30
0.0
 40
2.250000000116415
100
AcDbArc
 50
270.0
 51
90.0
  0
ARC
  5
4365
330
18
100
AcDbEntity
  8
0
 62
     4
100
AcDbCircle
 10
629.3370567434386
 20
350.3390845029735
 30
0.0
 40
2.250000000116415
100
AcDbArc
 50
90.0
 51
270.0
  0
LINE
  5
4366
330
18
100
AcDbEntity
  8
0
 62
     4
100
AcDbLine
 10
719.8370567476877
 20
340.5890845029735
 30
0.0
 11
629.3370567434386
 21
340.5890845027407
 31
0.0
  0
LINE
  5
4367
330
18
100
AcDbEntity
  8
0
 62
     4
100
AcDbLine
 10
719.8370567476877
 20
345.0890845030899
 30
0.0
 11
629.3370567434676
 21
345.0890845028571
 31
0.0
  0
ARC
  5
4368
330
18
100
AcDbEntity
  8
0
 62
     4
100
AcDbCircle
 10
719.8370567476877
 20
342.8390845029735
 30
0.0
 40
2.250000000116415
100
AcDbArc
 50
270.0
 51
90.0
  0
ARC
  5
4369
330
18
100
AcDbEntity
  8
0
 62
     4
100
AcDbCircle
 10
629.3370567434386
 20
342.8390845029735
 30
0.0
 40
2.250000000116415
100
AcDbArc
 50
90.0
 51
270.0
  0
LINE
  5
436A
330
18
100
AcDbEntity
  8
0
 62
     4
100
AcDbLine
 10
719.8370567476877
 20
333.0890845029735
 30
0.0
 11
629.3370567434386
 21
333.0890845027407
 31
0.0
  0
LINE
  5
436B
330
18
100
AcDbEntity
  8
0
 62
     4
100
AcDbLine
 10
719.8370567476586
 20
337.5890845028571
 30
0.0
 11
629.3370567434386
 21
337.5890845027407
 31
0.0
  0
ARC
  5
436C
330
18
100
AcDbEntity
  8
0
 62
     4
100
AcDbCircle
 10
719.8370567476877
 20
335.3390845029735
 30
0.0
 40
2.250000000116415
100
AcDbArc
 50
270.0
 51
90.0
  0
ARC
  5
436D
330
18
100
AcDbEntity
  8
0
 62
     4
100
AcDbCircle
 10
629.3370567434386
 20
335.3390845029735
 30
0.0
 40
2.250000000116415
100
AcDbArc
 50
90.0
 51
270.0
  0
LINE
  5
436E
330
18
100
AcDbEntity
  8
0
 62
     4
100
AcDbLine
 10
719.8370567476877
 20
325.5890845029735
 30
0.0
 11
629.3370567434386
 21
325.5890845029735
 31
0.0
  0
LINE
  5
436F
330
18
100
AcDbEntity
  8
0
 62
     4
100
AcDbLine
 10
719.8370567476877
 20
330.0890845029735
 30
0.0
 11
629.3370567434676
 21
330.0890845030899
 31
0.0
  0
ARC
  5
4370
330
18
100
AcDbEntity
  8
0
 62
     4
100
AcDbCircle
 10
719.8370567476877
 20
327.8390845029735
 30
0.0
 40
2.250000000116415
100
AcDbArc
 50
270.0
 51
90.0
  0
ARC
  5
4371
330
18
100
AcDbEntity
  8
0
 62
     4
100
AcDbCircle
 10
629.3370567434386
 20
327.8390845029735
 30
0.0
 40
2.250000000116415
100
AcDbArc
 50
90.0
 51
270.0
  0
LINE
  5
4372
330
18
100
AcDbEntity
  8
0
 62
     4
100
AcDbLine
 10
719.8370567476877
 20
318.0890845029735
 30
0.0
 11
629.3370567434386
 21
318.0890845029735
 31
0.0
  0
LINE
  5
4373
330
18
100
AcDbEntity
  8
0
 62
     4
100
AcDbLine
 10
719.8370567476877
 20
322.5890845030899
 30
0.0
 11
629.3370567434676
 21
322.5890845029735
 31
0.0
  0
ARC
  5
4374
330
18
100
AcDbEntity
  8
0
 62
     4
100
AcDbCircle
 10
719.8370567476877
 20
320.3390845029735
 30
0.0
 40
2.250000000116415
100
AcDbArc
 50
270.0
 51
90.0
  0
ARC
  5
4375
330
18
100
AcDbEntity
  8
0
 62
     4
100
AcDbCircle
 10
629.3370567434386
 20
320.3390845029735
 30
0.0
 40
2.250000000116415
100
AcDbArc
 50
90.0
 51
270.0
  0
LINE
  5
4376
330
18
100
AcDbEntity
  8
0
 62
     4
100
AcDbLine
 10
719.8370567476877
 20
310.5890845032063
 30
0.0
 11
629.3370567434386
 21
310.5890845028571
 31
0.0
  0
LINE
  5
4377
330
18
100
AcDbEntity
  8
0
 62
     4
100
AcDbLine
 10
719.8370567476877
 20
315.0890845030899
 30
0.0
 11
629.3370567434676
 21
315.0890845030899
 31
0.0
  0
ARC
  5
4378
330
18
100
AcDbEntity
  8
0
 62
     4
100
AcDbCircle
 10
719.8370567476877
 20
312.8390845029735
 30
0.0
 40
2.250000000116415
100
AcDbArc
 50
270.0
 51
90.0
  0
ARC
  5
4379
330
18
100
AcDbEntity
  8
0
 62
     4
100
AcDbCircle
 10
629.3370567434386
 20
312.8390845029735
 30
0.0
 40
2.250000000116415
100
AcDbArc
 50
90.0
 51
270.0
  0
LINE
  5
437A
330
18
100
AcDbEntity
  8
0
 62
     4
100
AcDbLine
 10
719.8370567476877
 20
355.5890845029735
 30
0.0
 11
629.3370567434386
 21
355.5890845030899
 31
0.0
  0
LINE
  5
437B
330
18
100
AcDbEntity
  8
0
 62
     4
100
AcDbLine
 10
719.8370567476877
 20
360.0890845030899
 30
0.0
 11
629.3370567434676
 21
360.0890845030899
 31
0.0
  0
ARC
  5
437C
330
18
100
AcDbEntity
  8
0
 62
     4
100
AcDbCircle
 10
719.8370567476877
 20
357.8390845029735
 30
0.0
 40
2.250000000116415
100
AcDbArc
 50
270.0
 51
90.0
  0
ARC
  5
437D
330
18
100
AcDbEntity
  8
0
 62
     4
100
AcDbCircle
 10
629.3370567434386
 20
357.8390845029735
 30
0.0
 40
2.250000000116415
100
AcDbArc
 50
90.0
 51
270.0
  0
LINE
  5
437E
330
18
100
AcDbEntity
  8
0
 62
     4
100
AcDbLine
 10
719.8370567476877
 20
363.0890845029735
 30
0.0
 11
629.3370567434386
 21
363.0890845030899
 31
0.0
  0
LINE
  5
437F
330
18
100
AcDbEntity
  8
0
 62
     4
100
AcDbLine
 10
719.8370567476877
 20
367.5890845029735
 30
0.0
 11
629.3370567434676
 21
367.5890845030899
 31
0.0
  0
ARC
  5
4380
330
18
100
AcDbEntity
  8
0
 62
     4
100
AcDbCircle
 10
719.8370567476877
 20
365.3390845029735
 30
0.0
 40
2.250000000116415
100
AcDbArc
 50
270.0
 51
90.0
  0
ARC
  5
4381
330
18
100
AcDbEntity
  8
0
 62
     4
100
AcDbCircle
 10
629.3370567434386
 20
365.3390845029735
 30
0.0
 40
2.250000000116415
100
AcDbArc
 50
90.0
 51
270.0
  0
LINE
  5
4382
330
18
100
AcDbEntity
  8
0
 62
     4
100
AcDbLine
 10
719.8370567476877
 20
370.5890845032063
 30
0.0
 11
629.3370567434386
 21
370.5890845028571
 31
0.0
  0
LINE
  5
4383
330
18
100
AcDbEntity
  8
0
 62
     4
100
AcDbLine
 10
719.8370567476586
 20
375.0890845029735
 30
0.0
 11
629.3370567434386
 21
375.0890845027407
 31
0.0
  0
ARC
  5
4384
330
18
100
AcDbEntity
  8
0
 62
     4
100
AcDbCircle
 10
719.8370567476877
 20
372.8390845029735
 30
0.0
 40
2.250000000116415
100
AcDbArc
 50
270.0
 51
90.0
  0
ARC
  5
4385
330
18
100
AcDbEntity
  8
0
 62
     4
100
AcDbCircle
 10
629.3370567434386
 20
372.8390845029735
 30
0.0
 40
2.250000000116415
100
AcDbArc
 50
90.0
 51
270.0
  0
LINE
  5
4386
330
18
100
AcDbEntity
  8
0
 62
     4
100
AcDbLine
 10
719.8370567476877
 20
378.0890845029735
 30
0.0
 11
629.3370567434386
 21
378.0890845029735
 31
0.0
  0
LINE
  5
4387
330
18
100
AcDbEntity
  8
0
 62
     4
100
AcDbLine
 10
719.8370567476877
 20
382.5890845030899
 30
0.0
 11
629.3370567434676
 21
382.5890845028571
 31
0.0
  0
ARC
  5
4388
330
18
100
AcDbEntity
  8
0
 62
     4
100
AcDbCircle
 10
719.8370567476877
 20
380.3390845029735
 30
0.0
 40
2.250000000116415
100
AcDbArc
 50
270.0
 51
90.0
  0
ARC
  5
4389
330
18
100
AcDbEntity
  8
0
 62
     4
100
AcDbCircle
 10
629.3370567434386
 20
380.3390845029735
 30
0.0
 40
2.250000000116415
100
AcDbArc
 50
90.0
 51
270.0
  0
LINE
  5
438A
330
18
100
AcDbEntity
  8
0
 62
     4
100
AcDbLine
 10
719.8370567476877
 20
385.5890845029735
 30
0.0
 11
629.3370567434386
 21
385.5890845029735
 31
0.0
  0
LINE
  5
438B
330
18
100
AcDbEntity
  8
0
 62
     4
100
AcDbLine
 10
719.8370567476877
 20
390.0890845028571
 30
0.0
 11
629.3370567434386
 21
390.0890845028571
 31
0.0
  0
ARC
  5
438C
330
18
100
AcDbEntity
  8
0
 62
     4
100
AcDbCircle
 10
719.8370567476877
 20
387.8390845029735
 30
0.0
 40
2.250000000116415
100
AcDbArc
 50
270.0
 51
90.0
  0
ARC
  5
438D
330
18
100
AcDbEntity
  8
0
 62
     4
100
AcDbCircle
 10
629.3370567434386
 20
387.8390845029735
 30
0.0
 40
2.250000000116415
100
AcDbArc
 50
90.0
 51
270.0
  0
LINE
  5
438E
330
18
100
AcDbEntity
  8
0
 62
     4
100
AcDbLine
 10
719.8370567476877
 20
303.0890845030899
 30
0.0
 11
629.3370567434386
 21
303.0890845027407
 31
0.0
  0
LINE
  5
438F
330
18
100
AcDbEntity
  8
0
 62
     4
100
AcDbLine
 10
719.8370567476877
 20
307.5890845030899
 30
0.0
 11
629.3370567434676
 21
307.5890845029735
 31
0.0
  0
ARC
  5
4390
330
18
100
AcDbEntity
  8
0
 62
     4
100
AcDbCircle
 10
719.8370567476877
 20
305.3390845029735
 30
0.0
 40
2.250000000116415
100
AcDbArc
 50
270.0
 51
90.0
  0
ARC
  5
4391
330
18
100
AcDbEntity
  8
0
 62
     4
100
AcDbCircle
 10
629.3370567434386
 20
305.3390845029735
 30
0.0
 40
2.250000000116415
100
AcDbArc
 50
90.0
 51
270.0
  0
CIRCLE
  5
4393
330
18
100
AcDbEntity
  8
0
 62
     4
100
AcDbCircle
 10
1019.559822003174
 20
266.3390844956393
 30
0.0
 40
9.0
  0
LINE
  5
4394
330
18
100
AcDbEntity
  8
0
 62
     4
100
AcDbLine
 10
1015.207060257721
 20
265.1968860522265
 30
0.0
 11
1015.690694491196
 21
265.3237649098392
 31
0.0
  0
LINE
  5
4395
330
18
100
AcDbEntity
  8
0
 62
     4
100
AcDbLine
 10
1015.309684674073
 20
266.6390875473971
 30
0.0
 11
1015.709678570557
 21
266.6390875473971
 31
0.0
  0
LINE
  5
4396
330
18
100
AcDbEntity
  8
0
 62
     4
100
AcDbLine
 10
1015.309684674073
 20
269.0390814438815
 30
0.0
 11
1015.309684674073
 21
266.6390875473971
 31
0.0
  0
LINE
  5
4397
330
18
100
AcDbEntity
  8
0
 62
     4
100
AcDbLine
 10
1015.309684674073
 20
269.0390814438815
 30
0.0
 11
1016.55973045044
 21
269.0390814438815
 31
0.0
  0
LINE
  5
4398
330
18
100
AcDbEntity
  8
0
 62
     4
100
AcDbLine
 10
1015.709678570557
 20
268.6390722886081
 30
0.0
 11
1015.709678570557
 21
268.0390814438815
 31
0.0
  0
LINE
  5
4399
330
18
100
AcDbEntity
  8
0
 62
     4
100
AcDbLine
 10
1015.709678570557
 20
268.6390722886081
 30
0.0
 11
1016.55973045044
 21
268.6390722886081
 31
0.0
  0
LINE
  5
439A
330
18
100
AcDbEntity
  8
0
 62
     4
100
AcDbLine
 10
1015.709678570557
 20
268.0390814438815
 30
0.0
 11
1016.359733502198
 21
268.0390814438815
 31
0.0
  0
LINE
  5
439B
330
18
100
AcDbEntity
  8
0
 62
     4
100
AcDbLine
 10
1015.709678570557
 20
267.6390722886081
 30
0.0
 11
1016.359733502198
 21
267.6390722886081
 31
0.0
  0
LINE
  5
439C
330
18
100
AcDbEntity
  8
0
 62
     4
100
AcDbLine
 10
1016.55973045044
 20
269.0390814438815
 30
0.0
 11
1016.55973045044
 21
268.6390722886081
 31
0.0
  0
LINE
  5
439D
330
18
100
AcDbEntity
  8
0
 62
     4
100
AcDbLine
 10
1016.359733502198
 20
268.0390814438815
 30
0.0
 11
1016.359733502198
 21
267.6390722886081
 31
0.0
  0
LINE
  5
439E
330
18
100
AcDbEntity
  8
0
 62
     4
100
AcDbLine
 10
1020.259681622315
 20
266.6390875473971
 30
0.0
 11
1021.359733502197
 21
266.6390875473971
 31
0.0
  0
LINE
  5
439F
330
18
100
AcDbEntity
  8
0
 62
     4
100
AcDbLine
 10
1017.55973045044
 20
269.0390661850925
 30
0.0
 11
1017.55973045044
 21
267.2390783921237
 31
0.0
  0
LINE
  5
43A0
330
18
100
AcDbEntity
  8
0
 62
     4
100
AcDbLine
 10
1017.959724346924
 20
267.3390387192721
 30
0.0
 11
1017.959724346924
 21
269.0390661850925
 31
0.0
  0
LINE
  5
43A1
330
18
100
AcDbEntity
  8
0
 62
     4
100
AcDbLine
 10
1017.959724346924
 20
269.0390661850925
 30
0.0
 11
1017.55973045044
 21
269.0390661850925
 31
0.0
  0
LINE
  5
43A2
330
18
100
AcDbEntity
  8
0
 62
     4
100
AcDbLine
 10
1018.759727398682
 20
269.0390661850925
 30
0.0
 11
1018.759727398682
 21
267.3388098374362
 31
0.0
  0
LINE
  5
43A3
330
18
100
AcDbEntity
  8
0
 62
     4
100
AcDbLine
 10
1019.159721295166
 20
269.0390661850925
 30
0.0
 11
1019.159721295166
 21
267.2390783921237
 31
0.0
  0
LINE
  5
43A4
330
18
100
AcDbEntity
  8
0
 62
     4
100
AcDbLine
 10
1019.159772018719
 20
267.2390441194529
 30
0.0
 11
1018.75977216177
 21
266.6390444234366
 31
0.0
  0
LINE
  5
43A5
330
18
100
AcDbEntity
  8
0
 62
     4
100
AcDbLine
 10
1017.55978576355
 20
267.2389929190631
 30
0.0
 11
1017.959771553803
 21
266.6390142932887
 31
0.0
  0
LINE
  5
43A6
330
18
100
AcDbEntity
  8
0
 62
     4
100
AcDbLine
 10
1018.159721295166
 20
267.0390661850924
 30
0.0
 11
1018.55973045044
 21
267.0390661850924
 31
0.0
  0
LINE
  5
43A7
330
18
100
AcDbEntity
  8
0
 62
     4
100
AcDbLine
 10
1018.759727398682
 20
269.0390661850925
 30
0.0
 11
1019.159721295166
 21
269.0390661850925
 31
0.0
  0
LINE
  5
43A8
330
18
100
AcDbEntity
  8
0
 62
     4
100
AcDbLine
 10
1017.959724346924
 20
266.6390722886081
 30
0.0
 11
1018.759727398682
 21
266.6390722886081
 31
0.0
  0
LINE
  5
43A9
330
18
100
AcDbEntity
  8
0
 62
     4
100
AcDbLine
 10
1021.259727398682
 20
269.0390661850925
 30
0.0
 11
1020.259681622315
 21
269.0390661850925
 31
0.0
  0
LINE
  5
43AA
330
18
100
AcDbEntity
  8
0
 62
     4
100
AcDbLine
 10
1019.959678570557
 20
268.639057029819
 30
0.0
 11
1019.959678570557
 21
268.0390661850925
 31
0.0
  0
LINE
  5
43AB
330
18
100
AcDbEntity
  8
0
 62
     4
100
AcDbLine
 10
1020.359672467041
 20
268.5057257309909
 30
0.0
 11
1020.359672467041
 21
268.1723974839206
 31
0.0
  0
LINE
  5
43AC
330
18
100
AcDbEntity
  8
0
 62
     4
100
AcDbLine
 10
1020.259681622315
 20
267.6390722886081
 30
0.0
 11
1021.05973045044
 21
267.6390722886081
 31
0.0
  0
LINE
  5
43AD
330
18
100
AcDbEntity
  8
0
 62
     4
100
AcDbLine
 10
1020.459678570557
 20
268.0390661850925
 30
0.0
 11
1021.259727398682
 21
268.0390661850925
 31
0.0
  0
LINE
  5
43AE
330
18
100
AcDbEntity
  8
0
 62
     4
100
AcDbLine
 10
1020.459724346924
 20
268.6390722886081
 30
0.0
 11
1020.959678570557
 21
268.6390722886081
 31
0.0
  0
LINE
  5
43AF
330
18
100
AcDbEntity
  8
0
 62
     4
100
AcDbLine
 10
1021.259730259705
 20
269.0389958516116
 30
0.0
 11
1021.559732357788
 21
268.5389922753329
 31
0.0
  0
LINE
  5
43B0
330
18
100
AcDbEntity
  8
0
 62
     4
100
AcDbLine
 10
1021.159741203118
 20
268.3389397755618
 30
0.0
 11
1021.559746782112
 21
268.5389424458499
 31
0.0
  0
LINE
  5
43B1
330
18
100
AcDbEntity
  8
0
 62
     4
100
AcDbLine
 10
1021.159711639214
 20
268.3390362158771
 30
0.0
 11
1020.959714690972
 21
268.6390315190311
 31
0.0
  0
LINE
  5
43B2
330
18
100
AcDbEntity
  8
0
 62
     4
100
AcDbLine
 10
1021.159675518799
 20
267.5057409897799
 30
0.0
 11
1021.159675518799
 21
267.1390112534518
 31
0.0
  0
LINE
  5
43B3
330
18
100
AcDbEntity
  8
0
 62
     4
100
AcDbLine
 10
1021.559684674072
 20
267.6390722886081
 30
0.0
 11
1021.559684674072
 21
266.9390600815768
 31
0.0
  0
LINE
  5
43B4
330
18
100
AcDbEntity
  8
0
 62
     4
100
AcDbLine
 10
1023.809684674072
 20
269.0390661850925
 30
0.0
 11
1022.359672467041
 21
269.0390661850925
 31
0.0
  0
LINE
  5
43B5
330
18
100
AcDbEntity
  8
0
 62
     4
100
AcDbLine
 10
1022.359672467041
 20
269.0390661850925
 30
0.0
 11
1022.359672467041
 21
266.6390722886081
 31
0.0
  0
LINE
  5
43B6
330
18
100
AcDbEntity
  8
0
 62
     4
100
AcDbLine
 10
1022.759681622315
 20
267.0390661850924
 30
0.0
 11
1022.759681622315
 21
267.6390722886081
 31
0.0
  0
LINE
  5
43B7
330
18
100
AcDbEntity
  8
0
 62
     4
100
AcDbLine
 10
1022.759681622315
 20
267.6390722886081
 30
0.0
 11
1023.559684674073
 21
267.6390722886081
 31
0.0
  0
LINE
  5
43B8
330
18
100
AcDbEntity
  8
0
 62
     4
100
AcDbLine
 10
1023.559684674073
 20
267.6390722886081
 30
0.0
 11
1023.559684674073
 21
268.0390661850925
 31
0.0
  0
LINE
  5
43B9
330
18
100
AcDbEntity
  8
0
 62
     4
100
AcDbLine
 10
1023.559684674073
 20
268.0390661850925
 30
0.0
 11
1022.759681622315
 21
268.0390661850925
 31
0.0
  0
LINE
  5
43BA
330
18
100
AcDbEntity
  8
0
 62
     4
100
AcDbLine
 10
1022.759681622315
 20
268.0390661850925
 30
0.0
 11
1022.759681622315
 21
268.6390722886081
 31
0.0
  0
LINE
  5
43BB
330
18
100
AcDbEntity
  8
0
 62
     4
100
AcDbLine
 10
1015.709678570557
 20
267.6390722886081
 30
0.0
 11
1015.709678570557
 21
266.6390875473971
 31
0.0
  0
LINE
  5
43BC
330
18
100
AcDbEntity
  8
0
 62
     4
100
AcDbLine
 10
1021.359715382385
 20
266.6390719309802
 30
0.0
 11
1021.559702913094
 21
266.939053346252
 31
0.0
  0
LINE
  5
43BD
330
18
100
AcDbEntity
  8
0
 62
     4
100
AcDbLine
 10
1021.059776226807
 20
267.0390661850924
 30
0.0
 11
1020.425407330322
 21
267.0390661850924
 31
0.0
  0
LINE
  5
43BE
330
18
100
AcDbEntity
  8
0
 62
     4
100
AcDbLine
 10
1020.259750584889
 20
267.6389765635486
 30
0.0
 11
1019.959750841189
 21
268.0389761820789
 31
0.0
  0
LINE
  5
43BF
330
18
100
AcDbEntity
  8
0
 62
     4
100
AcDbLine
 10
1019.959758530188
 20
268.6389974251742
 30
0.0
 11
1020.259758512306
 21
269.0389972821231
 31
0.0
  0
LINE
  5
43C0
330
18
100
AcDbEntity
  8
0
 62
     4
100
AcDbLine
 10
1021.259774963188
 20
268.0389583006854
 30
0.0
 11
1021.559747497368
 21
267.6389949217792
 31
0.0
  0
LINE
  5
43C1
330
18
100
AcDbEntity
  8
0
 62
     4
100
AcDbLine
 10
1021.059738318253
 20
267.6389918223376
 30
0.0
 11
1021.159759680557
 21
267.5056300059314
 31
0.0
  0
LINE
  5
43C2
330
18
100
AcDbEntity
  8
0
 62
     4
100
AcDbLine
 10
1020.459759692478
 20
268.0389796391482
 30
0.0
 11
1020.359765807915
 21
268.1723047390933
 31
0.0
  0
LINE
  5
43C3
330
18
100
AcDbEntity
  8
0
 62
     4
100
AcDbLine
 10
1020.359753827381
 20
268.5056685105319
 30
0.0
 11
1020.459764341641
 21
268.6390157834048
 31
0.0
  0
LINE
  5
43C4
330
18
100
AcDbEntity
  8
0
 62
     4
100
AcDbLine
 10
1022.359672467041
 20
266.6390722886081
 30
0.0
 11
1023.809684674072
 21
266.6390722886081
 31
0.0
  0
LINE
  5
43C5
330
18
100
AcDbEntity
  8
0
 62
     4
100
AcDbLine
 10
1023.809684674072
 20
267.0390661850924
 30
0.0
 11
1022.759681622315
 21
267.0390661850924
 31
0.0
  0
LINE
  5
43C6
330
18
100
AcDbEntity
  8
0
 62
     4
100
AcDbLine
 10
1021.059768001366
 20
267.0390339985843
 30
0.0
 11
1021.1597140234
 21
267.1389800802226
 31
0.0
  0
LINE
  5
43C7
330
18
100
AcDbEntity
  8
0
 62
     4
100
AcDbLine
 10
1020.259734551239
 20
266.6390354827399
 30
0.0
 11
1019.959729919958
 21
266.9390400544162
 31
0.0
  0
LINE
  5
43C8
330
18
100
AcDbEntity
  8
0
 62
     4
100
AcDbLine
 10
1020.425426284599
 20
267.0390124217028
 30
0.0
 11
1020.242607454586
 21
267.2218312517161
 31
0.0
  0
LINE
  5
43C9
330
18
100
AcDbEntity
  8
0
 62
     4
100
AcDbLine
 10
1019.959729919958
 20
266.9390400544162
 30
0.0
 11
1020.242564300823
 21
267.221874405479
 31
0.0
  0
LINE
  5
43CA
330
18
100
AcDbEntity
  8
0
 62
     4
100
AcDbLine
 10
1017.959775606919
 20
267.3389881149287
 30
0.0
 11
1018.159823457527
 21
267.0390262499804
 31
0.0
  0
LINE
  5
43CB
330
18
100
AcDbEntity
  8
0
 62
     4
100
AcDbLine
 10
1018.759745995331
 20
267.3387961283679
 30
0.0
 11
1018.559832076359
 21
267.0390014544482
 31
0.0
  0
LINE
  5
43CC
330
18
100
AcDbEntity
  8
0
 62
     4
100
AcDbLine
 10
1023.809684674072
 20
268.6390722886081
 30
0.0
 11
1022.759681622315
 21
268.6390722886081
 31
0.0
  0
LINE
  5
43CD
330
18
100
AcDbEntity
  8
0
 62
     4
100
AcDbLine
 10
1023.809684674072
 20
269.0390661850925
 30
0.0
 11
1023.809684674072
 21
268.6390722886081
 31
0.0
  0
LINE
  5
43CE
330
18
100
AcDbEntity
  8
0
 62
     4
100
AcDbLine
 10
1023.809684674072
 20
267.0390661850924
 30
0.0
 11
1023.809684674072
 21
266.6390722886081
 31
0.0
  0
LINE
  5
43CF
330
18
100
AcDbEntity
  8
0
 62
     4
100
AcDbLine
 10
1022.303927580643
 20
264.4175691500659
 30
0.0
 11
1022.835374275971
 21
264.0454519883151
 31
0.0
  0
LINE
  5
43D0
330
18
100
AcDbEntity
  8
0
 62
     4
100
AcDbLine
 10
1023.2447134655
 20
263.7588194504733
 30
0.0
 11
1023.778404633332
 21
263.3851195469851
 31
0.0
  0
LINE
  5
43D1
330
18
100
AcDbEntity
  8
0
 62
     4
100
AcDbLine
 10
1022.303921143341
 20
264.4175246850009
 30
0.0
 11
1024.096004883576
 21
265.3326611414905
 31
0.0
  0
LINE
  5
43D2
330
18
100
AcDbEntity
  8
0
 62
     4
100
AcDbLine
 10
1024.096024433899
 20
265.332727660274
 30
0.0
 11
1023.7783965271
 21
263.385146249866
 31
0.0
  0
CIRCLE
  5
43D3
330
18
100
AcDbEntity
  8
0
 62
     4
100
AcDbCircle
 10
1019.559669415283
 20
266.3390844956393
 30
0.0
 40
6.749999046325696
  0
ARC
  5
43D4
330
18
100
AcDbEntity
  8
0
 62
     4
100
AcDbCircle
 10
1019.559669415283
 20
266.3390844956393
 30
0.0
 40
3.999999046325698
100
AcDbArc
 50
194.7034115197319
 51
325.0003280098089
  0
ARC
  5
43D5
330
18
100
AcDbEntity
  8
0
 62
     4
100
AcDbCircle
 10
1019.559669415283
 20
266.3390844956393
 30
0.0
 40
4.499999046325698
100
AcDbArc
 50
194.7030290305156
 51
325.000194828226
  0
CIRCLE
  5
43D6
330
18
100
AcDbEntity
  8
0
 62
     4
100
AcDbCircle
 10
1019.559974591065
 20
266.3390844956393
 30
0.0
 40
10.399993896484
  0
ARC
  5
43D7
330
18
100
AcDbEntity
  8
0
 62
     4
100
AcDbCircle
 10
924.5596705734707
 20
258.5391119967335
 30
0.0
 40
0.2
100
AcDbArc
 50
269.9999910020262
 51
0.0000010005159917
  0
ARC
  5
43D8
330
18
100
AcDbEntity
  8
0
 62
     4
100
AcDbCircle
 10
924.5596705734707
 20
274.1391119968266
 30
0.0
 40
0.2
100
AcDbArc
 50
359.9999969984521
 51
90.0
  0
ARC
  5
43D9
330
18
100
AcDbEntity
  8
0
 62
     4
100
AcDbCircle
 10
914.5596685734554
 20
274.1391119968266
 30
0.0
 40
0.2
100
AcDbArc
 50
90.0
 51
180.000003001548
  0
ARC
  5
43DA
330
18
100
AcDbEntity
  8
0
 62
     4
100
AcDbCircle
 10
914.5596685734554
 20
258.5391119967335
 30
0.0
 40
0.2
100
AcDbArc
 50
180.000003001548
 51
270.0000050025799
  0
ARC
  5
43DB
330
18
100
AcDbEntity
  8
0
 62
     4
100
AcDbCircle
 10
924.0596325734141
 20
273.6391179967559
 30
0.0
 40
0.4
100
AcDbArc
 50
359.9995260022139
 51
90.00060199713201
  0
ARC
  5
43DC
330
18
100
AcDbEntity
  8
0
 62
     4
100
AcDbCircle
 10
915.0596195734316
 20
273.6391029967581
 30
0.0
 40
0.4
100
AcDbArc
 50
90.00056399753464
 51
180.0010130024313
  0
ARC
  5
43DD
330
18
100
AcDbEntity
  8
0
 62
     4
100
AcDbCircle
 10
915.0596345734292
 20
259.0391419967291
 30
0.0
 40
0.4
100
AcDbArc
 50
180.0008899989953
 51
269.9993769987023
  0
ARC
  5
43DE
330
18
100
AcDbEntity
  8
0
 62
     4
100
AcDbCircle
 10
924.0596475734118
 20
259.0391419967291
 30
0.0
 40
0.4
100
AcDbArc
 50
269.9993219970032
 51
359.9996459974318
  0
ARC
  5
43DF
330
18
100
AcDbEntity
  8
0
 62
     4
100
AcDbCircle
 10
926.5596705734706
 20
256.3391259967702
 30
0.0
 40
0.5
100
AcDbArc
 50
269.9999640014346
 51
0.0000010005159917
  0
ARC
  5
43E0
330
18
100
AcDbEntity
  8
0
 62
     4
100
AcDbCircle
 10
926.5596705734706
 20
276.3390729968323
 30
0.0
 40
0.5
100
AcDbArc
 50
0.000018002617744
 51
90.0
  0
ARC
  5
43E1
330
18
100
AcDbEntity
  8
0
 62
     4
100
AcDbCircle
 10
912.5596685734553
 20
276.3390729968323
 30
0.0
 40
0.5
100
AcDbArc
 50
90.0
 51
179.9999819973822
  0
ARC
  5
43E2
330
18
100
AcDbEntity
  8
0
 62
     4
100
AcDbCircle
 10
912.5596685734553
 20
256.3391259967702
 30
0.0
 40
0.5
100
AcDbArc
 50
179.9999819973822
 51
269.9999640014346
  0
LINE
  5
43E3
330
18
100
AcDbEntity
  8
0
 62
     4
100
AcDbLine
 10
914.5596685733972
 20
274.3391129967877
 30
0.0
 11
924.5596705734124
 21
274.3391129967877
 31
0.0
  0
LINE
  5
43E4
330
18
100
AcDbEntity
  8
0
 62
     4
100
AcDbLine
 10
924.7596715733735
 20
258.5391119967335
 30
0.0
 11
924.7596715733735
 21
274.1391119967102
 31
0.0
  0
LINE
  5
43E5
330
18
100
AcDbEntity
  8
0
 62
     4
100
AcDbLine
 10
914.3596715733501
 20
258.5391119967335
 30
0.0
 11
914.3596715733501
 21
274.1391119967102
 31
0.0
  0
LINE
  5
43E6
330
18
100
AcDbEntity
  8
0
 62
     4
100
AcDbLine
 10
914.5596685733972
 20
258.3391109967724
 30
0.0
 11
924.5596705734124
 21
258.3391109967724
 31
0.0
  0
LINE
  5
43E7
330
18
100
AcDbEntity
  8
0
 62
     4
100
AcDbLine
 10
923.5596595733285
 20
271.5390369967445
 30
0.0
 11
915.5596725733111
 21
271.5390369967445
 31
0.0
  0
LINE
  5
43E8
330
18
100
AcDbEntity
  8
0
 62
     4
100
AcDbLine
 10
924.0596325733559
 20
274.0390369967445
 30
0.0
 11
915.0596195733733
 21
274.0390369967445
 31
0.0
  0
LINE
  5
43E9
330
18
100
AcDbEntity
  8
0
 62
     4
100
AcDbLine
 10
924.0596475733537
 20
258.6390759967853
 30
0.0
 11
915.0596345733712
 21
258.6390759967853
 31
0.0
  0
LINE
  5
43EA
330
18
100
AcDbEntity
  8
0
 62
     4
100
AcDbLine
 10
924.4596705733192
 20
259.0391349966758
 30
0.0
 11
924.4596705733192
 21
273.6390949966972
 31
0.0
  0
LINE
  5
43EB
330
18
100
AcDbEntity
  8
0
 62
     4
100
AcDbLine
 10
914.6596705733891
 20
259.0391309967618
 30
0.0
 11
914.6596705733891
 21
273.6390909966667
 31
0.0
  0
LINE
  5
43EC
330
18
100
AcDbEntity
  8
0
 62
     4
100
AcDbLine
 10
912.0596685733971
 20
256.3391109967724
 30
0.0
 11
912.0596685733971
 21
276.3390579967181
 31
0.0
  0
LINE
  5
43ED
330
18
100
AcDbEntity
  8
0
 62
     4
100
AcDbLine
 10
927.0596705734124
 20
256.3391109967724
 30
0.0
 11
927.0596705734124
 21
276.3390579967181
 31
0.0
  0
LINE
  5
43EE
330
18
100
AcDbEntity
  8
0
 62
     4
100
AcDbLine
 10
912.5596685734553
 20
255.8391259967702
 30
0.0
 11
926.5596702593239
 21
255.8391259967702
 31
0.0
  0
LINE
  5
43EF
330
18
100
AcDbEntity
  8
0
 62
     4
100
AcDbLine
 10
912.5596685734553
 20
276.8390729968323
 30
0.0
 11
926.5596705734706
 21
276.8390729968323
 31
0.0
  0
ENDSEC
  0
SECTION
  2
OBJECTS
  0
DICTIONARY
  5
C
330
0
100
AcDbDictionary
281
     1
  3
ACAD_COLOR
350
2ED
  3
ACAD_GROUP
350
D
  3
ACAD_LAYOUT
350
2EE
  3
ACAD_MATERIAL
350
2EC
  3
ACAD_MLEADERSTYLE
350
57E
  3
ACAD_MLINESTYLE
350
1B
  3
ACAD_PLOTSETTINGS
350
2EF
  3
ACAD_PLOTSTYLENAME
350
2EA
  3
ACAD_SCALELIST
350
55C
  3
ACAD_TABLESTYLE
350
55A
  3
ACAD_VISUALSTYLE
350
549
  3
ACDB_RECOMPOSE_DATA
350
596
  3
AcDbVariableDictionary
350
51F
  0
DICTIONARY
  5
598
330
8
100
AcDbDictionary
280
     1
281
     1
  0
DICTIONARY
  5
646
330
2
100
AcDbDictionary
280
     1
281
     1
  3
ACAD_LAYERFILTERS
360
CB7
  3
ACAD_LAYERSTATES
360
647
  3
ACLYDICTIONARY
360
CB6
  0
DICTIONARY
  5
586
330
E
100
AcDbDictionary
280
     1
281
     1
  3
ADSK_XREC_LAYER_RECONCILED
360
587
  0
DICTIONARY
  5
CB1
330
18
100
AcDbDictionary
280
     1
281
     1
  3
ACAD_SORTENTS
360
CB2
  0
DICTIONARY
  5
2ED
102
{ACAD_REACTORS
330
C
102
}
330
C
100
AcDbDictionary
281
     1
  0
DICTIONARY
  5
D
102
{ACAD_REACTORS
330
C
102
}
330
C
100
AcDbDictionary
281
     1
  0
DICTIONARY
  5
2EE
102
{ACAD_REACTORS
330
C
102
}
330
C
100
AcDbDictionary
281
     1
  3
Model
350
2F0
  3
レイアウト1
350
2F1
  0
DICTIONARY
  5
2EC
102
{ACAD_REACTORS
330
C
102
}
330
C
100
AcDbDictionary
281
     1
  3
ByBlock
350
539
  3
ByLayer
350
531
  3
Global
350
541
  0
DICTIONARY
  5
57E
102
{ACAD_REACTORS
330
C
102
}
330
C
100
AcDbDictionary
281
     1
  3
Standard
350
57F
  0
DICTIONARY
  5
1B
102
{ACAD_REACTORS
330
C
102
}
330
C
100
AcDbDictionary
281
     1
  3
STANDARD
350
1C
  0
DICTIONARY
  5
2EF
102
{ACAD_REACTORS
330
C
102
}
330
C
100
AcDbDictionary
281
     1
  0
ACDBDICTIONARYWDFLT
  5
2EA
102
{ACAD_REACTORS
330
C
102
}
330
C
100
AcDbDictionary
281
     1
  3
Normal
350
2EB
100
AcDbDictionaryWithDefault
340
2EB
  0
DICTIONARY
  5
55C
102
{ACAD_REACTORS
330
C
102
}
330
C
100
AcDbDictionary
281
     1
  3
A0
350
55D
  3
A1
350
55E
  3
A2
350
55F
  3
A3
350
560
  3
A4
350
561
  3
A5
350
562
  3
A6
350
563
  3
A7
350
564
  3
A8
350
565
  3
A9
350
566
  3
B0
350
567
  3
B1
350
568
  3
B2
350
569
  3
B3
350
56A
  3
B4
350
56B
  3
B5
350
56C
  3
B6
350
56D
  3
B7
350
56E
  3
B8
350
56F
  3
B9
350
570
  3
C0
350
571
  3
C1
350
572
  3
C2
350
573
  3
C3
350
574
  3
C4
350
575
  3
C5
350
576
  3
C6
350
577
  3
C7
350
578
  3
C8
350
579
  3
C9
350
57A
  3
D0
350
57B
  3
D1
350
57C
  3
D2
350
57D
  0
DICTIONARY
  5
55A
102
{ACAD_REACTORS
330
C
102
}
330
C
100
AcDbDictionary
281
     1
  3
Standard
350
55B
  0
DICTIONARY
  5
549
102
{ACAD_REACTORS
330
C
102
}
330
C
100
AcDbDictionary
281
     1
  3
2dWireframe
350
54F
  3
3D Hidden
350
551
  3
3dWireframe
350
550
  3
Basic
350
54E
  3
Brighten
350
555
  3
ColorChange
350
559
  3
Conceptual
350
552
  3
Dim
350
554
  3
Facepattern
350
558
  3
Flat
350
54A
  3
FlatWithEdges
350
54B
  3
Gouraud
350
54C
  3
GouraudWithEdges
350
54D
  3
Linepattern
350
557
  3
Realistic
350
553
  3
Thicken
350
556
  0
XRECORD
  5
596
102
{ACAD_REACTORS
330
C
102
}
330
C
100
AcDbXrecord
280
     1
 90
        1
330
55B
  0
DICTIONARY
  5
51F
102
{ACAD_REACTORS
330
C
102
}
330
C
100
AcDbDictionary
281
     1
  3
CANNOSCALE
350
5AB
  3
CMLEADERSTYLE
350
5AA
  3
CTABLESTYLE
350
5A9
  3
DIMASSOC
350
520
  3
INDEXCTL
350
5AD
  3
PROJECTNAME
350
521
  3
SORTENTS
350
5AC
  0
DICTIONARY
  5
CB7
102
{ACAD_REACTORS
330
646
102
}
330
646
100
AcDbDictionary
281
     1
  0
DICTIONARY
  5
647
102
{ACAD_REACTORS
330
646
102
}
330
646
100
AcDbDictionary
281
     1
  0
DICTIONARY
  5
CB6
102
{ACAD_REACTORS
330
646
102
}
330
646
100
AcDbDictionary
281
     1
1001
ACAD
1000
<All
  0
XRECORD
  5
587
102
{ACAD_REACTORS
330
586
102
}
330
586
100
AcDbXrecord
280
     1
290
     1
  0
SORTENTSTABLE
  5
CB2
102
{ACAD_REACTORS
330
CB1
102
}
330
CB1
100
AcDbSortentsTable
330
18
  0
LAYOUT
  5
2F0
102
{ACAD_REACTORS
330
2EE
102
}
330
2EE
100
AcDbPlotSettings
  1

  2
\\Calsvr\iR-ADV C5045
  4
A3
  6

 40
5.873749732971191
 41
5.873747825622558
 42
5.873748779296875
 43
5.873748779296875
 44
296.9259948730469
 45
419.9466552734374
 46
0.0
 47
0.0
 48
0.0
 49
0.0
140
0.0
141
0.0
142
1.0
143
1.0
 70
 11936
 72
     1
 73
     1
 74
     2
  7
標準1.ctb
 75
     0
147
0.9781566107714617
 76
     0
 77
     2
 78
   300
148
0.0
149
0.0
100
AcDbLayout
  1
Model
 70
     1
 71
     0
 10
0.0
 20
0.0
 11
12.0
 21
9.0
 12
0.0
 22
0.0
 32
0.0
 14
0.0
 24
0.0
 34
0.0
 15
0.0
 25
0.0
 35
0.0
146
0.0
 13
0.0
 23
0.0
 33
0.0
 16
1.0
 26
0.0
 36
0.0
 17
0.0
 27
1.0
 37
0.0
 76
     0
330
18
331
528
1001
ACAD_PSEXT
1000
\\Calsvr\iR-ADV C5045
1000
Canon iR-ADV C5045/5051 LIPSLX
1000
\\Calsvr
1000

1070
     0
  0
LAYOUT
  5
2F1
102
{ACAD_REACTORS
330
2EE
102
}
330
2EE
100
AcDbPlotSettings
  1

  2
\\Keiso01\LP-9200PS2
  4

  6

 40
0.0
 41
0.0
 42
0.0
 43
0.0
 44
0.0
 45
0.0
 46
0.0
 47
0.0
 48
0.0
 49
0.0
140
0.0
141
0.0
142
1.0
143
1.0
 70
   688
 72
     0
 73
     0
 74
     5
  7
標準1.ctb
 75
    16
147
1.0
 76
     0
 77
     2
 78
   300
148
0.0
149
0.0
100
AcDbLayout
  1
レイアウト1
 70
     0
 71
     1
 10
0.0
 20
0.0
 11
420.0
 21
297.0
 12
0.0
 22
0.0
 32
0.0
 14
1.000000000000000E+20
 24
1.000000000000000E+20
 34
1.000000000000000E+20
 15
-1.000000000000000E+20
 25
-1.000000000000000E+20
 35
-1.000000000000000E+20
146
0.0
 13
0.0
 23
0.0
 33
0.0
 16
1.0
 26
0.0
 36
0.0
 17
0.0
 27
1.0
 37
0.0
 76
     0
330
15
  0
MATERIAL
  5
539
102
{ACAD_XDICTIONARY
360
53A
102
}
102
{ACAD_REACTORS
330
2EC
102
}
330
2EC
100
AcDbMaterial
  1
ByBlock
 72
     0
 43
0.0208333333333333
 43
0.0
 43
0.0
 43
0.0
 43
0.0
 43
0.0208333333333333
 43
0.0
 43
0.0
 43
0.0
 43
0.0
 43
1.0
 43
0.0
 43
0.0
 43
0.0
 43
0.0
 43
1.0
 77
     0
 47
0.0208333333333333
 47
0.0
 47
0.0
 47
0.0
 47
0.0
 47
0.0208333333333333
 47
0.0
 47
0.0
 47
0.0
 47
0.0
 47
1.0
 47
0.0
 47
0.0
 47
0.0
 47
0.0
 47
1.0
171
     0
 49
0.0208333333333333
 49
0.0
 49
0.0
 49
0.0
 49
0.0
 49
0.0208333333333333
 49
0.0
 49
0.0
 49
0.0
 49
0.0
 49
1.0
 49
0.0
 49
0.0
 49
0.0
 49
0.0
 49
1.0
175
     0
142
0.0208333333333333
142
0.0
142
0.0
142
0.0
142
0.0
142
0.0208333333333333
142
0.0
142
0.0
142
0.0
142
0.0
142
1.0
142
0.0
142
0.0
142
0.0
142
0.0
142
1.0
179
     0
144
0.0208333333333333
144
0.0
144
0.0
144
0.0
144
0.0
144
0.0208333333333333
144
0.0
144
0.0
144
0.0
144
0.0
144
1.0
144
0.0
144
0.0
144
0.0
144
0.0
144
1.0
147
0.0208333333333333
147
0.0
147
0.0
147
0.0
147
0.0
147
0.0208333333333333
147
0.0
147
0.0
147
0.0
147
0.0
147
1.0
147
0.0
147
0.0
147
0.0
147
0.0
147
1.0
  0
MATERIAL
  5
531
102
{ACAD_XDICTIONARY
360
532
102
}
102
{ACAD_REACTORS
330
2EC
102
}
330
2EC
100
AcDbMaterial
  1
ByLayer
 72
     0
 43
0.0208333333333333
 43
0.0
 43
0.0
 43
0.0
 43
0.0
 43
0.0208333333333333
 43
0.0
 43
0.0
 43
0.0
 43
0.0
 43
1.0
 43
0.0
 43
0.0
 43
0.0
 43
0.0
 43
1.0
 77
     0
 47
0.0208333333333333
 47
0.0
 47
0.0
 47
0.0
 47
0.0
 47
0.0208333333333333
 47
0.0
 47
0.0
 47
0.0
 47
0.0
 47
1.0
 47
0.0
 47
0.0
 47
0.0
 47
0.0
 47
1.0
171
     0
 49
0.0208333333333333
 49
0.0
 49
0.0
 49
0.0
 49
0.0
 49
0.0208333333333333
 49
0.0
 49
0.0
 49
0.0
 49
0.0
 49
1.0
 49
0.0
 49
0.0
 49
0.0
 49
0.0
 49
1.0
175
     0
142
0.0208333333333333
142
0.0
142
0.0
142
0.0
142
0.0
142
0.0208333333333333
142
0.0
142
0.0
142
0.0
142
0.0
142
1.0
142
0.0
142
0.0
142
0.0
142
0.0
142
1.0
179
     0
144
0.0208333333333333
144
0.0
144
0.0
144
0.0
144
0.0
144
0.0208333333333333
144
0.0
144
0.0
144
0.0
144
0.0
144
1.0
144
0.0
144
0.0
144
0.0
144
0.0
144
1.0
147
0.0208333333333333
147
0.0
147
0.0
147
0.0
147
0.0
147
0.0208333333333333
147
0.0
147
0.0
147
0.0
147
0.0
147
1.0
147
0.0
147
0.0
147
0.0
147
0.0
147
1.0
  0
MATERIAL
  5
541
102
{ACAD_XDICTIONARY
360
542
102
}
102
{ACAD_REACTORS
330
2EC
102
}
330
2EC
100
AcDbMaterial
  1
Global
 72
     0
 43
0.0208333333333333
 43
0.0
 43
0.0
 43
0.0
 43
0.0
 43
0.0208333333333333
 43
0.0
 43
0.0
 43
0.0
 43
0.0
 43
1.0
 43
0.0
 43
0.0
 43
0.0
 43
0.0
 43
1.0
 77
     0
 47
0.0208333333333333
 47
0.0
 47
0.0
 47
0.0
 47
0.0
 47
0.0208333333333333
 47
0.0
 47
0.0
 47
0.0
 47
0.0
 47
1.0
 47
0.0
 47
0.0
 47
0.0
 47
0.0
 47
1.0
171
     0
 49
0.0208333333333333
 49
0.0
 49
0.0
 49
0.0
 49
0.0
 49
0.0208333333333333
 49
0.0
 49
0.0
 49
0.0
 49
0.0
 49
1.0
 49
0.0
 49
0.0
 49
0.0
 49
0.0
 49
1.0
175
     0
142
0.0208333333333333
142
0.0
142
0.0
142
0.0
142
0.0
142
0.0208333333333333
142
0.0
142
0.0
142
0.0
142
0.0
142
1.0
142
0.0
142
0.0
142
0.0
142
0.0
142
1.0
179
     0
144
0.0208333333333333
144
0.0
144
0.0
144
0.0
144
0.0
144
0.0208333333333333
144
0.0
144
0.0
144
0.0
144
0.0
144
1.0
144
0.0
144
0.0
144
0.0
144
0.0
144
1.0
147
0.0208333333333333
147
0.0
147
0.0
147
0.0
147
0.0
147
0.0208333333333333
147
0.0
147
0.0
147
0.0
147
0.0
147
1.0
147
0.0
147
0.0
147
0.0
147
0.0
147
1.0
  0
MLEADERSTYLE
  5
57F
102
{ACAD_REACTORS
330
57E
102
}
330
57E
100
AcDbMLeaderStyle
170
     0
171
     1
172
     0
 90
        2
 40
0.0
 41
0.0
173
     1
 91
-1023410172
340
12
 92
       -2
290
     1
 42
2.0
291
     0
 43
0.0
  3
Standard
341
20
 44
2.5
300

342
F
174
     6
178
     6
175
     1
176
     0
 93
-1023410173
 45
2.5
292
     0
297
     0
 46
4.0
 94
-1056964608
 47
1.0
 49
1.0
140
1.0
293
     1
141
0.0
294
     1
177
     0
142
1.0
295
     0
296
     0
143
0.125
1001
ACAD_MLEADERVER
1070
     2
  0
MLINESTYLE
  5
1C
102
{ACAD_REACTORS
330
1B
102
}
330
1B
100
AcDbMlineStyle
  2
STANDARD
 70
     0
  3

 62
   256
 51
90.0
 52
90.0
 71
     2
 49
0.5
 62
   256
  6
BYLAYER
 49
-0.5
 62
   256
  6
BYLAYER
  0
ACDBPLACEHOLDER
  5
2EB
102
{ACAD_REACTORS
330
2EA
102
}
330
2EA
  0
SCALE
  5
55D
102
{ACAD_REACTORS
330
55C
102
}
330
55C
100
AcDbScale
 70
     0
300
1:1
140
1.0
141
1.0
290
     1
  0
SCALE
  5
55E
102
{ACAD_REACTORS
330
55C
102
}
330
55C
100
AcDbScale
 70
     0
300
1:2
140
1.0
141
2.0
290
     0
  0
SCALE
  5
55F
102
{ACAD_REACTORS
330
55C
102
}
330
55C
100
AcDbScale
 70
     0
300
1:4
140
1.0
141
4.0
290
     0
  0
SCALE
  5
560
102
{ACAD_REACTORS
330
55C
102
}
330
55C
100
AcDbScale
 70
     0
300
1:5
140
1.0
141
5.0
290
     0
  0
SCALE
  5
561
102
{ACAD_REACTORS
330
55C
102
}
330
55C
100
AcDbScale
 70
     0
300
1:8
140
1.0
141
8.0
290
     0
  0
SCALE
  5
562
102
{ACAD_REACTORS
330
55C
102
}
330
55C
100
AcDbScale
 70
     0
300
1:10
140
1.0
141
10.0
290
     0
  0
SCALE
  5
563
102
{ACAD_REACTORS
330
55C
102
}
330
55C
100
AcDbScale
 70
     0
300
1:16
140
1.0
141
16.0
290
     0
  0
SCALE
  5
564
102
{ACAD_REACTORS
330
55C
102
}
330
55C
100
AcDbScale
 70
     0
300
1:20
140
1.0
141
20.0
290
     0
  0
SCALE
  5
565
102
{ACAD_REACTORS
330
55C
102
}
330
55C
100
AcDbScale
 70
     0
300
1:30
140
1.0
141
30.0
290
     0
  0
SCALE
  5
566
102
{ACAD_REACTORS
330
55C
102
}
330
55C
100
AcDbScale
 70
     0
300
1:40
140
1.0
141
40.0
290
     0
  0
SCALE
  5
567
102
{ACAD_REACTORS
330
55C
102
}
330
55C
100
AcDbScale
 70
     0
300
1:50
140
1.0
141
50.0
290
     0
  0
SCALE
  5
568
102
{ACAD_REACTORS
330
55C
102
}
330
55C
100
AcDbScale
 70
     0
300
1:100
140
1.0
141
100.0
290
     0
  0
SCALE
  5
569
102
{ACAD_REACTORS
330
55C
102
}
330
55C
100
AcDbScale
 70
     0
300
2:1
140
2.0
141
1.0
290
     0
  0
SCALE
  5
56A
102
{ACAD_REACTORS
330
55C
102
}
330
55C
100
AcDbScale
 70
     0
300
4:1
140
4.0
141
1.0
290
     0
  0
SCALE
  5
56B
102
{ACAD_REACTORS
330
55C
102
}
330
55C
100
AcDbScale
 70
     0
300
8:1
140
8.0
141
1.0
290
     0
  0
SCALE
  5
56C
102
{ACAD_REACTORS
330
55C
102
}
330
55C
100
AcDbScale
 70
     0
300
10:1
140
10.0
141
1.0
290
     0
  0
SCALE
  5
56D
102
{ACAD_REACTORS
330
55C
102
}
330
55C
100
AcDbScale
 70
     0
300
100:1
140
100.0
141
1.0
290
     0
  0
SCALE
  5
56E
102
{ACAD_REACTORS
330
55C
102
}
330
55C
100
AcDbScale
 70
     0
300
1/128" = 1'-0"
140
0.0078125
141
12.0
290
     0
  0
SCALE
  5
56F
102
{ACAD_REACTORS
330
55C
102
}
330
55C
100
AcDbScale
 70
     0
300
1/64" = 1'-0"
140
0.015625
141
12.0
290
     0
  0
SCALE
  5
570
102
{ACAD_REACTORS
330
55C
102
}
330
55C
100
AcDbScale
 70
     0
300
1/32" = 1'-0"
140
0.03125
141
12.0
290
     0
  0
SCALE
  5
571
102
{ACAD_REACTORS
330
55C
102
}
330
55C
100
AcDbScale
 70
     0
300
1/16" = 1'-0"
140
0.0625
141
12.0
290
     0
  0
SCALE
  5
572
102
{ACAD_REACTORS
330
55C
102
}
330
55C
100
AcDbScale
 70
     0
300
3/32" = 1'-0"
140
0.09375
141
12.0
290
     0
  0
SCALE
  5
573
102
{ACAD_REACTORS
330
55C
102
}
330
55C
100
AcDbScale
 70
     0
300
1/8" = 1'-0"
140
0.125
141
12.0
290
     0
  0
SCALE
  5
574
102
{ACAD_REACTORS
330
55C
102
}
330
55C
100
AcDbScale
 70
     0
300
3/16" = 1'-0"
140
0.1875
141
12.0
290
     0
  0
SCALE
  5
575
102
{ACAD_REACTORS
330
55C
102
}
330
55C
100
AcDbScale
 70
     0
300
1/4" = 1'-0"
140
0.25
141
12.0
290
     0
  0
SCALE
  5
576
102
{ACAD_REACTORS
330
55C
102
}
330
55C
100
AcDbScale
 70
     0
300
3/8" = 1'-0"
140
0.375
141
12.0
290
     0
  0
SCALE
  5
577
102
{ACAD_REACTORS
330
55C
102
}
330
55C
100
AcDbScale
 70
     0
300
1/2" = 1'-0"
140
0.5
141
12.0
290
     0
  0
SCALE
  5
578
102
{ACAD_REACTORS
330
55C
102
}
330
55C
100
AcDbScale
 70
     0
300
3/4" = 1'-0"
140
0.75
141
12.0
290
     0
  0
SCALE
  5
579
102
{ACAD_REACTORS
330
55C
102
}
330
55C
100
AcDbScale
 70
     0
300
1" = 1'-0"
140
1.0
141
12.0
290
     0
  0
SCALE
  5
57A
102
{ACAD_REACTORS
330
55C
102
}
330
55C
100
AcDbScale
 70
     0
300
1-1/2" = 1'-0"
140
1.5
141
12.0
290
     0
  0
SCALE
  5
57B
102
{ACAD_REACTORS
330
55C
102
}
330
55C
100
AcDbScale
 70
     0
300
3" = 1'-0"
140
3.0
141
12.0
290
     0
  0
SCALE
  5
57C
102
{ACAD_REACTORS
330
55C
102
}
330
55C
100
AcDbScale
 70
     0
300
6" = 1'-0"
140
6.0
141
12.0
290
     0
  0
SCALE
  5
57D
102
{ACAD_REACTORS
330
55C
102
}
330
55C
100
AcDbScale
 70
     0
300
1'-0" = 1'-0"
140
12.0
141
12.0
290
     0
  0
TABLESTYLE
  5
55B
102
{ACAD_XDICTIONARY
360
594
102
}
102
{ACAD_REACTORS
330
55A
102
}
330
55A
100
AcDbTableStyle
  3
Standard
 70
     0
 71
     0
 40
1.5
 41
1.5
280
     0
281
     0
  7
STANDARD
140
4.5
170
     2
 62
     0
 63
     7
283
     0
274
    -2
284
     1
 64
     0
275
    -2
285
     1
 65
     0
276
    -2
286
     1
 66
     0
277
    -2
287
     1
 67
     0
278
    -2
288
     1
 68
     0
279
    -2
289
     1
 69
     0
  7
STANDARD
140
6.0
170
     5
 62
     0
 63
     7
283
     0
274
    -2
284
     1
 64
     0
275
    -2
285
     1
 65
     0
276
    -2
286
     1
 66
     0
277
    -2
287
     1
 67
     0
278
    -2
288
     1
 68
     0
279
    -2
289
     1
 69
     0
  7
STANDARD
140
4.5
170
     5
 62
     0
 63
     7
283
     0
274
    -2
284
     1
 64
     0
275
    -2
285
     1
 65
     0
276
    -2
286
     1
 66
     0
277
    -2
287
     1
 67
     0
278
    -2
288
     1
 68
     0
279
    -2
289
     1
 69
     0
  0
VISUALSTYLE
  5
54F
102
{ACAD_REACTORS
330
549
102
}
330
549
100
AcDbVisualStyle
  2
2dWireframe
 70
     4
 71
     0
 72
     2
 73
     0
 90
        0
 40
-0.6
 41
-30.0
 62
     5
 63
     7
 74
     1
 91
        4
 64
     7
 65
   257
 75
     1
175
     1
 42
1.0
 92
        0
 66
   257
 43
1.0
 76
     1
 77
     6
 78
     2
 67
     7
 79
     5
170
     0
171
     0
290
     0
174
     0
 93
        1
 44
0.0
173
     0
291
     0
 45
0.0
1001
ACAD
1000
AcDbSavedByObjectVersion
1070
     0
  0
VISUALSTYLE
  5
551
102
{ACAD_REACTORS
330
549
102
}
330
549
100
AcDbVisualStyle
  2
3D Hidden
 70
     6
 71
     1
 72
     2
 73
     2
 90
        0
 40
-0.6
 41
-30.0
 62
     5
 63
     7
 74
     2
 91
        2
 64
     7
 65
   257
 75
     2
175
     1
 42
40.0
 92
        0
 66
   257
 43
1.0
 76
     1
 77
     6
 78
     2
 67
     7
 79
     3
170
     0
171
     0
290
     0
174
     0
 93
        1
 44
0.0
173
     0
291
     0
 45
0.0
1001
ACAD
1000
AcDbSavedByObjectVersion
1070
     0
  0
VISUALSTYLE
  5
550
102
{ACAD_REACTORS
330
549
102
}
330
549
100
AcDbVisualStyle
  2
3dWireframe
 70
     5
 71
     0
 72
     2
 73
     0
 90
        0
 40
-0.6
 41
-30.0
 62
     5
 63
     7
 74
     1
 91
        4
 64
     7
 65
   257
 75
     1
175
     1
 42
1.0
 92
        0
 66
   257
 43
1.0
 76
     1
 77
     6
 78
     2
 67
     7
 79
     5
170
     0
171
     0
290
     0
174
     0
 93
        1
 44
0.0
173
     0
291
     0
 45
0.0
1001
ACAD
1000
AcDbSavedByObjectVersion
1070
     0
  0
VISUALSTYLE
  5
54E
102
{ACAD_REACTORS
330
549
102
}
330
549
100
AcDbVisualStyle
  2
Basic
 70
     7
 71
     1
 72
     0
 73
     1
 90
        0
 40
-0.6
 41
-30.0
 62
     5
 63
     7
 74
     0
 91
        4
 64
     7
 65
   257
 75
     1
175
     1
 42
1.0
 92
        8
 66
     7
 43
1.0
 76
     1
 77
     6
 78
     2
 67
     7
 79
     5
170
     0
171
     0
290
     0
174
     0
 93
        1
 44
0.0
173
     0
291
     1
 45
0.0
1001
ACAD
1000
AcDbSavedByObjectVersion
1070
     0
  0
VISUALSTYLE
  5
555
102
{ACAD_REACTORS
330
549
102
}
330
549
100
AcDbVisualStyle
  2
Brighten
 70
    12
 71
     2
 72
     2
 73
     0
 90
        0
 40
-0.6
 41
-30.0
 62
     5
 63
     7
 74
     1
 91
        4
 64
     7
 65
   257
 75
     1
175
     1
 42
1.0
 92
        8
 66
     7
 43
1.0
 76
     1
 77
     6
 78
     2
 67
     7
 79
     5
170
     0
171
     0
290
     0
174
     0
 93
        1
 44
50.0
173
     0
291
     1
 45
0.0
1001
ACAD
1000
AcDbSavedByObjectVersion
1070
     0
  0
VISUALSTYLE
  5
559
102
{ACAD_REACTORS
330
549
102
}
330
549
100
AcDbVisualStyle
  2
ColorChange
 70
    16
 71
     2
 72
     2
 73
     3
 90
        0
 40
-0.6
 41
-30.0
 62
     5
 63
     8
 74
     1
 91
        4
 64
     7
 65
   257
 75
     1
175
     1
 42
1.0
 92
        8
 66
     8
 43
1.0
 76
     1
 77
     6
 78
     2
 67
     7
 79
     5
170
     0
171
     0
290
     0
174
     0
 93
        1
 44
0.0
173
     0
291
     1
 45
0.0
1001
ACAD
1000
AcDbSavedByObjectVersion
1070
     0
  0
VISUALSTYLE
  5
552
102
{ACAD_REACTORS
330
549
102
}
330
549
100
AcDbVisualStyle
  2
Conceptual
 70
     9
 71
     3
 72
     2
 73
     0
 90
        0
 40
-0.6
 41
-30.0
 62
     5
 63
     7
 74
     2
 91
        2
 64
     7
 65
   257
 75
     1
175
     1
 42
40.0
 92
        8
 66
     7
 43
1.0
 76
     1
 77
     6
 78
     2
 67
     7
 79
     3
170
     0
171
     0
290
     0
174
     0
 93
        1
 44
0.0
173
     0
291
     0
 45
0.0
1001
ACAD
1000
AcDbSavedByObjectVersion
1070
     0
  0
VISUALSTYLE
  5
554
102
{ACAD_REACTORS
330
549
102
}
330
549
100
AcDbVisualStyle
  2
Dim
 70
    11
 71
     2
 72
     2
 73
     0
 90
        0
 40
-0.6
 41
-30.0
 62
     5
 63
     7
 74
     1
 91
        4
 64
     7
 65
   257
 75
     1
175
     1
 42
1.0
 92
        8
 66
     7
 43
1.0
 76
     1
 77
     6
 78
     2
 67
     7
 79
     5
170
     0
171
     0
290
     0
174
     0
 93
        1
 44
-50.0
173
     0
291
     1
 45
0.0
1001
ACAD
1000
AcDbSavedByObjectVersion
1070
     0
  0
VISUALSTYLE
  5
558
102
{ACAD_REACTORS
330
549
102
}
330
549
100
AcDbVisualStyle
  2
Facepattern
 70
    15
 71
     2
 72
     2
 73
     0
 90
        0
 40
-0.6
 41
-30.0
 62
     5
 63
     7
 74
     1
 91
        4
 64
     7
 65
   257
 75
     1
175
     1
 42
1.0
 92
        8
 66
     7
 43
1.0
 76
     1
 77
     6
 78
     2
 67
     7
 79
     5
170
     0
171
     0
290
     0
174
     0
 93
        1
 44
0.0
173
     0
291
     1
 45
0.0
1001
ACAD
1000
AcDbSavedByObjectVersion
1070
     0
  0
VISUALSTYLE
  5
54A
102
{ACAD_REACTORS
330
549
102
}
330
549
100
AcDbVisualStyle
  2
Flat
 70
     0
 71
     2
 72
     1
 73
     1
 90
        2
 40
-0.6
 41
30.0
 62
     5
 63
     7
 74
     0
 91
        4
 64
     7
 65
   257
 75
     1
175
     1
 42
1.0
 92
        8
 66
     7
 43
1.0
 76
     1
 77
     6
 78
     2
 67
     7
 79
     5
170
     0
171
     0
290
     0
174
     0
 93
       13
 44
0.0
173
     0
291
     1
 45
0.0
1001
ACAD
1000
AcDbSavedByObjectVersion
1070
     0
  0
VISUALSTYLE
  5
54B
102
{ACAD_REACTORS
330
549
102
}
330
549
100
AcDbVisualStyle
  2
FlatWithEdges
 70
     1
 71
     2
 72
     1
 73
     1
 90
        2
 40
-0.6
 41
30.0
 62
     5
 63
     7
 74
     1
 91
        4
 64
     7
 65
   257
 75
     1
175
     1
 42
1.0
 92
        0
 66
   257
 43
1.0
 76
     1
 77
     6
 78
     2
 67
     7
 79
     5
170
     0
171
     0
290
     0
174
     0
 93
       13
 44
0.0
173
     0
291
     1
 45
0.0
1001
ACAD
1000
AcDbSavedByObjectVersion
1070
     0
  0
VISUALSTYLE
  5
54C
102
{ACAD_REACTORS
330
549
102
}
330
549
100
AcDbVisualStyle
  2
Gouraud
 70
     2
 71
     2
 72
     2
 73
     1
 90
        2
 40
-0.6
 41
30.0
 62
     5
 63
     7
 74
     0
 91
        4
 64
     7
 65
   257
 75
     1
175
     1
 42
1.0
 92
        0
 66
     7
 43
1.0
 76
     1
 77
     6
 78
     2
 67
     7
 79
     5
170
     0
171
     0
290
     0
174
     0
 93
       13
 44
0.0
173
     0
291
     1
 45
0.0
1001
ACAD
1000
AcDbSavedByObjectVersion
1070
     0
  0
VISUALSTYLE
  5
54D
102
{ACAD_REACTORS
330
549
102
}
330
549
100
AcDbVisualStyle
  2
GouraudWithEdges
 70
     3
 71
     2
 72
     2
 73
     1
 90
        2
 40
-0.6
 41
30.0
 62
     5
 63
     7
 74
     1
 91
        4
 64
     7
 65
   257
 75
     1
175
     1
 42
1.0
 92
        0
 66
   257
 43
1.0
 76
     1
 77
     6
 78
     2
 67
     7
 79
     5
170
     0
171
     0
290
     0
174
     0
 93
       13
 44
0.0
173
     0
291
     1
 45
0.0
1001
ACAD
1000
AcDbSavedByObjectVersion
1070
     0
  0
VISUALSTYLE
  5
557
102
{ACAD_REACTORS
330
549
102
}
330
549
100
AcDbVisualStyle
  2
Linepattern
 70
    14
 71
     2
 72
     2
 73
     0
 90
        0
 40
-0.6
 41
-30.0
 62
     5
 63
     7
 74
     1
 91
        4
 64
     7
 65
   257
 75
     7
175
     7
 42
1.0
 92
        8
 66
     7
 43
1.0
 76
     1
 77
     6
 78
     2
 67
     7
 79
     5
170
     0
171
     0
290
     0
174
     0
 93
        1
 44
0.0
173
     0
291
     1
 45
0.0
1001
ACAD
1000
AcDbSavedByObjectVersion
1070
     0
  0
VISUALSTYLE
  5
553
102
{ACAD_REACTORS
330
549
102
}
330
549
100
AcDbVisualStyle
  2
Realistic
 70
     8
 71
     2
 72
     2
 73
     0
 90
        0
 40
-0.6
 41
-30.0
 62
     5
 63
     7
 74
     1
 91
        0
 64
     7
 65
   257
 75
     1
175
     1
 42
1.0
 92
        8
 66
     8
 43
1.0
 76
     1
 77
     6
 78
     2
 67
     7
 79
     5
170
     0
171
     0
290
     0
174
     0
 93
       13
 44
0.0
173
     0
291
     0
 45
0.0
1001
ACAD
1000
AcDbSavedByObjectVersion
1070
     0
  0
VISUALSTYLE
  5
556
102
{ACAD_REACTORS
330
549
102
}
330
549
100
AcDbVisualStyle
  2
Thicken
 70
    13
 71
     2
 72
     2
 73
     0
 90
        0
 40
-0.6
 41
-30.0
 62
     5
 63
     7
 74
     1
 91
        4
 64
     7
 65
   257
 75
     1
175
     1
 42
1.0
 92
       12
 66
     7
 43
1.0
 76
     1
 77
     6
 78
     2
 67
     7
 79
     5
170
     0
171
     0
290
     0
174
     0
 93
        1
 44
0.0
173
     0
291
     1
 45
0.0
1001
ACAD
1000
AcDbSavedByObjectVersion
1070
     0
  0
DICTIONARYVAR
  5
5AB
102
{ACAD_REACTORS
330
51F
102
}
330
51F
100
DictionaryVariables
280
     0
  1
1:1
  0
DICTIONARYVAR
  5
5AA
102
{ACAD_REACTORS
330
51F
102
}
330
51F
100
DictionaryVariables
280
     0
  1
STANDARD
  0
DICTIONARYVAR
  5
5A9
102
{ACAD_REACTORS
330
51F
102
}
330
51F
100
DictionaryVariables
280
     0
  1
STANDARD
  0
DICTIONARYVAR
  5
520
102
{ACAD_REACTORS
330
51F
102
}
330
51F
100
DictionaryVariables
280
     0
  1
1
  0
DICTIONARYVAR
  5
5AD
102
{ACAD_REACTORS
330
51F
102
}
330
51F
100
DictionaryVariables
280
     0
  1
0
  0
DICTIONARYVAR
  5
521
102
{ACAD_REACTORS
330
51F
102
}
330
51F
100
DictionaryVariables
280
     0
  1

  0
DICTIONARYVAR
  5
5AC
102
{ACAD_REACTORS
330
51F
102
}
330
51F
100
DictionaryVariables
280
     0
  1
127
  0
DICTIONARY
  5
53A
330
539
100
AcDbDictionary
280
     1
281
     1
  3
ACAD_XREC_ROUNDTRIP
360
44AA
  3
BUMPTILE
360
53C
  3
DIFFUSETILE
360
53B
  3
OPACITYTILE
360
53F
  3
REFLECTIONTILE
360
53E
  3
REFRACTIONTILE
360
540
  3
SPECULARTILE
360
53D
  0
DICTIONARY
  5
532
330
531
100
AcDbDictionary
280
     1
281
     1
  3
ACAD_XREC_ROUNDTRIP
360
44A9
  3
BUMPTILE
360
534
  3
DIFFUSETILE
360
533
  3
OPACITYTILE
360
537
  3
REFLECTIONTILE
360
536
  3
REFRACTIONTILE
360
538
  3
SPECULARTILE
360
535
  0
DICTIONARY
  5
542
330
541
100
AcDbDictionary
280
     1
281
     1
  3
ACAD_XREC_ROUNDTRIP
360
44AB
  3
BUMPTILE
360
544
  3
DIFFUSETILE
360
543
  3
OPACITYTILE
360
547
  3
REFLECTIONTILE
360
546
  3
REFRACTIONTILE
360
548
  3
SPECULARTILE
360
545
  0
DICTIONARY
  5
594
330
55B
100
AcDbDictionary
280
     1
281
     1
  3
ACAD_ROUNDTRIP_2008_TABLESTYLE_CELLSTYLEMAP
360
44A8
  3
ACAD_XREC_ROUNDTRIP
360
44AC
  0
XRECORD
  5
44AA
102
{ACAD_REACTORS
330
53A
102
}
330
53A
100
AcDbXrecord
280
     1
102
MATERIAL
148
0.0
149
0.0
149
0.0
 93
        0
 94
      127
282
     0
 72
     0
 77
     0
171
     0
175
     0
179
     0
273
     0
  0
XRECORD
  5
53C
102
{ACAD_REACTORS
330
53A
102
}
330
53A
100
AcDbXrecord
280
     1
270
     1
271
     1
  0
XRECORD
  5
53B
102
{ACAD_REACTORS
330
53A
102
}
330
53A
100
AcDbXrecord
280
     1
270
     1
271
     1
  0
XRECORD
  5
53F
102
{ACAD_REACTORS
330
53A
102
}
330
53A
100
AcDbXrecord
280
     1
270
     1
271
     1
  0
XRECORD
  5
53E
102
{ACAD_REACTORS
330
53A
102
}
330
53A
100
AcDbXrecord
280
     1
270
     1
271
     1
  0
XRECORD
  5
540
102
{ACAD_REACTORS
330
53A
102
}
330
53A
100
AcDbXrecord
280
     1
270
     1
271
     1
  0
XRECORD
  5
53D
102
{ACAD_REACTORS
330
53A
102
}
330
53A
100
AcDbXrecord
280
     1
270
     1
271
     1
  0
XRECORD
  5
44A9
102
{ACAD_REACTORS
330
532
102
}
330
532
100
AcDbXrecord
280
     1
102
MATERIAL
148
0.0
149
0.0
149
0.0
 93
        0
 94
      127
282
     0
 72
     0
 77
     0
171
     0
175
     0
179
     0
273
     0
  0
XRECORD
  5
534
102
{ACAD_REACTORS
330
532
102
}
330
532
100
AcDbXrecord
280
     1
270
     1
271
     1
  0
XRECORD
  5
533
102
{ACAD_REACTORS
330
532
102
}
330
532
100
AcDbXrecord
280
     1
270
     1
271
     1
  0
XRECORD
  5
537
102
{ACAD_REACTORS
330
532
102
}
330
532
100
AcDbXrecord
280
     1
270
     1
271
     1
  0
XRECORD
  5
536
102
{ACAD_REACTORS
330
532
102
}
330
532
100
AcDbXrecord
280
     1
270
     1
271
     1
  0
XRECORD
  5
538
102
{ACAD_REACTORS
330
532
102
}
330
532
100
AcDbXrecord
280
     1
270
     1
271
     1
  0
XRECORD
  5
535
102
{ACAD_REACTORS
330
532
102
}
330
532
100
AcDbXrecord
280
     1
270
     1
271
     1
  0
XRECORD
  5
44AB
102
{ACAD_REACTORS
330
542
102
}
330
542
100
AcDbXrecord
280
     1
102
MATERIAL
148
0.0
149
0.0
149
0.0
 93
        0
 94
      127
282
     0
 72
     0
 77
     0
171
     0
175
     0
179
     0
273
     0
  0
XRECORD
  5
544
102
{ACAD_REACTORS
330
542
102
}
330
542
100
AcDbXrecord
280
     1
270
     1
271
     1
  0
XRECORD
  5
543
102
{ACAD_REACTORS
330
542
102
}
330
542
100
AcDbXrecord
280
     1
270
     1
271
     1
  0
XRECORD
  5
547
102
{ACAD_REACTORS
330
542
102
}
330
542
100
AcDbXrecord
280
     1
270
     1
271
     1
  0
XRECORD
  5
546
102
{ACAD_REACTORS
330
542
102
}
330
542
100
AcDbXrecord
280
     1
270
     1
271
     1
  0
XRECORD
  5
548
102
{ACAD_REACTORS
330
542
102
}
330
542
100
AcDbXrecord
280
     1
270
     1
271
     1
  0
XRECORD
  5
545
102
{ACAD_REACTORS
330
542
102
}
330
542
100
AcDbXrecord
280
     1
270
     1
271
     1
  0
CELLSTYLEMAP
  5
44A8
102
{ACAD_REACTORS
330
594
102
}
330
594
100
AcDbCellStyleMap
 90
        3
300
CELLSTYLE
  1
TABLEFORMAT_BEGIN
 90
        5
170
     1
 91
        0
 92
    32768
 62
   257
 93
        1
300
CONTENTFORMAT
  1
CONTENTFORMAT_BEGIN
 90
        0
 91
        0
 92
      512
 93
        0
300

 40
0.0
140
1.0
 94
        5
 62
     0
340
F
144
6.0
309
CONTENTFORMAT_END
171
     1
301
MARGIN
  1
CELLMARGIN_BEGIN
 40
1.5
 40
1.5
 40
1.5
 40
1.5
 40
4.5
 40
4.5
309
CELLMARGIN_END
 94
        6
 95
        1
302
GRIDFORMAT
  1
GRIDFORMAT_BEGIN
 90
        0
 91
        1
 62
     0
 92
       -2
340
0
 93
        0
 40
1.125
309
GRIDFORMAT_END
 95
        2
302
GRIDFORMAT
  1
GRIDFORMAT_BEGIN
 90
        0
 91
        1
 62
     0
 92
       -2
340
0
 93
        0
 40
1.125
309
GRIDFORMAT_END
 95
        4
302
GRIDFORMAT
  1
GRIDFORMAT_BEGIN
 90
        0
 91
        1
 62
     0
 92
       -2
340
0
 93
        0
 40
1.125
309
GRIDFORMAT_END
 95
        8
302
GRIDFORMAT
  1
GRIDFORMAT_BEGIN
 90
        0
 91
        1
 62
     0
 92
       -2
340
0
 93
        0
 40
1.125
309
GRIDFORMAT_END
 95
       16
302
GRIDFORMAT
  1
GRIDFORMAT_BEGIN
 90
        0
 91
        1
 62
     0
 92
       -2
340
0
 93
        0
 40
1.125
309
GRIDFORMAT_END
 95
       32
302
GRIDFORMAT
  1
GRIDFORMAT_BEGIN
 90
        0
 91
        1
 62
     0
 92
       -2
340
0
 93
        0
 40
1.125
309
GRIDFORMAT_END
309
TABLEFORMAT_END
  1
CELLSTYLE_BEGIN
 90
        1
 91
        1
300
_TITLE
309
CELLSTYLE_END
300
CELLSTYLE
  1
TABLEFORMAT_BEGIN
 90
        5
170
     1
 91
        0
 92
        0
 62
   257
 93
        1
300
CONTENTFORMAT
  1
CONTENTFORMAT_BEGIN
 90
        0
 91
        0
 92
      512
 93
        0
300

 40
0.0
140
1.0
 94
        5
 62
     0
340
F
144
4.5
309
CONTENTFORMAT_END
171
     1
301
MARGIN
  1
CELLMARGIN_BEGIN
 40
1.5
 40
1.5
 40
1.5
 40
1.5
 40
4.5
 40
4.5
309
CELLMARGIN_END
 94
        6
 95
        1
302
GRIDFORMAT
  1
GRIDFORMAT_BEGIN
 90
        0
 91
        1
 62
     0
 92
       -2
340
0
 93
        0
 40
1.125
309
GRIDFORMAT_END
 95
        2
302
GRIDFORMAT
  1
GRIDFORMAT_BEGIN
 90
        0
 91
        1
 62
     0
 92
       -2
340
0
 93
        0
 40
1.125
309
GRIDFORMAT_END
 95
        4
302
GRIDFORMAT
  1
GRIDFORMAT_BEGIN
 90
        0
 91
        1
 62
     0
 92
       -2
340
0
 93
        0
 40
1.125
309
GRIDFORMAT_END
 95
        8
302
GRIDFORMAT
  1
GRIDFORMAT_BEGIN
 90
        0
 91
        1
 62
     0
 92
       -2
340
0
 93
        0
 40
1.125
309
GRIDFORMAT_END
 95
       16
302
GRIDFORMAT
  1
GRIDFORMAT_BEGIN
 90
        0
 91
        1
 62
     0
 92
       -2
340
0
 93
        0
 40
1.125
309
GRIDFORMAT_END
 95
       32
302
GRIDFORMAT
  1
GRIDFORMAT_BEGIN
 90
        0
 91
        1
 62
     0
 92
       -2
340
0
 93
        0
 40
1.125
309
GRIDFORMAT_END
309
TABLEFORMAT_END
  1
CELLSTYLE_BEGIN
 90
        2
 91
        1
300
_HEADER
309
CELLSTYLE_END
300
CELLSTYLE
  1
TABLEFORMAT_BEGIN
 90
        5
170
     1
 91
        0
 92
        0
 62
   257
 93
        1
300
CONTENTFORMAT
  1
CONTENTFORMAT_BEGIN
 90
        0
 91
        0
 92
      512
 93
        0
300

 40
0.0
140
1.0
 94
        2
 62
     0
340
F
144
4.5
309
CONTENTFORMAT_END
171
     1
301
MARGIN
  1
CELLMARGIN_BEGIN
 40
1.5
 40
1.5
 40
1.5
 40
1.5
 40
4.5
 40
4.5
309
CELLMARGIN_END
 94
        6
 95
        1
302
GRIDFORMAT
  1
GRIDFORMAT_BEGIN
 90
        0
 91
        1
 62
     0
 92
       -2
340
0
 93
        0
 40
1.125
309
GRIDFORMAT_END
 95
        2
302
GRIDFORMAT
  1
GRIDFORMAT_BEGIN
 90
        0
 91
        1
 62
     0
 92
       -2
340
0
 93
        0
 40
1.125
309
GRIDFORMAT_END
 95
        4
302
GRIDFORMAT
  1
GRIDFORMAT_BEGIN
 90
        0
 91
        1
 62
     0
 92
       -2
340
0
 93
        0
 40
1.125
309
GRIDFORMAT_END
 95
        8
302
GRIDFORMAT
  1
GRIDFORMAT_BEGIN
 90
        0
 91
        1
 62
     0
 92
       -2
340
0
 93
        0
 40
1.125
309
GRIDFORMAT_END
 95
       16
302
GRIDFORMAT
  1
GRIDFORMAT_BEGIN
 90
        0
 91
        1
 62
     0
 92
       -2
340
0
 93
        0
 40
1.125
309
GRIDFORMAT_END
 95
       32
302
GRIDFORMAT
  1
GRIDFORMAT_BEGIN
 90
        0
 91
        1
 62
     0
 92
       -2
340
0
 93
        0
 40
1.125
309
GRIDFORMAT_END
309
TABLEFORMAT_END
  1
CELLSTYLE_BEGIN
 90
        3
 91
        2
300
_DATA
309
CELLSTYLE_END
  0
XRECORD
  5
44AC
102
{ACAD_REACTORS
330
594
102
}
330
594
100
AcDbXrecord
280
     1
102
ACAD_ROUNDTRIP_PRE2007_TABLESTYLE
 90
      512
 91
        0
  1

 92
      512
 93
        0
  2

 94
      512
 95
        0
  3

  0
ENDSEC
  0
EOF
