  0
SECTION
  2
HEADER
  9
$ACADVER
  1
AC1015
  9
$ACADMAINTVER
 70
    10
  9
$DWGCODEPAGE
  3
ANSI_932
  9
$INSBASE
 10
0.0
 20
0.0
 30
0.0
  9
$EXTMIN
 10
129.9740053213795
 20
108.3239569210307
 30
0.0
  9
$EXTMAX
 10
431.1982863213794
 20
265.3635578857252
 30
0.0
  9
$LIMMIN
 10
0.0
 20
0.0
  9
$LIMMAX
 10
420.0
 20
297.0
  9
$ORTHOMODE
 70
     0
  9
$REGENMODE
 70
     1
  9
$FILLMODE
 70
     1
  9
$QTEXTMODE
 70
     0
  9
$MIRRTEXT
 70
     1
  9
$LTSCALE
 40
1.0
  9
$ATTMODE
 70
     1
  9
$TEXTSIZE
 40
2.5
  9
$TRACEWID
 40
1.0
  9
$TEXTSTYLE
  7
Standard
  9
$CLAYER
  8
0
  9
$CELTYPE
  6
ByLayer
  9
$CECOLOR
 62
   256
  9
$CELTSCALE
 40
1.0
  9
$DISPSILH
 70
     0
  9
$DIMSCALE
 40
1.0
  9
$DIMASZ
 40
2.5
  9
$DIMEXO
 40
0.625
  9
$DIMDLI
 40
3.75
  9
$DIMRND
 40
0.0
  9
$DIMDLE
 40
0.0
  9
$DIMEXE
 40
1.25
  9
$DIMTP
 40
0.0
  9
$DIMTM
 40
0.0
  9
$DIMTXT
 40
2.5
  9
$DIMCEN
 40
2.5
  9
$DIMTSZ
 40
0.0
  9
$DIMTOL
 70
     0
  9
$DIMLIM
 70
     0
  9
$DIMTIH
 70
     0
  9
$DIMTOH
 70
     0
  9
$DIMSE1
 70
     0
  9
$DIMSE2
 70
     0
  9
$DIMTAD
 70
     1
  9
$DIMZIN
 70
     8
  9
$DIMBLK
  1

  9
$DIMASO
 70
     1
  9
$DIMSHO
 70
     1
  9
$DIMPOST
  1

  9
$DIMAPOST
  1

  9
$DIMALT
 70
     0
  9
$DIMALTD
 70
     3
  9
$DIMALTF
 40
0.03937007874016
  9
$DIMLFAC
 40
1.0
  9
$DIMTOFL
 70
     1
  9
$DIMTVP
 40
0.0
  9
$DIMTIX
 70
     0
  9
$DIMSOXD
 70
     0
  9
$DIMSAH
 70
     0
  9
$DIMBLK1
  1

  9
$DIMBLK2
  1

  9
$DIMSTYLE
  2
ISO-25
  9
$DIMCLRD
 70
     0
  9
$DIMCLRE
 70
     0
  9
$DIMCLRT
 70
     0
  9
$DIMTFAC
 40
1.0
  9
$DIMGAP
 40
0.625
  9
$DIMJUST
 70
     0
  9
$DIMSD1
 70
     0
  9
$DIMSD2
 70
     0
  9
$DIMTOLJ
 70
     0
  9
$DIMTZIN
 70
     8
  9
$DIMALTZ
 70
     0
  9
$DIMALTTZ
 70
     0
  9
$DIMUPT
 70
     0
  9
$DIMDEC
 70
     2
  9
$DIMTDEC
 70
     2
  9
$DIMALTU
 70
     2
  9
$DIMALTTD
 70
     3
  9
$DIMTXSTY
  7
Standard
  9
$DIMAUNIT
 70
     0
  9
$DIMADEC
 70
     0
  9
$DIMALTRND
 40
0.0
  9
$DIMAZIN
 70
     0
  9
$DIMDSEP
 70
    46
  9
$DIMATFIT
 70
     3
  9
$DIMFRAC
 70
     0
  9
$DIMLDRBLK
  1

  9
$DIMLUNIT
 70
     2
  9
$DIMLWD
 70
    -2
  9
$DIMLWE
 70
    -2
  9
$DIMTMOVE
 70
     0
  9
$LUNITS
 70
     2
  9
$LUPREC
 70
     4
  9
$SKETCHINC
 40
1.0
  9
$FILLETRAD
 40
10.0
  9
$AUNITS
 70
     0
  9
$AUPREC
 70
     0
  9
$MENU
  1
.
  9
$ELEVATION
 40
0.0
  9
$PELEVATION
 40
0.0
  9
$THICKNESS
 40
0.0
  9
$LIMCHECK
 70
     0
  9
$CHAMFERA
 40
10.0
  9
$CHAMFERB
 40
10.0
  9
$CHAMFERC
 40
20.0
  9
$CHAMFERD
 40
0.0
  9
$SKPOLY
 70
     0
  9
$TDCREATE
 40
2456482.773169733
  9
$TDUCREATE
 40
2456482.398169733
  9
$TDUPDATE
 40
2456486.481770868
  9
$TDUUPDATE
 40
2456486.106770868
  9
$TDINDWG
 40
0.0108948380
  9
$TDUSRTIMER
 40
0.0108948380
  9
$USRTIMER
 70
     1
  9
$ANGBASE
 50
0.0
  9
$ANGDIR
 70
     0
  9
$PDMODE
 70
     0
  9
$PDSIZE
 40
0.0
  9
$PLINEWID
 40
0.0
  9
$SPLFRAME
 70
     0
  9
$SPLINETYPE
 70
     6
  9
$SPLINESEGS
 70
     8
  9
$HANDSEED
  5
6D5
  9
$SURFTAB1
 70
     6
  9
$SURFTAB2
 70
     6
  9
$SURFTYPE
 70
     6
  9
$SURFU
 70
     6
  9
$SURFV
 70
     6
  9
$UCSBASE
  2

  9
$UCSNAME
  2

  9
$UCSORG
 10
0.0
 20
0.0
 30
0.0
  9
$UCSXDIR
 10
1.0
 20
0.0
 30
0.0
  9
$UCSYDIR
 10
0.0
 20
1.0
 30
0.0
  9
$UCSORTHOREF
  2

  9
$UCSORTHOVIEW
 70
     0
  9
$UCSORGTOP
 10
0.0
 20
0.0
 30
0.0
  9
$UCSORGBOTTOM
 10
0.0
 20
0.0
 30
0.0
  9
$UCSORGLEFT
 10
0.0
 20
0.0
 30
0.0
  9
$UCSORGRIGHT
 10
0.0
 20
0.0
 30
0.0
  9
$UCSORGFRONT
 10
0.0
 20
0.0
 30
0.0
  9
$UCSORGBACK
 10
0.0
 20
0.0
 30
0.0
  9
$PUCSBASE
  2

  9
$PUCSNAME
  2

  9
$PUCSORG
 10
0.0
 20
0.0
 30
0.0
  9
$PUCSXDIR
 10
1.0
 20
0.0
 30
0.0
  9
$PUCSYDIR
 10
0.0
 20
1.0
 30
0.0
  9
$PUCSORTHOREF
  2

  9
$PUCSORTHOVIEW
 70
     0
  9
$PUCSORGTOP
 10
0.0
 20
0.0
 30
0.0
  9
$PUCSORGBOTTOM
 10
0.0
 20
0.0
 30
0.0
  9
$PUCSORGLEFT
 10
0.0
 20
0.0
 30
0.0
  9
$PUCSORGRIGHT
 10
0.0
 20
0.0
 30
0.0
  9
$PUCSORGFRONT
 10
0.0
 20
0.0
 30
0.0
  9
$PUCSORGBACK
 10
0.0
 20
0.0
 30
0.0
  9
$USERI1
 70
     0
  9
$USERI2
 70
     0
  9
$USERI3
 70
     0
  9
$USERI4
 70
     0
  9
$USERI5
 70
     0
  9
$USERR1
 40
0.0
  9
$USERR2
 40
0.0
  9
$USERR3
 40
0.0
  9
$USERR4
 40
0.0
  9
$USERR5
 40
0.0
  9
$WORLDVIEW
 70
     1
  9
$SHADEDGE
 70
     3
  9
$SHADEDIF
 70
    70
  9
$TILEMODE
 70
     1
  9
$MAXACTVP
 70
    64
  9
$PINSBASE
 10
0.0
 20
0.0
 30
0.0
  9
$PLIMCHECK
 70
     0
  9
$PEXTMIN
 10
1.000000000000000E+20
 20
1.000000000000000E+20
 30
1.000000000000000E+20
  9
$PEXTMAX
 10
-1.000000000000000E+20
 20
-1.000000000000000E+20
 30
-1.000000000000000E+20
  9
$PLIMMIN
 10
0.0
 20
0.0
  9
$PLIMMAX
 10
420.0
 20
297.0
  9
$UNITMODE
 70
     0
  9
$VISRETAIN
 70
     1
  9
$PLINEGEN
 70
     0
  9
$PSLTSCALE
 70
     1
  9
$TREEDEPTH
 70
  3020
  9
$CMLSTYLE
  2
Standard
  9
$CMLJUST
 70
     0
  9
$CMLSCALE
 40
20.0
  9
$PROXYGRAPHICS
 70
     1
  9
$MEASUREMENT
 70
     1
  9
$CELWEIGHT
370
    -1
  9
$ENDCAPS
280
     0
  9
$JOINSTYLE
280
     0
  9
$LWDISPLAY
290
     0
  9
$INSUNITS
 70
     4
  9
$HYPERLINKBASE
  1

  9
$STYLESHEET
  1

  9
$XEDIT
290
     1
  9
$CEPSNTYPE
380
     0
  9
$PSTYLEMODE
290
     1
  9
$FINGERPRINTGUID
  2
{6DC279E8-7C54-4577-8452-1BC505909DAD}
  9
$VERSIONGUID
  2
{A9B79B6A-97B8-4CAD-81FE-13BC87F9FC8B}
  9
$EXTNAMES
290
     1
  9
$PSVPSCALE
 40
0.0
  9
$OLESTARTUP
290
     0
  0
ENDSEC
  0
SECTION
  2
CLASSES
  0
CLASS
  1
ACDBDICTIONARYWDFLT
  2
AcDbDictionaryWithDefault
  3
AutoCAD 2000
 90
        0
280
     0
281
     0
  0
CLASS
  1
ACDBPLACEHOLDER
  2
AcDbPlaceHolder
  3
AutoCAD 2000
 90
        0
280
     0
281
     0
  0
CLASS
  1
LAYOUT
  2
AcDbLayout
  3
AutoCAD 2000
 90
        0
280
     0
281
     0
  0
ENDSEC
  0
SECTION
  2
TABLES
  0
TABLE
  2
VPORT
  5
8
330
0
100
AcDbSymbolTable
 70
     2
  0
VPORT
  5
6D4
330
8
100
AcDbSymbolTableRecord
100
AcDbViewportTableRecord
  2
*Active
 70
     0
 10
0.0
 20
0.0
 11
1.0
 21
1.0
 12
281.658729729369
 22
197.3687792604202
 13
0.0
 23
0.0
 14
10.0
 24
10.0
 15
10.0
 25
10.0
 16
0.0
 26
0.0
 36
1.0
 17
0.0
 27
0.0
 37
0.0
 40
210.1689793134271
 41
1.781954887218045
 42
50.0
 43
0.0
 44
0.0
 50
0.0
 51
0.0
 71
     0
 72
   100
 73
     1
 74
     3
 75
     0
 76
     0
 77
     0
 78
     0
281
     0
 65
     1
110
0.0
120
0.0
130
0.0
111
1.0
121
0.0
131
0.0
112
0.0
122
1.0
132
0.0
 79
     0
146
0.0
  0
ENDTAB
  0
TABLE
  2
LTYPE
  5
5
330
0
100
AcDbSymbolTable
 70
     2
  0
LTYPE
  5
14
330
5
100
AcDbSymbolTableRecord
100
AcDbLinetypeTableRecord
  2
ByBlock
 70
     0
  3

 72
    65
 73
     0
 40
0.0
  0
LTYPE
  5
15
330
5
100
AcDbSymbolTableRecord
100
AcDbLinetypeTableRecord
  2
ByLayer
 70
     0
  3

 72
    65
 73
     0
 40
0.0
  0
LTYPE
  5
16
330
5
100
AcDbSymbolTableRecord
100
AcDbLinetypeTableRecord
  2
Continuous
 70
     0
  3
Solid line
 72
    65
 73
     0
 40
0.0
  0
LTYPE
  5
6A7
330
5
100
AcDbSymbolTableRecord
100
AcDbLinetypeTableRecord
  2
DASHED
 70
     0
  3
Dashed __ __ __ __ __ __ __ __ __ __ __ __ __ _
 72
    65
 73
     2
 40
19.04999999999998
 49
12.7
 74
     0
 49
-6.349999999999998
 74
     0
  0
ENDTAB
  0
TABLE
  2
LAYER
  5
2
330
0
100
AcDbSymbolTable
 70
     1
  0
LAYER
  5
10
330
2
100
AcDbSymbolTableRecord
100
AcDbLayerTableRecord
  2
0
 70
     0
 62
     7
  6
Continuous
370
    -3
390
F
  0
ENDTAB
  0
TABLE
  2
STYLE
  5
3
330
0
100
AcDbSymbolTable
 70
     3
  0
STYLE
  5
11
330
3
100
AcDbSymbolTableRecord
100
AcDbTextStyleTableRecord
  2
Standard
 70
     0
 40
0.0
 41
1.0
 50
0.0
 71
     0
 42
2.5
  3
txt
  4

  0
STYLE
  5
31
330
3
100
AcDbSymbolTableRecord
100
AcDbTextStyleTableRecord
  2
_TCW_TXTSTY_1
 70
     0
 40
0.0
 41
1.0
 50
0.0
 71
     0
 42
1.6
  3
MS Gothic.ttf
  4

1001
ACAD
1000
ＭＳ ゴシック
1071
    32802
  0
STYLE
  5
6A6
330
3
100
AcDbSymbolTableRecord
100
AcDbTextStyleTableRecord
  2

 70
     1
 40
0.0
 41
1.0
 50
0.0
 71
     0
 42
2.5
  3
ltypeshp.shx
  4

  0
ENDTAB
  0
TABLE
  2
VIEW
  5
6
330
0
100
AcDbSymbolTable
 70
     0
  0
ENDTAB
  0
TABLE
  2
UCS
  5
7
330
0
100
AcDbSymbolTable
 70
     0
  0
ENDTAB
  0
TABLE
  2
APPID
  5
9
330
0
100
AcDbSymbolTable
 70
     2
  0
APPID
  5
12
330
9
100
AcDbSymbolTableRecord
100
AcDbRegAppTableRecord
  2
ACAD
 70
     0
  0
APPID
  5
33
330
9
100
AcDbSymbolTableRecord
100
AcDbRegAppTableRecord
  2
TCAD
 70
     0
  0
ENDTAB
  0
TABLE
  2
DIMSTYLE
  5
A
330
0
100
AcDbSymbolTable
 70
     2
100
AcDbDimStyleTable
 71
     1
340
27
  0
DIMSTYLE
105
27
330
A
100
AcDbSymbolTableRecord
100
AcDbDimStyleTableRecord
  2
ISO-25
 70
     0
 41
2.5
 42
0.625
 43
3.75
 44
1.25
 73
     0
 74
     0
 77
     1
 78
     8
140
2.5
141
2.5
143
0.03937007874016
147
0.625
171
     3
172
     1
271
     2
272
     2
274
     3
283
     0
284
     8
340
11
  0
DIMSTYLE
105
32
330
A
100
AcDbSymbolTableRecord
100
AcDbDimStyleTableRecord
  2
STANDARD
 70
     0
 41
3.0
 42
0.5
 43
5.5
 44
1.0
 45
0.01
 73
     0
 74
     0
 77
     1
 78
     8
140
2.75
143
1.0
147
1.0
148
0.01
172
     1
176
     7
177
     7
178
     7
179
     4
340
11
341
2B
342
2B
  0
ENDTAB
  0
TABLE
  2
BLOCK_RECORD
  5
1
330
0
100
AcDbSymbolTable
 70
     2
  0
BLOCK_RECORD
  5
1F
330
1
100
AcDbSymbolTableRecord
100
AcDbBlockTableRecord
  2
*Model_Space
340
22
  0
BLOCK_RECORD
  5
1B
330
1
100
AcDbSymbolTableRecord
100
AcDbBlockTableRecord
  2
*Paper_Space
340
1E
  0
BLOCK_RECORD
  5
23
330
1
100
AcDbSymbolTableRecord
100
AcDbBlockTableRecord
  2
*Paper_Space0
340
26
  0
BLOCK_RECORD
  5
2B
330
1
100
AcDbSymbolTableRecord
100
AcDbBlockTableRecord
  2
_OPEN
340
0
  0
ENDTAB
  0
ENDSEC
  0
SECTION
  2
BLOCKS
  0
BLOCK
  5
20
330
1F
100
AcDbEntity
  8
0
100
AcDbBlockBegin
  2
*Model_Space
 70
     0
 10
0.0
 20
0.0
 30
0.0
  3
*Model_Space
  1

  0
ENDBLK
  5
21
330
1F
100
AcDbEntity
  8
0
100
AcDbBlockEnd
  0
BLOCK
  5
1C
330
1B
100
AcDbEntity
 67
     1
  8
0
100
AcDbBlockBegin
  2
*Paper_Space
 70
     0
 10
0.0
 20
0.0
 30
0.0
  3
*Paper_Space
  1

  0
ENDBLK
  5
1D
330
1B
100
AcDbEntity
 67
     1
  8
0
100
AcDbBlockEnd
  0
BLOCK
  5
24
330
23
100
AcDbEntity
  8
0
100
AcDbBlockBegin
  2
*Paper_Space0
 70
     0
 10
0.0
 20
0.0
 30
0.0
  3
*Paper_Space0
  1

  0
ENDBLK
  5
25
330
23
100
AcDbEntity
  8
0
100
AcDbBlockEnd
  0
BLOCK
  5
2F
330
2B
100
AcDbEntity
  8
0
100
AcDbBlockBegin
  2
_OPEN
 70
     0
 10
0.0
 20
0.0
 30
0.0
  3
_OPEN
  1

  0
LINE
  5
2C
330
2B
100
AcDbEntity
  8
0
  6
ByBlock
 62
     0
100
AcDbLine
 10
-1.0
 20
0.166667
 30
0.0
 11
0.0
 21
0.0
 31
0.0
  0
LINE
  5
2D
330
2B
100
AcDbEntity
  8
0
  6
ByBlock
 62
     0
100
AcDbLine
 10
0.0
 20
0.0
 30
0.0
 11
-1.0
 21
-0.166667
 31
0.0
  0
LINE
  5
2E
330
2B
100
AcDbEntity
  8
0
  6
ByBlock
 62
     0
100
AcDbLine
 10
0.0
 20
0.0
 30
0.0
 11
-1.0
 21
0.0
 31
0.0
  0
ENDBLK
  5
30
330
2B
100
AcDbEntity
  8
0
100
AcDbBlockEnd
  0
ENDSEC
  0
SECTION
  2
ENTITIES
  0
LINE
  5
36F
330
1F
100
AcDbEntity
  8
0
  6
Continuous
 62
     7
100
AcDbLine
 10
234.8823083213794
 20
255.3213000423262
 30
0.0
 11
308.4823083213795
 21
255.3213000423262
 31
0.0
  0
LINE
  5
370
330
1F
100
AcDbEntity
  8
0
  6
Continuous
 62
     7
100
AcDbLine
 10
308.4823083213795
 20
210.7213000423262
 30
0.0
 11
234.8823083213794
 21
210.7213000423262
 31
0.0
  0
LINE
  5
371
330
1F
100
AcDbEntity
  8
0
  6
Continuous
 62
     7
100
AcDbLine
 10
234.8823083213794
 20
110.2310600423263
 30
0.0
 11
308.4823083213795
 21
110.2310600423263
 31
0.0
  0
LINE
  5
372
330
1F
100
AcDbEntity
  8
0
  6
Continuous
 62
     7
100
AcDbLine
 10
308.4823083213795
 20
154.8310600423261
 30
0.0
 11
234.8823083213794
 21
154.8310600423261
 31
0.0
  0
LINE
  5
373
330
1F
100
AcDbEntity
  8
0
  6
Continuous
 62
     7
100
AcDbLine
 10
282.3823083213796
 20
134.0311170423262
 30
0.0
 11
294.3823083213796
 21
134.0311170423262
 31
0.0
  0
LINE
  5
374
330
1F
100
AcDbEntity
  8
0
  6
Continuous
 62
     7
100
AcDbLine
 10
294.3823083213796
 20
144.0311170423263
 30
0.0
 11
282.3823083213796
 21
144.0311170423263
 31
0.0
  0
LINE
  5
375
330
1F
100
AcDbEntity
  8
0
  6
Continuous
 62
     7
100
AcDbLine
 10
282.3823083213796
 20
135.4310600423262
 30
0.0
 11
294.3823083213796
 21
135.4310600423262
 31
0.0
  0
LINE
  5
376
330
1F
100
AcDbEntity
  8
0
  6
Continuous
 62
     7
100
AcDbLine
 10
282.3823083213796
 20
137.0310600423262
 30
0.0
 11
294.3823083213796
 21
137.0310600423262
 31
0.0
  0
LINE
  5
377
330
1F
100
AcDbEntity
  8
0
  6
Continuous
 62
     7
100
AcDbLine
 10
283.3823083213793
 20
143.031060042326
 30
0.0
 11
293.3823083213795
 21
143.031060042326
 31
0.0
  0
LINE
  5
378
330
1F
100
AcDbEntity
  8
0
  6
Continuous
 62
     7
100
AcDbLine
 10
283.3823083213793
 20
142.231060042326
 30
0.0
 11
293.3823083213795
 21
142.231060042326
 31
0.0
  0
LINE
  5
379
330
1F
100
AcDbEntity
  8
0
  6
Continuous
 62
     7
100
AcDbLine
 10
284.1823083213796
 20
137.231060042326
 30
0.0
 11
292.5823083213796
 21
137.231060042326
 31
0.0
  0
LINE
  5
37A
330
1F
100
AcDbEntity
  8
0
  6
Continuous
 62
     7
100
AcDbLine
 10
284.1823083213796
 20
137.8310600423262
 30
0.0
 11
292.5823083213796
 21
137.8310600423262
 31
0.0
  0
LINE
  5
37B
330
1F
100
AcDbEntity
  8
0
  6
Continuous
 62
     7
100
AcDbLine
 10
234.8823083213794
 20
156.5310600423263
 30
0.0
 11
230.8823083213794
 21
156.5310600423263
 31
0.0
  0
LINE
  5
37C
330
1F
100
AcDbEntity
  8
0
  6
Continuous
 62
     7
100
AcDbLine
 10
230.8823083213794
 20
108.5310600423263
 30
0.0
 11
234.8823083213794
 21
108.5310600423263
 31
0.0
  0
LINE
  5
37D
330
1F
100
AcDbEntity
  8
0
  6
Continuous
 62
     7
100
AcDbLine
 10
230.8823083213794
 20
156.5310600423263
 30
0.0
 11
230.8823083213794
 21
108.5310600423263
 31
0.0
  0
LINE
  5
37E
330
1F
100
AcDbEntity
  8
0
  6
Continuous
 62
     7
100
AcDbLine
 10
227.8823083213795
 20
109.5310600423263
 30
0.0
 11
227.8823083213795
 21
155.5310600423263
 31
0.0
  0
LINE
  5
37F
330
1F
100
AcDbEntity
  8
0
  6
Continuous
 62
     7
100
AcDbLine
 10
227.8823083213795
 20
109.5310600423263
 30
0.0
 11
227.8823083213795
 21
155.5310600423263
 31
0.0
  0
LINE
  5
380
330
1F
100
AcDbEntity
  8
0
  6
Continuous
 62
     7
100
AcDbLine
 10
229.8823083213795
 20
141.131060042326
 30
0.0
 11
229.8823083213795
 21
123.9310600423262
 31
0.0
  0
ARC
  5
382
330
1F
100
AcDbEntity
  8
0
  6
Continuous
 62
     7
100
AcDbCircle
 10
228.8823365961688
 20
109.5310873171154
 30
0.0
 40
1.000031275188939
100
AcDbArc
 50
180.0016199754239
 51
269.998380024571
  0
ARC
  5
383
330
1F
100
AcDbEntity
  8
0
  6
Continuous
 62
     7
100
AcDbCircle
 10
228.8823365961688
 20
109.5310873171154
 30
0.0
 40
1.000031275188939
100
AcDbArc
 50
180.0016199754239
 51
269.998380024571
  0
LINE
  5
384
330
1F
100
AcDbEntity
  8
0
  6
Continuous
 62
     7
100
AcDbLine
 10
230.8823083213794
 20
108.5310600423263
 30
0.0
 11
228.8823083213795
 21
108.5310600423263
 31
0.0
  0
LINE
  5
385
330
1F
100
AcDbEntity
  8
0
  6
Continuous
 62
     7
100
AcDbLine
 10
230.8823083213794
 20
108.5310600423263
 30
0.0
 11
228.8823083213795
 21
108.5310600423263
 31
0.0
  0
LINE
  5
386
330
1F
100
AcDbEntity
  8
0
  6
Continuous
 62
     7
100
AcDbLine
 10
229.8823083213795
 20
123.9310600423262
 30
0.0
 11
230.8823083213794
 21
123.9310600423262
 31
0.0
  0
LINE
  5
388
330
1F
100
AcDbEntity
  8
0
  6
Continuous
 62
     7
100
AcDbLine
 10
229.8823083213795
 20
124.5310600423262
 30
0.0
 11
230.8823083213794
 21
124.5310600423262
 31
0.0
  0
LINE
  5
389
330
1F
100
AcDbEntity
  8
0
  6
Continuous
 62
     7
100
AcDbLine
 10
230.8823083213794
 20
140.5310600423262
 30
0.0
 11
229.8823083213795
 21
140.5310600423262
 31
0.0
  0
LINE
  5
38A
330
1F
100
AcDbEntity
  8
0
  6
Continuous
 62
     7
100
AcDbLine
 10
230.8823083213794
 20
141.131060042326
 30
0.0
 11
229.8823083213795
 21
141.131060042326
 31
0.0
  0
ARC
  5
38B
330
1F
100
AcDbEntity
  8
0
  6
Continuous
 62
     7
100
AcDbCircle
 10
228.8823075743043
 20
155.5310607894014
 30
0.0
 40
0.9999992529251022
100
AcDbArc
 50
89.9999571957128
 51
180.0000428042863
  0
ARC
  5
38C
330
1F
100
AcDbEntity
  8
0
  6
Continuous
 62
     7
100
AcDbCircle
 10
228.8823075743043
 20
155.5310607894014
 30
0.0
 40
0.9999992529251022
100
AcDbArc
 50
89.9999571957128
 51
180.0000428042863
  0
LINE
  5
38D
330
1F
100
AcDbEntity
  8
0
  6
Continuous
 62
     7
100
AcDbLine
 10
228.8823083213795
 20
156.5310600423263
 30
0.0
 11
230.8823083213794
 21
156.5310600423263
 31
0.0
  0
LINE
  5
38E
330
1F
100
AcDbEntity
  8
0
  6
Continuous
 62
     7
100
AcDbLine
 10
228.8823083213795
 20
156.5310600423263
 30
0.0
 11
230.8823083213794
 21
156.5310600423263
 31
0.0
  0
LINE
  5
38F
330
1F
100
AcDbEntity
  8
0
  6
Continuous
 62
     7
100
AcDbLine
 10
248.1823083213796
 20
124.4310600423262
 30
0.0
 11
248.1823083213796
 21
126.2310600423262
 31
0.0
  0
LINE
  5
390
330
1F
100
AcDbEntity
  8
0
  6
Continuous
 62
     7
100
AcDbLine
 10
271.3823083213794
 20
126.2310600423262
 30
0.0
 11
271.3823083213794
 21
124.4310600423262
 31
0.0
  0
LINE
  5
391
330
1F
100
AcDbEntity
  8
0
  6
Continuous
 62
     7
100
AcDbLine
 10
259.7823083213795
 20
124.4310600423262
 30
0.0
 11
259.7823083213795
 21
126.2310600423262
 31
0.0
  0
LINE
  5
392
330
1F
100
AcDbEntity
  8
0
  6
Continuous
 62
     7
100
AcDbLine
 10
261.9823083213796
 20
126.2310600423262
 30
0.0
 11
261.9823083213796
 21
124.4310600423262
 31
0.0
  0
LINE
  5
393
330
1F
100
AcDbEntity
  8
0
  6
Continuous
 62
     7
100
AcDbLine
 10
250.3823083213795
 20
126.2310600423262
 30
0.0
 11
250.3823083213795
 21
124.4310600423262
 31
0.0
  0
LINE
  5
394
330
1F
100
AcDbEntity
  8
0
  6
Continuous
 62
     7
100
AcDbLine
 10
234.8823083213794
 20
108.5310600423263
 30
0.0
 11
234.8823083213794
 21
156.5310600423263
 31
0.0
  0
LINE
  5
395
330
1F
100
AcDbEntity
  8
0
  6
Continuous
 62
     7
100
AcDbLine
 10
271.3823083213794
 20
124.4310600423262
 30
0.0
 11
248.1823083213796
 21
124.4310600423262
 31
0.0
  0
LINE
  5
396
330
1F
100
AcDbEntity
  8
0
  6
Continuous
 62
     7
100
AcDbLine
 10
248.1823083213796
 20
119.0310600423263
 30
0.0
 11
271.3823083213794
 21
119.0310600423263
 31
0.0
  0
LINE
  5
397
330
1F
100
AcDbEntity
  8
0
  6
Continuous
 62
     7
100
AcDbLine
 10
271.3823083213794
 20
117.0310600423263
 30
0.0
 11
248.1823083213796
 21
117.0310600423263
 31
0.0
  0
LINE
  5
398
330
1F
100
AcDbEntity
  8
0
  6
Continuous
 62
     7
100
AcDbLine
 10
248.1823083213796
 20
114.9310600423262
 30
0.0
 11
285.1823083213796
 21
114.9310600423262
 31
0.0
  0
LINE
  5
399
330
1F
100
AcDbEntity
  8
0
  6
Continuous
 62
     7
100
AcDbLine
 10
285.1823083213796
 20
112.8310600423263
 30
0.0
 11
248.1823083213796
 21
112.8310600423263
 31
0.0
  0
LINE
  5
39A
330
1F
100
AcDbEntity
  8
0
  6
Continuous
 62
     7
100
AcDbLine
 10
280.1823083213795
 20
122.6310600423262
 30
0.0
 11
248.1823083213796
 21
122.6310600423262
 31
0.0
  0
LINE
  5
39B
330
1F
100
AcDbEntity
  8
0
  6
Continuous
 62
     7
100
AcDbLine
 10
273.7823083213795
 20
120.8310600423263
 30
0.0
 11
248.1823083213796
 21
120.8310600423263
 31
0.0
  0
LINE
  5
39D
330
1F
100
AcDbEntity
  8
0
  6
Continuous
 62
     7
100
AcDbLine
 10
248.1823083213796
 20
112.8310600423263
 30
0.0
 11
248.1823083213796
 21
114.9310600423262
 31
0.0
  0
LINE
  5
39E
330
1F
100
AcDbEntity
  8
0
  6
Continuous
 62
     7
100
AcDbLine
 10
259.7823083213795
 20
112.8310600423263
 30
0.0
 11
259.7823083213795
 21
114.9310600423262
 31
0.0
  0
LINE
  5
39F
330
1F
100
AcDbEntity
  8
0
  6
Continuous
 62
     7
100
AcDbLine
 10
250.3823083213795
 20
114.9310600423262
 30
0.0
 11
250.3823083213795
 21
112.8310600423263
 31
0.0
  0
LINE
  5
3A0
330
1F
100
AcDbEntity
  8
0
  6
Continuous
 62
     7
100
AcDbLine
 10
248.1823083213796
 20
117.0310600423263
 30
0.0
 11
248.1823083213796
 21
119.0310600423263
 31
0.0
  0
LINE
  5
3A1
330
1F
100
AcDbEntity
  8
0
  6
Continuous
 62
     7
100
AcDbLine
 10
250.3823083213795
 20
119.0310600423263
 30
0.0
 11
250.3823083213795
 21
117.0310600423263
 31
0.0
  0
LINE
  5
3A2
330
1F
100
AcDbEntity
  8
0
  6
Continuous
 62
     7
100
AcDbLine
 10
248.1823083213796
 20
120.8310600423263
 30
0.0
 11
248.1823083213796
 21
122.6310600423262
 31
0.0
  0
LINE
  5
3A3
330
1F
100
AcDbEntity
  8
0
  6
Continuous
 62
     7
100
AcDbLine
 10
250.3823083213795
 20
122.6310600423262
 30
0.0
 11
250.3823083213795
 21
120.8310600423263
 31
0.0
  0
LINE
  5
3A4
330
1F
100
AcDbEntity
  8
0
  6
Continuous
 62
     7
100
AcDbLine
 10
259.7823083213795
 20
120.8310600423263
 30
0.0
 11
259.7823083213795
 21
122.6310600423262
 31
0.0
  0
LINE
  5
3A5
330
1F
100
AcDbEntity
  8
0
  6
Continuous
 62
     7
100
AcDbLine
 10
280.1823083213795
 20
119.0310600423263
 30
0.0
 11
273.7823083213795
 21
119.0310600423263
 31
0.0
  0
LINE
  5
3A6
330
1F
100
AcDbEntity
  8
0
  6
Continuous
 62
     7
100
AcDbLine
 10
261.9823083213796
 20
114.9310600423262
 30
0.0
 11
261.9823083213796
 21
112.8310600423263
 31
0.0
  0
LINE
  5
3A7
330
1F
100
AcDbEntity
  8
0
  6
Continuous
 62
     7
100
AcDbLine
 10
273.5823083213795
 20
114.9310600423262
 30
0.0
 11
273.5823083213795
 21
112.8310600423263
 31
0.0
  0
LINE
  5
3A8
330
1F
100
AcDbEntity
  8
0
  6
Continuous
 62
     7
100
AcDbLine
 10
271.3823083213794
 20
112.8310600423263
 30
0.0
 11
271.3823083213794
 21
114.9310600423262
 31
0.0
  0
LINE
  5
3A9
330
1F
100
AcDbEntity
  8
0
  6
Continuous
 62
     7
100
AcDbLine
 10
261.9823083213796
 20
122.6310600423262
 30
0.0
 11
261.9823083213796
 21
120.8310600423263
 31
0.0
  0
LINE
  5
3AA
330
1F
100
AcDbEntity
  8
0
  6
Continuous
 62
     7
100
AcDbLine
 10
273.7823083213795
 20
120.8310600423263
 30
0.0
 11
273.7823083213795
 21
119.0310600423263
 31
0.0
  0
LINE
  5
3AB
330
1F
100
AcDbEntity
  8
0
  6
Continuous
 62
     7
100
AcDbLine
 10
271.3823083213794
 20
119.0310600423263
 30
0.0
 11
271.3823083213794
 21
117.0310600423263
 31
0.0
  0
LINE
  5
3AC
330
1F
100
AcDbEntity
  8
0
  6
Continuous
 62
     7
100
AcDbLine
 10
285.1823083213796
 20
114.9310600423262
 30
0.0
 11
285.1823083213796
 21
112.8310600423263
 31
0.0
  0
LINE
  5
3AD
330
1F
100
AcDbEntity
  8
0
  6
Continuous
 62
     7
100
AcDbLine
 10
282.9823083213796
 20
114.9310600423262
 30
0.0
 11
282.9823083213796
 21
112.8310600423263
 31
0.0
  0
LINE
  5
3AE
330
1F
100
AcDbEntity
  8
0
  6
Continuous
 62
     7
100
AcDbLine
 10
280.1823083213795
 20
122.6310600423262
 30
0.0
 11
280.1823083213795
 21
119.0310600423263
 31
0.0
  0
LINE
  5
3AF
330
1F
100
AcDbEntity
  8
0
  6
Continuous
 62
     7
100
AcDbLine
 10
248.1823083213796
 20
152.2310600423263
 30
0.0
 11
285.1823083213796
 21
152.2310600423263
 31
0.0
  0
LINE
  5
3B0
330
1F
100
AcDbEntity
  8
0
  6
Continuous
 62
     7
100
AcDbLine
 10
285.1823083213796
 20
150.1310600423263
 30
0.0
 11
248.1823083213796
 21
150.1310600423263
 31
0.0
  0
LINE
  5
3B1
330
1F
100
AcDbEntity
  8
0
  6
Continuous
 62
     7
100
AcDbLine
 10
248.1823083213796
 20
148.0310600423263
 30
0.0
 11
271.3823083213794
 21
148.0310600423263
 31
0.0
  0
LINE
  5
3B2
330
1F
100
AcDbEntity
  8
0
  6
Continuous
 62
     7
100
AcDbLine
 10
271.3823083213794
 20
146.0310600423263
 30
0.0
 11
248.1823083213796
 21
146.0310600423263
 31
0.0
  0
LINE
  5
3B3
330
1F
100
AcDbEntity
  8
0
  6
Continuous
 62
     7
100
AcDbLine
 10
248.1823083213796
 20
140.6310600423261
 30
0.0
 11
271.3823083213794
 21
140.6310600423261
 31
0.0
  0
LINE
  5
3B4
330
1F
100
AcDbEntity
  8
0
  6
Continuous
 62
     7
100
AcDbLine
 10
271.3823083213794
 20
138.8310600423262
 30
0.0
 11
248.1823083213796
 21
138.8310600423262
 31
0.0
  0
LINE
  5
3B5
330
1F
100
AcDbEntity
  8
0
  6
Continuous
 62
     7
100
AcDbLine
 10
248.1823083213796
 20
137.0310600423262
 30
0.0
 11
271.3823083213794
 21
137.0310600423262
 31
0.0
  0
LINE
  5
3B6
330
1F
100
AcDbEntity
  8
0
  6
Continuous
 62
     7
100
AcDbLine
 10
271.3823083213794
 20
135.231060042326
 30
0.0
 11
248.1823083213796
 21
135.231060042326
 31
0.0
  0
LINE
  5
3B7
330
1F
100
AcDbEntity
  8
0
  6
Continuous
 62
     7
100
AcDbLine
 10
271.3823083213794
 20
131.6310600423262
 30
0.0
 11
248.1823083213796
 21
131.6310600423262
 31
0.0
  0
LINE
  5
3B8
330
1F
100
AcDbEntity
  8
0
  6
Continuous
 62
     7
100
AcDbLine
 10
248.1823083213796
 20
133.4310600423262
 30
0.0
 11
271.3823083213794
 21
133.4310600423262
 31
0.0
  0
LINE
  5
3B9
330
1F
100
AcDbEntity
  8
0
  6
Continuous
 62
     7
100
AcDbLine
 10
271.3823083213794
 20
128.0310600423262
 30
0.0
 11
248.1823083213796
 21
128.0310600423262
 31
0.0
  0
LINE
  5
3BA
330
1F
100
AcDbEntity
  8
0
  6
Continuous
 62
     7
100
AcDbLine
 10
248.1823083213796
 20
129.8310600423259
 30
0.0
 11
271.3823083213794
 21
129.8310600423259
 31
0.0
  0
LINE
  5
3BB
330
1F
100
AcDbEntity
  8
0
  6
Continuous
 62
     7
100
AcDbLine
 10
248.1823083213796
 20
126.2310600423262
 30
0.0
 11
271.3823083213794
 21
126.2310600423262
 31
0.0
  0
LINE
  5
3BC
330
1F
100
AcDbEntity
  8
0
  6
Continuous
 62
     7
100
AcDbLine
 10
273.7823083213795
 20
144.2310600423263
 30
0.0
 11
248.1823083213796
 21
144.2310600423263
 31
0.0
  0
LINE
  5
3BD
330
1F
100
AcDbEntity
  8
0
  6
Continuous
 62
     7
100
AcDbLine
 10
248.1823083213796
 20
142.4310600423261
 30
0.0
 11
280.1823083213795
 21
142.4310600423261
 31
0.0
  0
LINE
  5
3BE
330
1F
100
AcDbEntity
  8
0
  6
Continuous
 62
     7
100
AcDbLine
 10
232.6823083213795
 20
130.0310600423262
 30
0.0
 11
232.6823083213795
 21
126.0310600423263
 31
0.0
  0
LINE
  5
3BF
330
1F
100
AcDbEntity
  8
0
  6
Continuous
 62
     7
100
AcDbLine
 10
233.8823083213793
 20
126.0310600423263
 30
0.0
 11
233.8823083213793
 21
130.0310600423262
 31
0.0
  0
LINE
  5
3C0
330
1F
100
AcDbEntity
  8
0
  6
Continuous
 62
     7
100
AcDbLine
 10
232.6823083213795
 20
126.0310600423263
 30
0.0
 11
233.8823083213793
 21
126.0310600423263
 31
0.0
  0
LINE
  5
3C1
330
1F
100
AcDbEntity
  8
0
  6
Continuous
 62
     7
100
AcDbLine
 10
233.8823083213793
 20
130.0310600423262
 30
0.0
 11
232.6823083213795
 21
130.0310600423262
 31
0.0
  0
LINE
  5
3C2
330
1F
100
AcDbEntity
  8
0
  6
Continuous
 62
     7
100
AcDbLine
 10
232.6823083213795
 20
135.0310600423262
 30
0.0
 11
233.8823083213793
 21
135.0310600423262
 31
0.0
  0
LINE
  5
3C3
330
1F
100
AcDbEntity
  8
0
  6
Continuous
 62
     7
100
AcDbLine
 10
233.8823083213793
 20
135.0310600423262
 30
0.0
 11
233.8823083213793
 21
139.0310600423262
 31
0.0
  0
LINE
  5
3C4
330
1F
100
AcDbEntity
  8
0
  6
Continuous
 62
     7
100
AcDbLine
 10
233.8823083213793
 20
139.0310600423262
 30
0.0
 11
232.6823083213795
 21
139.0310600423262
 31
0.0
  0
LINE
  5
3C5
330
1F
100
AcDbEntity
  8
0
  6
Continuous
 62
     7
100
AcDbLine
 10
232.6823083213795
 20
139.0310600423262
 30
0.0
 11
232.6823083213795
 21
135.0310600423262
 31
0.0
  0
LINE
  5
3C6
330
1F
100
AcDbEntity
  8
0
  6
Continuous
 62
     7
100
AcDbLine
 10
248.1823083213796
 20
128.0310600423262
 30
0.0
 11
248.1823083213796
 21
129.8310600423259
 31
0.0
  0
LINE
  5
3C7
330
1F
100
AcDbEntity
  8
0
  6
Continuous
 62
     7
100
AcDbLine
 10
250.3823083213795
 20
129.8310600423259
 30
0.0
 11
250.3823083213795
 21
128.0310600423262
 31
0.0
  0
LINE
  5
3C8
330
1F
100
AcDbEntity
  8
0
  6
Continuous
 62
     7
100
AcDbLine
 10
248.1823083213796
 20
131.6310600423262
 30
0.0
 11
248.1823083213796
 21
133.4310600423262
 31
0.0
  0
LINE
  5
3C9
330
1F
100
AcDbEntity
  8
0
  6
Continuous
 62
     7
100
AcDbLine
 10
250.3823083213795
 20
131.6310600423262
 30
0.0
 11
250.3823083213795
 21
133.4310600423262
 31
0.0
  0
LINE
  5
3CA
330
1F
100
AcDbEntity
  8
0
  6
Continuous
 62
     7
100
AcDbLine
 10
259.7823083213795
 20
128.0310600423262
 30
0.0
 11
259.7823083213795
 21
129.8310600423259
 31
0.0
  0
LINE
  5
3CB
330
1F
100
AcDbEntity
  8
0
  6
Continuous
 62
     7
100
AcDbLine
 10
259.7823083213795
 20
133.4310600423262
 30
0.0
 11
259.7823083213795
 21
131.6310600423262
 31
0.0
  0
LINE
  5
3CC
330
1F
100
AcDbEntity
  8
0
  6
Continuous
 62
     7
100
AcDbLine
 10
248.1823083213796
 20
138.8310600423262
 30
0.0
 11
248.1823083213796
 21
140.6310600423261
 31
0.0
  0
LINE
  5
3CD
330
1F
100
AcDbEntity
  8
0
  6
Continuous
 62
     7
100
AcDbLine
 10
250.3823083213795
 20
138.8310600423262
 30
0.0
 11
250.3823083213795
 21
140.6310600423261
 31
0.0
  0
LINE
  5
3CE
330
1F
100
AcDbEntity
  8
0
  6
Continuous
 62
     7
100
AcDbLine
 10
248.1823083213796
 20
135.231060042326
 30
0.0
 11
248.1823083213796
 21
137.0310600423262
 31
0.0
  0
LINE
  5
3CF
330
1F
100
AcDbEntity
  8
0
  6
Continuous
 62
     7
100
AcDbLine
 10
250.3823083213795
 20
135.231060042326
 30
0.0
 11
250.3823083213795
 21
137.0310600423262
 31
0.0
  0
LINE
  5
3D0
330
1F
100
AcDbEntity
  8
0
  6
Continuous
 62
     7
100
AcDbLine
 10
248.1823083213796
 20
142.4310600423261
 30
0.0
 11
248.1823083213796
 21
144.2310600423263
 31
0.0
  0
LINE
  5
3D1
330
1F
100
AcDbEntity
  8
0
  6
Continuous
 62
     7
100
AcDbLine
 10
250.3823083213795
 20
142.4310600423261
 30
0.0
 11
250.3823083213795
 21
144.2310600423263
 31
0.0
  0
LINE
  5
3D2
330
1F
100
AcDbEntity
  8
0
  6
Continuous
 62
     7
100
AcDbLine
 10
259.7823083213795
 20
140.6310600423261
 30
0.0
 11
259.7823083213795
 21
138.8310600423262
 31
0.0
  0
LINE
  5
3D3
330
1F
100
AcDbEntity
  8
0
  6
Continuous
 62
     7
100
AcDbLine
 10
259.7823083213795
 20
137.0310600423262
 30
0.0
 11
259.7823083213795
 21
135.231060042326
 31
0.0
  0
LINE
  5
3D4
330
1F
100
AcDbEntity
  8
0
  6
Continuous
 62
     7
100
AcDbLine
 10
259.7823083213795
 20
144.2310600423263
 30
0.0
 11
259.7823083213795
 21
142.4310600423261
 31
0.0
  0
LINE
  5
3D6
330
1F
100
AcDbEntity
  8
0
  6
Continuous
 62
     7
100
AcDbLine
 10
248.1823083213796
 20
150.1310600423263
 30
0.0
 11
248.1823083213796
 21
152.2310600423263
 31
0.0
  0
LINE
  5
3D7
330
1F
100
AcDbEntity
  8
0
  6
Continuous
 62
     7
100
AcDbLine
 10
250.3823083213795
 20
150.1310600423263
 30
0.0
 11
250.3823083213795
 21
152.2310600423263
 31
0.0
  0
LINE
  5
3D8
330
1F
100
AcDbEntity
  8
0
  6
Continuous
 62
     7
100
AcDbLine
 10
248.1823083213796
 20
146.0310600423263
 30
0.0
 11
248.1823083213796
 21
148.0310600423263
 31
0.0
  0
LINE
  5
3D9
330
1F
100
AcDbEntity
  8
0
  6
Continuous
 62
     7
100
AcDbLine
 10
250.3823083213795
 20
146.0310600423263
 30
0.0
 11
250.3823083213795
 21
148.0310600423263
 31
0.0
  0
LINE
  5
3DA
330
1F
100
AcDbEntity
  8
0
  6
Continuous
 62
     7
100
AcDbLine
 10
259.7823083213795
 20
152.2310600423263
 30
0.0
 11
259.7823083213795
 21
150.1310600423263
 31
0.0
  0
LINE
  5
3DB
330
1F
100
AcDbEntity
  8
0
  6
Continuous
 62
     7
100
AcDbLine
 10
280.1823083213795
 20
142.4310600423261
 30
0.0
 11
280.1823083213795
 21
146.0310600423263
 31
0.0
  0
LINE
  5
3DC
330
1F
100
AcDbEntity
  8
0
  6
Continuous
 62
     7
100
AcDbLine
 10
273.7823083213795
 20
146.0310600423263
 30
0.0
 11
273.7823083213795
 21
144.2310600423263
 31
0.0
  0
LINE
  5
3DD
330
1F
100
AcDbEntity
  8
0
  6
Continuous
 62
     7
100
AcDbLine
 10
281.5823083213796
 20
125.5310600423262
 30
0.0
 11
273.5823083213795
 21
125.5310600423262
 31
0.0
  0
LINE
  5
3DE
330
1F
100
AcDbEntity
  8
0
  6
Continuous
 62
     7
100
AcDbLine
 10
281.5823083213796
 20
139.5310600423262
 30
0.0
 11
273.5823083213795
 21
139.5310600423262
 31
0.0
  0
LINE
  5
3DF
330
1F
100
AcDbEntity
  8
0
  6
Continuous
 62
     7
100
AcDbLine
 10
273.5823083213795
 20
139.5310600423262
 30
0.0
 11
273.5823083213795
 21
125.5310600423262
 31
0.0
  0
LINE
  5
3E0
330
1F
100
AcDbEntity
  8
0
  6
Continuous
 62
     7
100
AcDbLine
 10
275.5823083213795
 20
139.5310600423262
 30
0.0
 11
275.5823083213795
 21
125.5310600423262
 31
0.0
  0
LINE
  5
3E1
330
1F
100
AcDbEntity
  8
0
  6
Continuous
 62
     7
100
AcDbLine
 10
274.5823083213795
 20
139.5310600423262
 30
0.0
 11
274.5823083213795
 21
125.5310600423262
 31
0.0
  0
LINE
  5
3E2
330
1F
100
AcDbEntity
  8
0
  6
Continuous
 62
     7
100
AcDbLine
 10
261.9823083213796
 20
129.8310600423259
 30
0.0
 11
261.9823083213796
 21
128.0310600423262
 31
0.0
  0
LINE
  5
3E3
330
1F
100
AcDbEntity
  8
0
  6
Continuous
 62
     7
100
AcDbLine
 10
261.9823083213796
 20
131.6310600423262
 30
0.0
 11
261.9823083213796
 21
133.4310600423262
 31
0.0
  0
LINE
  5
3E4
330
1F
100
AcDbEntity
  8
0
  6
Continuous
 62
     7
100
AcDbLine
 10
271.3823083213794
 20
129.8310600423259
 30
0.0
 11
271.3823083213794
 21
128.0310600423262
 31
0.0
  0
LINE
  5
3E5
330
1F
100
AcDbEntity
  8
0
  6
Continuous
 62
     7
100
AcDbLine
 10
271.3823083213794
 20
133.4310600423262
 30
0.0
 11
271.3823083213794
 21
131.6310600423262
 31
0.0
  0
LINE
  5
3E6
330
1F
100
AcDbEntity
  8
0
  6
Continuous
 62
     7
100
AcDbLine
 10
261.9823083213796
 20
138.8310600423262
 30
0.0
 11
261.9823083213796
 21
140.6310600423261
 31
0.0
  0
LINE
  5
3E7
330
1F
100
AcDbEntity
  8
0
  6
Continuous
 62
     7
100
AcDbLine
 10
261.9823083213796
 20
135.231060042326
 30
0.0
 11
261.9823083213796
 21
137.0310600423262
 31
0.0
  0
LINE
  5
3E8
330
1F
100
AcDbEntity
  8
0
  6
Continuous
 62
     7
100
AcDbLine
 10
261.9823083213796
 20
142.4310600423261
 30
0.0
 11
261.9823083213796
 21
144.2310600423263
 31
0.0
  0
LINE
  5
3E9
330
1F
100
AcDbEntity
  8
0
  6
Continuous
 62
     7
100
AcDbLine
 10
271.3823083213794
 20
140.6310600423261
 30
0.0
 11
271.3823083213794
 21
138.8310600423262
 31
0.0
  0
LINE
  5
3EA
330
1F
100
AcDbEntity
  8
0
  6
Continuous
 62
     7
100
AcDbLine
 10
271.3823083213794
 20
137.0310600423262
 30
0.0
 11
271.3823083213794
 21
135.231060042326
 31
0.0
  0
LINE
  5
3EB
330
1F
100
AcDbEntity
  8
0
  6
Continuous
 62
     7
100
AcDbLine
 10
282.3823083213796
 20
134.0311170423262
 30
0.0
 11
282.3823083213796
 21
144.0311170423263
 31
0.0
  0
LINE
  5
3EC
330
1F
100
AcDbEntity
  8
0
  6
Continuous
 62
     7
100
AcDbLine
 10
281.5823083213796
 20
139.5310600423262
 30
0.0
 11
281.5823083213796
 21
125.5310600423262
 31
0.0
  0
LINE
  5
3ED
330
1F
100
AcDbEntity
  8
0
  6
Continuous
 62
     7
100
AcDbLine
 10
280.5823083213795
 20
139.5310600423262
 30
0.0
 11
280.5823083213795
 21
125.5310600423262
 31
0.0
  0
LINE
  5
3EE
330
1F
100
AcDbEntity
  8
0
  6
Continuous
 62
     7
100
AcDbLine
 10
279.5823083213795
 20
139.5310600423262
 30
0.0
 11
279.5823083213795
 21
125.5310600423262
 31
0.0
  0
LINE
  5
3EF
330
1F
100
AcDbEntity
  8
0
  6
Continuous
 62
     7
100
AcDbLine
 10
278.5823083213795
 20
139.5310600423262
 30
0.0
 11
278.5823083213795
 21
125.5310600423262
 31
0.0
  0
LINE
  5
3F0
330
1F
100
AcDbEntity
  8
0
  6
Continuous
 62
     7
100
AcDbLine
 10
277.5823083213795
 20
139.5310600423262
 30
0.0
 11
277.5823083213795
 21
125.5310600423262
 31
0.0
  0
LINE
  5
3F1
330
1F
100
AcDbEntity
  8
0
  6
Continuous
 62
     7
100
AcDbLine
 10
276.5823083213795
 20
139.5310600423262
 30
0.0
 11
276.5823083213795
 21
125.5310600423262
 31
0.0
  0
LINE
  5
3F2
330
1F
100
AcDbEntity
  8
0
  6
Continuous
 62
     7
100
AcDbLine
 10
283.3823083213793
 20
141.231060042326
 30
0.0
 11
284.1823083213796
 21
141.231060042326
 31
0.0
  0
LINE
  5
3F3
330
1F
100
AcDbEntity
  8
0
  6
Continuous
 62
     7
100
AcDbLine
 10
283.3823083213793
 20
143.031060042326
 30
0.0
 11
283.3823083213793
 21
137.0310600423262
 31
0.0
  0
LINE
  5
3F4
330
1F
100
AcDbEntity
  8
0
  6
Continuous
 62
     7
100
AcDbLine
 10
284.1823083213796
 20
142.231060042326
 30
0.0
 11
284.1823083213796
 21
137.8310600423262
 31
0.0
  0
LINE
  5
3F5
330
1F
100
AcDbEntity
  8
0
  6
Continuous
 62
     7
100
AcDbLine
 10
284.1823083213796
 20
137.231060042326
 30
0.0
 11
284.1823083213796
 21
137.0310600423262
 31
0.0
  0
LINE
  5
3F6
330
1F
100
AcDbEntity
  8
0
  6
Continuous
 62
     7
100
AcDbLine
 10
286.8823083213795
 20
143.031060042326
 30
0.0
 11
286.8823083213795
 21
142.231060042326
 31
0.0
  0
LINE
  5
3F7
330
1F
100
AcDbEntity
  8
0
  6
Continuous
 62
     7
100
AcDbLine
 10
285.8823083213796
 20
143.031060042326
 30
0.0
 11
285.8823083213796
 21
142.231060042326
 31
0.0
  0
LINE
  5
3F8
330
1F
100
AcDbEntity
  8
0
  6
Continuous
 62
     7
100
AcDbLine
 10
285.4423083213796
 20
140.131060042326
 30
0.0
 11
285.4423083213796
 21
140.9310600423261
 31
0.0
  0
LINE
  5
3F9
330
1F
100
AcDbEntity
  8
0
  6
Continuous
 62
     7
100
AcDbLine
 10
286.2423083213796
 20
140.131060042326
 30
0.0
 11
286.2423083213796
 21
140.9310600423261
 31
0.0
  0
LINE
  5
3FA
330
1F
100
AcDbEntity
  8
0
  6
Continuous
 62
     7
100
AcDbLine
 10
285.4423083213796
 20
140.131060042326
 30
0.0
 11
286.2423083213796
 21
140.131060042326
 31
0.0
  0
LINE
  5
3FB
330
1F
100
AcDbEntity
  8
0
  6
Continuous
 62
     7
100
AcDbLine
 10
285.4423083213796
 20
140.9310600423261
 30
0.0
 11
286.2423083213796
 21
140.9310600423261
 31
0.0
  0
LINE
  5
3FC
330
1F
100
AcDbEntity
  8
0
  6
Continuous
 62
     7
100
AcDbLine
 10
289.8823083213796
 20
143.031060042326
 30
0.0
 11
289.8823083213796
 21
142.231060042326
 31
0.0
  0
LINE
  5
3FD
330
1F
100
AcDbEntity
  8
0
  6
Continuous
 62
     7
100
AcDbLine
 10
290.8823083213795
 20
143.031060042326
 30
0.0
 11
290.8823083213795
 21
142.231060042326
 31
0.0
  0
LINE
  5
3FE
330
1F
100
AcDbEntity
  8
0
  6
Continuous
 62
     7
100
AcDbLine
 10
287.9823083213796
 20
140.9310600423261
 30
0.0
 11
288.7823083213796
 21
140.9310600423261
 31
0.0
  0
LINE
  5
3FF
330
1F
100
AcDbEntity
  8
0
  6
Continuous
 62
     7
100
AcDbLine
 10
287.9823083213796
 20
140.131060042326
 30
0.0
 11
288.7823083213796
 21
140.131060042326
 31
0.0
  0
LINE
  5
400
330
1F
100
AcDbEntity
  8
0
  6
Continuous
 62
     7
100
AcDbLine
 10
288.7823083213796
 20
140.131060042326
 30
0.0
 11
288.7823083213796
 21
140.9310600423261
 31
0.0
  0
LINE
  5
401
330
1F
100
AcDbEntity
  8
0
  6
Continuous
 62
     7
100
AcDbLine
 10
287.9823083213796
 20
140.131060042326
 30
0.0
 11
287.9823083213796
 21
140.9310600423261
 31
0.0
  0
LINE
  5
402
330
1F
100
AcDbEntity
  8
0
  6
Continuous
 62
     7
100
AcDbLine
 10
290.5223083213795
 20
140.131060042326
 30
0.0
 11
290.5223083213795
 21
140.9310600423261
 31
0.0
  0
LINE
  5
403
330
1F
100
AcDbEntity
  8
0
  6
Continuous
 62
     7
100
AcDbLine
 10
291.3223083213795
 20
140.131060042326
 30
0.0
 11
291.3223083213795
 21
140.9310600423261
 31
0.0
  0
LINE
  5
404
330
1F
100
AcDbEntity
  8
0
  6
Continuous
 62
     7
100
AcDbLine
 10
290.5223083213795
 20
140.131060042326
 30
0.0
 11
291.3223083213795
 21
140.131060042326
 31
0.0
  0
LINE
  5
405
330
1F
100
AcDbEntity
  8
0
  6
Continuous
 62
     7
100
AcDbLine
 10
290.5223083213795
 20
140.9310600423261
 30
0.0
 11
291.3223083213795
 21
140.9310600423261
 31
0.0
  0
LINE
  5
406
330
1F
100
AcDbEntity
  8
0
  6
Continuous
 62
     7
100
AcDbLine
 10
280.1823083213795
 20
146.0310600423263
 30
0.0
 11
273.7823083213795
 21
146.0310600423263
 31
0.0
  0
LINE
  5
407
330
1F
100
AcDbEntity
  8
0
  6
Continuous
 62
     7
100
AcDbLine
 10
261.9823083213796
 20
150.1310600423263
 30
0.0
 11
261.9823083213796
 21
152.2310600423263
 31
0.0
  0
LINE
  5
408
330
1F
100
AcDbEntity
  8
0
  6
Continuous
 62
     7
100
AcDbLine
 10
273.5823083213795
 20
150.1310600423263
 30
0.0
 11
273.5823083213795
 21
152.2310600423263
 31
0.0
  0
LINE
  5
409
330
1F
100
AcDbEntity
  8
0
  6
Continuous
 62
     7
100
AcDbLine
 10
271.3823083213794
 20
152.2310600423263
 30
0.0
 11
271.3823083213794
 21
150.1310600423263
 31
0.0
  0
LINE
  5
40A
330
1F
100
AcDbEntity
  8
0
  6
Continuous
 62
     7
100
AcDbLine
 10
271.3823083213794
 20
148.0310600423263
 30
0.0
 11
271.3823083213794
 21
146.0310600423263
 31
0.0
  0
LINE
  5
40B
330
1F
100
AcDbEntity
  8
0
  6
Continuous
 62
     7
100
AcDbLine
 10
282.9823083213796
 20
150.1310600423263
 30
0.0
 11
282.9823083213796
 21
152.2310600423263
 31
0.0
  0
LINE
  5
40C
330
1F
100
AcDbEntity
  8
0
  6
Continuous
 62
     7
100
AcDbLine
 10
285.1823083213796
 20
152.2310600423263
 30
0.0
 11
285.1823083213796
 21
150.1310600423263
 31
0.0
  0
LINE
  5
40D
330
1F
100
AcDbEntity
  8
0
  6
Continuous
 62
     7
100
AcDbLine
 10
131.1811123213795
 20
258.0213000423261
 30
0.0
 11
177.1811123213795
 21
258.0213000423261
 31
0.0
  0
LINE
  5
40E
330
1F
100
AcDbEntity
  8
0
  6
Continuous
 62
     7
100
AcDbLine
 10
131.1811123213795
 20
210.0213000423263
 30
0.0
 11
177.1811123213795
 21
210.0213000423263
 31
0.0
  0
LINE
  5
40F
330
1F
100
AcDbEntity
  8
0
  6
Continuous
 62
     7
100
AcDbLine
 10
132.7811123213795
 20
256.4213000423261
 30
0.0
 11
175.5811123213795
 21
256.4213000423261
 31
0.0
  0
LINE
  5
410
330
1F
100
AcDbEntity
  8
0
  6
Continuous
 62
     7
100
AcDbLine
 10
132.7811123213795
 20
211.6213000423263
 30
0.0
 11
175.5811123213795
 21
211.6213000423263
 31
0.0
  0
ARC
  5
411
330
1F
100
AcDbEntity
  8
0
  6
Continuous
 62
     7
100
AcDbCircle
 10
169.7811145626051
 20
219.6213022835518
 30
0.0
 40
2.999997758775236
100
AcDbArc
 50
359.9999571957136
 51
90.00004280428717
  0
ARC
  5
412
330
1F
100
AcDbEntity
  8
0
  6
Continuous
 62
     7
100
AcDbCircle
 10
169.7811140626059
 20
217.6212983011006
 30
0.0
 40
2.999998258775001
100
AcDbArc
 50
269.9999667450077
 51
0.0000523535829276
  0
LINE
  5
415
330
1F
100
AcDbEntity
  8
0
  6
Continuous
 62
     7
100
AcDbLine
 10
130.1811123213795
 20
257.0213000423261
 30
0.0
 11
130.1811123213795
 21
211.0213000423263
 31
0.0
  0
LINE
  5
416
330
1F
100
AcDbEntity
  8
0
  6
Continuous
 62
     7
100
AcDbLine
 10
131.7811123213795
 20
255.4213000423262
 30
0.0
 11
131.7811123213795
 21
212.6213000423263
 31
0.0
  0
LINE
  5
417
330
1F
100
AcDbEntity
  8
0
  6
Continuous
 62
     7
100
AcDbLine
 10
142.5811123213795
 20
214.6213000423262
 30
0.0
 11
138.5811123213795
 21
214.6213000423262
 31
0.0
  0
LINE
  5
418
330
1F
100
AcDbEntity
  8
0
  6
Continuous
 62
     7
100
AcDbLine
 10
142.5811123213795
 20
222.6213000423261
 30
0.0
 11
138.5811123213795
 21
222.6213000423261
 31
0.0
  0
LINE
  5
419
330
1F
100
AcDbEntity
  8
0
  6
Continuous
 62
     7
100
AcDbLine
 10
142.0580503213795
 20
238.8213000423262
 30
0.0
 11
146.5098433213795
 21
238.8213000423262
 31
0.0
  0
LINE
  5
41A
330
1F
100
AcDbEntity
  8
0
  6
Continuous
 62
     7
100
AcDbLine
 10
143.2584893213795
 20
239.9213000423262
 30
0.0
 11
142.0580503213795
 21
238.8213000423262
 31
0.0
  0
LINE
  5
41B
330
1F
100
AcDbEntity
  8
0
  6
Continuous
 62
     7
100
AcDbLine
 10
142.9882533213795
 20
240.2162110423263
 30
0.0
 11
141.7878143213795
 21
239.1162110423262
 31
0.0
  0
LINE
  5
41C
330
1F
100
AcDbEntity
  8
0
  6
Continuous
 62
     7
100
AcDbLine
 10
142.2024593213795
 20
243.8556290423262
 30
0.0
 11
143.2585423213796
 21
243.3056290423261
 31
0.0
  0
ARC
  5
41E
330
1F
100
AcDbEntity
  8
0
  6
Continuous
 62
     7
100
AcDbCircle
 10
138.5811130684548
 20
228.0213007894013
 30
0.0
 40
0.9999992529251022
100
AcDbArc
 50
359.9999571957136
 51
90.00004280428717
  0
LINE
  5
41F
330
1F
100
AcDbEntity
  8
0
  6
Continuous
 62
     7
100
AcDbLine
 10
135.5811123213795
 20
219.6213000423262
 30
0.0
 11
135.5811123213795
 21
217.6213000423263
 31
0.0
  0
ARC
  5
420
330
1F
100
AcDbEntity
  8
0
  6
Continuous
 62
     7
100
AcDbCircle
 10
131.1811115743043
 20
211.0212992952511
 30
0.0
 40
0.9999992529251022
100
AcDbArc
 50
179.9999571957136
 51
270.0000428042871
  0
ARC
  5
421
330
1F
100
AcDbEntity
  8
0
  6
Continuous
 62
     7
100
AcDbCircle
 10
132.7811115743044
 20
212.621299295251
 30
0.0
 40
0.9999992529250951
100
AcDbArc
 50
179.9999571957136
 51
270.0000428042871
  0
ARC
  5
422
330
1F
100
AcDbEntity
  8
0
  6
Continuous
 62
     7
100
AcDbCircle
 10
138.5811100801541
 20
217.6212978011006
 30
0.0
 40
2.999997758775328
100
AcDbArc
 50
179.999957195712
 51
270.0000428042855
  0
ARC
  5
423
330
1F
100
AcDbEntity
  8
0
  6
Continuous
 62
     7
100
AcDbCircle
 10
138.5811100801539
 20
219.6213022835518
 30
0.0
 40
2.999997758775248
100
AcDbArc
 50
89.99995719571119
 51
180.0000428042863
  0
LINE
  5
424
330
1F
100
AcDbEntity
  8
0
  6
Continuous
 62
     7
100
AcDbLine
 10
139.5811123213795
 20
228.0213000423262
 30
0.0
 11
139.5811123213795
 21
228.0213000423262
 31
0.0
  0
LINE
  5
425
330
1F
100
AcDbEntity
  8
0
  6
Continuous
 62
     7
100
AcDbLine
 10
141.7878143213795
 20
239.1162110423262
 30
0.0
 11
142.2024593213795
 21
243.8556290423262
 31
0.0
  0
LINE
  5
432
330
1F
100
AcDbEntity
  8
0
  6
Continuous
 62
     7
100
AcDbLine
 10
146.8884233213795
 20
227.0915360423261
 30
0.0
 11
147.1070133213795
 21
229.5900290423261
 31
0.0
  0
LINE
  5
433
330
1F
100
AcDbEntity
  8
0
  6
Continuous
 62
     7
100
AcDbLine
 10
166.5798863213795
 20
227.1162110423263
 30
0.0
 11
166.7976823213795
 21
229.6056290423261
 31
0.0
  0
LINE
  5
434
330
1F
100
AcDbEntity
  8
0
  6
Continuous
 62
     7
100
AcDbLine
 10
157.9885783213795
 20
226.1162110423263
 30
0.0
 11
158.3376073213795
 21
230.1056290423261
 31
0.0
  0
LINE
  5
435
330
1F
100
AcDbEntity
  8
0
  6
Continuous
 62
     7
100
AcDbLine
 10
161.8884233213795
 20
227.0915360423261
 30
0.0
 11
162.1070133213795
 21
229.5900290423261
 31
0.0
  0
LINE
  5
436
330
1F
100
AcDbEntity
  8
0
  6
Continuous
 62
     7
100
AcDbLine
 10
170.3047543213795
 20
226.0915360423263
 30
0.0
 11
170.6545773213795
 21
230.090029042326
 31
0.0
  0
LINE
  5
437
330
1F
100
AcDbEntity
  8
0
  6
Continuous
 62
     7
100
AcDbLine
 10
165.4885783213795
 20
226.1162110423263
 30
0.0
 11
165.8376073213795
 21
230.1056290423261
 31
0.0
  0
LINE
  5
438
330
1F
100
AcDbEntity
  8
0
  6
Continuous
 62
     7
100
AcDbLine
 10
169.3884233213795
 20
227.0915360423261
 30
0.0
 11
169.6070133213796
 21
229.5900290423261
 31
0.0
  0
LINE
  5
439
330
1F
100
AcDbEntity
  8
0
  6
Continuous
 62
     7
100
AcDbLine
 10
155.3047543213796
 20
226.0915360423263
 30
0.0
 11
155.6545773213795
 21
230.090029042326
 31
0.0
  0
LINE
  5
43A
330
1F
100
AcDbEntity
  8
0
  6
Continuous
 62
     7
100
AcDbLine
 10
151.5798863213795
 20
227.1162110423263
 30
0.0
 11
151.7976823213795
 21
229.6056290423261
 31
0.0
  0
LINE
  5
43B
330
1F
100
AcDbEntity
  8
0
  6
Continuous
 62
     7
100
AcDbLine
 10
150.4885783213795
 20
226.1162110423263
 30
0.0
 11
150.8376073213795
 21
230.1056290423261
 31
0.0
  0
LINE
  5
43C
330
1F
100
AcDbEntity
  8
0
  6
Continuous
 62
     7
100
AcDbLine
 10
154.3884233213795
 20
227.0915360423261
 30
0.0
 11
154.6070133213795
 21
229.5900290423261
 31
0.0
  0
LINE
  5
43D
330
1F
100
AcDbEntity
  8
0
  6
Continuous
 62
     7
100
AcDbLine
 10
162.8047543213796
 20
226.0915360423263
 30
0.0
 11
163.1545773213795
 21
230.090029042326
 31
0.0
  0
LINE
  5
43E
330
1F
100
AcDbEntity
  8
0
  6
Continuous
 62
     7
100
AcDbLine
 10
159.0798863213795
 20
227.1162110423263
 30
0.0
 11
159.2976823213795
 21
229.6056290423261
 31
0.0
  0
LINE
  5
43F
330
1F
100
AcDbEntity
  8
0
  6
Continuous
 62
     7
100
AcDbLine
 10
147.8047543213795
 20
226.0915360423263
 30
0.0
 11
148.1545773213795
 21
230.090029042326
 31
0.0
  0
LINE
  5
440
330
1F
100
AcDbEntity
  8
0
  6
Continuous
 62
     7
100
AcDbLine
 10
144.0798863213795
 20
227.1162110423263
 30
0.0
 11
144.2976823213796
 21
229.6056290423261
 31
0.0
  0
LINE
  5
441
330
1F
100
AcDbEntity
  8
0
  6
Continuous
 62
     7
100
AcDbLine
 10
142.9885783213795
 20
226.1162110423263
 30
0.0
 11
143.3376073213795
 21
230.1056290423261
 31
0.0
  0
ARC
  5
442
330
1F
100
AcDbEntity
  8
0
  6
Continuous
 62
     7
100
AcDbCircle
 10
156.1811145626051
 20
219.6213022835518
 30
0.0
 40
2.999997758775248
100
AcDbArc
 50
359.9999571957136
 51
90.00004280428717
  0
ARC
  5
443
330
1F
100
AcDbEntity
  8
0
  6
Continuous
 62
     7
100
AcDbCircle
 10
156.1811140626059
 20
217.6212983011006
 30
0.0
 40
2.999998258775001
100
AcDbArc
 50
269.9999667450077
 51
0.0000523535829276
  0
LINE
  5
444
330
1F
100
AcDbEntity
  8
0
  6
Continuous
 62
     7
100
AcDbLine
 10
145.5811123213795
 20
219.6213000423262
 30
0.0
 11
145.5811123213795
 21
217.6213000423263
 31
0.0
  0
LINE
  5
445
330
1F
100
AcDbEntity
  8
0
  6
Continuous
 62
     7
100
AcDbLine
 10
149.1811123213795
 20
219.6213000423262
 30
0.0
 11
149.1811123213795
 21
217.6213000423263
 31
0.0
  0
ARC
  5
446
330
1F
100
AcDbEntity
  8
0
  6
Continuous
 62
     7
100
AcDbCircle
 10
152.181110080154
 20
217.6212978011006
 30
0.0
 40
2.999997758775333
100
AcDbArc
 50
179.999957195712
 51
270.0000428042855
  0
ARC
  5
447
330
1F
100
AcDbEntity
  8
0
  6
Continuous
 62
     7
100
AcDbCircle
 10
142.5811140626059
 20
217.6212983011006
 30
0.0
 40
2.999998258775001
100
AcDbArc
 50
269.9999667450093
 51
0.0000523535829276
  0
LINE
  5
448
330
1F
100
AcDbEntity
  8
0
  6
Continuous
 62
     7
100
AcDbLine
 10
156.1811123213795
 20
214.6213000423262
 30
0.0
 11
152.1811123213795
 21
214.6213000423262
 31
0.0
  0
ARC
  5
449
330
1F
100
AcDbEntity
  8
0
  6
Continuous
 62
     7
100
AcDbCircle
 10
152.181110080154
 20
219.6213022835518
 30
0.0
 40
2.999997758775248
100
AcDbArc
 50
89.9999571957128
 51
180.0000428042863
  0
ARC
  5
44A
330
1F
100
AcDbEntity
  8
0
  6
Continuous
 62
     7
100
AcDbCircle
 10
142.5811145626052
 20
219.6213022835518
 30
0.0
 40
2.999997758775243
100
AcDbArc
 50
359.9999571957136
 51
90.00004280428717
  0
LINE
  5
44B
330
1F
100
AcDbEntity
  8
0
  6
Continuous
 62
     7
100
AcDbLine
 10
144.3501233213796
 20
226.8213000423263
 30
0.0
 11
146.5935123213796
 21
226.8213000423263
 31
0.0
  0
LINE
  5
44C
330
1F
100
AcDbEntity
  8
0
  6
Continuous
 62
     7
100
AcDbLine
 10
143.2588143213795
 20
225.8213000423263
 30
0.0
 11
147.5098433213795
 21
225.8213000423263
 31
0.0
  0
LINE
  5
44D
330
1F
100
AcDbEntity
  8
0
  6
Continuous
 62
     7
100
AcDbLine
 10
144.3501233213796
 20
226.8213000423263
 30
0.0
 11
143.2588143213795
 21
225.8213000423263
 31
0.0
  0
LINE
  5
44E
330
1F
100
AcDbEntity
  8
0
  6
Continuous
 62
     7
100
AcDbLine
 10
144.0798863213795
 20
227.1162110423263
 30
0.0
 11
142.9885783213795
 21
226.1162110423263
 31
0.0
  0
LINE
  5
44F
330
1F
100
AcDbEntity
  8
0
  6
Continuous
 62
     7
100
AcDbLine
 10
147.5098433213795
 20
225.8213000423263
 30
0.0
 11
146.5935123213796
 21
226.8213000423263
 31
0.0
  0
LINE
  5
450
330
1F
100
AcDbEntity
  8
0
  6
Continuous
 62
     7
100
AcDbLine
 10
147.8047543213795
 20
226.0915360423263
 30
0.0
 11
146.8884233213795
 21
227.0915360423261
 31
0.0
  0
LINE
  5
454
330
1F
100
AcDbEntity
  8
0
  6
Continuous
 62
     7
100
AcDbLine
 10
156.1811123213795
 20
222.6213000423261
 30
0.0
 11
152.1811123213795
 21
222.6213000423261
 31
0.0
  0
LINE
  5
455
330
1F
100
AcDbEntity
  8
0
  6
Continuous
 62
     7
100
AcDbLine
 10
150.7588143213795
 20
225.8213000423263
 30
0.0
 11
155.0098433213795
 21
225.8213000423263
 31
0.0
  0
LINE
  5
456
330
1F
100
AcDbEntity
  8
0
  6
Continuous
 62
     7
100
AcDbLine
 10
151.8501233213795
 20
226.8213000423263
 30
0.0
 11
154.0935123213795
 21
226.8213000423263
 31
0.0
  0
LINE
  5
457
330
1F
100
AcDbEntity
  8
0
  6
Continuous
 62
     7
100
AcDbLine
 10
151.8501233213795
 20
226.8213000423263
 30
0.0
 11
150.7588143213795
 21
225.8213000423263
 31
0.0
  0
LINE
  5
458
330
1F
100
AcDbEntity
  8
0
  6
Continuous
 62
     7
100
AcDbLine
 10
151.5798863213795
 20
227.1162110423263
 30
0.0
 11
150.4885783213795
 21
226.1162110423263
 31
0.0
  0
LINE
  5
459
330
1F
100
AcDbEntity
  8
0
  6
Continuous
 62
     7
100
AcDbLine
 10
155.3047543213796
 20
226.0915360423263
 30
0.0
 11
154.3884233213795
 21
227.0915360423261
 31
0.0
  0
LINE
  5
45A
330
1F
100
AcDbEntity
  8
0
  6
Continuous
 62
     7
100
AcDbLine
 10
155.0098433213795
 20
225.8213000423263
 30
0.0
 11
154.0935123213795
 21
226.8213000423263
 31
0.0
  0
LINE
  5
45E
330
1F
100
AcDbEntity
  8
0
  6
Continuous
 62
     7
100
AcDbLine
 10
159.1811123213795
 20
219.6213000423262
 30
0.0
 11
159.1811123213795
 21
217.6213000423263
 31
0.0
  0
LINE
  5
45F
330
1F
100
AcDbEntity
  8
0
  6
Continuous
 62
     7
100
AcDbLine
 10
162.7811123213795
 20
219.6213000423262
 30
0.0
 11
162.7811123213795
 21
217.6213000423263
 31
0.0
  0
ARC
  5
460
330
1F
100
AcDbEntity
  8
0
  6
Continuous
 62
     7
100
AcDbCircle
 10
165.7811100801541
 20
217.6212978011006
 30
0.0
 40
2.999997758775321
100
AcDbArc
 50
179.999957195712
 51
270.0000428042855
  0
LINE
  5
461
330
1F
100
AcDbEntity
  8
0
  6
Continuous
 62
     7
100
AcDbLine
 10
169.7811123213796
 20
214.6213000423262
 30
0.0
 11
165.7811123213796
 21
214.6213000423262
 31
0.0
  0
ARC
  5
462
330
1F
100
AcDbEntity
  8
0
  6
Continuous
 62
     7
100
AcDbCircle
 10
165.781110080154
 20
219.6213022835518
 30
0.0
 40
2.99999775877522
100
AcDbArc
 50
89.9999571957128
 51
180.0000428042863
  0
LINE
  5
463
330
1F
100
AcDbEntity
  8
0
  6
Continuous
 62
     7
100
AcDbLine
 10
159.3501233213795
 20
226.8213000423263
 30
0.0
 11
161.5935123213795
 21
226.8213000423263
 31
0.0
  0
LINE
  5
464
330
1F
100
AcDbEntity
  8
0
  6
Continuous
 62
     7
100
AcDbLine
 10
158.2588143213795
 20
225.8213000423263
 30
0.0
 11
162.5098433213795
 21
225.8213000423263
 31
0.0
  0
LINE
  5
465
330
1F
100
AcDbEntity
  8
0
  6
Continuous
 62
     7
100
AcDbLine
 10
159.3501233213795
 20
226.8213000423263
 30
0.0
 11
158.2588143213795
 21
225.8213000423263
 31
0.0
  0
LINE
  5
466
330
1F
100
AcDbEntity
  8
0
  6
Continuous
 62
     7
100
AcDbLine
 10
159.0798863213795
 20
227.1162110423263
 30
0.0
 11
157.9885783213795
 21
226.1162110423263
 31
0.0
  0
LINE
  5
467
330
1F
100
AcDbEntity
  8
0
  6
Continuous
 62
     7
100
AcDbLine
 10
162.8047543213796
 20
226.0915360423263
 30
0.0
 11
161.8884233213795
 21
227.0915360423261
 31
0.0
  0
LINE
  5
468
330
1F
100
AcDbEntity
  8
0
  6
Continuous
 62
     7
100
AcDbLine
 10
162.5098433213795
 20
225.8213000423263
 30
0.0
 11
161.5935123213795
 21
226.8213000423263
 31
0.0
  0
LINE
  5
469
330
1F
100
AcDbEntity
  8
0
  6
Continuous
 62
     7
100
AcDbLine
 10
164.4811123213795
 20
226.3213000423263
 30
0.0
 11
164.4811123213795
 21
226.3213000423263
 31
0.0
  0
LINE
  5
46C
330
1F
100
AcDbEntity
  8
0
  6
Continuous
 62
     7
100
AcDbLine
 10
169.7811123213796
 20
222.6213000423261
 30
0.0
 11
165.7811123213796
 21
222.6213000423261
 31
0.0
  0
LINE
  5
46D
330
1F
100
AcDbEntity
  8
0
  6
Continuous
 62
     7
100
AcDbLine
 10
165.7588143213795
 20
225.8213000423263
 30
0.0
 11
170.0098433213795
 21
225.8213000423263
 31
0.0
  0
LINE
  5
46E
330
1F
100
AcDbEntity
  8
0
  6
Continuous
 62
     7
100
AcDbLine
 10
166.8501233213795
 20
226.8213000423263
 30
0.0
 11
169.0935123213795
 21
226.8213000423263
 31
0.0
  0
LINE
  5
46F
330
1F
100
AcDbEntity
  8
0
  6
Continuous
 62
     7
100
AcDbLine
 10
166.8501233213795
 20
226.8213000423263
 30
0.0
 11
165.7588143213795
 21
225.8213000423263
 31
0.0
  0
LINE
  5
470
330
1F
100
AcDbEntity
  8
0
  6
Continuous
 62
     7
100
AcDbLine
 10
166.5798863213795
 20
227.1162110423263
 30
0.0
 11
165.4885783213795
 21
226.1162110423263
 31
0.0
  0
LINE
  5
471
330
1F
100
AcDbEntity
  8
0
  6
Continuous
 62
     7
100
AcDbLine
 10
170.3047543213795
 20
226.0915360423263
 30
0.0
 11
169.3884233213795
 21
227.0915360423261
 31
0.0
  0
LINE
  5
472
330
1F
100
AcDbEntity
  8
0
  6
Continuous
 62
     7
100
AcDbLine
 10
170.0098433213795
 20
225.8213000423263
 30
0.0
 11
169.0935123213795
 21
226.8213000423263
 31
0.0
  0
LINE
  5
475
330
1F
100
AcDbEntity
  8
0
  6
Continuous
 62
     7
100
AcDbLine
 10
153.5967903213795
 20
240.1915360423263
 30
0.0
 11
154.6047543213795
 21
239.0915360423263
 31
0.0
  0
LINE
  5
476
330
1F
100
AcDbEntity
  8
0
  6
Continuous
 62
     7
100
AcDbLine
 10
149.5878143213795
 20
239.1162110423262
 30
0.0
 11
150.0024593213795
 21
243.8556290423262
 31
0.0
  0
LINE
  5
477
330
1F
100
AcDbEntity
  8
0
  6
Continuous
 62
     7
100
AcDbLine
 10
154.6047543213795
 20
239.0915360423263
 30
0.0
 11
155.0201943213795
 21
243.8400290423263
 31
0.0
  0
LINE
  5
478
330
1F
100
AcDbEntity
  8
0
  6
Continuous
 62
     7
100
AcDbLine
 10
153.3018793213795
 20
239.9213000423262
 30
0.0
 11
154.3098433213796
 21
238.8213000423262
 31
0.0
  0
LINE
  5
479
330
1F
100
AcDbEntity
  8
0
  6
Continuous
 62
     7
100
AcDbLine
 10
151.0584893213795
 20
239.9213000423262
 30
0.0
 11
149.8580503213795
 21
238.8213000423262
 31
0.0
  0
LINE
  5
47A
330
1F
100
AcDbEntity
  8
0
  6
Continuous
 62
     7
100
AcDbLine
 10
150.7882533213795
 20
240.2162110423263
 30
0.0
 11
149.5878143213795
 21
239.1162110423262
 31
0.0
  0
LINE
  5
47B
330
1F
100
AcDbEntity
  8
0
  6
Continuous
 62
     7
100
AcDbLine
 10
145.7967903213795
 20
240.1915360423263
 30
0.0
 11
146.8047543213795
 21
239.0915360423263
 31
0.0
  0
LINE
  5
47C
330
1F
100
AcDbEntity
  8
0
  6
Continuous
 62
     7
100
AcDbLine
 10
146.8047543213795
 20
239.0915360423263
 30
0.0
 11
147.2201943213795
 21
243.8400290423263
 31
0.0
  0
LINE
  5
47D
330
1F
100
AcDbEntity
  8
0
  6
Continuous
 62
     7
100
AcDbLine
 10
145.5018793213795
 20
239.9213000423262
 30
0.0
 11
146.5098433213795
 21
238.8213000423262
 31
0.0
  0
LINE
  5
480
330
1F
100
AcDbEntity
  8
0
  6
Continuous
 62
     7
100
AcDbLine
 10
144.0214433213796
 20
234.8213000423262
 30
0.0
 11
144.9377743213795
 21
233.8213000423262
 31
0.0
  0
LINE
  5
481
330
1F
100
AcDbEntity
  8
0
  6
Continuous
 62
     7
100
AcDbLine
 10
143.3767093213796
 20
230.5525710423262
 30
0.0
 11
143.7265323213795
 21
234.5510640423261
 31
0.0
  0
LINE
  5
482
330
1F
100
AcDbEntity
  8
0
  6
Continuous
 62
     7
100
AcDbLine
 10
143.7265323213795
 20
234.5510640423261
 30
0.0
 11
144.6428633213795
 21
233.5510640423263
 31
0.0
  0
LINE
  5
483
330
1F
100
AcDbEntity
  8
0
  6
Continuous
 62
     7
100
AcDbLine
 10
148.2724723213795
 20
234.8213000423262
 30
0.0
 11
147.1811643213795
 21
233.8213000423262
 31
0.0
  0
LINE
  5
484
330
1F
100
AcDbEntity
  8
0
  6
Continuous
 62
     7
100
AcDbLine
 10
148.1936803213795
 20
230.5369700423263
 30
0.0
 11
148.5427083213795
 21
234.5263890423261
 31
0.0
  0
LINE
  5
485
330
1F
100
AcDbEntity
  8
0
  6
Continuous
 62
     7
100
AcDbLine
 10
148.5427083213795
 20
234.5263890423261
 30
0.0
 11
147.4514003213795
 21
233.5263890423262
 31
0.0
  0
LINE
  5
486
330
1F
100
AcDbEntity
  8
0
  6
Continuous
 62
     7
100
AcDbLine
 10
144.9377743213795
 20
233.8213000423262
 30
0.0
 11
147.1811643213795
 21
233.8213000423262
 31
0.0
  0
LINE
  5
487
330
1F
100
AcDbEntity
  8
0
  6
Continuous
 62
     7
100
AcDbLine
 10
144.8683483213795
 20
230.8213000423262
 30
0.0
 11
146.7817473213795
 21
230.8213000423262
 31
0.0
  0
LINE
  5
488
330
1F
100
AcDbEntity
  8
0
  6
Continuous
 62
     7
100
AcDbLine
 10
144.7495403213795
 20
229.8213000423262
 30
0.0
 11
146.6629383213795
 21
229.8213000423262
 31
0.0
  0
LINE
  5
489
330
1F
100
AcDbEntity
  8
0
  6
Continuous
 62
     7
100
AcDbLine
 10
144.8683483213795
 20
230.8213000423262
 30
0.0
 11
143.8044423213795
 21
230.3134990423263
 31
0.0
  0
LINE
  5
48A
330
1F
100
AcDbEntity
  8
0
  6
Continuous
 62
     7
100
AcDbLine
 10
144.2976823213796
 20
229.6056290423261
 30
0.0
 11
143.3376073213795
 21
230.1056290423261
 31
0.0
  0
LINE
  5
48B
330
1F
100
AcDbEntity
  8
0
  6
Continuous
 62
     7
100
AcDbLine
 10
144.7495403213795
 20
229.8213000423262
 30
0.0
 11
143.8044423213795
 21
230.3134990423263
 31
0.0
  0
LINE
  5
48C
330
1F
100
AcDbEntity
  8
0
  6
Continuous
 62
     7
100
AcDbLine
 10
144.4242733213795
 20
231.0525710423262
 30
0.0
 11
143.3767093213796
 21
230.5525710423262
 31
0.0
  0
LINE
  5
48D
330
1F
100
AcDbEntity
  8
0
  6
Continuous
 62
     7
100
AcDbLine
 10
144.4242733213795
 20
231.0525710423262
 30
0.0
 11
144.6428633213795
 21
233.5510640423263
 31
0.0
  0
LINE
  5
48E
330
1F
100
AcDbEntity
  8
0
  6
Continuous
 62
     7
100
AcDbLine
 10
147.2336043213795
 20
231.0369700423263
 30
0.0
 11
147.4514003213795
 21
233.5263890423262
 31
0.0
  0
LINE
  5
48F
330
1F
100
AcDbEntity
  8
0
  6
Continuous
 62
     7
100
AcDbLine
 10
148.1545773213795
 20
230.090029042326
 30
0.0
 11
147.1070133213795
 21
229.5900290423261
 31
0.0
  0
LINE
  5
490
330
1F
100
AcDbEntity
  8
0
  6
Continuous
 62
     7
100
AcDbLine
 10
146.7817473213795
 20
230.8213000423262
 30
0.0
 11
147.7268453213795
 21
230.3291000423262
 31
0.0
  0
LINE
  5
491
330
1F
100
AcDbEntity
  8
0
  6
Continuous
 62
     7
100
AcDbLine
 10
147.7268453213795
 20
230.3291000423262
 30
0.0
 11
146.6629383213795
 21
229.8213000423262
 31
0.0
  0
LINE
  5
492
330
1F
100
AcDbEntity
  8
0
  6
Continuous
 62
     7
100
AcDbLine
 10
147.2336043213795
 20
231.0369700423263
 30
0.0
 11
148.1936803213795
 21
230.5369700423263
 31
0.0
  0
LINE
  5
493
330
1F
100
AcDbEntity
  8
0
  6
Continuous
 62
     7
100
AcDbLine
 10
144.0214433213796
 20
234.8213000423262
 30
0.0
 11
148.2724723213795
 21
234.8213000423262
 31
0.0
  0
LINE
  5
494
330
1F
100
AcDbEntity
  8
0
  6
Continuous
 62
     7
100
AcDbLine
 10
150.8767093213795
 20
230.5525710423262
 30
0.0
 11
151.2265323213795
 21
234.5510640423261
 31
0.0
  0
LINE
  5
495
330
1F
100
AcDbEntity
  8
0
  6
Continuous
 62
     7
100
AcDbLine
 10
151.2265323213795
 20
234.5510640423261
 30
0.0
 11
152.1428633213796
 21
233.5510640423263
 31
0.0
  0
LINE
  5
496
330
1F
100
AcDbEntity
  8
0
  6
Continuous
 62
     7
100
AcDbLine
 10
155.7724723213795
 20
234.8213000423262
 30
0.0
 11
154.6811643213795
 21
233.8213000423262
 31
0.0
  0
LINE
  5
497
330
1F
100
AcDbEntity
  8
0
  6
Continuous
 62
     7
100
AcDbLine
 10
155.6936803213796
 20
230.5369700423263
 30
0.0
 11
156.0427083213795
 21
234.5263890423261
 31
0.0
  0
LINE
  5
498
330
1F
100
AcDbEntity
  8
0
  6
Continuous
 62
     7
100
AcDbLine
 10
156.0427083213795
 20
234.5263890423261
 30
0.0
 11
154.9514003213795
 21
233.5263890423262
 31
0.0
  0
LINE
  5
499
330
1F
100
AcDbEntity
  8
0
  6
Continuous
 62
     7
100
AcDbLine
 10
151.5214433213795
 20
234.8213000423262
 30
0.0
 11
152.4377743213795
 21
233.8213000423262
 31
0.0
  0
LINE
  5
49A
330
1F
100
AcDbEntity
  8
0
  6
Continuous
 62
     7
100
AcDbLine
 10
152.3683483213796
 20
230.8213000423262
 30
0.0
 11
154.2817473213795
 21
230.8213000423262
 31
0.0
  0
LINE
  5
49B
330
1F
100
AcDbEntity
  8
0
  6
Continuous
 62
     7
100
AcDbLine
 10
152.2495403213795
 20
229.8213000423262
 30
0.0
 11
154.1629383213795
 21
229.8213000423262
 31
0.0
  0
LINE
  5
49C
330
1F
100
AcDbEntity
  8
0
  6
Continuous
 62
     7
100
AcDbLine
 10
152.4377743213795
 20
233.8213000423262
 30
0.0
 11
154.6811643213795
 21
233.8213000423262
 31
0.0
  0
LINE
  5
49D
330
1F
100
AcDbEntity
  8
0
  6
Continuous
 62
     7
100
AcDbLine
 10
151.7976823213795
 20
229.6056290423261
 30
0.0
 11
150.8376073213795
 21
230.1056290423261
 31
0.0
  0
LINE
  5
49E
330
1F
100
AcDbEntity
  8
0
  6
Continuous
 62
     7
100
AcDbLine
 10
152.2495403213795
 20
229.8213000423262
 30
0.0
 11
151.3044423213795
 21
230.3134990423263
 31
0.0
  0
LINE
  5
49F
330
1F
100
AcDbEntity
  8
0
  6
Continuous
 62
     7
100
AcDbLine
 10
151.9242733213795
 20
231.0525710423262
 30
0.0
 11
150.8767093213795
 21
230.5525710423262
 31
0.0
  0
LINE
  5
4A0
330
1F
100
AcDbEntity
  8
0
  6
Continuous
 62
     7
100
AcDbLine
 10
151.9242733213795
 20
231.0525710423262
 30
0.0
 11
152.1428633213796
 21
233.5510640423263
 31
0.0
  0
LINE
  5
4A1
330
1F
100
AcDbEntity
  8
0
  6
Continuous
 62
     7
100
AcDbLine
 10
152.3683483213796
 20
230.8213000423262
 30
0.0
 11
151.3044423213795
 21
230.3134990423263
 31
0.0
  0
LINE
  5
4A2
330
1F
100
AcDbEntity
  8
0
  6
Continuous
 62
     7
100
AcDbLine
 10
155.6545773213795
 20
230.090029042326
 30
0.0
 11
154.6070133213795
 21
229.5900290423261
 31
0.0
  0
LINE
  5
4A3
330
1F
100
AcDbEntity
  8
0
  6
Continuous
 62
     7
100
AcDbLine
 10
154.2817473213795
 20
230.8213000423262
 30
0.0
 11
155.2268453213795
 21
230.3291000423262
 31
0.0
  0
LINE
  5
4A4
330
1F
100
AcDbEntity
  8
0
  6
Continuous
 62
     7
100
AcDbLine
 10
155.2268453213795
 20
230.3291000423262
 30
0.0
 11
154.1629383213795
 21
229.8213000423262
 31
0.0
  0
LINE
  5
4A5
330
1F
100
AcDbEntity
  8
0
  6
Continuous
 62
     7
100
AcDbLine
 10
154.7336043213795
 20
231.0369700423263
 30
0.0
 11
155.6936803213796
 21
230.5369700423263
 31
0.0
  0
LINE
  5
4A6
330
1F
100
AcDbEntity
  8
0
  6
Continuous
 62
     7
100
AcDbLine
 10
154.7336043213795
 20
231.0369700423263
 30
0.0
 11
154.9514003213795
 21
233.5263890423262
 31
0.0
  0
LINE
  5
4A7
330
1F
100
AcDbEntity
  8
0
  6
Continuous
 62
     7
100
AcDbLine
 10
151.5214433213795
 20
234.8213000423262
 30
0.0
 11
155.7724723213795
 21
234.8213000423262
 31
0.0
  0
LINE
  5
4A8
330
1F
100
AcDbEntity
  8
0
  6
Continuous
 62
     7
100
AcDbLine
 10
149.8580503213795
 20
238.8213000423262
 30
0.0
 11
154.3098433213796
 21
238.8213000423262
 31
0.0
  0
LINE
  5
4A9
330
1F
100
AcDbEntity
  8
0
  6
Continuous
 62
     7
100
AcDbLine
 10
142.2415623213795
 20
244.3025710423261
 30
0.0
 11
142.6570013213795
 21
249.0510640423263
 31
0.0
  0
LINE
  5
4AA
330
1F
100
AcDbEntity
  8
0
  6
Continuous
 62
     7
100
AcDbLine
 10
147.2592963213795
 20
244.2869700423263
 30
0.0
 11
147.6739413213795
 21
249.0263890423261
 31
0.0
  0
LINE
  5
4AB
330
1F
100
AcDbEntity
  8
0
  6
Continuous
 62
     7
100
AcDbLine
 10
143.8379573213795
 20
244.6213000423262
 30
0.0
 11
142.6692943213796
 21
244.0634990423263
 31
0.0
  0
LINE
  5
4AC
330
1F
100
AcDbEntity
  8
0
  6
Continuous
 62
     7
100
AcDbLine
 10
143.3938823213795
 20
244.8525710423262
 30
0.0
 11
142.2415623213795
 21
244.3025710423261
 31
0.0
  0
LINE
  5
4AD
330
1F
100
AcDbEntity
  8
0
  6
Continuous
 62
     7
100
AcDbLine
 10
145.7513563213795
 20
244.6213000423262
 30
0.0
 11
146.7924613213796
 21
244.079100042326
 31
0.0
  0
LINE
  5
4AE
330
1F
100
AcDbEntity
  8
0
  6
Continuous
 62
     7
100
AcDbLine
 10
146.2032133213796
 20
244.8369700423262
 30
0.0
 11
147.2592963213795
 21
244.2869700423263
 31
0.0
  0
LINE
  5
4AF
330
1F
100
AcDbEntity
  8
0
  6
Continuous
 62
     7
100
AcDbLine
 10
145.7967903213795
 20
240.1915360423263
 30
0.0
 11
146.0678733213795
 21
243.2900290423261
 31
0.0
  0
LINE
  5
4B0
330
1F
100
AcDbEntity
  8
0
  6
Continuous
 62
     7
100
AcDbLine
 10
146.7924613213796
 20
244.079100042326
 30
0.0
 11
145.6237983213795
 21
243.5213000423261
 31
0.0
  0
LINE
  5
4B1
330
1F
100
AcDbEntity
  8
0
  6
Continuous
 62
     7
100
AcDbLine
 10
142.9882533213795
 20
240.2162110423263
 30
0.0
 11
143.2585423213796
 21
243.3056290423261
 31
0.0
  0
LINE
  5
4B2
330
1F
100
AcDbEntity
  8
0
  6
Continuous
 62
     7
100
AcDbLine
 10
143.7104003213795
 20
243.5213000423261
 30
0.0
 11
145.6237983213795
 21
243.5213000423261
 31
0.0
  0
LINE
  5
4B3
330
1F
100
AcDbEntity
  8
0
  6
Continuous
 62
     7
100
AcDbLine
 10
143.2584893213795
 20
239.9213000423262
 30
0.0
 11
145.5018793213795
 21
239.9213000423262
 31
0.0
  0
LINE
  5
4B4
330
1F
100
AcDbEntity
  8
0
  6
Continuous
 62
     7
100
AcDbLine
 10
142.6692943213796
 20
244.0634990423263
 30
0.0
 11
143.7104003213795
 21
243.5213000423261
 31
0.0
  0
LINE
  5
4B5
330
1F
100
AcDbEntity
  8
0
  6
Continuous
 62
     7
100
AcDbLine
 10
147.2201943213795
 20
243.8400290423263
 30
0.0
 11
146.0678733213795
 21
243.2900290423261
 31
0.0
  0
LINE
  5
4B8
330
1F
100
AcDbEntity
  8
0
  6
Continuous
 62
     7
100
AcDbLine
 10
142.9519123213795
 20
249.3213000423262
 30
0.0
 11
147.4037053213795
 21
249.3213000423262
 31
0.0
  0
LINE
  5
4B9
330
1F
100
AcDbEntity
  8
0
  6
Continuous
 62
     7
100
AcDbLine
 10
143.9598763213796
 20
248.2213000423262
 30
0.0
 11
146.2032663213795
 21
248.2213000423262
 31
0.0
  0
LINE
  5
4BA
330
1F
100
AcDbEntity
  8
0
  6
Continuous
 62
     7
100
AcDbLine
 10
142.9519123213795
 20
249.3213000423262
 30
0.0
 11
143.9598763213796
 21
248.2213000423262
 31
0.0
  0
LINE
  5
4BB
330
1F
100
AcDbEntity
  8
0
  6
Continuous
 62
     7
100
AcDbLine
 10
142.6570013213795
 20
249.0510640423263
 30
0.0
 11
143.6649653213795
 21
247.9510640423262
 31
0.0
  0
LINE
  5
4BC
330
1F
100
AcDbEntity
  8
0
  6
Continuous
 62
     7
100
AcDbLine
 10
143.3938823213795
 20
244.8525710423262
 30
0.0
 11
143.6649653213795
 21
247.9510640423262
 31
0.0
  0
LINE
  5
4BD
330
1F
100
AcDbEntity
  8
0
  6
Continuous
 62
     7
100
AcDbLine
 10
143.8379573213795
 20
244.6213000423262
 30
0.0
 11
145.7513563213795
 21
244.6213000423262
 31
0.0
  0
LINE
  5
4BE
330
1F
100
AcDbEntity
  8
0
  6
Continuous
 62
     7
100
AcDbLine
 10
147.4037053213795
 20
249.3213000423262
 30
0.0
 11
146.2032663213795
 21
248.2213000423262
 31
0.0
  0
LINE
  5
4BF
330
1F
100
AcDbEntity
  8
0
  6
Continuous
 62
     7
100
AcDbLine
 10
147.6739413213795
 20
249.0263890423261
 30
0.0
 11
146.4735023213795
 21
247.9263890423263
 31
0.0
  0
LINE
  5
4C0
330
1F
100
AcDbEntity
  8
0
  6
Continuous
 62
     7
100
AcDbLine
 10
146.2032133213796
 20
244.8369700423262
 30
0.0
 11
146.4735023213795
 21
247.9263890423263
 31
0.0
  0
LINE
  5
4C1
330
1F
100
AcDbEntity
  8
0
  6
Continuous
 62
     7
100
AcDbLine
 10
150.0415623213795
 20
244.3025710423261
 30
0.0
 11
150.4570013213795
 21
249.0510640423263
 31
0.0
  0
LINE
  5
4C2
330
1F
100
AcDbEntity
  8
0
  6
Continuous
 62
     7
100
AcDbLine
 10
155.0592963213795
 20
244.2869700423263
 30
0.0
 11
155.4739413213795
 21
249.0263890423261
 31
0.0
  0
LINE
  5
4C3
330
1F
100
AcDbEntity
  8
0
  6
Continuous
 62
     7
100
AcDbLine
 10
151.6379573213795
 20
244.6213000423262
 30
0.0
 11
150.4692943213795
 21
244.0634990423263
 31
0.0
  0
LINE
  5
4C4
330
1F
100
AcDbEntity
  8
0
  6
Continuous
 62
     7
100
AcDbLine
 10
151.1938823213796
 20
244.8525710423262
 30
0.0
 11
150.0415623213795
 21
244.3025710423261
 31
0.0
  0
LINE
  5
4C5
330
1F
100
AcDbEntity
  8
0
  6
Continuous
 62
     7
100
AcDbLine
 10
153.5513563213795
 20
244.6213000423262
 30
0.0
 11
154.5924613213795
 21
244.079100042326
 31
0.0
  0
LINE
  5
4C6
330
1F
100
AcDbEntity
  8
0
  6
Continuous
 62
     7
100
AcDbLine
 10
154.0032133213795
 20
244.8369700423262
 30
0.0
 11
155.0592963213795
 21
244.2869700423263
 31
0.0
  0
LINE
  5
4C7
330
1F
100
AcDbEntity
  8
0
  6
Continuous
 62
     7
100
AcDbLine
 10
151.5104003213795
 20
243.5213000423261
 30
0.0
 11
153.4237983213795
 21
243.5213000423261
 31
0.0
  0
LINE
  5
4C8
330
1F
100
AcDbEntity
  8
0
  6
Continuous
 62
     7
100
AcDbLine
 10
150.7882533213795
 20
240.2162110423263
 30
0.0
 11
151.0585423213795
 21
243.3056290423261
 31
0.0
  0
LINE
  5
4C9
330
1F
100
AcDbEntity
  8
0
  6
Continuous
 62
     7
100
AcDbLine
 10
151.0584893213795
 20
239.9213000423262
 30
0.0
 11
153.3018793213795
 21
239.9213000423262
 31
0.0
  0
LINE
  5
4CA
330
1F
100
AcDbEntity
  8
0
  6
Continuous
 62
     7
100
AcDbLine
 10
150.4692943213795
 20
244.0634990423263
 30
0.0
 11
151.5104003213795
 21
243.5213000423261
 31
0.0
  0
LINE
  5
4CB
330
1F
100
AcDbEntity
  8
0
  6
Continuous
 62
     7
100
AcDbLine
 10
150.0024593213795
 20
243.8556290423262
 30
0.0
 11
151.0585423213795
 21
243.3056290423261
 31
0.0
  0
LINE
  5
4CC
330
1F
100
AcDbEntity
  8
0
  6
Continuous
 62
     7
100
AcDbLine
 10
155.0201943213795
 20
243.8400290423263
 30
0.0
 11
153.8678733213795
 21
243.2900290423261
 31
0.0
  0
LINE
  5
4CD
330
1F
100
AcDbEntity
  8
0
  6
Continuous
 62
     7
100
AcDbLine
 10
153.5967903213795
 20
240.1915360423263
 30
0.0
 11
153.8678733213795
 21
243.2900290423261
 31
0.0
  0
LINE
  5
4CE
330
1F
100
AcDbEntity
  8
0
  6
Continuous
 62
     7
100
AcDbLine
 10
154.5924613213795
 20
244.079100042326
 30
0.0
 11
153.4237983213795
 21
243.5213000423261
 31
0.0
  0
LINE
  5
4D1
330
1F
100
AcDbEntity
  8
0
  6
Continuous
 62
     7
100
AcDbLine
 10
150.7519123213795
 20
249.3213000423262
 30
0.0
 11
155.2037053213795
 21
249.3213000423262
 31
0.0
  0
LINE
  5
4D2
330
1F
100
AcDbEntity
  8
0
  6
Continuous
 62
     7
100
AcDbLine
 10
151.6379573213795
 20
244.6213000423262
 30
0.0
 11
153.5513563213795
 21
244.6213000423262
 31
0.0
  0
LINE
  5
4D3
330
1F
100
AcDbEntity
  8
0
  6
Continuous
 62
     7
100
AcDbLine
 10
151.7598763213795
 20
248.2213000423262
 30
0.0
 11
154.0032663213795
 21
248.2213000423262
 31
0.0
  0
LINE
  5
4D4
330
1F
100
AcDbEntity
  8
0
  6
Continuous
 62
     7
100
AcDbLine
 10
150.7519123213795
 20
249.3213000423262
 30
0.0
 11
151.7598763213795
 21
248.2213000423262
 31
0.0
  0
LINE
  5
4D5
330
1F
100
AcDbEntity
  8
0
  6
Continuous
 62
     7
100
AcDbLine
 10
150.4570013213795
 20
249.0510640423263
 30
0.0
 11
151.4649653213796
 21
247.9510640423262
 31
0.0
  0
LINE
  5
4D6
330
1F
100
AcDbEntity
  8
0
  6
Continuous
 62
     7
100
AcDbLine
 10
151.1938823213796
 20
244.8525710423262
 30
0.0
 11
151.4649653213796
 21
247.9510640423262
 31
0.0
  0
LINE
  5
4D7
330
1F
100
AcDbEntity
  8
0
  6
Continuous
 62
     7
100
AcDbLine
 10
155.2037053213795
 20
249.3213000423262
 30
0.0
 11
154.0032663213795
 21
248.2213000423262
 31
0.0
  0
LINE
  5
4D8
330
1F
100
AcDbEntity
  8
0
  6
Continuous
 62
     7
100
AcDbLine
 10
155.4739413213795
 20
249.0263890423261
 30
0.0
 11
154.2735023213795
 21
247.9263890423263
 31
0.0
  0
LINE
  5
4D9
330
1F
100
AcDbEntity
  8
0
  6
Continuous
 62
     7
100
AcDbLine
 10
154.0032133213795
 20
244.8369700423262
 30
0.0
 11
154.2735023213795
 21
247.9263890423263
 31
0.0
  0
LINE
  5
4DA
330
1F
100
AcDbEntity
  8
0
  6
Continuous
 62
     7
100
AcDbLine
 10
161.1018793213795
 20
239.9213000423262
 30
0.0
 11
162.1098433213795
 21
238.8213000423262
 31
0.0
  0
LINE
  5
4DB
330
1F
100
AcDbEntity
  8
0
  6
Continuous
 62
     7
100
AcDbLine
 10
158.8584893213795
 20
239.9213000423262
 30
0.0
 11
157.6580503213795
 21
238.8213000423262
 31
0.0
  0
LINE
  5
4DC
330
1F
100
AcDbEntity
  8
0
  6
Continuous
 62
     7
100
AcDbLine
 10
162.4047543213795
 20
239.0915360423263
 30
0.0
 11
162.8201943213795
 21
243.8400290423263
 31
0.0
  0
LINE
  5
4DD
330
1F
100
AcDbEntity
  8
0
  6
Continuous
 62
     7
100
AcDbLine
 10
158.5882533213796
 20
240.2162110423263
 30
0.0
 11
157.3878143213795
 21
239.1162110423262
 31
0.0
  0
LINE
  5
4DE
330
1F
100
AcDbEntity
  8
0
  6
Continuous
 62
     7
100
AcDbLine
 10
165.1878143213795
 20
239.1162110423262
 30
0.0
 11
165.6024593213795
 21
243.8556290423262
 31
0.0
  0
LINE
  5
4DF
330
1F
100
AcDbEntity
  8
0
  6
Continuous
 62
     7
100
AcDbLine
 10
170.2047543213796
 20
239.0915360423263
 30
0.0
 11
170.6201943213795
 21
243.8400290423263
 31
0.0
  0
LINE
  5
4E0
330
1F
100
AcDbEntity
  8
0
  6
Continuous
 62
     7
100
AcDbLine
 10
169.1967903213795
 20
240.1915360423263
 30
0.0
 11
170.2047543213796
 21
239.0915360423263
 31
0.0
  0
LINE
  5
4E1
330
1F
100
AcDbEntity
  8
0
  6
Continuous
 62
     7
100
AcDbLine
 10
168.9018793213795
 20
239.9213000423262
 30
0.0
 11
169.9098433213795
 21
238.8213000423262
 31
0.0
  0
LINE
  5
4E2
330
1F
100
AcDbEntity
  8
0
  6
Continuous
 62
     7
100
AcDbLine
 10
166.3882533213795
 20
240.2162110423263
 30
0.0
 11
165.1878143213795
 21
239.1162110423262
 31
0.0
  0
LINE
  5
4E3
330
1F
100
AcDbEntity
  8
0
  6
Continuous
 62
     7
100
AcDbLine
 10
166.6584893213795
 20
239.9213000423262
 30
0.0
 11
165.4580503213795
 21
238.8213000423262
 31
0.0
  0
LINE
  5
4E4
330
1F
100
AcDbEntity
  8
0
  6
Continuous
 62
     7
100
AcDbLine
 10
157.3878143213795
 20
239.1162110423262
 30
0.0
 11
157.8024593213795
 21
243.8556290423262
 31
0.0
  0
LINE
  5
4E5
330
1F
100
AcDbEntity
  8
0
  6
Continuous
 62
     7
100
AcDbLine
 10
161.3967903213795
 20
240.1915360423263
 30
0.0
 11
162.4047543213795
 21
239.0915360423263
 31
0.0
  0
LINE
  5
4E8
330
1F
100
AcDbEntity
  8
0
  6
Continuous
 62
     7
100
AcDbLine
 10
159.0214433213795
 20
234.8213000423262
 30
0.0
 11
159.9377743213795
 21
233.8213000423262
 31
0.0
  0
LINE
  5
4E9
330
1F
100
AcDbEntity
  8
0
  6
Continuous
 62
     7
100
AcDbLine
 10
158.3767093213795
 20
230.5525710423262
 30
0.0
 11
158.7265323213795
 21
234.5510640423261
 31
0.0
  0
LINE
  5
4EA
330
1F
100
AcDbEntity
  8
0
  6
Continuous
 62
     7
100
AcDbLine
 10
158.7265323213795
 20
234.5510640423261
 30
0.0
 11
159.6428633213796
 21
233.5510640423263
 31
0.0
  0
LINE
  5
4EB
330
1F
100
AcDbEntity
  8
0
  6
Continuous
 62
     7
100
AcDbLine
 10
163.2724723213795
 20
234.8213000423262
 30
0.0
 11
162.1811643213795
 21
233.8213000423262
 31
0.0
  0
LINE
  5
4EC
330
1F
100
AcDbEntity
  8
0
  6
Continuous
 62
     7
100
AcDbLine
 10
163.1936803213795
 20
230.5369700423263
 30
0.0
 11
163.5427083213795
 21
234.5263890423261
 31
0.0
  0
LINE
  5
4ED
330
1F
100
AcDbEntity
  8
0
  6
Continuous
 62
     7
100
AcDbLine
 10
163.5427083213795
 20
234.5263890423261
 30
0.0
 11
162.4514003213795
 21
233.5263890423262
 31
0.0
  0
LINE
  5
4EE
330
1F
100
AcDbEntity
  8
0
  6
Continuous
 62
     7
100
AcDbLine
 10
159.9377743213795
 20
233.8213000423262
 30
0.0
 11
162.1811643213795
 21
233.8213000423262
 31
0.0
  0
LINE
  5
4EF
330
1F
100
AcDbEntity
  8
0
  6
Continuous
 62
     7
100
AcDbLine
 10
159.8683483213795
 20
230.8213000423262
 30
0.0
 11
161.7817473213795
 21
230.8213000423262
 31
0.0
  0
LINE
  5
4F0
330
1F
100
AcDbEntity
  8
0
  6
Continuous
 62
     7
100
AcDbLine
 10
159.7495403213795
 20
229.8213000423262
 30
0.0
 11
161.6629383213795
 21
229.8213000423262
 31
0.0
  0
LINE
  5
4F1
330
1F
100
AcDbEntity
  8
0
  6
Continuous
 62
     7
100
AcDbLine
 10
159.4242733213795
 20
231.0525710423262
 30
0.0
 11
159.6428633213796
 21
233.5510640423263
 31
0.0
  0
LINE
  5
4F2
330
1F
100
AcDbEntity
  8
0
  6
Continuous
 62
     7
100
AcDbLine
 10
159.8683483213795
 20
230.8213000423262
 30
0.0
 11
158.8044423213795
 21
230.3134990423263
 31
0.0
  0
LINE
  5
4F3
330
1F
100
AcDbEntity
  8
0
  6
Continuous
 62
     7
100
AcDbLine
 10
159.2976823213795
 20
229.6056290423261
 30
0.0
 11
158.3376073213795
 21
230.1056290423261
 31
0.0
  0
LINE
  5
4F4
330
1F
100
AcDbEntity
  8
0
  6
Continuous
 62
     7
100
AcDbLine
 10
159.7495403213795
 20
229.8213000423262
 30
0.0
 11
158.8044423213795
 21
230.3134990423263
 31
0.0
  0
LINE
  5
4F5
330
1F
100
AcDbEntity
  8
0
  6
Continuous
 62
     7
100
AcDbLine
 10
159.4242733213795
 20
231.0525710423262
 30
0.0
 11
158.3767093213795
 21
230.5525710423262
 31
0.0
  0
LINE
  5
4F6
330
1F
100
AcDbEntity
  8
0
  6
Continuous
 62
     7
100
AcDbLine
 10
162.2336043213795
 20
231.0369700423263
 30
0.0
 11
162.4514003213795
 21
233.5263890423262
 31
0.0
  0
LINE
  5
4F7
330
1F
100
AcDbEntity
  8
0
  6
Continuous
 62
     7
100
AcDbLine
 10
163.1545773213795
 20
230.090029042326
 30
0.0
 11
162.1070133213795
 21
229.5900290423261
 31
0.0
  0
LINE
  5
4F8
330
1F
100
AcDbEntity
  8
0
  6
Continuous
 62
     7
100
AcDbLine
 10
161.7817473213795
 20
230.8213000423262
 30
0.0
 11
162.7268453213796
 21
230.3291000423262
 31
0.0
  0
LINE
  5
4F9
330
1F
100
AcDbEntity
  8
0
  6
Continuous
 62
     7
100
AcDbLine
 10
162.7268453213796
 20
230.3291000423262
 30
0.0
 11
161.6629383213795
 21
229.8213000423262
 31
0.0
  0
LINE
  5
4FA
330
1F
100
AcDbEntity
  8
0
  6
Continuous
 62
     7
100
AcDbLine
 10
162.2336043213795
 20
231.0369700423263
 30
0.0
 11
163.1936803213795
 21
230.5369700423263
 31
0.0
  0
LINE
  5
4FB
330
1F
100
AcDbEntity
  8
0
  6
Continuous
 62
     7
100
AcDbLine
 10
159.0214433213795
 20
234.8213000423262
 30
0.0
 11
163.2724723213795
 21
234.8213000423262
 31
0.0
  0
LINE
  5
4FC
330
1F
100
AcDbEntity
  8
0
  6
Continuous
 62
     7
100
AcDbLine
 10
157.6580503213795
 20
238.8213000423262
 30
0.0
 11
162.1098433213795
 21
238.8213000423262
 31
0.0
  0
LINE
  5
4FD
330
1F
100
AcDbEntity
  8
0
  6
Continuous
 62
     7
100
AcDbLine
 10
170.6936803213795
 20
230.5369700423263
 30
0.0
 11
171.0427083213795
 21
234.5263890423261
 31
0.0
  0
LINE
  5
4FE
330
1F
100
AcDbEntity
  8
0
  6
Continuous
 62
     7
100
AcDbLine
 10
166.2265323213795
 20
234.5510640423261
 30
0.0
 11
167.1428633213795
 21
233.5510640423263
 31
0.0
  0
LINE
  5
4FF
330
1F
100
AcDbEntity
  8
0
  6
Continuous
 62
     7
100
AcDbLine
 10
165.8767093213795
 20
230.5525710423262
 30
0.0
 11
166.2265323213795
 21
234.5510640423261
 31
0.0
  0
LINE
  5
500
330
1F
100
AcDbEntity
  8
0
  6
Continuous
 62
     7
100
AcDbLine
 10
170.7724723213795
 20
234.8213000423262
 30
0.0
 11
169.6811643213795
 21
233.8213000423262
 31
0.0
  0
LINE
  5
501
330
1F
100
AcDbEntity
  8
0
  6
Continuous
 62
     7
100
AcDbLine
 10
171.0427083213795
 20
234.5263890423261
 30
0.0
 11
169.9514003213796
 21
233.5263890423262
 31
0.0
  0
LINE
  5
502
330
1F
100
AcDbEntity
  8
0
  6
Continuous
 62
     7
100
AcDbLine
 10
166.5214433213795
 20
234.8213000423262
 30
0.0
 11
167.4377743213795
 21
233.8213000423262
 31
0.0
  0
LINE
  5
503
330
1F
100
AcDbEntity
  8
0
  6
Continuous
 62
     7
100
AcDbLine
 10
167.2495403213796
 20
229.8213000423262
 30
0.0
 11
169.1629383213795
 21
229.8213000423262
 31
0.0
  0
LINE
  5
504
330
1F
100
AcDbEntity
  8
0
  6
Continuous
 62
     7
100
AcDbLine
 10
167.3683483213795
 20
230.8213000423262
 30
0.0
 11
169.2817473213795
 21
230.8213000423262
 31
0.0
  0
LINE
  5
505
330
1F
100
AcDbEntity
  8
0
  6
Continuous
 62
     7
100
AcDbLine
 10
167.4377743213795
 20
233.8213000423262
 30
0.0
 11
169.6811643213795
 21
233.8213000423262
 31
0.0
  0
LINE
  5
506
330
1F
100
AcDbEntity
  8
0
  6
Continuous
 62
     7
100
AcDbLine
 10
167.2495403213796
 20
229.8213000423262
 30
0.0
 11
166.3044423213795
 21
230.3134990423263
 31
0.0
  0
LINE
  5
507
330
1F
100
AcDbEntity
  8
0
  6
Continuous
 62
     7
100
AcDbLine
 10
166.9242733213796
 20
231.0525710423262
 30
0.0
 11
165.8767093213795
 21
230.5525710423262
 31
0.0
  0
LINE
  5
508
330
1F
100
AcDbEntity
  8
0
  6
Continuous
 62
     7
100
AcDbLine
 10
166.9242733213796
 20
231.0525710423262
 30
0.0
 11
167.1428633213795
 21
233.5510640423263
 31
0.0
  0
LINE
  5
509
330
1F
100
AcDbEntity
  8
0
  6
Continuous
 62
     7
100
AcDbLine
 10
167.3683483213795
 20
230.8213000423262
 30
0.0
 11
166.3044423213795
 21
230.3134990423263
 31
0.0
  0
LINE
  5
50A
330
1F
100
AcDbEntity
  8
0
  6
Continuous
 62
     7
100
AcDbLine
 10
166.7976823213795
 20
229.6056290423261
 30
0.0
 11
165.8376073213795
 21
230.1056290423261
 31
0.0
  0
LINE
  5
50B
330
1F
100
AcDbEntity
  8
0
  6
Continuous
 62
     7
100
AcDbLine
 10
170.6545773213795
 20
230.090029042326
 30
0.0
 11
169.6070133213796
 21
229.5900290423261
 31
0.0
  0
LINE
  5
50C
330
1F
100
AcDbEntity
  8
0
  6
Continuous
 62
     7
100
AcDbLine
 10
169.7336043213795
 20
231.0369700423263
 30
0.0
 11
170.6936803213795
 21
230.5369700423263
 31
0.0
  0
LINE
  5
50D
330
1F
100
AcDbEntity
  8
0
  6
Continuous
 62
     7
100
AcDbLine
 10
169.2817473213795
 20
230.8213000423262
 30
0.0
 11
170.2268453213795
 21
230.3291000423262
 31
0.0
  0
LINE
  5
50E
330
1F
100
AcDbEntity
  8
0
  6
Continuous
 62
     7
100
AcDbLine
 10
169.7336043213795
 20
231.0369700423263
 30
0.0
 11
169.9514003213796
 21
233.5263890423262
 31
0.0
  0
LINE
  5
50F
330
1F
100
AcDbEntity
  8
0
  6
Continuous
 62
     7
100
AcDbLine
 10
170.2268453213795
 20
230.3291000423262
 30
0.0
 11
169.1629383213795
 21
229.8213000423262
 31
0.0
  0
LINE
  5
510
330
1F
100
AcDbEntity
  8
0
  6
Continuous
 62
     7
100
AcDbLine
 10
166.5214433213795
 20
234.8213000423262
 30
0.0
 11
170.7724723213795
 21
234.8213000423262
 31
0.0
  0
LINE
  5
511
330
1F
100
AcDbEntity
  8
0
  6
Continuous
 62
     7
100
AcDbLine
 10
165.4580503213795
 20
238.8213000423262
 30
0.0
 11
169.9098433213795
 21
238.8213000423262
 31
0.0
  0
LINE
  5
512
330
1F
100
AcDbEntity
  8
0
  6
Continuous
 62
     7
100
AcDbLine
 10
161.3513563213795
 20
244.6213000423262
 30
0.0
 11
162.3924613213795
 21
244.079100042326
 31
0.0
  0
LINE
  5
513
330
1F
100
AcDbEntity
  8
0
  6
Continuous
 62
     7
100
AcDbLine
 10
159.4379573213795
 20
244.6213000423262
 30
0.0
 11
158.2692943213795
 21
244.0634990423263
 31
0.0
  0
LINE
  5
514
330
1F
100
AcDbEntity
  8
0
  6
Continuous
 62
     7
100
AcDbLine
 10
157.8415623213795
 20
244.3025710423261
 30
0.0
 11
158.2570013213795
 21
249.0510640423263
 31
0.0
  0
LINE
  5
515
330
1F
100
AcDbEntity
  8
0
  6
Continuous
 62
     7
100
AcDbLine
 10
161.8032133213795
 20
244.8369700423262
 30
0.0
 11
162.8592963213795
 21
244.2869700423263
 31
0.0
  0
LINE
  5
516
330
1F
100
AcDbEntity
  8
0
  6
Continuous
 62
     7
100
AcDbLine
 10
158.9938823213795
 20
244.8525710423262
 30
0.0
 11
157.8415623213795
 21
244.3025710423261
 31
0.0
  0
LINE
  5
517
330
1F
100
AcDbEntity
  8
0
  6
Continuous
 62
     7
100
AcDbLine
 10
162.8592963213795
 20
244.2869700423263
 30
0.0
 11
163.2739413213796
 21
249.0263890423261
 31
0.0
  0
LINE
  5
518
330
1F
100
AcDbEntity
  8
0
  6
Continuous
 62
     7
100
AcDbLine
 10
158.8584893213795
 20
239.9213000423262
 30
0.0
 11
161.1018793213795
 21
239.9213000423262
 31
0.0
  0
LINE
  5
519
330
1F
100
AcDbEntity
  8
0
  6
Continuous
 62
     7
100
AcDbLine
 10
159.3104003213795
 20
243.5213000423261
 30
0.0
 11
161.2237983213795
 21
243.5213000423261
 31
0.0
  0
LINE
  5
51A
330
1F
100
AcDbEntity
  8
0
  6
Continuous
 62
     7
100
AcDbLine
 10
158.5882533213796
 20
240.2162110423263
 30
0.0
 11
158.8585423213795
 21
243.3056290423261
 31
0.0
  0
LINE
  5
51B
330
1F
100
AcDbEntity
  8
0
  6
Continuous
 62
     7
100
AcDbLine
 10
158.2692943213795
 20
244.0634990423263
 30
0.0
 11
159.3104003213795
 21
243.5213000423261
 31
0.0
  0
LINE
  5
51C
330
1F
100
AcDbEntity
  8
0
  6
Continuous
 62
     7
100
AcDbLine
 10
157.8024593213795
 20
243.8556290423262
 30
0.0
 11
158.8585423213795
 21
243.3056290423261
 31
0.0
  0
LINE
  5
51D
330
1F
100
AcDbEntity
  8
0
  6
Continuous
 62
     7
100
AcDbLine
 10
161.3967903213795
 20
240.1915360423263
 30
0.0
 11
161.6678733213795
 21
243.2900290423261
 31
0.0
  0
LINE
  5
51E
330
1F
100
AcDbEntity
  8
0
  6
Continuous
 62
     7
100
AcDbLine
 10
162.3924613213795
 20
244.079100042326
 30
0.0
 11
161.2237983213795
 21
243.5213000423261
 31
0.0
  0
LINE
  5
51F
330
1F
100
AcDbEntity
  8
0
  6
Continuous
 62
     7
100
AcDbLine
 10
162.8201943213795
 20
243.8400290423263
 30
0.0
 11
161.6678733213795
 21
243.2900290423261
 31
0.0
  0
LINE
  5
522
330
1F
100
AcDbEntity
  8
0
  6
Continuous
 62
     7
100
AcDbLine
 10
159.4379573213795
 20
244.6213000423262
 30
0.0
 11
161.3513563213795
 21
244.6213000423262
 31
0.0
  0
LINE
  5
523
330
1F
100
AcDbEntity
  8
0
  6
Continuous
 62
     7
100
AcDbLine
 10
159.5598763213796
 20
248.2213000423262
 30
0.0
 11
161.8032663213796
 21
248.2213000423262
 31
0.0
  0
LINE
  5
524
330
1F
100
AcDbEntity
  8
0
  6
Continuous
 62
     7
100
AcDbLine
 10
158.5519123213795
 20
249.3213000423262
 30
0.0
 11
163.0037053213795
 21
249.3213000423262
 31
0.0
  0
LINE
  5
525
330
1F
100
AcDbEntity
  8
0
  6
Continuous
 62
     7
100
AcDbLine
 10
158.9938823213795
 20
244.8525710423262
 30
0.0
 11
159.2649653213795
 21
247.9510640423262
 31
0.0
  0
LINE
  5
526
330
1F
100
AcDbEntity
  8
0
  6
Continuous
 62
     7
100
AcDbLine
 10
158.2570013213795
 20
249.0510640423263
 30
0.0
 11
159.2649653213795
 21
247.9510640423262
 31
0.0
  0
LINE
  5
527
330
1F
100
AcDbEntity
  8
0
  6
Continuous
 62
     7
100
AcDbLine
 10
158.5519123213795
 20
249.3213000423262
 30
0.0
 11
159.5598763213796
 21
248.2213000423262
 31
0.0
  0
LINE
  5
528
330
1F
100
AcDbEntity
  8
0
  6
Continuous
 62
     7
100
AcDbLine
 10
163.2739413213796
 20
249.0263890423261
 30
0.0
 11
162.0735023213795
 21
247.9263890423263
 31
0.0
  0
LINE
  5
529
330
1F
100
AcDbEntity
  8
0
  6
Continuous
 62
     7
100
AcDbLine
 10
161.8032133213795
 20
244.8369700423262
 30
0.0
 11
162.0735023213795
 21
247.9263890423263
 31
0.0
  0
LINE
  5
52A
330
1F
100
AcDbEntity
  8
0
  6
Continuous
 62
     7
100
AcDbLine
 10
163.0037053213795
 20
249.3213000423262
 30
0.0
 11
161.8032663213796
 21
248.2213000423262
 31
0.0
  0
LINE
  5
52B
330
1F
100
AcDbEntity
  8
0
  6
Continuous
 62
     7
100
AcDbLine
 10
167.2379573213795
 20
244.6213000423262
 30
0.0
 11
166.0692943213795
 21
244.0634990423263
 31
0.0
  0
LINE
  5
52C
330
1F
100
AcDbEntity
  8
0
  6
Continuous
 62
     7
100
AcDbLine
 10
169.1513563213795
 20
244.6213000423262
 30
0.0
 11
170.1924613213796
 21
244.079100042326
 31
0.0
  0
LINE
  5
52D
330
1F
100
AcDbEntity
  8
0
  6
Continuous
 62
     7
100
AcDbLine
 10
169.6032133213796
 20
244.8369700423262
 30
0.0
 11
170.6592963213795
 21
244.2869700423263
 31
0.0
  0
LINE
  5
52E
330
1F
100
AcDbEntity
  8
0
  6
Continuous
 62
     7
100
AcDbLine
 10
166.7938823213795
 20
244.8525710423262
 30
0.0
 11
165.6415623213795
 21
244.3025710423261
 31
0.0
  0
LINE
  5
52F
330
1F
100
AcDbEntity
  8
0
  6
Continuous
 62
     7
100
AcDbLine
 10
165.6415623213795
 20
244.3025710423261
 30
0.0
 11
166.0570013213795
 21
249.0510640423263
 31
0.0
  0
LINE
  5
530
330
1F
100
AcDbEntity
  8
0
  6
Continuous
 62
     7
100
AcDbLine
 10
170.6592963213795
 20
244.2869700423263
 30
0.0
 11
171.0739413213795
 21
249.0263890423261
 31
0.0
  0
LINE
  5
531
330
1F
100
AcDbEntity
  8
0
  6
Continuous
 62
     7
100
AcDbLine
 10
167.1104003213795
 20
243.5213000423261
 30
0.0
 11
169.0237983213795
 21
243.5213000423261
 31
0.0
  0
LINE
  5
532
330
1F
100
AcDbEntity
  8
0
  6
Continuous
 62
     7
100
AcDbLine
 10
166.6584893213795
 20
239.9213000423262
 30
0.0
 11
168.9018793213795
 21
239.9213000423262
 31
0.0
  0
LINE
  5
533
330
1F
100
AcDbEntity
  8
0
  6
Continuous
 62
     7
100
AcDbLine
 10
166.0692943213795
 20
244.0634990423263
 30
0.0
 11
167.1104003213795
 21
243.5213000423261
 31
0.0
  0
LINE
  5
534
330
1F
100
AcDbEntity
  8
0
  6
Continuous
 62
     7
100
AcDbLine
 10
165.6024593213795
 20
243.8556290423262
 30
0.0
 11
166.6585423213795
 21
243.3056290423261
 31
0.0
  0
LINE
  5
535
330
1F
100
AcDbEntity
  8
0
  6
Continuous
 62
     7
100
AcDbLine
 10
166.3882533213795
 20
240.2162110423263
 30
0.0
 11
166.6585423213795
 21
243.3056290423261
 31
0.0
  0
LINE
  5
536
330
1F
100
AcDbEntity
  8
0
  6
Continuous
 62
     7
100
AcDbLine
 10
170.6201943213795
 20
243.8400290423263
 30
0.0
 11
169.4678733213795
 21
243.2900290423261
 31
0.0
  0
LINE
  5
537
330
1F
100
AcDbEntity
  8
0
  6
Continuous
 62
     7
100
AcDbLine
 10
170.1924613213796
 20
244.079100042326
 30
0.0
 11
169.0237983213795
 21
243.5213000423261
 31
0.0
  0
LINE
  5
538
330
1F
100
AcDbEntity
  8
0
  6
Continuous
 62
     7
100
AcDbLine
 10
169.1967903213795
 20
240.1915360423263
 30
0.0
 11
169.4678733213795
 21
243.2900290423261
 31
0.0
  0
LINE
  5
539
330
1F
100
AcDbEntity
  8
0
  6
Continuous
 62
     7
100
AcDbLine
 10
171.9811123213795
 20
239.3213000423263
 30
0.0
 11
171.9811123213795
 21
239.3213000423263
 31
0.0
  0
LINE
  5
53A
330
1F
100
AcDbEntity
  8
0
  6
Continuous
 62
     7
100
AcDbLine
 10
166.3519123213795
 20
249.3213000423262
 30
0.0
 11
170.8037053213796
 21
249.3213000423262
 31
0.0
  0
LINE
  5
53B
330
1F
100
AcDbEntity
  8
0
  6
Continuous
 62
     7
100
AcDbLine
 10
167.2379573213795
 20
244.6213000423262
 30
0.0
 11
169.1513563213795
 21
244.6213000423262
 31
0.0
  0
LINE
  5
53C
330
1F
100
AcDbEntity
  8
0
  6
Continuous
 62
     7
100
AcDbLine
 10
167.3598763213795
 20
248.2213000423262
 30
0.0
 11
169.6032663213795
 21
248.2213000423262
 31
0.0
  0
LINE
  5
53D
330
1F
100
AcDbEntity
  8
0
  6
Continuous
 62
     7
100
AcDbLine
 10
166.7938823213795
 20
244.8525710423262
 30
0.0
 11
167.0649653213795
 21
247.9510640423262
 31
0.0
  0
LINE
  5
53E
330
1F
100
AcDbEntity
  8
0
  6
Continuous
 62
     7
100
AcDbLine
 10
166.0570013213795
 20
249.0510640423263
 30
0.0
 11
167.0649653213795
 21
247.9510640423262
 31
0.0
  0
LINE
  5
53F
330
1F
100
AcDbEntity
  8
0
  6
Continuous
 62
     7
100
AcDbLine
 10
166.3519123213795
 20
249.3213000423262
 30
0.0
 11
167.3598763213795
 21
248.2213000423262
 31
0.0
  0
LINE
  5
540
330
1F
100
AcDbEntity
  8
0
  6
Continuous
 62
     7
100
AcDbLine
 10
171.0739413213795
 20
249.0263890423261
 30
0.0
 11
169.8735023213795
 21
247.9263890423263
 31
0.0
  0
LINE
  5
541
330
1F
100
AcDbEntity
  8
0
  6
Continuous
 62
     7
100
AcDbLine
 10
169.6032133213796
 20
244.8369700423262
 30
0.0
 11
169.8735023213795
 21
247.9263890423263
 31
0.0
  0
LINE
  5
542
330
1F
100
AcDbEntity
  8
0
  6
Continuous
 62
     7
100
AcDbLine
 10
170.8037053213796
 20
249.3213000423262
 30
0.0
 11
169.6032663213795
 21
248.2213000423262
 31
0.0
  0
ARC
  5
543
330
1F
100
AcDbEntity
  8
0
  6
Continuous
 62
     7
100
AcDbCircle
 10
131.1811115743043
 20
257.0213007894013
 30
0.0
 40
0.9999992529251022
100
AcDbArc
 50
89.9999571957128
 51
180.0000428042863
  0
ARC
  5
544
330
1F
100
AcDbEntity
  8
0
  6
Continuous
 62
     7
100
AcDbCircle
 10
132.7811115743044
 20
255.4213007894013
 30
0.0
 40
0.9999992529251022
100
AcDbArc
 50
89.9999571957128
 51
180.0000428042863
  0
LINE
  5
545
330
1F
100
AcDbEntity
  8
0
  6
Continuous
 62
     7
100
AcDbLine
 10
230.8823083213794
 20
257.0213000423261
 30
0.0
 11
230.8823083213794
 21
209.0213000423263
 31
0.0
  0
LINE
  5
546
330
1F
100
AcDbEntity
  8
0
  6
Continuous
 62
     7
100
AcDbLine
 10
178.1811123213795
 20
257.0213000423261
 30
0.0
 11
178.1811123213795
 21
211.0213000423263
 31
0.0
  0
LINE
  5
547
330
1F
100
AcDbEntity
  8
0
  6
Continuous
 62
     7
100
AcDbLine
 10
227.8823083213795
 20
256.0213000423261
 30
0.0
 11
227.8823083213795
 21
210.0213000423263
 31
0.0
  0
LINE
  5
548
330
1F
100
AcDbEntity
  8
0
  6
Continuous
 62
     7
100
AcDbLine
 10
234.8823083213794
 20
255.3213000423262
 30
0.0
 11
234.8823083213794
 21
210.7213000423262
 31
0.0
  0
LINE
  5
549
330
1F
100
AcDbEntity
  8
0
  6
Continuous
 62
     7
100
AcDbLine
 10
176.5811123213795
 20
255.4213000423262
 30
0.0
 11
176.5811123213795
 21
212.6213000423263
 31
0.0
  0
LINE
  5
54A
330
1F
100
AcDbEntity
  8
0
  6
Continuous
 62
     7
100
AcDbLine
 10
228.8823083213795
 20
209.0213000423263
 30
0.0
 11
234.8823083213794
 21
209.0213000423263
 31
0.0
  0
LINE
  5
54B
330
1F
100
AcDbEntity
  8
0
  6
Continuous
 62
     7
100
AcDbLine
 10
172.7811123213796
 20
219.6213000423262
 30
0.0
 11
172.7811123213796
 21
217.6213000423263
 31
0.0
  0
ARC
  5
54C
330
1F
100
AcDbEntity
  8
0
  6
Continuous
 62
     7
100
AcDbCircle
 10
175.5811130684548
 20
212.621299295251
 30
0.0
 40
0.9999992529251022
100
AcDbArc
 50
269.9999571957127
 51
0.0000428042863661
  0
ARC
  5
54D
330
1F
100
AcDbEntity
  8
0
  6
Continuous
 62
     7
100
AcDbCircle
 10
177.1811130684548
 20
211.0212992952511
 30
0.0
 40
0.9999992529251022
100
AcDbArc
 50
269.9999571957127
 51
0.0000428042863661
  0
ARC
  5
54E
330
1F
100
AcDbEntity
  8
0
  6
Continuous
 62
     7
100
AcDbCircle
 10
228.8823075743043
 20
210.021299295251
 30
0.0
 40
0.9999992529251022
100
AcDbArc
 50
179.9999571957136
 51
270.0000428042855
  0
LINE
  5
54F
330
1F
100
AcDbEntity
  8
0
  6
DASHED
 62
     4
100
AcDbLine
 10
244.9002713213796
 20
207.3106370423261
 30
0.0
 11
244.8764593213796
 21
210.7213000423262
 31
0.0
  0
LINE
  5
550
330
1F
100
AcDbEntity
  8
0
  6
DASHED
 62
     4
100
AcDbLine
 10
246.9002223213795
 20
207.3246000423263
 30
0.0
 11
246.8765083213795
 21
210.7213000423262
 31
0.0
  0
LINE
  5
551
330
1F
100
AcDbEntity
  8
0
  6
DASHED
 62
     4
100
AcDbLine
 10
289.8822263213795
 20
202.4460820423263
 30
0.0
 11
287.0076693213795
 21
210.7213000423262
 31
0.0
  0
LINE
  5
552
330
1F
100
AcDbEntity
  8
0
  6
DASHED
 62
     4
100
AcDbLine
 10
285.6692773213796
 20
207.5952630423262
 30
0.0
 11
285.6474533213794
 21
210.7213000423262
 31
0.0
  0
LINE
  5
556
330
1F
100
AcDbEntity
  8
0
  6
DASHED
 62
     4
100
AcDbLine
 10
255.9453813213795
 20
200.8875890423263
 30
0.0
 11
246.9456003213795
 21
200.8247580423262
 31
0.0
  0
LINE
  5
557
330
1F
100
AcDbEntity
  8
0
  6
DASHED
 62
     4
100
AcDbLine
 10
246.9002223213795
 20
207.3246000423263
 30
0.0
 11
246.9456003213795
 21
200.8247580423262
 31
0.0
  0
LINE
  5
558
330
1F
100
AcDbEntity
  8
0
  6
DASHED
 62
     4
100
AcDbLine
 10
256.9383753213795
 20
201.8945460423262
 30
0.0
 11
256.8999783213795
 21
207.3944120423262
 31
0.0
  0
LINE
  5
559
330
1F
100
AcDbEntity
  8
0
  6
DASHED
 62
     4
100
AcDbLine
 10
254.9384243213796
 20
201.8805840423262
 30
0.0
 11
254.9000273213795
 21
207.3804500423263
 31
0.0
  0
ARC
  5
55A
330
1F
100
AcDbEntity
  8
0
  6
DASHED
 62
     4
100
AcDbCircle
 10
255.9384000736522
 20
201.8875643004843
 30
0.0
 40
0.9999996203932058
100
AcDbArc
 50
270.3999421343885
 51
0.4000277429629076
  0
ARC
  5
55B
330
1F
100
AcDbEntity
  8
0
  6
DASHED
 62
     4
100
AcDbCircle
 10
255.9383985795375
 20
201.8875642900535
 30
0.0
 40
0.9999996203932067
100
AcDbArc
 50
180.3999421343934
 51
270.4000277429676
  0
LINE
  5
55D
330
1F
100
AcDbEntity
  8
0
  6
DASHED
 62
     4
100
AcDbLine
 10
288.0876933213794
 20
207.6121470423262
 30
0.0
 11
244.9002713213796
 21
207.3106370423261
 31
0.0
  0
LINE
  5
55E
330
1F
100
AcDbEntity
  8
0
  6
DASHED
 62
     4
100
AcDbLine
 10
287.9929653213793
 20
201.7898110423263
 30
0.0
 11
285.9755863213796
 21
207.5974010423261
 31
0.0
  0
ARC
  5
55F
330
1F
100
AcDbEntity
  8
0
  6
DASHED
 62
     4
100
AcDbCircle
 10
288.9375953213796
 20
202.1179475423262
 30
0.0
 40
0.9999996997660966
100
AcDbArc
 50
199.1557135706979
 51
19.15571357069873
  0
ARC
  5
561
330
1F
100
AcDbEntity
  8
0
  6
DASHED
 62
     4
100
AcDbCircle
 10
287.3781770553157
 20
206.60716849748
 30
0.0
 40
1.000000910443925
100
AcDbArc
 50
19.15569219487062
 51
90.39996947680036
  0
LINE
  5
563
330
1F
100
AcDbEntity
  8
0
  6
Continuous
 62
     7
100
AcDbLine
 10
251.0823083213795
 20
218.7213000423263
 30
0.0
 11
243.8823083213796
 21
218.7213000423263
 31
0.0
  0
LINE
  5
564
330
1F
100
AcDbEntity
  8
0
  6
Continuous
 62
     7
100
AcDbLine
 10
243.8823083213796
 20
214.3213000423263
 30
0.0
 11
260.8823083213795
 21
214.3213000423263
 31
0.0
  0
LINE
  5
565
330
1F
100
AcDbEntity
  8
0
  6
Continuous
 62
     7
100
AcDbLine
 10
243.8823083213796
 20
218.7213000423263
 30
0.0
 11
243.8823083213796
 21
214.3213000423263
 31
0.0
  0
LINE
  5
566
330
1F
100
AcDbEntity
  8
0
  6
Continuous
 62
     7
100
AcDbLine
 10
234.8823083213794
 20
210.7213000423262
 30
0.0
 11
234.8823083213794
 21
209.0213000423263
 31
0.0
  0
LINE
  5
567
330
1F
100
AcDbEntity
  8
0
  6
Continuous
 62
     7
100
AcDbLine
 10
260.8823083213795
 20
214.3213000423263
 30
0.0
 11
260.8823083213795
 21
218.7213000423263
 31
0.0
  0
LINE
  5
568
330
1F
100
AcDbEntity
  8
0
  6
Continuous
 62
     7
100
AcDbLine
 10
260.8823083213795
 20
218.7213000423263
 30
0.0
 11
253.6823083213795
 21
218.7213000423263
 31
0.0
  0
LINE
  5
569
330
1F
100
AcDbEntity
  8
0
  6
Continuous
 62
     7
100
AcDbLine
 10
253.6823083213795
 20
218.7213000423263
 30
0.0
 11
253.6823083213795
 21
220.8213000423263
 31
0.0
  0
LINE
  5
56A
330
1F
100
AcDbEntity
  8
0
  6
Continuous
 62
     7
100
AcDbLine
 10
253.6823083213795
 20
220.8213000423263
 30
0.0
 11
251.0823083213795
 21
220.8213000423263
 31
0.0
  0
LINE
  5
56B
330
1F
100
AcDbEntity
  8
0
  6
Continuous
 62
     7
100
AcDbLine
 10
251.0823083213795
 20
218.7213000423263
 30
0.0
 11
251.0823083213795
 21
220.8213000423263
 31
0.0
  0
LINE
  5
56C
330
1F
100
AcDbEntity
  8
0
  6
Continuous
 62
     7
100
AcDbLine
 10
228.8823083213795
 20
257.0213000423261
 30
0.0
 11
234.8823083213794
 21
257.0213000423261
 31
0.0
  0
ARC
  5
56D
330
1F
100
AcDbEntity
  8
0
  6
Continuous
 62
     7
100
AcDbCircle
 10
175.5811130684548
 20
255.4213007894013
 30
0.0
 40
0.9999992529251022
100
AcDbArc
 50
359.9999571957136
 51
90.00004280428717
  0
ARC
  5
56E
330
1F
100
AcDbEntity
  8
0
  6
Continuous
 62
     7
100
AcDbCircle
 10
177.1811130684548
 20
257.0213007894013
 30
0.0
 40
0.9999992529251022
100
AcDbArc
 50
359.9999571957136
 51
90.00004280428717
  0
ARC
  5
56F
330
1F
100
AcDbEntity
  8
0
  6
Continuous
 62
     7
100
AcDbCircle
 10
228.8823075743043
 20
256.0213007894013
 30
0.0
 40
0.9999992529251022
100
AcDbArc
 50
89.9999571957128
 51
180.0000428042863
  0
LINE
  5
572
330
1F
100
AcDbEntity
  8
0
  6
Continuous
 62
     7
100
AcDbLine
 10
234.8823083213794
 20
257.0213000423261
 30
0.0
 11
234.8823083213794
 21
255.3213000423262
 31
0.0
  0
LINE
  5
573
330
1F
100
AcDbEntity
  8
0
  6
DASHED
 62
     4
100
AcDbLine
 10
244.9002713213796
 20
258.7319620423262
 30
0.0
 11
244.8764593213796
 21
255.3213000423262
 31
0.0
  0
LINE
  5
574
330
1F
100
AcDbEntity
  8
0
  6
DASHED
 62
     4
100
AcDbLine
 10
246.9002223213795
 20
258.7180000423261
 30
0.0
 11
246.9456003213795
 21
265.2178410423263
 31
0.0
  0
LINE
  5
575
330
1F
100
AcDbEntity
  8
0
  6
DASHED
 62
     4
100
AcDbLine
 10
256.9383753213795
 20
264.1480530423263
 30
0.0
 11
256.8999783213795
 21
258.6481870423261
 31
0.0
  0
LINE
  5
576
330
1F
100
AcDbEntity
  8
0
  6
DASHED
 62
     4
100
AcDbLine
 10
254.9384243213796
 20
264.1620160423262
 30
0.0
 11
254.9000273213795
 21
258.6621500423261
 31
0.0
  0
LINE
  5
577
330
1F
100
AcDbEntity
  8
0
  6
DASHED
 62
     4
100
AcDbLine
 10
288.0876931401816
 20
258.4304509361005
 30
0.0
 11
244.9002713213796
 21
258.7319620423262
 31
0.0
  0
LINE
  5
578
330
1F
100
AcDbEntity
  8
0
  6
DASHED
 62
     4
100
AcDbLine
 10
246.9002223213795
 20
258.7180000423261
 30
0.0
 11
246.8765083213795
 21
255.3213000423262
 31
0.0
  0
LINE
  5
579
330
1F
100
AcDbEntity
  8
0
  6
DASHED
 62
     4
100
AcDbLine
 10
255.9453813213795
 20
265.1550100423262
 30
0.0
 11
246.9456003213795
 21
265.2178410423263
 31
0.0
  0
ARC
  5
57A
330
1F
100
AcDbEntity
  8
0
  6
DASHED
 62
     4
100
AcDbCircle
 10
255.938400073652
 20
264.1550347841682
 30
0.0
 40
0.9999996203932447
100
AcDbArc
 50
359.5999722570353
 51
89.60005786560984
  0
ARC
  5
57B
330
1F
100
AcDbEntity
  8
0
  6
DASHED
 62
     4
100
AcDbCircle
 10
255.9383985795377
 20
264.1550347945988
 30
0.0
 40
0.9999996203933015
100
AcDbArc
 50
89.59997225703707
 51
179.6000578656098
  0
LINE
  5
57D
330
1F
100
AcDbEntity
  8
0
  6
DASHED
 62
     4
100
AcDbLine
 10
287.9929653213793
 20
264.2527880423263
 30
0.0
 11
285.9755863213796
 21
258.4451980423261
 31
0.0
  0
LINE
  5
57E
330
1F
100
AcDbEntity
  8
0
  6
DASHED
 62
     4
100
AcDbLine
 10
289.8822263213795
 20
263.5965170423261
 30
0.0
 11
287.0076693213795
 21
255.3213000423262
 31
0.0
  0
ARC
  5
581
330
1F
100
AcDbEntity
  8
0
  6
DASHED
 62
     4
100
AcDbCircle
 10
287.3781770553157
 20
259.4354305871722
 30
0.0
 40
1.000000910443879
100
AcDbArc
 50
269.6000305231947
 51
340.844307805127
  0
LINE
  5
583
330
1F
100
AcDbEntity
  8
0
  6
DASHED
 62
     4
100
AcDbLine
 10
285.6692773213796
 20
258.4473360423263
 30
0.0
 11
285.6474533213794
 21
255.3213000423262
 31
0.0
  0
ARC
  5
584
330
1F
100
AcDbEntity
  8
0
  6
DASHED
 62
     4
100
AcDbCircle
 10
288.9375948213794
 20
263.9246525423262
 30
0.0
 40
1.000000172081233
100
AcDbArc
 50
340.844295829719
 51
160.8442958297203
  0
LINE
  5
585
330
1F
100
AcDbEntity
  8
0
  6
Continuous
 62
     7
100
AcDbLine
 10
308.4823083213795
 20
110.2310600423263
 30
0.0
 11
308.4823083213795
 21
133.7355830423263
 31
0.0
  0
LINE
  5
586
330
1F
100
AcDbEntity
  8
0
  6
Continuous
 62
     7
100
AcDbLine
 10
309.0823083213796
 20
145.0310600423263
 30
0.0
 11
309.0823083213796
 21
120.0310600423263
 31
0.0
  0
LINE
  5
587
330
1F
100
AcDbEntity
  8
0
  6
Continuous
 62
     7
100
AcDbLine
 10
305.9823083213796
 20
112.5310600423263
 30
0.0
 11
305.9823083213796
 21
126.5310600423262
 31
0.0
  0
LINE
  5
588
330
1F
100
AcDbEntity
  8
0
  6
Continuous
 62
     7
100
AcDbLine
 10
303.4823083213796
 20
112.5310600423263
 30
0.0
 11
303.4823083213796
 21
126.5310600423262
 31
0.0
  0
ARC
  5
589
330
1F
100
AcDbEntity
  8
0
  6
Continuous
 62
     7
100
AcDbCircle
 10
318.2823090684548
 20
125.227013295251
 30
0.0
 40
0.999999252925088
100
AcDbArc
 50
269.9999571957127
 51
0.0000428042871804
  0
LINE
  5
58A
330
1F
100
AcDbEntity
  8
0
  6
Continuous
 62
     7
100
AcDbLine
 10
305.9823083213796
 20
112.5310600423263
 30
0.0
 11
303.4823083213796
 21
112.5310600423263
 31
0.0
  0
LINE
  5
58B
330
1F
100
AcDbEntity
  8
0
  6
Continuous
 62
     7
100
AcDbLine
 10
318.2823083213796
 20
124.2270140423262
 30
0.0
 11
309.0823083213796
 21
124.2270140423262
 31
0.0
  0
LINE
  5
58C
330
1F
100
AcDbEntity
  8
0
  6
Continuous
 62
     7
100
AcDbLine
 10
318.2823083213796
 20
122.0267380423263
 30
0.0
 11
309.0823083213796
 21
122.0267380423263
 31
0.0
  0
LINE
  5
58D
330
1F
100
AcDbEntity
  8
0
  6
Continuous
 62
     7
100
AcDbLine
 10
309.0823083213796
 20
120.0310600423263
 30
0.0
 11
308.4823083213795
 21
120.0310600423263
 31
0.0
  0
LINE
  5
58E
330
1F
100
AcDbEntity
  8
0
  6
Continuous
 62
     7
100
AcDbLine
 10
319.2823083213796
 20
123.0267380423263
 30
0.0
 11
319.2823083213796
 21
123.4267380423262
 31
0.0
  0
ARC
  5
58F
330
1F
100
AcDbEntity
  8
0
  6
Continuous
 62
     7
100
AcDbCircle
 10
318.2823090684548
 20
123.026737295251
 30
0.0
 40
0.999999252925088
100
AcDbArc
 50
269.9999571957127
 51
0.0000428042871804
  0
ARC
  5
590
330
1F
100
AcDbEntity
  8
0
  6
Continuous
 62
     7
100
AcDbCircle
 10
318.2823093972686
 20
123.4267387919457
 30
0.0
 40
0.9999989241111643
100
AcDbArc
 50
359.9999570499247
 51
64.17624143628858
  0
LINE
  5
591
330
1F
100
AcDbEntity
  8
0
  6
Continuous
 62
     7
100
AcDbLine
 10
321.7823083213796
 20
128.731060042326
 30
0.0
 11
318.5892943213796
 21
128.731060042326
 31
0.0
  0
LINE
  5
592
330
1F
100
AcDbEntity
  8
0
  6
Continuous
 62
     7
100
AcDbLine
 10
321.7823083213796
 20
136.3310600423263
 30
0.0
 11
318.5892943213796
 21
136.3310600423263
 31
0.0
  0
LINE
  5
593
330
1F
100
AcDbEntity
  8
0
  6
Continuous
 62
     7
100
AcDbLine
 10
308.4823083213795
 20
133.7355830423263
 30
0.0
 11
308.4823083213795
 21
154.8310600423261
 31
0.0
  0
LINE
  5
594
330
1F
100
AcDbEntity
  8
0
  6
Continuous
 62
     7
100
AcDbLine
 10
306.4822593213794
 20
144.5310960423263
 30
0.0
 11
306.4822513213796
 21
146.5310960423263
 31
0.0
  0
LINE
  5
595
330
1F
100
AcDbEntity
  8
0
  6
Continuous
 62
     7
100
AcDbLine
 10
302.4822593213794
 20
144.5310790423259
 30
0.0
 11
302.4822513213796
 21
146.5310790423259
 31
0.0
  0
LINE
  5
596
330
1F
100
AcDbEntity
  8
0
  6
Continuous
 62
     7
100
AcDbLine
 10
303.4822593213795
 20
144.5310830423263
 30
0.0
 11
303.4822513213796
 21
146.5310830423263
 31
0.0
  0
LINE
  5
597
330
1F
100
AcDbEntity
  8
0
  6
Continuous
 62
     7
100
AcDbLine
 10
299.4822593213795
 20
144.5310670423261
 30
0.0
 11
299.4822513213796
 21
146.5310670423261
 31
0.0
  0
LINE
  5
598
330
1F
100
AcDbEntity
  8
0
  6
Continuous
 62
     7
100
AcDbLine
 10
303.4822713213795
 20
141.5310830423263
 30
0.0
 11
306.4822713213796
 21
141.5310960423263
 31
0.0
  0
LINE
  5
599
330
1F
100
AcDbEntity
  8
0
  6
Continuous
 62
     7
100
AcDbLine
 10
303.4822593213795
 20
144.5310830423263
 30
0.0
 11
306.4822593213794
 21
144.5310960423263
 31
0.0
  0
LINE
  5
59A
330
1F
100
AcDbEntity
  8
0
  6
Continuous
 62
     7
100
AcDbLine
 10
303.4822633213796
 20
143.5310830423263
 30
0.0
 11
306.4822633213795
 21
143.5310960423263
 31
0.0
  0
LINE
  5
59B
330
1F
100
AcDbEntity
  8
0
  6
Continuous
 62
     7
100
AcDbLine
 10
294.3823083213796
 20
134.0311170423262
 30
0.0
 11
294.3823083213796
 21
144.0311170423263
 31
0.0
  0
LINE
  5
59C
330
1F
100
AcDbEntity
  8
0
  6
Continuous
 62
     7
100
AcDbLine
 10
306.2823083213795
 20
135.2810600423262
 30
0.0
 11
306.2823083213795
 21
129.7810600423262
 31
0.0
  0
LINE
  5
59D
330
1F
100
AcDbEntity
  8
0
  6
Continuous
 62
     7
100
AcDbLine
 10
302.0823083213796
 20
135.2810600423262
 30
0.0
 11
302.0823083213796
 21
129.7810600423262
 31
0.0
  0
LINE
  5
59E
330
1F
100
AcDbEntity
  8
0
  6
Continuous
 62
     7
100
AcDbLine
 10
305.9823083213796
 20
126.5310600423262
 30
0.0
 11
303.4823083213796
 21
126.5310600423262
 31
0.0
  0
LINE
  5
59F
330
1F
100
AcDbEntity
  8
0
  6
Continuous
 62
     7
100
AcDbLine
 10
306.2823083213795
 20
134.2810600423262
 30
0.0
 11
302.0823083213796
 21
134.2810600423262
 31
0.0
  0
LINE
  5
5A0
330
1F
100
AcDbEntity
  8
0
  6
Continuous
 62
     7
100
AcDbLine
 10
306.2823083213795
 20
130.7810600423262
 30
0.0
 11
302.0823083213796
 21
130.7810600423262
 31
0.0
  0
LINE
  5
5A1
330
1F
100
AcDbEntity
  8
0
  6
Continuous
 62
     7
100
AcDbLine
 10
306.2823083213795
 20
129.7810600423262
 30
0.0
 11
302.0823083213796
 21
129.7810600423262
 31
0.0
  0
LINE
  5
5A2
330
1F
100
AcDbEntity
  8
0
  6
Continuous
 62
     7
100
AcDbLine
 10
293.3823083213795
 20
143.031060042326
 30
0.0
 11
293.3823083213795
 21
137.0310600423262
 31
0.0
  0
LINE
  5
5A3
330
1F
100
AcDbEntity
  8
0
  6
Continuous
 62
     7
100
AcDbLine
 10
292.5823083213796
 20
142.231060042326
 30
0.0
 11
292.5823083213796
 21
137.8310600423262
 31
0.0
  0
LINE
  5
5A4
330
1F
100
AcDbEntity
  8
0
  6
Continuous
 62
     7
100
AcDbLine
 10
292.5823083213796
 20
137.231060042326
 30
0.0
 11
292.5823083213796
 21
137.0310600423262
 31
0.0
  0
LINE
  5
5A5
330
1F
100
AcDbEntity
  8
0
  6
Continuous
 62
     7
100
AcDbLine
 10
292.5823083213796
 20
141.231060042326
 30
0.0
 11
293.3823083213795
 21
141.231060042326
 31
0.0
  0
LINE
  5
5A6
330
1F
100
AcDbEntity
  8
0
  6
Continuous
 62
     7
100
AcDbLine
 10
306.2823083213795
 20
135.2810600423262
 30
0.0
 11
302.0823083213796
 21
135.2810600423262
 31
0.0
  0
LINE
  5
5A7
330
1F
100
AcDbEntity
  8
0
  6
Continuous
 62
     7
100
AcDbLine
 10
299.4822713213793
 20
141.5310670423261
 30
0.0
 11
299.4822633213796
 21
143.5310670423261
 31
0.0
  0
LINE
  5
5A8
330
1F
100
AcDbEntity
  8
0
  6
Continuous
 62
     7
100
AcDbLine
 10
302.4822713213796
 20
141.5310790423261
 30
0.0
 11
302.4822633213795
 21
143.5310790423261
 31
0.0
  0
LINE
  5
5A9
330
1F
100
AcDbEntity
  8
0
  6
Continuous
 62
     7
100
AcDbLine
 10
299.4822713213793
 20
141.5310670423261
 30
0.0
 11
302.4822713213796
 21
141.5310790423261
 31
0.0
  0
LINE
  5
5AA
330
1F
100
AcDbEntity
  8
0
  6
Continuous
 62
     7
100
AcDbLine
 10
299.4822593213795
 20
144.5310670423261
 30
0.0
 11
302.4822593213794
 21
144.5310790423259
 31
0.0
  0
LINE
  5
5AB
330
1F
100
AcDbEntity
  8
0
  6
Continuous
 62
     7
100
AcDbLine
 10
299.4822633213796
 20
143.5310670423261
 30
0.0
 11
302.4822633213795
 21
143.5310790423261
 31
0.0
  0
LINE
  5
5AC
330
1F
100
AcDbEntity
  8
0
  6
Continuous
 62
     7
100
AcDbLine
 10
303.4822713213795
 20
141.5310830423263
 30
0.0
 11
303.4822633213796
 21
143.5310830423263
 31
0.0
  0
ARC
  5
5AD
330
1F
100
AcDbEntity
  8
0
  6
Continuous
 62
     7
100
AcDbCircle
 10
318.2823090684546
 20
134.9793452952509
 30
0.0
 40
0.9999992529251448
100
AcDbArc
 50
269.999957195716
 51
0.000042804289623
  0
LINE
  5
5AE
330
1F
100
AcDbEntity
  8
0
  6
Continuous
 62
     7
100
AcDbLine
 10
320.2823083213796
 20
133.5310600423262
 30
0.0
 11
309.0823083213796
 21
133.5310600423262
 31
0.0
  0
LINE
  5
5AF
330
1F
100
AcDbEntity
  8
0
  6
Continuous
 62
     7
100
AcDbLine
 10
320.2823083213796
 20
131.5310600423262
 30
0.0
 11
309.0823083213796
 21
131.5310600423262
 31
0.0
  0
LINE
  5
5B0
330
1F
100
AcDbEntity
  8
0
  6
Continuous
 62
     7
100
AcDbLine
 10
318.2823083213796
 20
133.979346042326
 30
0.0
 11
309.0823083213796
 21
133.979346042326
 31
0.0
  0
LINE
  5
5B1
330
1F
100
AcDbEntity
  8
0
  6
Continuous
 62
     7
100
AcDbLine
 10
318.2823083213796
 20
131.0827730423262
 30
0.0
 11
309.0823083213796
 21
131.0827730423262
 31
0.0
  0
LINE
  5
5B2
330
1F
100
AcDbEntity
  8
0
  6
Continuous
 62
     7
100
AcDbLine
 10
318.2823083213796
 20
128.6827730423262
 30
0.0
 11
309.0823083213796
 21
128.6827730423262
 31
0.0
  0
LINE
  5
5B3
330
1F
100
AcDbEntity
  8
0
  6
Continuous
 62
     7
100
AcDbLine
 10
318.2823083213796
 20
126.6270140423262
 30
0.0
 11
309.0823083213796
 21
126.6270140423262
 31
0.0
  0
LINE
  5
5B4
330
1F
100
AcDbEntity
  8
0
  6
Continuous
 62
     7
100
AcDbLine
 10
318.2823083213796
 20
128.6490360423262
 30
0.0
 11
309.0823083213796
 21
128.6490360423262
 31
0.0
  0
ARC
  5
5B5
330
1F
100
AcDbEntity
  8
0
  6
Continuous
 62
     7
100
AcDbCircle
 10
318.2823090684548
 20
129.6827722952511
 30
0.0
 40
0.9999992529251022
100
AcDbArc
 50
269.9999571957127
 51
0.0000428042863661
  0
LINE
  5
5B6
330
1F
100
AcDbEntity
  8
0
  6
Continuous
 62
     7
100
AcDbLine
 10
319.2823083213796
 20
125.2270140423262
 30
0.0
 11
319.2823083213796
 21
125.6270140423262
 31
0.0
  0
LINE
  5
5B7
330
1F
100
AcDbEntity
  8
0
  6
Continuous
 62
     7
100
AcDbLine
 10
319.2823083213796
 20
127.2490360423262
 30
0.0
 11
319.2823083213796
 21
127.6490360423263
 31
0.0
  0
ARC
  5
5B8
330
1F
100
AcDbEntity
  8
0
  6
Continuous
 62
     7
100
AcDbCircle
 10
318.2823090684548
 20
125.6270147894013
 30
0.0
 40
0.9999992529251022
100
AcDbArc
 50
359.9999571957136
 51
90.00004280428717
  0
ARC
  5
5B9
330
1F
100
AcDbEntity
  8
0
  6
Continuous
 62
     7
100
AcDbCircle
 10
318.2823090684548
 20
127.6490367894014
 30
0.0
 40
0.9999992529251022
100
AcDbArc
 50
359.9999571957126
 51
90.00004280428717
  0
ARC
  5
5BA
330
1F
100
AcDbEntity
  8
0
  6
Continuous
 62
     7
100
AcDbCircle
 10
318.2823082497536
 20
127.2490360092581
 30
0.0
 40
1.000000071625944
100
AcDbArc
 50
305.8051821493393
 51
0.0000018946530651
  0
LINE
  5
5BB
330
1F
100
AcDbEntity
  8
0
  6
Continuous
 62
     7
100
AcDbLine
 10
319.2823083213796
 20
129.6827730423262
 30
0.0
 11
319.2823083213796
 21
130.0827730423262
 31
0.0
  0
ARC
  5
5BC
330
1F
100
AcDbEntity
  8
0
  6
Continuous
 62
     7
100
AcDbCircle
 10
320.2823083213796
 20
132.5310600423262
 30
0.0
 40
1.0
100
AcDbArc
 50
270.0
 51
90.0
  0
ARC
  5
5BD
330
1F
100
AcDbEntity
  8
0
  6
Continuous
 62
     7
100
AcDbCircle
 10
318.2823090684548
 20
130.0827737894013
 30
0.0
 40
0.9999992529251022
100
AcDbArc
 50
359.9999571957126
 51
90.00004280428717
  0
LINE
  5
5BE
330
1F
100
AcDbEntity
  8
0
  6
Continuous
 62
     7
100
AcDbLine
 10
318.2823083213796
 20
136.3793460423262
 30
0.0
 11
309.0823083213796
 21
136.3793460423262
 31
0.0
  0
LINE
  5
5BF
330
1F
100
AcDbEntity
  8
0
  6
Continuous
 62
     7
100
AcDbLine
 10
318.2823083213796
 20
140.8351060423261
 30
0.0
 11
309.0823083213796
 21
140.8351060423261
 31
0.0
  0
LINE
  5
5C0
330
1F
100
AcDbEntity
  8
0
  6
Continuous
 62
     7
100
AcDbLine
 10
318.2823083213796
 20
138.435106042326
 30
0.0
 11
309.0823083213796
 21
138.435106042326
 31
0.0
  0
LINE
  5
5C1
330
1F
100
AcDbEntity
  8
0
  6
Continuous
 62
     7
100
AcDbLine
 10
318.2823083213796
 20
143.0353810423263
 30
0.0
 11
309.0823083213796
 21
143.0353810423263
 31
0.0
  0
LINE
  5
5C2
330
1F
100
AcDbEntity
  8
0
  6
Continuous
 62
     7
100
AcDbLine
 10
318.2823083213796
 20
136.4130830423262
 30
0.0
 11
309.0823083213796
 21
136.4130830423262
 31
0.0
  0
LINE
  5
5C3
330
1F
100
AcDbEntity
  8
0
  6
Continuous
 62
     7
100
AcDbLine
 10
309.0823083213796
 20
145.0310600423263
 30
0.0
 11
308.4823083213795
 21
145.0310600423263
 31
0.0
  0
LINE
  5
5C4
330
1F
100
AcDbEntity
  8
0
  6
Continuous
 62
     7
100
AcDbLine
 10
308.4823083213795
 20
145.0310600423263
 30
0.0
 11
309.0823083213796
 21
145.0310600423263
 31
0.0
  0
LINE
  5
5C5
330
1F
100
AcDbEntity
  8
0
  6
Continuous
 62
     7
100
AcDbLine
 10
309.0823083213796
 20
145.0310600423263
 30
0.0
 11
308.4823083213795
 21
145.0310600423263
 31
0.0
  0
LINE
  5
5C6
330
1F
100
AcDbEntity
  8
0
  6
Continuous
 62
     7
100
AcDbLine
 10
306.4822713213796
 20
141.5310960423263
 30
0.0
 11
306.4822633213795
 21
143.5310960423263
 31
0.0
  0
ARC
  5
5C7
330
1F
100
AcDbEntity
  8
0
  6
Continuous
 62
     7
100
AcDbCircle
 10
318.2823090684548
 20
139.8351067894014
 30
0.0
 40
0.9999992529251022
100
AcDbArc
 50
359.9999571957126
 51
90.00004280428717
  0
LINE
  5
5C8
330
1F
100
AcDbEntity
  8
0
  6
Continuous
 62
     7
100
AcDbLine
 10
319.2823083213796
 20
134.9793460423262
 30
0.0
 11
319.2823083213796
 21
135.3793460423262
 31
0.0
  0
LINE
  5
5C9
330
1F
100
AcDbEntity
  8
0
  6
Continuous
 62
     7
100
AcDbLine
 10
319.2823083213796
 20
139.435106042326
 30
0.0
 11
319.2823083213796
 21
139.8351060423262
 31
0.0
  0
LINE
  5
5CA
330
1F
100
AcDbEntity
  8
0
  6
Continuous
 62
     7
100
AcDbLine
 10
319.2823083213796
 20
137.4130830423262
 30
0.0
 11
319.2823083213796
 21
137.8130830423262
 31
0.0
  0
ARC
  5
5CB
330
1F
100
AcDbEntity
  8
0
  6
Continuous
 62
     7
100
AcDbCircle
 10
318.2823090684548
 20
135.3793467894014
 30
0.0
 40
0.9999992529251022
100
AcDbArc
 50
359.9999571957136
 51
90.00004280428717
  0
ARC
  5
5CC
330
1F
100
AcDbEntity
  8
0
  6
Continuous
 62
     7
100
AcDbCircle
 10
318.2823090684548
 20
139.435105295251
 30
0.0
 40
0.999999252925088
100
AcDbArc
 50
269.9999571957127
 51
0.0000428042871804
  0
ARC
  5
5CD
330
1F
100
AcDbEntity
  8
0
  6
Continuous
 62
     7
100
AcDbCircle
 10
318.2823077497536
 20
137.8130820981996
 30
0.0
 40
1.000000571626419
100
AcDbArc
 50
0.0000540944432989
 51
54.19487383975642
  0
ARC
  5
5CE
330
1F
100
AcDbEntity
  8
0
  6
Continuous
 62
     7
100
AcDbCircle
 10
318.2823090684548
 20
137.4130822952511
 30
0.0
 40
0.999999252925088
100
AcDbArc
 50
269.9999571957127
 51
0.0000428042871804
  0
LINE
  5
5CF
330
1F
100
AcDbEntity
  8
0
  6
Continuous
 62
     7
100
AcDbLine
 10
319.2823083213796
 20
141.6353810423261
 30
0.0
 11
319.2823083213796
 21
142.0353810423263
 31
0.0
  0
ARC
  5
5D0
330
1F
100
AcDbEntity
  8
0
  6
Continuous
 62
     7
100
AcDbCircle
 10
318.2823093972686
 20
141.6353802927066
 30
0.0
 40
0.9999989241111196
100
AcDbArc
 50
295.8237585637096
 51
0.0000429500752576
  0
ARC
  5
5D1
330
1F
100
AcDbEntity
  8
0
  6
Continuous
 62
     7
100
AcDbCircle
 10
318.2823090684548
 20
142.0353817894013
 30
0.0
 40
0.9999992529251022
100
AcDbArc
 50
359.9999571957126
 51
90.00004280428717
  0
LINE
  5
5D2
330
1F
100
AcDbEntity
  8
0
  6
Continuous
 62
     7
100
AcDbLine
 10
303.4822513213796
 20
146.5310830423263
 30
0.0
 11
306.4822513213796
 21
146.5310960423263
 31
0.0
  0
LINE
  5
5D3
330
1F
100
AcDbEntity
  8
0
  6
Continuous
 62
     7
100
AcDbLine
 10
299.4822513213796
 20
146.5310670423261
 30
0.0
 11
302.4822513213796
 21
146.5310790423259
 31
0.0
  0
LINE
  5
5D4
330
1F
100
AcDbEntity
  8
0
  6
Continuous
 62
     7
100
AcDbLine
 10
322.7823083213795
 20
133.7310600423263
 30
0.0
 11
322.7823083213795
 21
135.3310600423263
 31
0.0
  0
ARC
  5
5D5
330
1F
100
AcDbEntity
  8
0
  6
Continuous
 62
     7
100
AcDbCircle
 10
321.7823090684547
 20
129.7310592952509
 30
0.0
 40
0.9999992529250596
100
AcDbArc
 50
269.999957195716
 51
0.0000428042888088
  0
LINE
  5
5D6
330
1F
100
AcDbEntity
  8
0
  6
Continuous
 62
     7
100
AcDbLine
 10
322.7823083213795
 20
129.731060042326
 30
0.0
 11
322.7823083213795
 21
131.3310600423263
 31
0.0
  0
LINE
  5
5D7
330
1F
100
AcDbEntity
  8
0
  6
Continuous
 62
     7
100
AcDbLine
 10
322.7823083213795
 20
133.7310600423263
 30
0.0
 11
322.7823083213795
 21
131.3310600423263
 31
0.0
  0
ARC
  5
5D8
330
1F
100
AcDbEntity
  8
0
  6
Continuous
 62
     7
100
AcDbCircle
 10
321.7823090684547
 20
135.3310607894015
 30
0.0
 40
0.9999992529250738
100
AcDbArc
 50
359.9999571957103
 51
90.00004280428392
  0
ARC
  5
5D9
330
1F
100
AcDbEntity
  8
0
  6
Continuous
 62
     7
100
AcDbCircle
 10
321.7823090684547
 20
135.3310607894015
 30
0.0
 40
0.9999992529250738
100
AcDbArc
 50
359.9999571957103
 51
90.00004280428392
  0
ARC
  5
5DA
330
1F
100
AcDbEntity
  8
0
  6
Continuous
 62
     7
100
AcDbCircle
 10
321.7823090684547
 20
135.3310607894015
 30
0.0
 40
0.9999992529250738
100
AcDbArc
 50
359.9999571957103
 51
90.00004280428392
  0
LINE
  5
5DB
330
1F
100
AcDbEntity
  8
0
  6
Continuous
 62
     7
100
AcDbLine
 10
384.6911793213794
 20
210.7213000423262
 30
0.0
 11
429.2911793213794
 21
210.7213000423262
 31
0.0
  0
LINE
  5
5DC
330
1F
100
AcDbEntity
  8
0
  6
Continuous
 62
     7
100
AcDbLine
 10
429.2911793213794
 20
255.3213000423262
 30
0.0
 11
384.6911793213794
 21
255.3213000423262
 31
0.0
  0
LINE
  5
5DD
330
1F
100
AcDbEntity
  8
0
  6
Continuous
 62
     7
100
AcDbLine
 10
419.0911793213796
 20
253.8213000423263
 30
0.0
 11
394.8911793213797
 21
253.8213000423263
 31
0.0
  0
LINE
  5
5DE
330
1F
100
AcDbEntity
  8
0
  6
Continuous
 62
     7
100
AcDbLine
 10
394.8911793213797
 20
212.2213000423261
 30
0.0
 11
419.0911793213796
 21
212.2213000423261
 31
0.0
  0
LINE
  5
5DF
330
1F
100
AcDbEntity
  8
0
  6
Continuous
 62
     7
100
AcDbLine
 10
429.9911793213794
 20
257.0213000423261
 30
0.0
 11
383.9911793213796
 21
257.0213000423261
 31
0.0
  0
LINE
  5
5E0
330
1F
100
AcDbEntity
  8
0
  6
Continuous
 62
     7
100
AcDbLine
 10
383.9911793213796
 20
209.0213000423263
 30
0.0
 11
429.9911793213794
 21
209.0213000423263
 31
0.0
  0
LINE
  5
5E1
330
1F
100
AcDbEntity
  8
0
  6
Continuous
 62
     7
100
AcDbLine
 10
413.9813953213796
 20
223.2697710423261
 30
0.0
 11
410.7375503213794
 21
228.3172920423262
 31
0.0
  0
LINE
  5
5E2
330
1F
100
AcDbEntity
  8
0
  6
Continuous
 62
     7
100
AcDbLine
 10
412.9733553213797
 20
222.6187250423262
 30
0.0
 11
409.7295103213796
 21
227.6662460423262
 31
0.0
  0
LINE
  5
5E3
330
1F
100
AcDbEntity
  8
0
  6
Continuous
 62
     7
100
AcDbLine
 10
410.9354283213794
 20
244.3545650423262
 30
0.0
 11
409.2450333213793
 21
238.5976070423263
 31
0.0
  0
LINE
  5
5E4
330
1F
100
AcDbEntity
  8
0
  6
Continuous
 62
     7
100
AcDbLine
 10
409.7832743213793
 20
244.6900460423262
 30
0.0
 11
410.9354283213794
 21
244.3545650423262
 31
0.0
  0
ARC
  5
5E5
330
1F
100
AcDbEntity
  8
0
  6
Continuous
 62
     7
100
AcDbCircle
 10
406.9911776550663
 20
233.0212983760129
 30
0.0
 40
13.0000016663134
100
AcDbArc
 50
89.99999265594556
 51
0.0000073440544439
  0
ARC
  5
5E6
330
1F
100
AcDbEntity
  8
0
  6
Continuous
 62
     7
100
AcDbCircle
 10
406.9911890333568
 20
233.0213097543035
 30
0.0
 40
12.99999028802618
100
AcDbArc
 50
359.9999571957126
 51
90.00004280428717
  0
ARC
  5
5E8
330
1F
100
AcDbEntity
  8
0
  6
Continuous
 62
     7
100
AcDbCircle
 10
406.9911821602653
 20
233.0213028812119
 30
0.0
 40
3.799997161115336
100
AcDbArc
 50
359.9999571957126
 51
90.00004280428717
  0
ARC
  5
5E9
330
1F
100
AcDbEntity
  8
0
  6
Continuous
 62
     7
100
AcDbCircle
 10
409.6394651675658
 20
224.0020658885126
 30
0.0
 40
1.200000153813572
100
AcDbArc
 50
89.99999265594556
 51
0.0000073440552581
  0
ARC
  5
5EA
330
1F
100
AcDbEntity
  8
0
  6
Continuous
 62
     7
100
AcDbCircle
 10
409.6394662178696
 20
224.0020669388163
 30
0.0
 40
1.199999103510144
100
AcDbArc
 50
359.9999571957136
 51
90.00004280428717
  0
LINE
  5
5EB
330
1F
100
AcDbEntity
  8
0
  6
Continuous
 62
     7
100
AcDbLine
 10
384.6911793213794
 20
255.3213000423262
 30
0.0
 11
384.6911793213794
 21
210.7213000423262
 31
0.0
  0
LINE
  5
5EC
330
1F
100
AcDbEntity
  8
0
  6
Continuous
 62
     7
100
AcDbLine
 10
390.6911793213794
 20
253.8213000423263
 30
0.0
 11
390.6911793213794
 21
249.3213000423262
 31
0.0
  0
LINE
  5
5ED
330
1F
100
AcDbEntity
  8
0
  6
Continuous
 62
     7
100
AcDbLine
 10
382.9911793213795
 20
256.0213000423261
 30
0.0
 11
382.9911793213795
 21
210.0213000423263
 31
0.0
  0
LINE
  5
5EE
330
1F
100
AcDbEntity
  8
0
  6
Continuous
 62
     7
100
AcDbLine
 10
308.4823083213795
 20
255.3213000423262
 30
0.0
 11
308.4823083213795
 21
210.7213000423262
 31
0.0
  0
LINE
  5
5EF
330
1F
100
AcDbEntity
  8
0
  6
Continuous
 62
     7
100
AcDbLine
 10
321.2823083213796
 20
229.2213000423263
 30
0.0
 11
321.7823083213796
 21
229.2213000423263
 31
0.0
  0
LINE
  5
5F0
330
1F
100
AcDbEntity
  8
0
  6
Continuous
 62
     7
100
AcDbLine
 10
319.2823083213796
 20
236.8213000423262
 30
0.0
 11
321.7823083213796
 21
236.8213000423262
 31
0.0
  0
ARC
  5
5F1
330
1F
100
AcDbEntity
  8
0
  6
Continuous
 62
     7
100
AcDbCircle
 10
320.2605188051541
 20
225.4140240209856
 30
0.0
 40
3.941805256914903
100
AcDbArc
 50
74.97707674120568
 51
89.68324963122162
  0
ARC
  5
5F2
330
1F
100
AcDbEntity
  8
0
  6
Continuous
 62
     7
100
AcDbCircle
 10
320.2823090684548
 20
229.0212992952509
 30
0.0
 40
0.9999992529251022
100
AcDbArc
 50
269.9999571957127
 51
0.0000428042863661
  0
LINE
  5
5F3
330
1F
100
AcDbEntity
  8
0
  6
Continuous
 62
     7
100
AcDbLine
 10
309.0823083213796
 20
220.5213000423261
 30
0.0
 11
309.0823083213796
 21
245.5213000423261
 31
0.0
  0
LINE
  5
5F4
330
1F
100
AcDbEntity
  8
0
  6
Continuous
 62
     7
100
AcDbLine
 10
318.2823083213796
 20
228.0656090423263
 30
0.0
 11
309.0823083213796
 21
228.0656090423263
 31
0.0
  0
LINE
  5
5F5
330
1F
100
AcDbEntity
  8
0
  6
Continuous
 62
     7
100
AcDbLine
 10
318.2823083213796
 20
225.6656090423263
 30
0.0
 11
309.0823083213796
 21
225.6656090423263
 31
0.0
  0
LINE
  5
5F6
330
1F
100
AcDbEntity
  8
0
  6
Continuous
 62
     7
100
AcDbLine
 10
318.2823083213796
 20
225.2020660423263
 30
0.0
 11
309.0823083213796
 21
225.2020660423263
 31
0.0
  0
LINE
  5
5F7
330
1F
100
AcDbEntity
  8
0
  6
Continuous
 62
     7
100
AcDbLine
 10
318.2823083213796
 20
222.8020660423263
 30
0.0
 11
309.0823083213796
 21
222.8020660423263
 31
0.0
  0
LINE
  5
5F8
330
1F
100
AcDbEntity
  8
0
  6
Continuous
 62
     7
100
AcDbLine
 10
308.4823083213795
 20
220.5213000423261
 30
0.0
 11
309.0823083213796
 21
220.5213000423261
 31
0.0
  0
ARC
  5
5F9
330
1F
100
AcDbEntity
  8
0
  6
Continuous
 62
     7
100
AcDbCircle
 10
318.2823090684548
 20
223.802065295251
 30
0.0
 40
0.9999992529251022
100
AcDbArc
 50
269.9999571957127
 51
0.0000428042863661
  0
LINE
  5
5FA
330
1F
100
AcDbEntity
  8
0
  6
Continuous
 62
     7
100
AcDbLine
 10
320.2823083213796
 20
228.0213000423262
 30
0.0
 11
318.5766803213796
 21
228.0213000423262
 31
0.0
  0
LINE
  5
5FB
330
1F
100
AcDbEntity
  8
0
  6
Continuous
 62
     7
100
AcDbLine
 10
319.2823083213796
 20
227.0656090423263
 30
0.0
 11
319.2823083213796
 21
226.6656090423263
 31
0.0
  0
LINE
  5
5FC
330
1F
100
AcDbEntity
  8
0
  6
Continuous
 62
     7
100
AcDbLine
 10
319.2823083213796
 20
224.2020660423263
 30
0.0
 11
319.2823083213796
 21
223.8020660423263
 31
0.0
  0
ARC
  5
5FD
330
1F
100
AcDbEntity
  8
0
  6
Continuous
 62
     7
100
AcDbCircle
 10
318.2823090684548
 20
226.665608295251
 30
0.0
 40
0.9999992529251022
100
AcDbArc
 50
269.9999571957127
 51
0.0000428042863661
  0
ARC
  5
5FE
330
1F
100
AcDbEntity
  8
0
  6
Continuous
 62
     7
100
AcDbCircle
 10
318.2823090684548
 20
227.0656097894014
 30
0.0
 40
0.9999992529251022
100
AcDbArc
 50
359.9999571957136
 51
90.00004280428717
  0
ARC
  5
5FF
330
1F
100
AcDbEntity
  8
0
  6
Continuous
 62
     7
100
AcDbCircle
 10
318.2823090684548
 20
224.2020667894013
 30
0.0
 40
0.9999992529251022
100
AcDbArc
 50
359.9999571957136
 51
90.00004280428717
  0
LINE
  5
600
330
1F
100
AcDbEntity
  8
0
  6
Continuous
 62
     7
100
AcDbLine
 10
306.1823083213796
 20
236.0213000423262
 30
0.0
 11
306.1823083213796
 21
230.0213000423262
 31
0.0
  0
LINE
  5
601
330
1F
100
AcDbEntity
  8
0
  6
Continuous
 62
     7
100
AcDbLine
 10
303.9823083213796
 20
230.0213000423262
 30
0.0
 11
303.9823083213796
 21
236.0213000423262
 31
0.0
  0
LINE
  5
602
330
1F
100
AcDbEntity
  8
0
  6
Continuous
 62
     7
100
AcDbLine
 10
306.1823083213796
 20
230.0213000423262
 30
0.0
 11
303.9823083213796
 21
230.0213000423262
 31
0.0
  0
LINE
  5
603
330
1F
100
AcDbEntity
  8
0
  6
Continuous
 62
     7
100
AcDbLine
 10
303.9823083213796
 20
236.0213000423262
 30
0.0
 11
306.1823083213796
 21
236.0213000423262
 31
0.0
  0
LINE
  5
605
330
1F
100
AcDbEntity
  8
0
  6
Continuous
 62
     7
100
AcDbLine
 10
309.0823083213796
 20
229.3552390423261
 30
0.0
 11
320.2823083213796
 21
229.3552390423261
 31
0.0
  0
LINE
  5
606
330
1F
100
AcDbEntity
  8
0
  6
Continuous
 62
     7
100
AcDbLine
 10
318.2823083213796
 20
232.8835400423261
 30
0.0
 11
309.0823083213796
 21
232.8835400423261
 31
0.0
  0
LINE
  5
607
330
1F
100
AcDbEntity
  8
0
  6
Continuous
 62
     7
100
AcDbLine
 10
318.2823083213796
 20
230.4835400423262
 30
0.0
 11
309.0823083213796
 21
230.4835400423262
 31
0.0
  0
LINE
  5
608
330
1F
100
AcDbEntity
  8
0
  6
Continuous
 62
     7
100
AcDbLine
 10
318.2823083213796
 20
238.1262010423263
 30
0.0
 11
309.0823083213796
 21
238.1262010423263
 31
0.0
  0
LINE
  5
609
330
1F
100
AcDbEntity
  8
0
  6
Continuous
 62
     7
100
AcDbLine
 10
318.2823083213796
 20
235.7262010423263
 30
0.0
 11
309.0823083213796
 21
235.7262010423263
 31
0.0
  0
LINE
  5
60A
330
1F
100
AcDbEntity
  8
0
  6
Continuous
 62
     7
100
AcDbLine
 10
321.2823083213796
 20
229.0213000423261
 30
0.0
 11
321.2823083213796
 21
229.2213000423263
 31
0.0
  0
LINE
  5
60B
330
1F
100
AcDbEntity
  8
0
  6
Continuous
 62
     7
100
AcDbLine
 10
321.2823083213796
 20
229.0213000423261
 30
0.0
 11
321.2823083213796
 21
229.2213000423263
 31
0.0
  0
LINE
  5
60C
330
1F
100
AcDbEntity
  8
0
  6
Continuous
 62
     7
100
AcDbLine
 10
321.2823083213796
 20
229.0213000423261
 30
0.0
 11
321.2823083213796
 21
229.2213000423263
 31
0.0
  0
LINE
  5
60D
330
1F
100
AcDbEntity
  8
0
  6
Continuous
 62
     7
100
AcDbLine
 10
319.2823083213796
 20
231.8835400423262
 30
0.0
 11
319.2823083213796
 21
231.4835400423262
 31
0.0
  0
ARC
  5
60E
330
1F
100
AcDbEntity
  8
0
  6
Continuous
 62
     7
100
AcDbCircle
 10
318.2823090684548
 20
231.8835407894013
 30
0.0
 40
0.9999992529251022
100
AcDbArc
 50
359.9999571957136
 51
90.00004280428717
  0
ARC
  5
60F
330
1F
100
AcDbEntity
  8
0
  6
Continuous
 62
     7
100
AcDbCircle
 10
318.2823090684546
 20
231.483539295251
 30
0.0
 40
0.9999992529251306
100
AcDbArc
 50
269.9999571957144
 51
0.0000428042879946
  0
LINE
  5
610
330
1F
100
AcDbEntity
  8
0
  6
Continuous
 62
     7
100
AcDbLine
 10
319.2823083213796
 20
237.1262010423263
 30
0.0
 11
319.2823083213796
 21
236.7262010423263
 31
0.0
  0
ARC
  5
611
330
1F
100
AcDbEntity
  8
0
  6
Continuous
 62
     7
100
AcDbCircle
 10
318.2823090684548
 20
236.726200295251
 30
0.0
 40
0.9999992529251022
100
AcDbArc
 50
269.9999571957127
 51
0.0000428042863661
  0
ARC
  5
612
330
1F
100
AcDbEntity
  8
0
  6
Continuous
 62
     7
100
AcDbCircle
 10
318.2823090684548
 20
237.1262017894014
 30
0.0
 40
0.9999992529251022
100
AcDbArc
 50
359.9999571957136
 51
90.00004280428717
  0
LINE
  5
613
330
1F
100
AcDbEntity
  8
0
  6
Continuous
 62
     7
100
AcDbLine
 10
318.2823083213796
 20
242.1290830423262
 30
0.0
 11
309.0823083213796
 21
242.1290830423262
 31
0.0
  0
LINE
  5
614
330
1F
100
AcDbEntity
  8
0
  6
Continuous
 62
     7
100
AcDbLine
 10
318.2823083213796
 20
239.7290830423262
 30
0.0
 11
309.0823083213796
 21
239.7290830423262
 31
0.0
  0
LINE
  5
615
330
1F
100
AcDbEntity
  8
0
  6
Continuous
 62
     7
100
AcDbLine
 10
318.2823083213796
 20
243.6213000423261
 30
0.0
 11
309.0823083213796
 21
243.6213000423261
 31
0.0
  0
LINE
  5
616
330
1F
100
AcDbEntity
  8
0
  6
Continuous
 62
     7
100
AcDbLine
 10
309.0823083213796
 20
245.5213000423261
 30
0.0
 11
308.4823083213795
 21
245.5213000423261
 31
0.0
  0
LINE
  5
617
330
1F
100
AcDbEntity
  8
0
  6
Continuous
 62
     7
100
AcDbLine
 10
319.2823083213796
 20
241.1290830423262
 30
0.0
 11
319.2823083213796
 21
240.7290830423262
 31
0.0
  0
LINE
  5
618
330
1F
100
AcDbEntity
  8
0
  6
Continuous
 62
     7
100
AcDbLine
 10
319.2823083213796
 20
242.6213000423262
 30
0.0
 11
319.2823083213796
 21
242.2213000423262
 31
0.0
  0
ARC
  5
619
330
1F
100
AcDbEntity
  8
0
  6
Continuous
 62
     7
100
AcDbCircle
 10
318.2823090684548
 20
240.729082295251
 30
0.0
 40
0.9999992529250738
100
AcDbArc
 50
269.9999571957111
 51
0.0000428042847377
  0
ARC
  5
61A
330
1F
100
AcDbEntity
  8
0
  6
Continuous
 62
     7
100
AcDbCircle
 10
318.2823090684546
 20
241.1290837894013
 30
0.0
 40
0.9999992529251306
100
AcDbArc
 50
359.999957195712
 51
90.00004280428553
  0
ARC
  5
61B
330
1F
100
AcDbEntity
  8
0
  6
Continuous
 62
     7
100
AcDbCircle
 10
318.2823097198173
 20
242.221299822983
 30
0.0
 40
0.9999986015621695
100
AcDbArc
 50
326.899481335682
 51
0.0000125674595506
  0
ARC
  5
61C
330
1F
100
AcDbEntity
  8
0
  6
Continuous
 62
     7
100
AcDbCircle
 10
318.2823090684548
 20
242.6213007894014
 30
0.0
 40
0.9999992529251022
100
AcDbArc
 50
359.9999571957136
 51
90.00004280428717
  0
LINE
  5
61D
330
1F
100
AcDbEntity
  8
0
  6
Continuous
 62
     7
100
AcDbLine
 10
322.7823083213795
 20
235.7262010423263
 30
0.0
 11
322.7823083213795
 21
233.0213000423261
 31
0.0
  0
LINE
  5
61E
330
1F
100
AcDbEntity
  8
0
  6
Continuous
 62
     7
100
AcDbLine
 10
322.7823083213795
 20
233.0213000423261
 30
0.0
 11
322.7823083213795
 21
232.8835400423261
 31
0.0
  0
LINE
  5
61F
330
1F
100
AcDbEntity
  8
0
  6
Continuous
 62
     7
100
AcDbLine
 10
322.7823083213795
 20
230.4835400423262
 30
0.0
 11
322.7823083213795
 21
230.2213000423261
 31
0.0
  0
LINE
  5
620
330
1F
100
AcDbEntity
  8
0
  6
Continuous
 62
     7
100
AcDbLine
 10
322.7823083213795
 20
230.4835400423262
 30
0.0
 11
322.7823083213795
 21
232.8835400423261
 31
0.0
  0
ARC
  5
621
330
1F
100
AcDbEntity
  8
0
  6
Continuous
 62
     7
100
AcDbCircle
 10
321.7823090684547
 20
230.2212992952509
 30
0.0
 40
0.9999992529250167
100
AcDbArc
 50
269.9999571957127
 51
0.0000428042863661
  0
LINE
  5
622
330
1F
100
AcDbEntity
  8
0
  6
Continuous
 62
     7
100
AcDbLine
 10
322.7823083213795
 20
235.7262010423263
 30
0.0
 11
322.7823083213795
 21
235.8346420423262
 31
0.0
  0
ARC
  5
623
330
1F
100
AcDbEntity
  8
0
  6
Continuous
 62
     7
100
AcDbCircle
 10
321.7823090684547
 20
235.8213007894014
 30
0.0
 40
0.9999992529250452
100
AcDbArc
 50
359.9999571957136
 51
90.00004280428553
  0
LINE
  5
624
330
1F
100
AcDbEntity
  8
0
  6
Continuous
 62
     7
100
AcDbLine
 10
386.1911793213794
 20
249.3213000423262
 30
0.0
 11
386.1911793213794
 21
216.7213000423262
 31
0.0
  0
LINE
  5
625
330
1F
100
AcDbEntity
  8
0
  6
Continuous
 62
     7
100
AcDbLine
 10
396.3440963213793
 20
227.4900210423262
 30
0.0
 11
401.8018883213795
 21
229.9825110423263
 31
0.0
  0
LINE
  5
626
330
1F
100
AcDbEntity
  8
0
  6
Continuous
 62
     7
100
AcDbLine
 10
395.8431353213796
 20
228.5804540423262
 30
0.0
 11
401.3009263213794
 21
231.0729450423263
 31
0.0
  0
ARC
  5
627
330
1F
100
AcDbEntity
  8
0
  6
Continuous
 62
     7
100
AcDbCircle
 10
406.9911793213795
 20
229.0213000423261
 30
0.0
 40
1.0
100
AcDbArc
 50
180.0
 51
0.0
  0
LINE
  5
62B
330
1F
100
AcDbEntity
  8
0
  6
Continuous
 62
     7
100
AcDbLine
 10
396.3440963213793
 20
227.4900210423262
 30
0.0
 11
395.8431353213796
 21
228.5804540423262
 31
0.0
  0
LINE
  5
62C
330
1F
100
AcDbEntity
  8
0
  6
Continuous
 62
     7
100
AcDbLine
 10
386.1911793213794
 20
216.7213000423262
 30
0.0
 11
390.6911793213794
 21
216.7213000423262
 31
0.0
  0
ARC
  5
62D
330
1F
100
AcDbEntity
  8
0
  6
Continuous
 62
     7
100
AcDbCircle
 10
383.9911785743041
 20
210.021299295251
 30
0.0
 40
0.9999992529251306
100
AcDbArc
 50
179.9999571957168
 51
270.0000428042903
  0
LINE
  5
62E
330
1F
100
AcDbEntity
  8
0
  6
Continuous
 62
     7
100
AcDbLine
 10
390.6911793213794
 20
216.7213000423262
 30
0.0
 11
390.6911793213794
 21
212.2213000423261
 31
0.0
  0
LINE
  5
62F
330
1F
100
AcDbEntity
  8
0
  6
Continuous
 62
     7
100
AcDbLine
 10
390.6911793213794
 20
212.2213000423261
 30
0.0
 11
393.8911793213796
 21
212.2213000423261
 31
0.0
  0
LINE
  5
630
330
1F
100
AcDbEntity
  8
0
  6
Continuous
 62
     7
100
AcDbLine
 10
394.8911793213797
 20
212.7213000423262
 30
0.0
 11
394.8911793213797
 21
212.2213000423261
 31
0.0
  0
LINE
  5
631
330
1F
100
AcDbEntity
  8
0
  6
Continuous
 62
     7
100
AcDbLine
 10
393.8911793213796
 20
212.7213000423262
 30
0.0
 11
394.8911793213797
 21
212.7213000423262
 31
0.0
  0
LINE
  5
632
330
1F
100
AcDbEntity
  8
0
  6
Continuous
 62
     7
100
AcDbLine
 10
393.8911793213796
 20
212.2213000423261
 30
0.0
 11
393.8911793213796
 21
212.7213000423262
 31
0.0
  0
LINE
  5
633
330
1F
100
AcDbEntity
  8
0
  6
Continuous
 62
     7
100
AcDbLine
 10
401.0247183213796
 20
222.6118440423261
 30
0.0
 11
404.2685623213797
 21
227.6593650423262
 31
0.0
  0
LINE
  5
634
330
1F
100
AcDbEntity
  8
0
  6
Continuous
 62
     7
100
AcDbLine
 10
404.2685623213797
 20
227.6593650423262
 30
0.0
 11
403.2575943213793
 21
228.3058560423262
 31
0.0
  0
ARC
  5
635
330
1F
100
AcDbEntity
  8
0
  6
Continuous
 62
     7
100
AcDbCircle
 10
404.3428931675657
 20
224.0020658885128
 30
0.0
 40
1.200000153813514
100
AcDbArc
 50
89.99999265594395
 51
0.0000073440520012
  0
LINE
  5
636
330
1F
100
AcDbEntity
  8
0
  6
Continuous
 62
     7
100
AcDbLine
 10
400.0137503213797
 20
223.2583350423261
 30
0.0
 11
403.2575943213793
 21
228.3058560423262
 31
0.0
  0
LINE
  5
637
330
1F
100
AcDbEntity
  8
0
  6
Continuous
 62
     7
100
AcDbLine
 10
401.0247183213796
 20
222.6118440423261
 30
0.0
 11
400.0137503213797
 21
223.2583350423261
 31
0.0
  0
ARC
  5
638
330
1F
100
AcDbEntity
  8
0
  6
Continuous
 62
     7
100
AcDbCircle
 10
399.887133167566
 20
226.8656088885126
 30
0.0
 40
1.200000153813572
100
AcDbArc
 50
89.99999265594395
 51
0.0000073440520012
  0
LINE
  5
639
330
1F
100
AcDbEntity
  8
0
  6
Continuous
 62
     7
100
AcDbLine
 10
401.0871333213795
 20
226.8656090423262
 30
0.0
 11
401.0871333213795
 21
226.8656090423262
 31
0.0
  0
ARC
  5
63A
330
1F
100
AcDbEntity
  8
0
  6
Continuous
 62
     7
100
AcDbCircle
 10
399.8871342178697
 20
226.8656099388163
 30
0.0
 40
1.199999103510144
100
AcDbArc
 50
359.9999571957112
 51
90.00004280428553
  0
LINE
  5
63B
330
1F
100
AcDbEntity
  8
0
  6
Continuous
 62
     7
100
AcDbLine
 10
407.5996493213794
 20
221.038596042326
 30
0.0
 11
407.5996493213794
 21
227.0385960423261
 31
0.0
  0
LINE
  5
63C
330
1F
100
AcDbEntity
  8
0
  6
Continuous
 62
     7
100
AcDbLine
 10
406.3996493213797
 20
221.0358880423263
 30
0.0
 11
406.3996493213797
 21
227.0358880423263
 31
0.0
  0
LINE
  5
63D
330
1F
100
AcDbEntity
  8
0
  6
Continuous
 62
     7
100
AcDbLine
 10
407.5996493213794
 20
221.038596042326
 30
0.0
 11
406.3996493213797
 21
221.0358880423263
 31
0.0
  0
LINE
  5
63E
330
1F
100
AcDbEntity
  8
0
  6
Continuous
 62
     7
100
AcDbLine
 10
407.5996493213794
 20
227.0385960423261
 30
0.0
 11
406.3996493213797
 21
227.0358880423263
 31
0.0
  0
LINE
  5
63F
330
1F
100
AcDbEntity
  8
0
  6
Continuous
 62
     7
100
AcDbLine
 10
405.5428933213794
 20
224.0020660423263
 30
0.0
 11
405.5428933213794
 21
224.0020660423263
 31
0.0
  0
ARC
  5
640
330
1F
100
AcDbEntity
  8
0
  6
Continuous
 62
     7
100
AcDbCircle
 10
404.3428942178698
 20
224.0020669388164
 30
0.0
 40
1.199999103510031
100
AcDbArc
 50
359.9999571957095
 51
90.00004280428553
  0
LINE
  5
641
330
1F
100
AcDbEntity
  8
0
  6
Continuous
 62
     7
100
AcDbLine
 10
410.7375503213794
 20
228.3172920423262
 30
0.0
 11
409.7295103213796
 21
227.6662460423262
 31
0.0
  0
LINE
  5
642
330
1F
100
AcDbEntity
  8
0
  6
Continuous
 62
     7
100
AcDbLine
 10
395.0438473213796
 20
234.1243390423263
 30
0.0
 11
400.9827763213794
 21
233.2704510423263
 31
0.0
  0
LINE
  5
643
330
1F
100
AcDbEntity
  8
0
  6
Continuous
 62
     7
100
AcDbLine
 10
395.2119453213796
 20
235.3125110423263
 30
0.0
 11
401.1508743213796
 21
234.4586220423261
 31
0.0
  0
LINE
  5
644
330
1F
100
AcDbEntity
  8
0
  6
Continuous
 62
     7
100
AcDbLine
 10
387.3911793213796
 20
230.0213000423262
 30
0.0
 11
387.3911793213796
 21
236.0213000423262
 31
0.0
  0
LINE
  5
645
330
1F
100
AcDbEntity
  8
0
  6
Continuous
 62
     7
100
AcDbLine
 10
386.1911793213794
 20
230.0213000423262
 30
0.0
 11
387.3911793213796
 21
230.0213000423262
 31
0.0
  0
LINE
  5
647
330
1F
100
AcDbEntity
  8
0
  6
Continuous
 62
     7
100
AcDbLine
 10
387.3911793213796
 20
236.0213000423262
 30
0.0
 11
386.1911793213794
 21
236.0213000423262
 31
0.0
  0
LINE
  5
649
330
1F
100
AcDbEntity
  8
0
  6
Continuous
 62
     7
100
AcDbLine
 10
395.0438473213796
 20
234.1243390423263
 30
0.0
 11
395.2119453213796
 21
235.3125110423263
 31
0.0
  0
LINE
  5
64A
330
1F
100
AcDbEntity
  8
0
  6
Continuous
 62
     7
100
AcDbLine
 10
390.6911793213794
 20
249.3213000423262
 30
0.0
 11
386.1911793213794
 21
249.3213000423262
 31
0.0
  0
LINE
  5
64B
330
1F
100
AcDbEntity
  8
0
  6
Continuous
 62
     7
100
AcDbLine
 10
409.7832743213793
 20
244.6900460423262
 30
0.0
 11
408.0928793213793
 21
238.9330880423263
 31
0.0
  0
LINE
  5
64C
330
1F
100
AcDbEntity
  8
0
  6
Continuous
 62
     7
100
AcDbLine
 10
403.0314383213793
 20
244.3471940423262
 30
0.0
 11
404.7218343213796
 21
238.5902360423263
 31
0.0
  0
LINE
  5
64D
330
1F
100
AcDbEntity
  8
0
  6
Continuous
 62
     7
100
AcDbLine
 10
404.1820673213796
 20
244.6878710423262
 30
0.0
 11
405.8724633213795
 21
238.9309130423263
 31
0.0
  0
LINE
  5
64E
330
1F
100
AcDbEntity
  8
0
  6
Continuous
 62
     7
100
AcDbLine
 10
397.5367923213795
 20
240.4084510423263
 30
0.0
 11
402.0712903213794
 21
236.4792870423263
 31
0.0
  0
LINE
  5
64F
330
1F
100
AcDbEntity
  8
0
  6
Continuous
 62
     7
100
AcDbLine
 10
398.3205793213796
 20
241.3171240423263
 30
0.0
 11
402.8550773213795
 21
237.3879590423261
 31
0.0
  0
ARC
  5
651
330
1F
100
AcDbEntity
  8
0
  6
Continuous
 62
     7
100
AcDbCircle
 10
406.9911788343032
 20
233.0212995552499
 30
0.0
 40
3.800000487076263
100
AcDbArc
 50
89.99999265594556
 51
0.0000073440544439
  0
LINE
  5
652
330
1F
100
AcDbEntity
  8
0
  6
Continuous
 62
     7
100
AcDbLine
 10
400.9827763213794
 20
233.2704510423263
 30
0.0
 11
401.1508743213796
 21
234.4586220423261
 31
0.0
  0
LINE
  5
653
330
1F
100
AcDbEntity
  8
0
  6
Continuous
 62
     7
100
AcDbLine
 10
398.8868573213794
 20
231.6835400423261
 30
0.0
 11
398.8868573213794
 21
231.6835400423261
 31
0.0
  0
ARC
  5
654
330
1F
100
AcDbEntity
  8
0
  6
Continuous
 62
     7
100
AcDbCircle
 10
397.6868571675658
 20
231.6835398885126
 30
0.0
 40
1.200000153813572
100
AcDbArc
 50
89.99999265594556
 51
0.0000073440560723
  0
ARC
  5
655
330
1F
100
AcDbEntity
  8
0
  6
Continuous
 62
     7
100
AcDbCircle
 10
397.6868582178697
 20
231.6835409388164
 30
0.0
 40
1.199999103510144
100
AcDbArc
 50
359.9999571957136
 51
90.00004280428717
  0
LINE
  5
656
330
1F
100
AcDbEntity
  8
0
  6
Continuous
 62
     7
100
AcDbLine
 10
401.8018883213795
 20
229.9825110423263
 30
0.0
 11
401.3009263213794
 21
231.0729450423263
 31
0.0
  0
ARC
  5
658
330
1F
100
AcDbEntity
  8
0
  6
Continuous
 62
     7
100
AcDbCircle
 10
398.4406381675658
 20
236.9262008885126
 30
0.0
 40
1.2000001538136
100
AcDbArc
 50
89.99999265594556
 51
0.0000073440560723
  0
ARC
  5
659
330
1F
100
AcDbEntity
  8
0
  6
Continuous
 62
     7
100
AcDbCircle
 10
398.4406392178697
 20
236.9262019388163
 30
0.0
 40
1.199999103510144
100
AcDbArc
 50
359.9999571957136
 51
90.00004280428717
  0
LINE
  5
65A
330
1F
100
AcDbEntity
  8
0
  6
Continuous
 62
     7
100
AcDbLine
 10
402.0712903213794
 20
236.4792870423263
 30
0.0
 11
402.8550773213795
 21
237.3879590423261
 31
0.0
  0
LINE
  5
65B
330
1F
100
AcDbEntity
  8
0
  6
Continuous
 62
     7
100
AcDbLine
 10
399.6406383213794
 20
236.9262010423263
 30
0.0
 11
399.6406383213794
 21
236.9262010423263
 31
0.0
  0
LINE
  5
65D
330
1F
100
AcDbEntity
  8
0
  6
Continuous
 62
     7
100
AcDbLine
 10
405.9911793213793
 20
229.0213000423261
 30
0.0
 11
405.9911793213793
 21
229.3552390423261
 31
0.0
  0
LINE
  5
65E
330
1F
100
AcDbEntity
  8
0
  6
Continuous
 62
     7
100
AcDbLine
 10
407.9911793213795
 20
229.3552390423261
 30
0.0
 11
407.9911793213795
 21
229.0213000423261
 31
0.0
  0
LINE
  5
65F
330
1F
100
AcDbEntity
  8
0
  6
Continuous
 62
     7
100
AcDbLine
 10
410.7911793213796
 20
233.0213000423261
 30
0.0
 11
410.7911793213796
 21
233.0213000423261
 31
0.0
  0
LINE
  5
660
330
1F
100
AcDbEntity
  8
0
  6
Continuous
 62
     7
100
AcDbLine
 10
404.7218343213796
 20
238.5902360423263
 30
0.0
 11
405.8724633213795
 21
238.9309130423263
 31
0.0
  0
LINE
  5
662
330
1F
100
AcDbEntity
  8
0
  6
Continuous
 62
     7
100
AcDbLine
 10
408.0928793213793
 20
238.9330880423263
 30
0.0
 11
409.2450333213793
 21
238.5976070423263
 31
0.0
  0
LINE
  5
664
330
1F
100
AcDbEntity
  8
0
  6
Continuous
 62
     7
100
AcDbLine
 10
403.0314383213793
 20
244.3471940423262
 30
0.0
 11
404.1820673213796
 21
244.6878710423262
 31
0.0
  0
ARC
  5
665
330
1F
100
AcDbEntity
  8
0
  6
Continuous
 62
     7
100
AcDbCircle
 10
401.9091562178697
 20
240.9290839388164
 30
0.0
 40
1.199999103510144
100
AcDbArc
 50
359.9999571957151
 51
90.00004280428717
  0
LINE
  5
666
330
1F
100
AcDbEntity
  8
0
  6
Continuous
 62
     7
100
AcDbLine
 10
397.5367923213795
 20
240.4084510423263
 30
0.0
 11
398.3205793213796
 21
241.3171240423263
 31
0.0
  0
LINE
  5
667
330
1F
100
AcDbEntity
  8
0
  6
Continuous
 62
     7
100
AcDbLine
 10
403.1091553213797
 20
240.9290830423262
 30
0.0
 11
403.1091553213797
 21
240.9290830423262
 31
0.0
  0
ARC
  5
668
330
1F
100
AcDbEntity
  8
0
  6
Continuous
 62
     7
100
AcDbCircle
 10
401.909155167566
 20
240.9290828885126
 30
0.0
 40
1.200000153813572
100
AcDbArc
 50
89.99999265594556
 51
0.0000073440560723
  0
ARC
  5
669
330
1F
100
AcDbEntity
  8
0
  6
Continuous
 62
     7
100
AcDbCircle
 10
406.9911791675658
 20
242.4212998885126
 30
0.0
 40
1.200000153813542
100
AcDbArc
 50
89.99999265594395
 51
0.0000073440552581
  0
ARC
  5
66A
330
1F
100
AcDbEntity
  8
0
  6
Continuous
 62
     7
100
AcDbCircle
 10
406.9911802178697
 20
242.4213009388164
 30
0.0
 40
1.199999103510144
100
AcDbArc
 50
359.999957195712
 51
90.00004280428553
  0
LINE
  5
66B
330
1F
100
AcDbEntity
  8
0
  6
Continuous
 62
     7
100
AcDbLine
 10
408.1911793213796
 20
242.4213000423262
 30
0.0
 11
408.1911793213796
 21
242.4213000423262
 31
0.0
  0
ARC
  5
66C
330
1F
100
AcDbEntity
  8
0
  6
Continuous
 62
     7
100
AcDbCircle
 10
383.9911785743041
 20
256.0213007894013
 30
0.0
 40
0.999999252925159
100
AcDbArc
 50
89.99995719570794
 51
180.0000428042831
  0
LINE
  5
66D
330
1F
100
AcDbEntity
  8
0
  6
Continuous
 62
     7
100
AcDbLine
 10
393.8911793213796
 20
253.8213000423263
 30
0.0
 11
390.6911793213794
 21
253.8213000423263
 31
0.0
  0
LINE
  5
66E
330
1F
100
AcDbEntity
  8
0
  6
Continuous
 62
     7
100
AcDbLine
 10
393.8911793213796
 20
253.3213000423262
 30
0.0
 11
393.8911793213796
 21
253.8213000423263
 31
0.0
  0
LINE
  5
66F
330
1F
100
AcDbEntity
  8
0
  6
Continuous
 62
     7
100
AcDbLine
 10
394.8911793213797
 20
253.3213000423262
 30
0.0
 11
393.8911793213796
 21
253.3213000423262
 31
0.0
  0
LINE
  5
670
330
1F
100
AcDbEntity
  8
0
  6
Continuous
 62
     7
100
AcDbLine
 10
394.8911793213797
 20
253.8213000423263
 30
0.0
 11
394.8911793213797
 21
253.3213000423262
 31
0.0
  0
LINE
  5
671
330
1F
100
AcDbEntity
  8
0
  6
Continuous
 62
     7
100
AcDbLine
 10
429.2911793213794
 20
210.7213000423262
 30
0.0
 11
429.2911793213794
 21
255.3213000423262
 31
0.0
  0
LINE
  5
672
330
1F
100
AcDbEntity
  8
0
  6
Continuous
 62
     7
100
AcDbLine
 10
423.2911793213796
 20
249.3213000423262
 30
0.0
 11
423.2911793213796
 21
253.8213000423263
 31
0.0
  0
LINE
  5
673
330
1F
100
AcDbEntity
  8
0
  6
Continuous
 62
     7
100
AcDbLine
 10
430.9911793213793
 20
210.0213000423263
 30
0.0
 11
430.9911793213793
 21
256.0213000423261
 31
0.0
  0
LINE
  5
674
330
1F
100
AcDbEntity
  8
0
  6
Continuous
 62
     7
100
AcDbLine
 10
427.7911793213796
 20
216.7213000423262
 30
0.0
 11
427.7911793213796
 21
249.3213000423262
 31
0.0
  0
LINE
  5
675
330
1F
100
AcDbEntity
  8
0
  6
Continuous
 62
     7
100
AcDbLine
 10
418.1437973213796
 20
228.5969880423263
 30
0.0
 11
412.6860053213796
 21
231.0894780423263
 31
0.0
  0
LINE
  5
676
330
1F
100
AcDbEntity
  8
0
  6
Continuous
 62
     7
100
AcDbLine
 10
417.6477623213797
 20
227.5043050423263
 30
0.0
 11
412.1899703213796
 21
229.9967950423261
 31
0.0
  0
LINE
  5
677
330
1F
100
AcDbEntity
  8
0
  6
Continuous
 62
     7
100
AcDbLine
 10
423.2911793213796
 20
216.7213000423262
 30
0.0
 11
427.7911793213796
 21
216.7213000423262
 31
0.0
  0
LINE
  5
678
330
1F
100
AcDbEntity
  8
0
  6
Continuous
 62
     7
100
AcDbLine
 10
423.2911793213796
 20
212.2213000423261
 30
0.0
 11
423.2911793213796
 21
216.7213000423262
 31
0.0
  0
LINE
  5
679
330
1F
100
AcDbEntity
  8
0
  6
Continuous
 62
     7
100
AcDbLine
 10
420.0911793213796
 20
212.2213000423261
 30
0.0
 11
423.2911793213796
 21
212.2213000423261
 31
0.0
  0
LINE
  5
67A
330
1F
100
AcDbEntity
  8
0
  6
Continuous
 62
     7
100
AcDbLine
 10
420.0911793213796
 20
212.7213000423262
 30
0.0
 11
420.0911793213796
 21
212.2213000423261
 31
0.0
  0
LINE
  5
67B
330
1F
100
AcDbEntity
  8
0
  6
Continuous
 62
     7
100
AcDbLine
 10
419.0911793213796
 20
212.7213000423262
 30
0.0
 11
420.0911793213796
 21
212.7213000423262
 31
0.0
  0
LINE
  5
67C
330
1F
100
AcDbEntity
  8
0
  6
Continuous
 62
     7
100
AcDbLine
 10
419.0911793213796
 20
212.2213000423261
 30
0.0
 11
419.0911793213796
 21
212.7213000423262
 31
0.0
  0
LINE
  5
67D
330
1F
100
AcDbEntity
  8
0
  6
Continuous
 62
     7
100
AcDbLine
 10
413.9813953213796
 20
223.2697710423261
 30
0.0
 11
412.9733553213797
 21
222.6187250423262
 31
0.0
  0
ARC
  5
67E
330
1F
100
AcDbEntity
  8
0
  6
Continuous
 62
     7
100
AcDbCircle
 10
414.0952251675658
 20
226.8656088885126
 30
0.0
 40
1.200000153813685
100
AcDbArc
 50
89.99999265594556
 51
0.0000073440577008
  0
ARC
  5
67F
330
1F
100
AcDbEntity
  8
0
  6
Continuous
 62
     7
100
AcDbCircle
 10
414.0952262178698
 20
226.8656099388163
 30
0.0
 40
1.199999103510259
100
AcDbArc
 50
359.9999571957151
 51
90.00004280428717
  0
LINE
  5
680
330
1F
100
AcDbEntity
  8
0
  6
Continuous
 62
     7
100
AcDbLine
 10
410.8394653213792
 20
224.0020660423263
 30
0.0
 11
410.8394653213792
 21
224.0020660423263
 31
0.0
  0
LINE
  5
681
330
1F
100
AcDbEntity
  8
0
  6
Continuous
 62
     7
100
AcDbLine
 10
418.1437973213796
 20
228.5969880423263
 30
0.0
 11
417.6477623213797
 21
227.5043050423263
 31
0.0
  0
LINE
  5
682
330
1F
100
AcDbEntity
  8
0
  6
Continuous
 62
     7
100
AcDbLine
 10
415.2952253213796
 20
226.8656090423262
 30
0.0
 11
415.2952253213796
 21
226.8656090423262
 31
0.0
  0
ARC
  5
683
330
1F
100
AcDbEntity
  8
0
  6
Continuous
 62
     7
100
AcDbCircle
 10
429.9911800684546
 20
210.021299295251
 30
0.0
 40
0.9999992529251022
100
AcDbArc
 50
269.9999571957111
 51
0.0000428042863661
  0
LINE
  5
684
330
1F
100
AcDbEntity
  8
0
  6
Continuous
 62
     7
100
AcDbLine
 10
427.7911793213796
 20
249.3213000423262
 30
0.0
 11
423.2911793213796
 21
249.3213000423262
 31
0.0
  0
LINE
  5
685
330
1F
100
AcDbEntity
  8
0
  6
Continuous
 62
     7
100
AcDbLine
 10
415.6486393213794
 20
241.3281530423263
 30
0.0
 11
411.1141423213794
 21
237.3989880423263
 31
0.0
  0
LINE
  5
686
330
1F
100
AcDbEntity
  8
0
  6
Continuous
 62
     7
100
AcDbLine
 10
416.4365183213797
 20
240.4230270423262
 30
0.0
 11
411.9020213213794
 21
236.4938620423262
 31
0.0
  0
LINE
  5
687
330
1F
100
AcDbEntity
  8
0
  6
Continuous
 62
     7
100
AcDbLine
 10
418.7653223213796
 20
235.3288930423263
 30
0.0
 11
412.8263933213796
 21
234.4750040423261
 31
0.0
  0
LINE
  5
688
330
1F
100
AcDbEntity
  8
0
  6
Continuous
 62
     7
100
AcDbLine
 10
418.9387803213795
 20
234.1414930423263
 30
0.0
 11
412.9998513213796
 21
233.2876030423261
 31
0.0
  0
LINE
  5
689
330
1F
100
AcDbEntity
  8
0
  6
Continuous
 62
     7
100
AcDbLine
 10
412.8263933213796
 20
234.4750040423261
 30
0.0
 11
412.9998513213796
 21
233.2876030423261
 31
0.0
  0
LINE
  5
68A
330
1F
100
AcDbEntity
  8
0
  6
Continuous
 62
     7
100
AcDbLine
 10
412.6860053213796
 20
231.0894780423263
 30
0.0
 11
412.1899703213796
 21
229.9967950423261
 31
0.0
  0
LINE
  5
68C
330
1F
100
AcDbEntity
  8
0
  6
Continuous
 62
     7
100
AcDbLine
 10
417.4955013213795
 20
231.6835400423261
 30
0.0
 11
417.4955013213795
 21
231.6835400423261
 31
0.0
  0
ARC
  5
68D
330
1F
100
AcDbEntity
  8
0
  6
Continuous
 62
     7
100
AcDbCircle
 10
416.2955011675657
 20
231.6835398885126
 30
0.0
 40
1.200000153813485
100
AcDbArc
 50
89.99999265594068
 51
0.0000073440520012
  0
ARC
  5
68E
330
1F
100
AcDbEntity
  8
0
  6
Continuous
 62
     7
100
AcDbCircle
 10
416.2955022178697
 20
231.6835409388164
 30
0.0
 40
1.199999103510086
100
AcDbArc
 50
359.9999571957112
 51
90.0000428042823
  0
ARC
  5
68F
330
1F
100
AcDbEntity
  8
0
  6
Continuous
 62
     7
100
AcDbCircle
 10
415.541720167566
 20
236.9262008885126
 30
0.0
 40
1.200000153813542
100
AcDbArc
 50
89.99999265594556
 51
0.0000073440536297
  0
LINE
  5
690
330
1F
100
AcDbEntity
  8
0
  6
Continuous
 62
     7
100
AcDbLine
 10
411.1141423213794
 20
237.3989880423263
 30
0.0
 11
411.9020213213794
 21
236.4938620423262
 31
0.0
  0
ARC
  5
692
330
1F
100
AcDbEntity
  8
0
  6
Continuous
 62
     7
100
AcDbCircle
 10
415.5417212178697
 20
236.9262019388163
 30
0.0
 40
1.199999103510086
100
AcDbArc
 50
359.999957195712
 51
90.00004280428717
  0
LINE
  5
693
330
1F
100
AcDbEntity
  8
0
  6
Continuous
 62
     7
100
AcDbLine
 10
416.7417203213796
 20
236.9262010423263
 30
0.0
 11
416.7417203213796
 21
236.9262010423263
 31
0.0
  0
LINE
  5
694
330
1F
100
AcDbEntity
  8
0
  6
Continuous
 62
     7
100
AcDbLine
 10
419.9911793213795
 20
233.0213000423261
 30
0.0
 11
419.9911793213795
 21
233.0213000423261
 31
0.0
  0
LINE
  5
695
330
1F
100
AcDbEntity
  8
0
  6
Continuous
 62
     7
100
AcDbLine
 10
418.7653223213796
 20
235.3288930423263
 30
0.0
 11
418.9387803213795
 21
234.1414930423263
 31
0.0
  0
LINE
  5
696
330
1F
100
AcDbEntity
  8
0
  6
Continuous
 62
     7
100
AcDbLine
 10
413.2732033213796
 20
240.9290830423262
 30
0.0
 11
413.2732033213796
 21
240.9290830423262
 31
0.0
  0
ARC
  5
697
330
1F
100
AcDbEntity
  8
0
  6
Continuous
 62
     7
100
AcDbCircle
 10
412.073203167566
 20
240.9290828885126
 30
0.0
 40
1.200000153813542
100
AcDbArc
 50
89.99999265594395
 51
0.0000073440552581
  0
ARC
  5
698
330
1F
100
AcDbEntity
  8
0
  6
Continuous
 62
     7
100
AcDbCircle
 10
412.0732042178698
 20
240.9290839388165
 30
0.0
 40
1.199999103510144
100
AcDbArc
 50
359.999957195712
 51
90.00004280428553
  0
LINE
  5
699
330
1F
100
AcDbEntity
  8
0
  6
Continuous
 62
     7
100
AcDbLine
 10
415.6486393213794
 20
241.3281530423263
 30
0.0
 11
416.4365183213797
 21
240.4230270423262
 31
0.0
  0
LINE
  5
69A
330
1F
100
AcDbEntity
  8
0
  6
Continuous
 62
     7
100
AcDbLine
 10
426.5911793213794
 20
236.0213000423262
 30
0.0
 11
426.5911793213794
 21
230.0213000423262
 31
0.0
  0
LINE
  5
69B
330
1F
100
AcDbEntity
  8
0
  6
Continuous
 62
     7
100
AcDbLine
 10
426.5911793213794
 20
230.0213000423262
 30
0.0
 11
427.7911793213796
 21
230.0213000423262
 31
0.0
  0
LINE
  5
69D
330
1F
100
AcDbEntity
  8
0
  6
Continuous
 62
     7
100
AcDbLine
 10
427.7911793213796
 20
236.0213000423262
 30
0.0
 11
426.5911793213794
 21
236.0213000423262
 31
0.0
  0
LINE
  5
69F
330
1F
100
AcDbEntity
  8
0
  6
Continuous
 62
     7
100
AcDbLine
 10
427.5911793213793
 20
248.8213000423262
 30
0.0
 11
427.5911793213793
 21
249.3213000423262
 31
0.0
  0
LINE
  5
6A0
330
1F
100
AcDbEntity
  8
0
  6
Continuous
 62
     7
100
AcDbLine
 10
423.2911793213796
 20
253.8213000423263
 30
0.0
 11
420.0911793213796
 21
253.8213000423263
 31
0.0
  0
LINE
  5
6A1
330
1F
100
AcDbEntity
  8
0
  6
Continuous
 62
     7
100
AcDbLine
 10
419.0911793213796
 20
253.3213000423262
 30
0.0
 11
419.0911793213796
 21
253.8213000423263
 31
0.0
  0
LINE
  5
6A2
330
1F
100
AcDbEntity
  8
0
  6
Continuous
 62
     7
100
AcDbLine
 10
420.0911793213796
 20
253.3213000423262
 30
0.0
 11
419.0911793213796
 21
253.3213000423262
 31
0.0
  0
LINE
  5
6A3
330
1F
100
AcDbEntity
  8
0
  6
Continuous
 62
     7
100
AcDbLine
 10
420.0911793213796
 20
253.8213000423263
 30
0.0
 11
420.0911793213796
 21
253.3213000423262
 31
0.0
  0
ARC
  5
6A4
330
1F
100
AcDbEntity
  8
0
  6
Continuous
 62
     7
100
AcDbCircle
 10
429.9911800684546
 20
256.0213007894013
 30
0.0
 40
0.9999992529250738
100
AcDbArc
 50
359.9999571957136
 51
90.00004280428878
  0
CIRCLE
  5
6A9
330
1F
100
AcDbEntity
  8
0
100
AcDbCircle
 10
138.5811130684548
 20
228.0213007894013
 30
0.0
 40
0.9999992529251022
  0
CIRCLE
  5
6AA
330
1F
100
AcDbEntity
  8
0
100
AcDbCircle
 10
138.5811130684548
 20
233.0213007894013
 30
0.0
 40
0.9999992529251022
  0
CIRCLE
  5
6AB
330
1F
100
AcDbEntity
  8
0
100
AcDbCircle
 10
138.5811130684548
 20
238.0213007894013
 30
0.0
 40
0.9999992529251022
  0
CIRCLE
  5
6AC
330
1F
100
AcDbEntity
  8
0
100
AcDbCircle
 10
138.5811130684548
 20
243.0213007894013
 30
0.0
 40
0.9999992529251022
  0
CIRCLE
  5
6AD
330
1F
100
AcDbEntity
  8
0
100
AcDbCircle
 10
138.5811130684548
 20
248.0213007894013
 30
0.0
 40
0.9999992529251022
  0
CIRCLE
  5
6AE
330
1F
100
AcDbEntity
  8
0
100
AcDbCircle
 10
148.9811126949171
 20
226.3213004158639
 30
0.0
 40
0.4999996264625655
  0
CIRCLE
  5
6AF
330
1F
100
AcDbEntity
  8
0
100
AcDbCircle
 10
156.4811126949171
 20
226.3213004158639
 30
0.0
 40
0.4999996264625655
  0
CIRCLE
  5
6B0
330
1F
100
AcDbEntity
  8
0
100
AcDbCircle
 10
163.9811126949171
 20
226.3213004158639
 30
0.0
 40
0.4999996264625655
  0
CIRCLE
  5
6B1
330
1F
100
AcDbEntity
  8
0
100
AcDbCircle
 10
171.4811126949171
 20
226.3213004158639
 30
0.0
 40
0.4999996264625655
  0
CIRCLE
  5
6B6
330
1F
100
AcDbEntity
  8
0
100
AcDbCircle
 10
148.0811126949171
 20
239.3213004158638
 30
0.0
 40
0.4999996264625369
  0
CIRCLE
  5
6B7
330
1F
100
AcDbEntity
  8
0
100
AcDbCircle
 10
155.8811126949172
 20
239.3213004158638
 30
0.0
 40
0.4999996264625369
  0
CIRCLE
  5
6B8
330
1F
100
AcDbEntity
  8
0
100
AcDbCircle
 10
163.6811126949171
 20
239.3213004158638
 30
0.0
 40
0.4999996264625369
  0
CIRCLE
  5
6B9
330
1F
100
AcDbEntity
  8
0
100
AcDbCircle
 10
171.4811126949171
 20
239.3213004158638
 30
0.0
 40
0.4999996264625369
  0
LINE
  5
6BC
330
1F
100
AcDbEntity
  8
0
  6
DASHED
 62
     4
100
AcDbLine
 10
244.8764593213796
 20
210.7213000423262
 30
0.0
 11
287.0076693213795
 21
210.7213000423262
 31
0.0
  0
LINE
  5
6BD
330
1F
100
AcDbEntity
  8
0
  6
DASHED
 62
     4
100
AcDbLine
 10
244.8764593213796
 20
255.3213000423262
 30
0.0
 11
287.0076693213795
 21
255.3213000423262
 31
0.0
  0
ENDSEC
  0
SECTION
  2
OBJECTS
  0
DICTIONARY
  5
C
330
0
100
AcDbDictionary
281
     1
  3
ACAD_GROUP
350
D
  3
ACAD_LAYOUT
350
1A
  3
ACAD_MLINESTYLE
350
17
  3
ACAD_PLOTSETTINGS
350
19
  3
ACAD_PLOTSTYLENAME
350
E
  0
DICTIONARY
  5
D
102
{ACAD_REACTORS
330
C
102
}
330
C
100
AcDbDictionary
281
     1
  0
DICTIONARY
  5
1A
102
{ACAD_REACTORS
330
C
102
}
330
C
100
AcDbDictionary
281
     1
  3
Model
350
22
  3
ﾚｲｱｳﾄ1
350
1E
  3
ﾚｲｱｳﾄ2
350
26
  0
DICTIONARY
  5
17
102
{ACAD_REACTORS
330
C
102
}
330
C
100
AcDbDictionary
281
     1
  3
Standard
350
18
  0
DICTIONARY
  5
19
102
{ACAD_REACTORS
330
C
102
}
330
C
100
AcDbDictionary
281
     1
  0
ACDBDICTIONARYWDFLT
  5
E
102
{ACAD_REACTORS
330
C
102
}
330
C
100
AcDbDictionary
281
     1
  3
Normal
350
F
100
AcDbDictionaryWithDefault
340
F
  0
LAYOUT
  5
22
102
{ACAD_REACTORS
330
1A
102
}
330
1A
100
AcDbPlotSettings
  1

  2
A2 Printer TG2 RPCS
  4

  6

 40
0.0
 41
0.0
 42
0.0
 43
0.0
 44
0.0
 45
0.0
 46
0.0
 47
0.0
 48
0.0
 49
0.0
140
0.0
141
0.0
142
1.0
143
1.0
 70
  1712
 72
     0
 73
     0
 74
     0
  7

 75
     0
147
1.0
148
0.0
149
0.0
100
AcDbLayout
  1
Model
 70
     1
 71
     0
 10
0.0
 20
0.0
 11
12.0
 21
9.0
 12
0.0
 22
0.0
 32
0.0
 14
0.0
 24
0.0
 34
0.0
 15
0.0
 25
0.0
 35
0.0
146
0.0
 13
0.0
 23
0.0
 33
0.0
 16
1.0
 26
0.0
 36
0.0
 17
0.0
 27
1.0
 37
0.0
 76
     0
330
1F
  0
LAYOUT
  5
1E
102
{ACAD_REACTORS
330
1A
102
}
330
1A
100
AcDbPlotSettings
  1

  2
A2 Printer TG2 RPCS
  4

  6

 40
0.0
 41
0.0
 42
0.0
 43
0.0
 44
0.0
 45
0.0
 46
0.0
 47
0.0
 48
0.0
 49
0.0
140
0.0
141
0.0
142
1.0
143
1.0
 70
   688
 72
     0
 73
     0
 74
     5
  7

 75
    16
147
1.0
148
0.0
149
0.0
100
AcDbLayout
  1
ﾚｲｱｳﾄ1
 70
     1
 71
     1
 10
0.0
 20
0.0
 11
420.0
 21
297.0
 12
0.0
 22
0.0
 32
0.0
 14
1.000000000000000E+20
 24
1.000000000000000E+20
 34
1.000000000000000E+20
 15
-1.000000000000000E+20
 25
-1.000000000000000E+20
 35
-1.000000000000000E+20
146
0.0
 13
0.0
 23
0.0
 33
0.0
 16
1.0
 26
0.0
 36
0.0
 17
0.0
 27
1.0
 37
0.0
 76
     0
330
1B
  0
LAYOUT
  5
26
102
{ACAD_REACTORS
330
1A
102
}
330
1A
100
AcDbPlotSettings
  1

  2
A2 Printer TG2 RPCS
  4

  6

 40
0.0
 41
0.0
 42
0.0
 43
0.0
 44
0.0
 45
0.0
 46
0.0
 47
0.0
 48
0.0
 49
0.0
140
0.0
141
0.0
142
1.0
143
1.0
 70
   688
 72
     0
 73
     0
 74
     5
  7

 75
    16
147
1.0
148
0.0
149
0.0
100
AcDbLayout
  1
ﾚｲｱｳﾄ2
 70
     1
 71
     2
 10
0.0
 20
0.0
 11
12.0
 21
9.0
 12
0.0
 22
0.0
 32
0.0
 14
0.0
 24
0.0
 34
0.0
 15
0.0
 25
0.0
 35
0.0
146
0.0
 13
0.0
 23
0.0
 33
0.0
 16
1.0
 26
0.0
 36
0.0
 17
0.0
 27
1.0
 37
0.0
 76
     0
330
23
  0
MLINESTYLE
  5
18
102
{ACAD_REACTORS
330
17
102
}
330
17
100
AcDbMlineStyle
  2
STANDARD
 70
     0
  3

 62
   256
 51
90.0
 52
90.0
 71
     2
 49
0.5
 62
   256
  6
BYLAYER
 49
-0.5
 62
   256
  6
BYLAYER
  0
ACDBPLACEHOLDER
  5
F
102
{ACAD_REACTORS
330
E
102
}
330
E
  0
ENDSEC
  0
EOF
