  0
SECTION
  2
HEADER
  9
$ACADVER
  1
AC1015
  9
$ACADMAINTVER
 70
    20
  9
$DWGCODEPAGE
  3
ANSI_932
  9
$INSBASE
 10
0.0
 20
0.0
 30
0.0
  9
$EXTMIN
 10
-2.494019664505941
 20
-1.242640830780964
 30
0.0
  9
$EXTMAX
 10
231.4940191646815
 20
173.7426405434576
 30
0.0
  9
$LIMMIN
 10
0.0
 20
0.0
  9
$LIMMAX
 10
420.0
 20
297.0
  9
$ORTHOMODE
 70
     0
  9
$REGENMODE
 70
     1
  9
$FILLMODE
 70
     1
  9
$QTEXTMODE
 70
     0
  9
$MIRRTEXT
 70
     1
  9
$LTSCALE
 40
1.0
  9
$ATTMODE
 70
     1
  9
$TEXTSIZE
 40
1.0
  9
$TRACEWID
 40
1.0
  9
$TEXTSTYLE
  7
ACISOTS
  9
$CLAYER
  8
AM_0
  9
$CELTYPE
  6
ByLayer
  9
$CECOLOR
 62
   256
  9
$CELTSCALE
 40
1.0
  9
$DISPSILH
 70
     0
  9
$DIMSCALE
 40
1.0
  9
$DIMASZ
 40
2.5
  9
$DIMEXO
 40
1.0
  9
$DIMDLI
 40
10.0
  9
$DIMRND
 40
0.0
  9
$DIMDLE
 40
0.0
  9
$DIMEXE
 40
1.0
  9
$DIMTP
 40
0.1
  9
$DIMTM
 40
0.1
  9
$DIMTXT
 40
3.5
  9
$DIMCEN
 40
0.0
  9
$DIMTSZ
 40
0.0
  9
$DIMTOL
 70
     0
  9
$DIMLIM
 70
     0
  9
$DIMTIH
 70
     0
  9
$DIMTOH
 70
     0
  9
$DIMSE1
 70
     0
  9
$DIMSE2
 70
     0
  9
$DIMTAD
 70
     1
  9
$DIMZIN
 70
     8
  9
$DIMBLK
  1

  9
$DIMASO
 70
     1
  9
$DIMSHO
 70
     1
  9
$DIMPOST
  1

  9
$DIMAPOST
  1
"
  9
$DIMALT
 70
     0
  9
$DIMALTD
 70
     2
  9
$DIMALTF
 40
0.0393701
  9
$DIMLFAC
 40
1.0
  9
$DIMTOFL
 70
     1
  9
$DIMTVP
 40
0.0
  9
$DIMTIX
 70
     0
  9
$DIMSOXD
 70
     0
  9
$DIMSAH
 70
     0
  9
$DIMBLK1
  1

  9
$DIMBLK2
  1

  9
$DIMSTYLE
  2
AM_ISO
  9
$DIMCLRD
 70
   256
  9
$DIMCLRE
 70
   256
  9
$DIMCLRT
 70
     2
  9
$DIMTFAC
 40
0.71
  9
$DIMGAP
 40
1.5
  9
$DIMJUST
 70
     0
  9
$DIMSD1
 70
     0
  9
$DIMSD2
 70
     0
  9
$DIMTOLJ
 70
     0
  9
$DIMTZIN
 70
     8
  9
$DIMALTZ
 70
     0
  9
$DIMALTTZ
 70
     0
  9
$DIMUPT
 70
     0
  9
$DIMDEC
 70
     2
  9
$DIMTDEC
 70
     3
  9
$DIMALTU
 70
     2
  9
$DIMALTTD
 70
     4
  9
$DIMTXSTY
  7
STANDARD
  9
$DIMAUNIT
 70
     0
  9
$DIMADEC
 70
     0
  9
$DIMALTRND
 40
0.0
  9
$DIMAZIN
 70
     2
  9
$DIMDSEP
 70
    46
  9
$DIMATFIT
 70
     3
  9
$DIMFRAC
 70
     0
  9
$DIMLDRBLK
  1

  9
$DIMLUNIT
 70
     2
  9
$DIMLWD
 70
    -1
  9
$DIMLWE
 70
    -1
  9
$DIMTMOVE
 70
     0
  9
$LUNITS
 70
     2
  9
$LUPREC
 70
     2
  9
$SKETCHINC
 40
1.0
  9
$FILLETRAD
 40
2.5
  9
$AUNITS
 70
     0
  9
$AUPREC
 70
     0
  9
$MENU
  1
.
  9
$ELEVATION
 40
0.0
  9
$PELEVATION
 40
0.0
  9
$THICKNESS
 40
0.0
  9
$LIMCHECK
 70
     0
  9
$CHAMFERA
 40
2.5
  9
$CHAMFERB
 40
2.5
  9
$CHAMFERC
 40
20.0
  9
$CHAMFERD
 40
0.0
  9
$SKPOLY
 70
     0
  9
$TDCREATE
 40
2456406.536113009
  9
$TDUCREATE
 40
2456406.161113009
  9
$TDUPDATE
 40
2456406.639345428
  9
$TDUUPDATE
 40
2456406.264345428
  9
$TDINDWG
 40
0.0017749421
  9
$TDUSRTIMER
 40
0.0017420255
  9
$USRTIMER
 70
     1
  9
$ANGBASE
 50
0.0
  9
$ANGDIR
 70
     0
  9
$PDMODE
 70
     0
  9
$PDSIZE
 40
0.0
  9
$PLINEWID
 40
0.0
  9
$SPLFRAME
 70
     0
  9
$SPLINETYPE
 70
     6
  9
$SPLINESEGS
 70
     8
  9
$HANDSEED
  5
67E
  9
$SURFTAB1
 70
     6
  9
$SURFTAB2
 70
     6
  9
$SURFTYPE
 70
     6
  9
$SURFU
 70
     6
  9
$SURFV
 70
     6
  9
$UCSBASE
  2

  9
$UCSNAME
  2

  9
$UCSORG
 10
0.0
 20
0.0
 30
0.0
  9
$UCSXDIR
 10
1.0
 20
0.0
 30
0.0
  9
$UCSYDIR
 10
0.0
 20
1.0
 30
0.0
  9
$UCSORTHOREF
  2

  9
$UCSORTHOVIEW
 70
     0
  9
$UCSORGTOP
 10
0.0
 20
0.0
 30
0.0
  9
$UCSORGBOTTOM
 10
0.0
 20
0.0
 30
0.0
  9
$UCSORGLEFT
 10
0.0
 20
0.0
 30
0.0
  9
$UCSORGRIGHT
 10
0.0
 20
0.0
 30
0.0
  9
$UCSORGFRONT
 10
0.0
 20
0.0
 30
0.0
  9
$UCSORGBACK
 10
0.0
 20
0.0
 30
0.0
  9
$PUCSBASE
  2

  9
$PUCSNAME
  2

  9
$PUCSORG
 10
0.0
 20
0.0
 30
0.0
  9
$PUCSXDIR
 10
1.0
 20
0.0
 30
0.0
  9
$PUCSYDIR
 10
0.0
 20
1.0
 30
0.0
  9
$PUCSORTHOREF
  2

  9
$PUCSORTHOVIEW
 70
     0
  9
$PUCSORGTOP
 10
0.0
 20
0.0
 30
0.0
  9
$PUCSORGBOTTOM
 10
0.0
 20
0.0
 30
0.0
  9
$PUCSORGLEFT
 10
0.0
 20
0.0
 30
0.0
  9
$PUCSORGRIGHT
 10
0.0
 20
0.0
 30
0.0
  9
$PUCSORGFRONT
 10
0.0
 20
0.0
 30
0.0
  9
$PUCSORGBACK
 10
0.0
 20
0.0
 30
0.0
  9
$USERI1
 70
     0
  9
$USERI2
 70
     0
  9
$USERI3
 70
     0
  9
$USERI4
 70
     0
  9
$USERI5
 70
     0
  9
$USERR1
 40
0.0
  9
$USERR2
 40
0.0
  9
$USERR3
 40
0.0
  9
$USERR4
 40
0.0
  9
$USERR5
 40
0.0
  9
$WORLDVIEW
 70
     1
  9
$SHADEDGE
 70
     3
  9
$SHADEDIF
 70
    70
  9
$TILEMODE
 70
     1
  9
$MAXACTVP
 70
    64
  9
$PINSBASE
 10
0.0
 20
0.0
 30
0.0
  9
$PLIMCHECK
 70
     0
  9
$PEXTMIN
 10
1.000000000000000E+20
 20
1.000000000000000E+20
 30
1.000000000000000E+20
  9
$PEXTMAX
 10
-1.000000000000000E+20
 20
-1.000000000000000E+20
 30
-1.000000000000000E+20
  9
$PLIMMIN
 10
0.0
 20
0.0
  9
$PLIMMAX
 10
420.0
 20
297.0
  9
$UNITMODE
 70
     0
  9
$VISRETAIN
 70
     1
  9
$PLINEGEN
 70
     0
  9
$PSLTSCALE
 70
     1
  9
$TREEDEPTH
 70
  3020
  9
$CMLSTYLE
  2
Standard
  9
$CMLJUST
 70
     0
  9
$CMLSCALE
 40
20.0
  9
$PROXYGRAPHICS
 70
     1
  9
$MEASUREMENT
 70
     1
  9
$CELWEIGHT
370
    -1
  9
$ENDCAPS
280
     0
  9
$JOINSTYLE
280
     0
  9
$LWDISPLAY
290
     0
  9
$INSUNITS
 70
     4
  9
$HYPERLINKBASE
  1

  9
$STYLESHEET
  1

  9
$XEDIT
290
     1
  9
$CEPSNTYPE
380
     0
  9
$PSTYLEMODE
290
     1
  9
$FINGERPRINTGUID
  2
{211B23CE-435E-452B-9392-41354C745D49}
  9
$VERSIONGUID
  2
{72BDB193-2998-44DC-9527-AC95818ED5F4}
  9
$EXTNAMES
290
     1
  9
$PSVPSCALE
 40
0.0
  9
$OLESTARTUP
290
     0
  0
ENDSEC
  0
SECTION
  2
CLASSES
  0
CLASS
  1
ACDBDICTIONARYWDFLT
  2
AcDbDictionaryWithDefault
  3
ObjectDBX Classes
 90
        0
280
     0
281
     0
  0
CLASS
  1
ACDBPLACEHOLDER
  2
AcDbPlaceHolder
  3
ObjectDBX Classes
 90
        0
280
     0
281
     0
  0
CLASS
  1
LAYOUT
  2
AcDbLayout
  3
ObjectDBX Classes
 90
        0
280
     0
281
     0
  0
CLASS
  1
ACME_DOCUMENT
  2
AcMeDbDoc
  3
AcMeServices
 90
        0
280
     0
281
     0
  0
CLASS
  1
AMGSETTINGSOBJ
  2
AmgSettingsObj
  3
"AcadM|Product Description: AutoCAD Mechanical 2000|Company: Autodesk"
 90
        0
280
     0
281
     0
  0
CLASS
  1
ACMESCOPE
  2
AcMeScope
  3
AcMeServices
 90
        0
280
     0
281
     0
  0
CLASS
  1
ACMECOMMANDHISTORY
  2
AcMeCommandHistory
  3
AcMeServices
 90
        0
280
     0
281
     0
  0
CLASS
  1
ACIMSYSVARMAN
  2
AcImSysVarManager
  3
AcMeServices
 90
        0
280
     0
281
     0
  0
CLASS
  1
ACIMREALSYSVAR
  2
AcImRealSysVar
  3
AcMeServices
 90
        0
280
     0
281
     0
  0
CLASS
  1
ACIMINTSYSVAR
  2
AcImIntSysVar
  3
AcMeServices
 90
        0
280
     0
281
     0
  0
CLASS
  1
ACMEDRAWINGMAN
  2
AcMeDrawingMan
  3
AcMeServices
 90
        0
280
     0
281
     0
  0
CLASS
  1
ACMEVIEW
  2
AcMeView
  3
AcMeServices
 90
        0
280
     0
281
     0
  0
CLASS
  1
ACDBENTITYCACHE
  2
AcMeEntityCache
  3
AcMeServices
 90
        0
280
     0
281
     0
  0
CLASS
  1
GSMANAGER
  2
AcMeGSManager
  3
AcMeServices
 90
        0
280
     0
281
     0
  0
CLASS
  1
AMDTINTERNALREACTOR
  2
AmdtInternalReactor
  3
AcMeServices
 90
        0
280
     0
281
     0
  0
CLASS
  1
ACMESTATEMGR
  2
AcMeStateMgr
  3
AcMeServices
 90
        0
280
     0
281
     0
  0
CLASS
  1
ACGREFMASTER
  2
AcGrefMaster
  3
AcAttribServices
 90
        0
280
     0
281
     0
  0
CLASS
  1
ACME_DATABASE
  2
AcMeDbDatabase
  3
AcMeServices
 90
        0
280
     0
281
     0
  0
CLASS
  1
ACRFINSADJUSTERMGR
  2
AcRfInsAdjusterMgr
  3
AcMeServices
 90
        0
280
     0
281
     0
  0
CLASS
  1
ACGREFACADMASTER
  2
AcGrefacadMaster
  3
AcGrefServices
 90
        0
280
     0
281
     0
  0
CLASS
  1
AMIMASTER
  2
AmiMaster
  3
AmiServices
 90
        0
280
     0
281
     0
  0
CLASS
  1
ACMDATADICTIONARY
  2
AcmDataDictionary
  3
"AcmSymBB|Product Description: AutoCAD Mechanical 2004 DX|Company: Autodesk"
 90
        0
280
     0
281
     0
  0
CLASS
  1
ACMDATAENTRYBLOCK
  2
AcmDataEntryBlock
  3
"AcmSymBB|Product Description: AutoCAD Mechanical 2004 DX|Company: Autodesk"
 90
    32768
280
     0
281
     0
  0
CLASS
  1
ACIMSTRSYSVAR
  2
AcImStrSysVar
  3
AcMeServices
 90
        0
280
     0
281
     0
  0
CLASS
  1
ACMSTANDARDISO
  2
AcmStandardISO
  3
"Amdt_StdImp|Product Description: AutoCAD Mechanical 2004 DX|Company: Autodesk"
 90
    32768
280
     0
281
     0
  0
CLASS
  1
AMGOBJPROPCFG
  2
AmgObjPropCfg
  3
"AmgLay|Product Description: AutoCAD Mechanical 2000|Company: Autodesk"
 90
        1
280
     0
281
     0
  0
CLASS
  1
AMDTEDGESTANDARDISO
  2
AmdtEdgeStdISO
  3
"Amdt_StdImp|Product Description: AutoCAD Mechanical 2004 DX|Company: Autodesk"
 90
    32768
280
     0
281
     0
  0
CLASS
  1
ACMSURFSTANDARDISO
  2
AcmSurfTextStdISO
  3
"Amdt_StdImp|Product Description: AutoCAD Mechanical 2004 DX|Company: Autodesk"
 90
    32768
280
     0
281
     0
  0
CLASS
  1
ACMFCFSTANDARDISO
  2
AcmFCFStdISO
  3
"Amdt_StdImp|Product Description: AutoCAD Mechanical 2004 DX|Company: Autodesk"
 90
    32768
280
     0
281
     0
  0
CLASS
  1
ACMWELDSTANDARDISO
  2
AcmWeldingStdISO
  3
"Amdt_StdImp|Product Description: AutoCAD Mechanical 2004 DX|Company: Autodesk"
 90
    32768
280
     0
281
     0
  0
CLASS
  1
ACMIDSTANDARDISO
  2
AcmIdStdISO
  3
"Amdt_StdImp|Product Description: AutoCAD Mechanical 2004 DX|Company: Autodesk"
 90
    32768
280
     0
281
     0
  0
CLASS
  1
ACMDATUMSTANDARDISO
  2
AcmDatumStdISO
  3
"Amdt_StdImp|Product Description: AutoCAD Mechanical 2004 DX|Company: Autodesk"
 90
    32768
280
     0
281
     0
  0
CLASS
  1
ACMBOMSTANDARDISO
  2
AcmBOMStdISO
  3
"Amdt_StdImp|Product Description: AutoCAD Mechanical 2004 DX|Company: Autodesk"
 90
    32768
280
     0
281
     0
  0
CLASS
  1
ACMDETAILSTANDARDISO
  2
AmdtDetailSymStdISO
  3
"Amdt_StdImp|Product Description: AutoCAD Mechanical 2004 DX|Company: Autodesk"
 90
    32768
280
     0
281
     0
  0
CLASS
  1
ACMSECTIONSTANDARDISO
  2
AmdtSectionSymStdISO
  3
"Amdt_StdImp|Product Description: AutoCAD Mechanical 2004 DX|Company: Autodesk"
 90
    32768
280
     0
281
     0
  0
CLASS
  1
ACMCENTERLINESTANDARDISO
  2
AmdtCenterLineStdISO
  3
"Amdt_StdImp|Product Description: AutoCAD Mechanical 2004 DX|Company: Autodesk"
 90
    32768
280
     0
281
     0
  0
CLASS
  1
ACMNOTESTANDARDISO
  2
AmdtNoteStdISO
  3
"Amdt_StdImp|Product Description: AutoCAD Mechanical 2004 DX|Company: Autodesk"
 90
    32768
280
     0
281
     0
  0
CLASS
  1
ACAMGLAYSTD
  2
AcAmgLayStd
  3
"AcAmgLayStd|Product Description: AutoCAD Mechanical 2000|Company: Autodesk"
 90
        0
280
     0
281
     0
  0
CLASS
  1
ACAMGDIMSTD
  2
AcAmgDimStd
  3
"AcAmgDimStd|Product Description: AutoCAD Mechanical 2000|Company: Autodesk"
 90
        0
280
     0
281
     0
  0
CLASS
  1
ACAMGHOLECHARTSTDISO
  2
AcAmgHoleChartStdISO
  3
ACMSYMBB_MODULE_NAME
 90
    32768
280
     0
281
     0
  0
CLASS
  1
ACAMGTITLESTD
  2
AcAmgTitleStd
  3
"TITLEAPP"
 90
        0
280
     0
281
     0
  0
CLASS
  1
LAYER_INDEX
  2
AcDbLayerIndex
  3
ObjectDBX Classes
 90
    32768
280
     0
281
     0
  0
CLASS
  1
IDBUFFER
  2
AcDbIdBuffer
  3
ObjectDBX Classes
 90
    32768
280
     0
281
     0
  0
CLASS
  1
DICTIONARYVAR
  2
AcDbDictionaryVar
  3
ObjectDBX Classes
 90
        0
280
     0
281
     0
  0
CLASS
  1
AM_DRAWING_MGR
  2
AcDmDwgMgr
  3
AcMechDwgViewMgmt
 90
        0
280
     0
281
     0
  0
CLASS
  1
AM_DWG_DOCUMENT
  2
AcDmDwgDocument
  3
AcMechDwgViewMgmt
 90
        0
280
     0
281
     0
  0
CLASS
  1
AM_DWG_SHEET
  2
AcDmSheet
  3
AcMechDwgViewMgmt
 90
        0
280
     0
281
     0
  0
CLASS
  1
AM_VIEWDIMPARMAP
  2
AcDmViewDimParMap
  3
AcMechDwgViewMgmt
 90
        0
280
     0
281
     0
  0
CLASS
  1
AM_DWGMGR_NAME
  2
AcDmDwgMgrName
  3
AcMechDwgViewMgmt
 90
        0
280
     0
281
     0
  0
CLASS
  1
AMDTMENUSTATEMGR
  2
AmdtMenuStateMgr
  3
McadcomServices
 90
        0
280
     0
281
     0
  0
CLASS
  1
AMDTMCOMMENUSTATE
  2
AmdtMcomMenuState
  3
McadcomServices
 90
        0
280
     0
281
     0
  0
CLASS
  1
MAPIAMMOUDLE
  2
MApiAmModule
  3
MApiAmServices
 90
        0
280
     0
281
     0
  0
CLASS
  1
AMDTADMENUSTATE
  2
AmdtAdMenuState
  3
DesignerServices
 90
        0
280
     0
281
     0
  0
CLASS
  1
ADAPPL
  2
AcAdAppl
  3
DesignerServices
 90
        0
280
     0
281
     0
  0
CLASS
  1
DEPMGR
  2
AcAdDepMgr
  3
DesignerServices
 90
        0
280
     0
281
     0
  0
CLASS
  1
PARAMMGR
  2
AcAdParamMgr
  3
DesignerServices
 90
        0
280
     0
281
     0
  0
CLASS
  1
PARAMSCOPE
  2
AcAdParamScope
  3
DesignerServices
 90
        0
280
     0
281
     0
  0
CLASS
  1
NAMEDAPPL
  2
AcAdNamedAppl
  3
DesignerServices
 90
        0
280
     0
281
     0
  0
CLASS
  1
AMDTDMMENUSTATE
  2
AmdtDmMenuState
  3
AcMechDwgViewMgmt
 90
        0
280
     0
281
     0
  0
CLASS
  1
AMDTAMMENUSTATE
  2
AmdtAmMenuState
  3
DesignerAssemblies
 90
        0
280
     0
281
     0
  0
CLASS
  1
ACAMPROJECT
  2
AcAmProject
  3
DesignerAssemblies
 90
        0
280
     0
281
     0
  0
CLASS
  1
ACAMGRCOMPDEF
  2
AcAmGrCompDef
  3
DesignerAssemblies
 90
        0
280
     0
281
     0
  0
CLASS
  1
ACCMCONTEXT
  2
AcCmContext
  3
DesignerAssemblies
 90
        0
280
     0
281
     0
  0
CLASS
  1
ACAMCOMPDEF
  2
AcAmCompDef
  3
DesignerAssemblies
 90
        0
280
     0
281
     0
  0
CLASS
  1
ACAMCOMPDEFMGR
  2
AcAmCompDefMgr
  3
DesignerAssemblies
 90
        0
280
     0
281
     0
  0
CLASS
  1
AMCONTEXTMGR
  2
AcAmContextMgr
  3
DesignerAssemblies
 90
        0
280
     0
281
     0
  0
CLASS
  1
ACAMCONTEXTMODELER
  2
AcAmContextModeler
  3
DesignerAssemblies
 90
        0
280
     0
281
     0
  0
CLASS
  1
ACMTHREADLINESTANDARDISO
  2
AmdtThreadLineStdISO
  3
"Amdt_StdImp|Product Description: AutoCAD Mechanical 2004 DX|Company: Autodesk"
 90
    32768
280
     0
281
     0
  0
CLASS
  1
CATALOGSTATE
  2
AcAmCatalogState
  3
DesignerAssemblies
 90
        0
280
     0
281
     0
  0
CLASS
  1
ACAMGRCOMPDEFSET
  2
AcAmGrCompDefSet
  3
DesignerAssemblies
 90
        0
280
     0
281
     0
  0
CLASS
  1
AMDTBROWSERDBTAB
  2
AmdtBrowserDbTab
  3
McadcomServices
 90
        0
280
     0
281
     0
  0
CLASS
  1
CBROWSERAPPOBJECT
  2
CBrowserAppObject
  3
McadcomServices
 90
        0
280
     0
281
     0
  0
CLASS
  1
DM_PLACEHOLDER
  2
AcDmSelsetPlaceholder
  3
AcMechDwgViewMgmt
 90
        0
280
     0
281
     0
  0
CLASS
  1
TABLESTYLE
  2
AcDbTableStyle
  3
ObjectDBX Classes
 90
     2047
280
     0
281
     0
  0
CLASS
  1
VAACXREFPANELOBJECT
  2
VaAcXREFPanelObject
  3
VAAC_ADDIN
 90
    32768
280
     0
281
     0
  0
CLASS
  1
VAACIMAGEINVENTORY
  2
VaAcImageInventory
  3
VAAC_ADDIN
 90
    32768
280
     0
281
     0
  0
CLASS
  1
AMDTNOTETEMPLATEDB
  2
AmdtNoteTemplateDB
  3
AMDT_STDIMP_MODULE_NAME
 90
        0
280
     0
281
     0
  0
CLASS
  1
ACMBOM
  2
AcmBom
  3
"AcmSymBB|Product Description: AutoCAD Mechanical 2004 DX|Company: Autodesk"
 90
    32768
280
     0
281
     0
  0
CLASS
  1
AMDTFORMULAUPDATEDISPATCHER
  2
AmdtFormulaUpdateDispatcher
  3
AcMeServices
 90
    32768
280
     0
281
     0
  0
CLASS
  1
ACMPARTLIST
  2
AcmPartList
  3
"AcmSymBB|Product Description: AutoCAD Mechanical 2004 DX|Company: Autodesk"
 90
    33791
280
     0
281
     1
  0
CLASS
  1
ACAMGFILTERDAT
  2
AcAmgFilterDat
  3
"AcadM|Product Description: AutoCAD Mechanical 2000|Company: Autodesk"
 90
    32768
280
     0
281
     0
  0
CLASS
  1
SORTENTSTABLE
  2
AcDbSortentsTable
  3
ObjectDBX Classes
 90
        0
280
     0
281
     0
  0
CLASS
  1
ACMSTANDARDJIS
  2
AcmStandardJIS
  3
"Amdt_StdImp|Product Description: AutoCAD Mechanical 2004 DX|Company: Autodesk"
 90
        0
280
     0
281
     0
  0
CLASS
  1
ACMSURFSTANDARDJIS
  2
AcmSurfTextStdJIS
  3
"Amdt_StdImp|Product Description: AutoCAD Mechanical 2004 DX|Company: Autodesk"
 90
        0
280
     0
281
     0
  0
CLASS
  1
ACMFCFSTANDARDJIS
  2
AcmFCFStdJIS
  3
"Amdt_StdImp|Product Description: AutoCAD Mechanical 2004 DX|Company: Autodesk"
 90
        0
280
     0
281
     0
  0
CLASS
  1
ACMWELDSTANDARDJIS
  2
AcmWeldingStdJIS
  3
"Amdt_StdImp|Product Description: AutoCAD Mechanical 2004 DX|Company: Autodesk"
 90
        0
280
     0
281
     0
  0
CLASS
  1
ACMIDSTANDARDJIS
  2
AcmIdStdJIS
  3
"Amdt_StdImp|Product Description: AutoCAD Mechanical 2004 DX|Company: Autodesk"
 90
        0
280
     0
281
     0
  0
CLASS
  1
ACMDATUMSTANDARDJIS
  2
AcmDatumStdJIS
  3
"Amdt_StdImp|Product Description: AutoCAD Mechanical 2004 DX|Company: Autodesk"
 90
        0
280
     0
281
     0
  0
CLASS
  1
ACMBOMSTANDARDJIS
  2
AcmBOMStdJIS
  3
"Amdt_StdImp|Product Description: AutoCAD Mechanical 2004 DX|Company: Autodesk"
 90
        0
280
     0
281
     0
  0
CLASS
  1
ACMDETAILSTANDARDJIS
  2
AmdtDetailSymStdJIS
  3
"Amdt_StdImp|Product Description: AutoCAD Mechanical 2004 DX|Company: Autodesk"
 90
        0
280
     0
281
     0
  0
CLASS
  1
ACMSECTIONSTANDARDJIS
  2
AmdtSectionSymStdJIS
  3
"Amdt_StdImp|Product Description: AutoCAD Mechanical 2004 DX|Company: Autodesk"
 90
        0
280
     0
281
     0
  0
CLASS
  1
ACMCENTERLINESTANDARDJIS
  2
AmdtCenterLineStdJIS
  3
"Amdt_StdImp|Product Description: AutoCAD Mechanical 2004 DX|Company: Autodesk"
 90
        0
280
     0
281
     0
  0
CLASS
  1
ACMTHREADLINESTANDARDJIS
  2
AmdtThreadLineStdJIS
  3
"Amdt_StdImp|Product Description: AutoCAD Mechanical 2004 DX|Company: Autodesk"
 90
        0
280
     0
281
     0
  0
CLASS
  1
ACMNOTESTANDARDJIS
  2
AmdtNoteStdJIS
  3
"Amdt_StdImp|Product Description: AutoCAD Mechanical 2004 DX|Company: Autodesk"
 90
        0
280
     0
281
     0
  0
CLASS
  1
ACAMGHOLECHARTSTDJIS
  2
AcAmgHoleChartStdJIS
  3
ACMSYMBB_MODULE_NAME
 90
        0
280
     0
281
     0
  0
CLASS
  1
ACRFATTGENMGR
  2
AcRfAttGeneralMgr
  3
AcAttribServices
 90
    32768
280
     0
281
     0
  0
ENDSEC
  0
SECTION
  2
TABLES
  0
TABLE
  2
VPORT
  5
8
330
0
100
AcDbSymbolTable
 70
     3
  0
VPORT
  5
675
330
8
100
AcDbSymbolTableRecord
100
AcDbViewportTableRecord
  2
*Active
 70
     0
 10
0.0
 20
0.0
 11
1.0
 21
1.0
 12
114.4944771850651
 22
86.25489869033321
 13
0.0
 23
0.0
 14
2.5
 24
2.5
 15
10.0
 25
10.0
 16
0.0
 26
0.0
 36
1.0
 17
0.0
 27
0.0
 37
0.0
 40
352.2309301420314
 41
1.954070981210856
 42
50.0
 43
0.0
 44
0.0
 50
0.0
 51
0.0
 71
     0
 72
   100
 73
     1
 74
     3
 75
     0
 76
     0
 77
     0
 78
     0
281
     0
 65
     1
110
0.0
120
0.0
130
0.0
111
1.0
121
0.0
131
0.0
112
0.0
122
1.0
132
0.0
 79
     0
146
0.0
  0
ENDTAB
  0
TABLE
  2
LTYPE
  5
5
330
0
100
AcDbSymbolTable
 70
    16
  0
LTYPE
  5
14
330
5
100
AcDbSymbolTableRecord
100
AcDbLinetypeTableRecord
  2
ByBlock
 70
     0
  3

 72
    65
 73
     0
 40
0.0
  0
LTYPE
  5
15
330
5
100
AcDbSymbolTableRecord
100
AcDbLinetypeTableRecord
  2
ByLayer
 70
     0
  3

 72
    65
 73
     0
 40
0.0
  0
LTYPE
  5
16
330
5
100
AcDbSymbolTableRecord
100
AcDbLinetypeTableRecord
  2
Continuous
 70
     0
  3
Solid line
 72
    65
 73
     0
 40
0.0
  0
LTYPE
  5
64
330
5
100
AcDbSymbolTableRecord
100
AcDbLinetypeTableRecord
  2
AM_ISO02W050
 70
     0
  3
__ __ __ __ __ __ __ __ __ __ __ __ __ __ __
 72
    65
 73
     2
 40
7.5
 49
6.0
 74
     0
 49
-1.5
 74
     0
  0
LTYPE
  5
65
330
5
100
AcDbSymbolTableRecord
100
AcDbLinetypeTableRecord
  2
AM_ISO08W050
 70
     0
  3
____ . ____ . ____ . ____ . ____ . ____ . ____
 72
    65
 73
     4
 40
18.0
 49
12.0
 74
     0
 49
-1.5
 74
     0
 49
3.0
 74
     0
 49
-1.5
 74
     0
  0
LTYPE
  5
66
330
5
100
AcDbSymbolTableRecord
100
AcDbLinetypeTableRecord
  2
AM_ISO09W050
 70
     0
  3
_____ . . _____ . . _____ . . ____ .. ____
 72
    65
 73
     6
 40
22.5
 49
12.0
 74
     0
 49
-1.5
 74
     0
 49
3.0
 74
     0
 49
-1.5
 74
     0
 49
3.0
 74
     0
 49
-1.5
 74
     0
  0
LTYPE
  5
67
330
5
100
AcDbSymbolTableRecord
100
AcDbLinetypeTableRecord
  2
Amconstr
 70
     0
  3
_______________________
 72
    65
 73
     2
 40
9999.0
 49
9999.0
 74
     0
 49
0.0
 74
     0
  0
LTYPE
  5
68
330
5
100
AcDbSymbolTableRecord
100
AcDbLinetypeTableRecord
  2
AM_ISO08W050x2
 70
     0
  3
__ . __ . __ . __ . __ . __
 72
    65
 73
     4
 40
9.0
 49
6.0
 74
     0
 49
-0.75
 74
     0
 49
1.5
 74
     0
 49
-0.75
 74
     0
  0
LTYPE
  5
69
330
5
100
AcDbSymbolTableRecord
100
AcDbLinetypeTableRecord
  2
AM_ISO02W050x2
 70
     0
  3
 _ _ _ _ _ _ _ _ _ _ _ _
 72
    65
 73
     2
 40
3.75
 49
3.0
 74
     0
 49
-0.75
 74
     0
  0
LTYPE
  5
6C
330
5
100
AcDbSymbolTableRecord
100
AcDbLinetypeTableRecord
  2
Amzigzag
 70
     0
  3
/\/-/\/-/\/-/\/-/\/-/\/
 72
    65
 73
     2
 40
11.0001
 49
0.0001
 74
     4
 75
   135
340
6B
 46
0.04
 50
0.0
 44
0.0
 45
0.0
 49
-11.0
 74
     0
  0
LTYPE
  5
7A
330
5
100
AcDbSymbolTableRecord
100
AcDbLinetypeTableRecord
  2
ACISOWELD
 70
     0
  3
_ _ _ _ _
 72
    65
 73
     2
 40
2.0
 49
2.0
 74
     0
 49
-1.0
 74
     0
  0
LTYPE
  5
7B
330
5
100
AcDbSymbolTableRecord
100
AcDbLinetypeTableRecord
  2
ACISOTGB
 70
     0
  3
__ . . __ . .
 72
    65
 73
     6
 40
9.0
 49
4.0
 74
     0
 49
-1.0
 74
     0
 49
1.0
 74
     0
 49
-1.0
 74
     0
 49
1.0
 74
     0
 49
-1.0
 74
     0
  0
LTYPE
  5
7C
330
5
100
AcDbSymbolTableRecord
100
AcDbLinetypeTableRecord
  2
ACISOTGL
 70
     0
  3
_ _ _ _ _
 72
    65
 73
     2
 40
3.0
 49
2.0
 74
     0
 49
-1.0
 74
     0
  0
LTYPE
  5
7E
330
5
100
AcDbSymbolTableRecord
100
AcDbLinetypeTableRecord
  2
CENTER
 70
     0
  3
__ . __
 72
    65
 73
     4
 40
7.0
 49
4.0
 74
     0
 49
-1.0
 74
     0
 49
1.0
 74
     0
 49
-1.0
 74
     0
  0
LTYPE
  5
D8
330
5
100
AcDbSymbolTableRecord
100
AcDbLinetypeTableRecord
  2
HIDDEN
 70
     0
  3
Hidden __ __ __ __ __ __ __ __ __ __ __ __ __ _
 72
    65
 73
     2
 40
9.524999999999996
 49
6.349999999999998
 74
     0
 49
-3.174999999999998
 74
     0
  0
LTYPE
  5
D9
330
5
100
AcDbSymbolTableRecord
100
AcDbLinetypeTableRecord
  2
PHANTOM2
 70
     0
  3
Phantom (.5x) ___ _ _ ___ _ _ ___ _ _ ___ _ _
 72
    65
 73
     6
 40
31.75
 49
15.875
 74
     0
 49
-3.174999999999998
 74
     0
 49
3.174999999999998
 74
     0
 49
-3.174999999999998
 74
     0
 49
3.174999999999998
 74
     0
 49
-3.174999999999998
 74
     0
  0
LTYPE
  5
207
330
5
100
AcDbSymbolTableRecord
100
AcDbLinetypeTableRecord
  2
ACJISTGB
 70
     0
  3
__ . . __ . .
 72
    65
 73
     6
 40
9.0
 49
4.0
 74
     0
 49
-1.0
 74
     0
 49
1.0
 74
     0
 49
-1.0
 74
     0
 49
1.0
 74
     0
 49
-1.0
 74
     0
  0
LTYPE
  5
208
330
5
100
AcDbSymbolTableRecord
100
AcDbLinetypeTableRecord
  2
ACJISTGL
 70
     0
  3
_ _ _ _ _
 72
    65
 73
     2
 40
3.0
 49
2.0
 74
     0
 49
-1.0
 74
     0
  0
ENDTAB
  0
TABLE
  2
LAYER
  5
2
330
0
100
AcDbSymbolTable
 70
     3
  0
LAYER
  5
10
330
2
100
AcDbSymbolTableRecord
100
AcDbLayerTableRecord
  2
0
 70
     0
 62
     7
  6
Continuous
370
    -3
390
F
  0
LAYER
  5
1B0
330
2
100
AcDbSymbolTableRecord
100
AcDbLayerTableRecord
  2
AM_5
 70
     0
 62
     3
  6
Continuous
370
    25
390
F
  0
LAYER
  5
1FD
330
2
100
AcDbSymbolTableRecord
100
AcDbLayerTableRecord
  2
AM_0
 70
     0
 62
     7
  6
Continuous
370
    50
390
F
  0
ENDTAB
  0
TABLE
  2
STYLE
  5
3
330
0
100
AcDbSymbolTable
 70
     9
  0
STYLE
  5
11
330
3
100
AcDbSymbolTableRecord
100
AcDbTextStyleTableRecord
  2
STANDARD
 70
     0
 40
0.0
 41
1.0
 50
0.0
 71
     0
 42
2.5
  3
ISOCP.SHX
  4
extfont.shx
  0
STYLE
  5
6B
330
3
100
AcDbSymbolTableRecord
100
AcDbTextStyleTableRecord
  2

 70
     1
 40
0.0
 41
1.0
 50
0.0
 71
     0
 42
2.5
  3
ltypeshp.shx
  4

  0
STYLE
  5
6D
330
3
100
AcDbSymbolTableRecord
100
AcDbTextStyleTableRecord
  2
ACISOTS
 70
     0
 40
1.0
 41
1.0
 50
0.0
 71
     0
 42
1.0
  3
isocp.shx
  4
extfont.shx
  0
STYLE
  5
79
330
3
100
AcDbSymbolTableRecord
100
AcDbTextStyleTableRecord
  2
ACISOGDT
 70
     0
 40
0.0
 41
1.0
 50
0.0
 71
     0
 42
2.5
  3
amgdt.shx
  4
extfont.shx
  0
STYLE
  5
1F8
330
3
100
AcDbSymbolTableRecord
100
AcDbTextStyleTableRecord
  2
USER1
 70
     0
 40
0.0
 41
1.0
 50
0.0
 71
     0
 42
1.0
  3
TXT.SHX
  4

  0
STYLE
  5
1F9
330
3
100
AcDbSymbolTableRecord
100
AcDbTextStyleTableRecord
  2
USER2
 70
     0
 40
0.0
 41
1.0
 50
0.0
 71
     0
 42
1.0
  3
SIMPLEX.SHX
  4

  0
STYLE
  5
1FA
330
3
100
AcDbSymbolTableRecord
100
AcDbTextStyleTableRecord
  2
USER3
 70
     0
 40
0.0
 41
1.0
 50
0.0
 71
     0
 42
1.0
  3
ITALIC.SHX
  4

  0
STYLE
  5
1FB
330
3
100
AcDbSymbolTableRecord
100
AcDbTextStyleTableRecord
  2
ACJISTS
 70
     0
 40
1.0
 41
1.0
 50
0.0
 71
     0
 42
2.5
  3
isocp.shx
  4
extfont.shx
  0
STYLE
  5
1FC
330
3
100
AcDbSymbolTableRecord
100
AcDbTextStyleTableRecord
  2
ACJISGDT
 70
     0
 40
0.0
 41
1.0
 50
0.0
 71
     0
 42
2.5
  3
amgdt.shx
  4
extfont.shx
  0
ENDTAB
  0
TABLE
  2
VIEW
  5
6
330
0
100
AcDbSymbolTable
 70
     0
  0
ENDTAB
  0
TABLE
  2
UCS
  5
7
330
0
100
AcDbSymbolTable
 70
     0
  0
ENDTAB
  0
TABLE
  2
APPID
  5
9
330
0
100
AcDbSymbolTable
 70
    13
  0
APPID
  5
12
330
9
100
AcDbSymbolTableRecord
100
AcDbRegAppTableRecord
  2
ACAD
 70
     0
  0
APPID
  5
46
330
9
100
AcDbSymbolTableRecord
100
AcDbRegAppTableRecord
  2
MCAD_NO_VIS
 70
     0
  0
APPID
  5
47
330
9
100
AcDbSymbolTableRecord
100
AcDbRegAppTableRecord
  2
ACAD_TEMP_GRAPHIC
 70
     0
  0
APPID
  5
58
330
9
100
AcDbSymbolTableRecord
100
AcDbRegAppTableRecord
  2
ACATTRIBSERVICES
 70
     0
  0
APPID
  5
EE
330
9
100
AcDbSymbolTableRecord
100
AcDbRegAppTableRecord
  2
AD_DRAW
 70
     0
  0
APPID
  5
10C
330
9
100
AcDbSymbolTableRecord
100
AcDbRegAppTableRecord
  2
DESIGNERASSEMBLIES
 70
     0
  0
APPID
  5
111
330
9
100
AcDbSymbolTableRecord
100
AcDbRegAppTableRecord
  2
ACADM_DIM_EDIT
 70
     0
  0
APPID
  5
112
330
9
100
AcDbSymbolTableRecord
100
AcDbRegAppTableRecord
  2
AMDT_DM_ADJ
 70
     0
  0
APPID
  5
20F
330
9
100
AcDbSymbolTableRecord
100
AcDbRegAppTableRecord
  2
GENIUS_GENREC_14
 70
     0
  0
APPID
  5
210
330
9
100
AcDbSymbolTableRecord
100
AcDbRegAppTableRecord
  2
GENIUS_GENODEF_13
 70
     0
  0
APPID
  5
211
330
9
100
AcDbSymbolTableRecord
100
AcDbRegAppTableRecord
  2
GENIUS_GENOBJ-N-REC_13
 70
     0
  0
APPID
  5
212
330
9
100
AcDbSymbolTableRecord
100
AcDbRegAppTableRecord
  2
GENIUS_GENOBJ-N-CEN_13
 70
     0
  0
APPID
  5
213
330
9
100
AcDbSymbolTableRecord
100
AcDbRegAppTableRecord
  2
GENIUS_GENOBJ-N-FIL_13
 70
     0
  0
ENDTAB
  0
TABLE
  2
DIMSTYLE
  5
A
330
0
100
AcDbSymbolTable
 70
    15
100
AcDbDimStyleTable
 71
     2
340
81
340
1FE
  0
DIMSTYLE
105
27
330
A
100
AcDbSymbolTableRecord
100
AcDbDimStyleTableRecord
  2
ISO-25
 70
     0
 41
2.5
 42
0.625
 43
3.75
 44
1.25
 73
     0
 74
     0
 77
     1
 78
     8
140
2.5
141
2.5
143
0.03937007874016
147
0.625
171
     3
172
     1
271
     2
272
     2
274
     3
278
    44
283
     0
284
     8
340
11
  0
DIMSTYLE
105
81
330
A
100
AcDbSymbolTableRecord
100
AcDbDimStyleTableRecord
  2
AM_ISO
 70
     0
  4
"
 41
2.5
 42
1.0
 43
10.0
 44
1.0
 47
0.1
 48
0.1
 73
     0
 74
     0
 77
     1
 78
     8
 79
     2
140
3.5
141
0.0
143
0.0393701
146
0.71
147
1.5
172
     1
176
   256
177
   256
178
     2
271
     2
272
     3
274
     4
283
     0
284
     8
340
11
371
    -1
372
    -1
  0
DIMSTYLE
105
82
330
A
100
AcDbSymbolTableRecord
100
AcDbDimStyleTableRecord
  2
AM_ISO$3
 70
     0
  4
"
 41
2.5
 42
1.0
 43
10.0
 44
1.0
 47
0.1
 48
0.1
 73
     0
 77
     1
 78
     8
 79
     2
140
3.5
141
0.0
143
0.0393701
146
0.71
147
1.5
176
   256
177
   256
178
     2
271
     2
272
     3
274
     4
283
     0
284
     8
288
     1
289
     0
340
11
371
    -1
372
    -1
  0
DIMSTYLE
105
83
330
A
100
AcDbSymbolTableRecord
100
AcDbDimStyleTableRecord
  2
AM_ISO$4
 70
     0
  4
"
 41
2.5
 42
1.0
 43
10.0
 44
1.0
 47
0.1
 48
0.1
 73
     0
 77
     1
 78
     8
 79
     2
140
3.5
141
0.0
143
0.0393701
146
0.71
147
1.5
176
   256
177
   256
178
     2
271
     2
272
     3
274
     4
283
     0
284
     8
288
     1
289
     0
340
11
371
    -1
372
    -1
  0
DIMSTYLE
105
84
330
A
100
AcDbSymbolTableRecord
100
AcDbDimStyleTableRecord
  2
AM_ISO$6
 70
     0
  4
"
 41
2.5
 42
1.0
 43
10.0
 44
1.0
 47
0.1
 48
0.1
 73
     0
 74
     0
 78
     8
 79
     2
140
3.5
141
0.0
143
0.0393701
146
0.71
147
1.5
172
     1
176
   256
177
   256
178
     2
271
     2
272
     3
274
     4
283
     0
284
     8
340
11
371
    -1
372
    -1
  0
DIMSTYLE
105
85
330
A
100
AcDbSymbolTableRecord
100
AcDbDimStyleTableRecord
  2
AM_ISO$7
 70
     0
  4
"
 41
2.5
 42
1.0
 43
10.0
 44
1.0
 47
0.1
 48
0.1
 73
     0
 74
     0
 77
     1
 78
     8
 79
     2
140
5.0
141
0.0
143
0.0393701
146
0.71
147
1.5
172
     1
176
   256
177
   256
178
     2
271
     2
272
     3
274
     4
283
     0
284
     8
340
11
371
    -1
372
    -1
  0
DIMSTYLE
105
86
330
A
100
AcDbSymbolTableRecord
100
AcDbDimStyleTableRecord
  2
AM_ISO$SF
 70
     0
  4
"
 41
2.5
 42
1.0
 43
10.0
 44
1.0
 47
0.1
 48
0.1
 73
     0
 74
     0
 75
     1
 76
     1
 77
     1
 78
     8
 79
     2
140
3.5
141
0.0
143
0.0393701
146
0.71
147
1.5
172
     1
176
   256
177
   256
178
     2
271
     2
272
     3
274
     4
283
     0
284
     8
340
11
371
    -1
372
    -1
  0
DIMSTYLE
105
8B
330
A
100
AcDbSymbolTableRecord
100
AcDbDimStyleTableRecord
  2
AM_ISO$SH
 70
     0
  4
"
 41
2.5
 42
1.0
 43
10.0
 44
1.0
 47
0.1
 48
0.1
 73
     0
 74
     0
 75
     1
 76
     1
 77
     1
 78
     8
 79
     2
140
3.5
141
0.0
143
0.0393701
144
2.0
146
0.71
147
1.5
172
     1
173
     1
176
   256
177
   256
178
     2
271
     2
272
     3
274
     4
283
     0
284
     8
340
11
343
87
371
    -1
372
    -1
  0
DIMSTYLE
105
1FE
330
A
100
AcDbSymbolTableRecord
100
AcDbDimStyleTableRecord
  2
AM_JIS
 70
     0
  4
"
 41
2.5
 42
1.0
 43
10.0
 44
1.0
 47
0.1
 48
0.1
 73
     0
 74
     0
 77
     3
 78
     8
 79
     2
140
3.5
141
0.0
143
0.0393701
146
0.71
147
1.5
172
     1
176
   256
177
   256
178
     2
271
     2
272
     3
274
     4
283
     0
284
     8
340
11
341
1FF
342
1FF
343
1FF
344
1FF
371
    -1
372
    -1
  0
DIMSTYLE
105
209
330
A
100
AcDbSymbolTableRecord
100
AcDbDimStyleTableRecord
  2
AM_JIS$3
 70
     0
  4
"
 41
2.5
 42
1.0
 43
10.0
 44
1.0
 47
0.1
 48
0.1
 73
     0
 77
     3
 78
     8
 79
     2
140
3.5
141
0.0
143
0.0393701
146
0.71
147
1.5
176
   256
177
   256
178
     2
271
     2
272
     3
274
     4
283
     0
284
     8
288
     1
289
     0
340
11
341
1FF
342
1FF
343
1FF
344
1FF
371
    -1
372
    -1
  0
DIMSTYLE
105
20A
330
A
100
AcDbSymbolTableRecord
100
AcDbDimStyleTableRecord
  2
AM_JIS$4
 70
     0
  4
"
 41
2.5
 42
1.0
 43
10.0
 44
1.0
 47
0.1
 48
0.1
 73
     0
 77
     3
 78
     8
 79
     2
140
3.5
141
0.0
143
0.0393701
146
0.71
147
1.5
176
   256
177
   256
178
     2
271
     2
272
     3
274
     4
283
     0
284
     8
288
     1
289
     0
340
11
341
1FF
342
1FF
343
1FF
344
1FF
371
    -1
372
    -1
  0
DIMSTYLE
105
20B
330
A
100
AcDbSymbolTableRecord
100
AcDbDimStyleTableRecord
  2
AM_JIS$6
 70
     0
  4
"
 41
2.5
 42
1.0
 43
10.0
 44
1.0
 47
0.1
 48
0.1
 73
     0
 74
     0
 78
     8
 79
     2
140
3.5
141
0.0
143
0.0393701
146
0.71
147
1.5
172
     1
176
   256
177
   256
178
     2
271
     2
272
     3
274
     4
283
     0
284
     8
340
11
341
1FF
342
1FF
343
1FF
344
1FF
371
    -1
372
    -1
  0
DIMSTYLE
105
20C
330
A
100
AcDbSymbolTableRecord
100
AcDbDimStyleTableRecord
  2
AM_JIS$7
 70
     0
  4
"
 41
2.5
 42
1.0
 43
10.0
 44
1.0
 47
0.1
 48
0.1
 73
     0
 74
     0
 77
     3
 78
     8
 79
     2
140
3.5
141
0.0
143
0.0393701
146
0.71
147
1.5
172
     1
176
   256
177
   256
178
     2
271
     2
272
     3
274
     4
283
     0
284
     8
340
11
341
1FF
342
1FF
343
1FF
344
1FF
371
    -1
372
    -1
  0
DIMSTYLE
105
20D
330
A
100
AcDbSymbolTableRecord
100
AcDbDimStyleTableRecord
  2
AM_JIS$SF
 70
     0
  4
"
 41
2.5
 42
1.0
 43
10.0
 44
1.0
 47
0.1
 48
0.1
 73
     0
 74
     0
 75
     1
 76
     1
 77
     3
 78
     8
 79
     2
140
3.5
141
0.0
143
0.0393701
146
0.71
147
1.5
172
     1
176
   256
177
   256
178
     2
271
     2
272
     3
274
     4
283
     0
284
     8
340
11
341
1FF
342
1FF
343
1FF
344
1FF
371
    -1
372
    -1
  0
DIMSTYLE
105
20E
330
A
100
AcDbSymbolTableRecord
100
AcDbDimStyleTableRecord
  2
AM_JIS$SH
 70
     0
  4
"
 41
2.5
 42
1.0
 43
10.0
 44
1.0
 47
0.1
 48
0.1
 73
     0
 74
     0
 75
     1
 76
     1
 77
     3
 78
     8
 79
     2
140
3.5
141
0.0
143
0.0393701
144
2.0
146
0.71
147
1.5
172
     1
173
     1
176
   256
177
   256
178
     2
271
     2
272
     3
274
     4
283
     0
284
     8
340
11
341
1FF
342
1FF
343
87
344
1FF
371
    -1
372
    -1
  0
ENDTAB
  0
TABLE
  2
BLOCK_RECORD
  5
1
330
0
100
AcDbSymbolTable
 70
     4
  0
BLOCK_RECORD
  5
1F
102
{ACAD_XDICTIONARY
360
8F
102
}
330
1
100
AcDbSymbolTableRecord
100
AcDbBlockTableRecord
  2
*Model_Space
340
22
  0
BLOCK_RECORD
  5
1B
330
1
100
AcDbSymbolTableRecord
100
AcDbBlockTableRecord
  2
*Paper_Space
340
1E
  0
BLOCK_RECORD
  5
23
330
1
100
AcDbSymbolTableRecord
100
AcDbBlockTableRecord
  2
*Paper_Space0
340
26
  0
BLOCK_RECORD
  5
87
330
1
100
AcDbSymbolTableRecord
100
AcDbBlockTableRecord
  2
GENAXEH
340
0
  0
BLOCK_RECORD
  5
1FF
330
1
100
AcDbSymbolTableRecord
100
AcDbBlockTableRecord
  2
_Open30
340
0
  0
ENDTAB
  0
ENDSEC
  0
SECTION
  2
BLOCKS
  0
BLOCK
  5
20
330
1F
100
AcDbEntity
  8
0
100
AcDbBlockBegin
  2
*Model_Space
 70
     0
 10
0.0
 20
0.0
 30
0.0
  3
*Model_Space
  1

  0
ENDBLK
  5
21
330
1F
100
AcDbEntity
  8
0
100
AcDbBlockEnd
  0
BLOCK
  5
1C
330
1B
100
AcDbEntity
 67
     1
  8
0
100
AcDbBlockBegin
  2
*Paper_Space
 70
     0
 10
0.0
 20
0.0
 30
0.0
  3
*Paper_Space
  1

  0
ENDBLK
  5
1D
330
1B
100
AcDbEntity
 67
     1
  8
0
100
AcDbBlockEnd
  0
BLOCK
  5
24
330
23
100
AcDbEntity
  8
0
100
AcDbBlockBegin
  2
*Paper_Space0
 70
     0
 10
0.0
 20
0.0
 30
0.0
  3
*Paper_Space0
  1

  0
ENDBLK
  5
25
330
23
100
AcDbEntity
  8
0
100
AcDbBlockEnd
  0
BLOCK
  5
650
330
87
100
AcDbEntity
  8
0
100
AcDbBlockBegin
  2
GENAXEH
 70
     0
 10
0.0
 20
0.0
 30
0.0
  3
GENAXEH
  1

  0
LINE
  5
651
330
87
100
AcDbEntity
  8
0
100
AcDbLine
 10
-1.0
 20
0.0
 30
0.0
 11
1.0
 21
0.0
 31
0.0
  0
ENDBLK
  5
652
330
87
100
AcDbEntity
  8
0
100
AcDbBlockEnd
  0
BLOCK
  5
644
330
1FF
100
AcDbEntity
  8
0
100
AcDbBlockBegin
  2
_Open30
 70
     0
 10
0.0
 20
0.0
 30
0.0
  3
_Open30
  1

  0
LINE
  5
645
330
1FF
100
AcDbEntity
  8
0
  6
ByBlock
 62
     0
370
    -2
100
AcDbLine
 10
-1.0
 20
0.26794919
 30
0.0
 11
0.0
 21
0.0
 31
0.0
  0
LINE
  5
646
330
1FF
100
AcDbEntity
  8
0
  6
ByBlock
 62
     0
370
    -2
100
AcDbLine
 10
0.0
 20
0.0
 30
0.0
 11
-1.0
 21
-0.26794919
 31
0.0
  0
LINE
  5
647
330
1FF
100
AcDbEntity
  8
0
  6
ByBlock
 62
     0
370
    -2
100
AcDbLine
 10
0.0
 20
0.0
 30
0.0
 11
-1.0
 21
0.0
 31
0.0
  0
ENDBLK
  5
648
330
1FF
100
AcDbEntity
  8
0
100
AcDbBlockEnd
  0
ENDSEC
  0
SECTION
  2
ENTITIES
  0
LINE
  5
3F4
330
1F
100
AcDbEntity
  8
0
100
AcDbLine
 10
19.99999975008779
 20
57.49999985633832
 30
0.0
 11
41.99999975008778
 21
57.49999985633832
 31
0.0
  0
LINE
  5
3F5
330
1F
100
AcDbEntity
  8
0
100
AcDbLine
 10
71.99999975008779
 20
153.0733561690318
 30
0.0
 11
71.99999975008779
 21
119.4999998563382
 31
0.0
1001
GENIUS_GENODEF_13
1002
{
1000
HIER
1070
     0
1002
}
1002
{
1000
MANEDIT
1070
     0
1002
}
1002
{
1000
NOSEL
1070
     0
1002
}
1002
{
1000
BEHIND
1070
     0
1002
}
1002
{
1000
OTHER
1070
     0
1002
}
1002
{
1000
REACTOR
1002
}
1001
GENIUS_GENOBJ-N-CEN_13
1002
{
1000
OWNER
1000
GEN
1002
}
  0
ARC
  5
3F6
330
1F
100
AcDbEntity
  8
0
100
AcDbCircle
 10
36.99999975008779
 20
52.49999985633832
 30
0.0
 40
120.0
100
AcDbArc
 50
80.40593177313928
 51
100.5874349383181
  0
LINE
  5
3F7
330
1F
100
AcDbEntity
  8
0
100
AcDbLine
 10
48.49999975008778
 20
119.4999998563383
 30
0.0
 11
71.99999975008779
 21
119.4999998563383
 31
0.0
  0
LINE
  5
3F8
330
1F
100
AcDbEntity
  8
0
100
AcDbLine
 10
48.49999975008778
 20
117.4999998563383
 30
0.0
 11
70.99999975008779
 21
117.4999998563383
 31
0.0
  0
LINE
  5
3F9
330
1F
100
AcDbEntity
  8
0
100
AcDbLine
 10
70.99999975008779
 20
117.4999998563383
 30
0.0
 11
71.99999975008779
 21
119.4999998563383
 31
0.0
  0
LINE
  5
3FA
330
1F
100
AcDbEntity
  8
0
100
AcDbLine
 10
41.99999975008778
 20
112.9999998563383
 30
0.0
 11
41.99999975008778
 21
57.49999985633832
 31
0.0
1001
GENIUS_GENODEF_13
1002
{
1000
HIER
1070
     0
1002
}
1002
{
1000
MANEDIT
1070
     0
1002
}
1002
{
1000
NOSEL
1070
     0
1002
}
1002
{
1000
BEHIND
1070
     0
1002
}
1002
{
1000
OTHER
1070
     0
1002
}
1002
{
1000
REACTOR
1002
}
1001
GENIUS_GENOBJ-N-CEN_13
1002
{
1000
OWNER
1000
GEN
1002
}
  0
LINE
  5
3FB
330
1F
100
AcDbEntity
  8
0
100
AcDbLine
 10
43.99999975008778
 20
112.9999998563383
 30
0.0
 11
43.99999975008778
 21
58.49999985633832
 31
0.0
1001
GENIUS_GENODEF_13
1002
{
1000
HIER
1070
     0
1002
}
1002
{
1000
MANEDIT
1070
     0
1002
}
1002
{
1000
NOSEL
1070
     0
1002
}
1002
{
1000
BEHIND
1070
     0
1002
}
1002
{
1000
OTHER
1070
     0
1002
}
1002
{
1000
REACTOR
1002
}
1001
GENIUS_GENOBJ-N-CEN_13
1002
{
1000
OWNER
1000
GEN
1002
}
  0
ARC
  5
3FC
330
1F
100
AcDbEntity
  8
0
100
AcDbCircle
 10
48.49999975008778
 20
112.9999998563383
 30
0.0
 40
4.5
100
AcDbArc
 50
90.0
 51
180.0
1001
GENIUS_GENOBJ-N-CEN_13
1002
{
1000
OWNER
1000
GEN
1002
}
1001
GENIUS_GENOBJ-N-FIL_13
1002
{
1000
OWNER
1000
GEN
1002
}
1001
GENIUS_GENODEF_13
1002
{
1000
HIER
1070
     0
1002
}
1002
{
1000
MANEDIT
1070
     0
1002
}
1002
{
1000
NOSEL
1070
     0
1002
}
1002
{
1000
BEHIND
1070
     0
1002
}
1002
{
1000
OTHER
1070
     0
1002
}
1002
{
1000
REACTOR
1002
}
  0
ARC
  5
3FD
330
1F
100
AcDbEntity
  8
0
100
AcDbCircle
 10
48.49999975008778
 20
112.9999998563383
 30
0.0
 40
6.5
100
AcDbArc
 50
90.0
 51
180.0
1001
GENIUS_GENOBJ-N-CEN_13
1002
{
1000
OWNER
1000
GEN
1002
}
1001
GENIUS_GENOBJ-N-FIL_13
1002
{
1000
OWNER
1000
GEN
1002
}
1001
GENIUS_GENODEF_13
1002
{
1000
HIER
1070
     0
1002
}
1002
{
1000
MANEDIT
1070
     0
1002
}
1002
{
1000
NOSEL
1070
     0
1002
}
1002
{
1000
BEHIND
1070
     0
1002
}
1002
{
1000
OTHER
1070
     0
1002
}
1002
{
1000
REACTOR
1002
}
  0
LINE
  5
3FE
330
1F
100
AcDbEntity
  8
0
100
AcDbLine
 10
43.99999975008778
 20
58.49999985633832
 30
0.0
 11
41.99999975008778
 21
57.49999985633832
 31
0.0
  0
LINE
  5
3FF
330
1F
100
AcDbEntity
  8
0
100
AcDbLine
 10
1.999999750087795
 20
80.87258285836872
 30
0.0
 11
1.999999750087795
 21
75.49999985633831
 31
0.0
1001
GENIUS_GENODEF_13
1002
{
1000
HIER
1070
     0
1002
}
1002
{
1000
MANEDIT
1070
     0
1002
}
1002
{
1000
NOSEL
1070
     0
1002
}
1002
{
1000
BEHIND
1070
     0
1002
}
1002
{
1000
OTHER
1070
     0
1002
}
1002
{
1000
REACTOR
1002
}
1001
GENIUS_GENOBJ-N-CEN_13
1002
{
1000
OWNER
1000
GEN
1002
}
  0
ARC
  5
400
330
1F
100
AcDbEntity
  8
0
100
AcDbCircle
 10
19.99999975008779
 20
75.49999985633831
 30
0.0
 40
18.0
100
AcDbArc
 50
180.0
 51
270.0
1001
GENIUS_GENOBJ-N-FIL_13
1002
{
1000
OWNER
1000
GEN
1002
}
1001
GENIUS_GENODEF_13
1002
{
1000
HIER
1070
     0
1002
}
1002
{
1000
MANEDIT
1070
     0
1002
}
1002
{
1000
NOSEL
1070
     0
1002
}
1002
{
1000
BEHIND
1070
     0
1002
}
1002
{
1000
OTHER
1070
     0
1002
}
1002
{
1000
REACTOR
1002
}
  0
ARC
  5
401
330
1F
100
AcDbEntity
  8
0
100
AcDbCircle
 10
-42.0000002499122
 20
103.4999998563383
 30
0.0
 40
48.0
100
AcDbArc
 50
339.9500242758483
 51
20.77679260608462
  0
ARC
  5
402
330
1F
100
AcDbEntity
  8
0
100
AcDbCircle
 10
119.9999997500878
 20
145.4999998563383
 30
0.0
 40
120.0
100
AcDbArc
 50
175.9164562624096
 51
190.499948296192
  0
ARC
  5
403
330
1F
100
AcDbEntity
  8
0
100
AcDbCircle
 10
18.25894949639948
 20
152.7635178246836
 30
0.0
 40
18.0
100
AcDbArc
 50
100.5874349383181
 51
175.9164562624096
1001
GENIUS_GENODEF_13
1002
{
1000
HIER
1070
     0
1002
}
1002
{
1000
MANEDIT
1070
     0
1002
}
1002
{
1000
NOSEL
1070
     0
1002
}
1002
{
1000
BEHIND
1070
     0
1002
}
1002
{
1000
OTHER
1070
     0
1002
}
1002
{
1000
REACTOR
1002
}
1001
GENIUS_GENOBJ-N-FIL_13
1002
{
1000
OWNER
1000
GEN
1002
}
  0
ARC
  5
404
330
1F
100
AcDbEntity
  8
0
100
AcDbCircle
 10
53.99999975008778
 20
153.0733561690318
 30
0.0
 40
18.0
100
AcDbArc
 50
0.0
 51
40.21980815280062
1001
GENIUS_GENODEF_13
1002
{
1000
HIER
1070
     0
1002
}
1002
{
1000
MANEDIT
1070
     0
1002
}
1002
{
1000
NOSEL
1070
     0
1002
}
1002
{
1000
BEHIND
1070
     0
1002
}
1002
{
1000
OTHER
1070
     0
1002
}
1002
{
1000
REACTOR
1002
}
1001
GENIUS_GENOBJ-N-FIL_13
1002
{
1000
OWNER
1000
GEN
1002
}
  0
ARC
  5
405
330
1F
100
AcDbEntity
  8
0
100
AcDbCircle
 10
19.7079824047415
 20
126.9120667598169
 30
0.0
 40
18.0
100
AcDbArc
 50
190.499948296192
 51
200.7767926060846
1001
GENIUS_GENODEF_13
1002
{
1000
HIER
1070
     0
1002
}
1002
{
1000
MANEDIT
1070
     0
1002
}
1002
{
1000
NOSEL
1070
     0
1002
}
1002
{
1000
BEHIND
1070
     0
1002
}
1002
{
1000
OTHER
1070
     0
1002
}
1002
{
1000
REACTOR
1002
}
1001
GENIUS_GENOBJ-N-FIL_13
1002
{
1000
OWNER
1000
GEN
1002
}
  0
ARC
  5
406
330
1F
100
AcDbEntity
  8
0
100
AcDbCircle
 10
19.99999975008779
 20
80.87258285836872
 30
0.0
 40
18.0
100
AcDbArc
 50
159.9500242758487
 51
180.0
1001
GENIUS_GENODEF_13
1002
{
1000
HIER
1070
     0
1002
}
1002
{
1000
MANEDIT
1070
     0
1002
}
1002
{
1000
NOSEL
1070
     0
1002
}
1002
{
1000
BEHIND
1070
     0
1002
}
1002
{
1000
OTHER
1070
     0
1002
}
1002
{
1000
REACTOR
1002
}
1001
GENIUS_GENOBJ-N-FIL_13
1002
{
1000
OWNER
1000
GEN
1002
}
  0
LINE
  5
407
330
1F
100
AcDbEntity
  8
0
100
AcDbLine
 10
61.69999975008778
 20
123.7999998563383
 30
0.0
 11
12.29999975008779
 21
123.7999998563383
 31
0.0
  0
LINE
  5
408
330
1F
100
AcDbEntity
  8
0
100
AcDbLine
 10
8.299999750087792
 20
152.3549446512757
 30
0.0
 11
8.299999750087792
 21
127.7999998563383
 31
0.0
1001
GENIUS_GENODEF_13
1002
{
1000
HIER
1070
     0
1002
}
1002
{
1000
MANEDIT
1070
     0
1002
}
1002
{
1000
NOSEL
1070
     0
1002
}
1002
{
1000
BEHIND
1070
     0
1002
}
1002
{
1000
OTHER
1070
     0
1002
}
1002
{
1000
REACTOR
1002
}
1001
GENIUS_GENOBJ-N-CEN_13
1002
{
1000
OWNER
1000
GEN
1002
}
  0
LINE
  5
409
330
1F
100
AcDbEntity
  8
0
100
AcDbLine
 10
65.69999975008778
 20
152.3549446512757
 30
0.0
 11
65.69999975008778
 21
127.7999998563383
 31
0.0
1001
GENIUS_GENODEF_13
1002
{
1000
HIER
1070
     0
1002
}
1002
{
1000
MANEDIT
1070
     0
1002
}
1002
{
1000
NOSEL
1070
     0
1002
}
1002
{
1000
BEHIND
1070
     0
1002
}
1002
{
1000
OTHER
1070
     0
1002
}
1002
{
1000
REACTOR
1002
}
1001
GENIUS_GENOBJ-N-CEN_13
1002
{
1000
OWNER
1000
GEN
1002
}
  0
ARC
  5
40A
330
1F
100
AcDbEntity
  8
0
100
AcDbCircle
 10
61.69999975008778
 20
127.7999998563383
 30
0.0
 40
4.0
100
AcDbArc
 50
270.0
 51
0.0
1001
GENIUS_GENOBJ-N-FIL_13
1002
{
1000
OWNER
1000
GEN
1002
}
1001
GENIUS_GENODEF_13
1002
{
1000
HIER
1070
     0
1002
}
1002
{
1000
MANEDIT
1070
     0
1002
}
1002
{
1000
NOSEL
1070
     0
1002
}
1002
{
1000
BEHIND
1070
     0
1002
}
1002
{
1000
OTHER
1070
     0
1002
}
1002
{
1000
REACTOR
1002
}
  0
ARC
  5
40B
330
1F
100
AcDbEntity
  8
0
100
AcDbCircle
 10
12.29999975008779
 20
127.7999998563383
 30
0.0
 40
4.0
100
AcDbArc
 50
180.0
 51
270.0
1001
GENIUS_GENOBJ-N-CEN_13
1002
{
1000
OWNER
1000
GEN
1002
}
1001
GENIUS_GENODEF_13
1002
{
1000
HIER
1070
     0
1002
}
1002
{
1000
MANEDIT
1070
     0
1002
}
1002
{
1000
NOSEL
1070
     0
1002
}
1002
{
1000
BEHIND
1070
     0
1002
}
1002
{
1000
OTHER
1070
     0
1002
}
1002
{
1000
REACTOR
1002
}
1001
GENIUS_GENOBJ-N-FIL_13
1002
{
1000
OWNER
1000
GEN
1002
}
  0
ARC
  5
40C
330
1F
100
AcDbEntity
  8
0
100
AcDbCircle
 10
36.99999975008779
 20
52.49999985633832
 30
0.0
 40
112.0
100
AcDbArc
 50
79.67040807163844
 51
100.3295919283615
  0
ARC
  5
40D
330
1F
100
AcDbEntity
  8
0
100
AcDbCircle
 10
55.19999975008778
 20
152.3549446512757
 30
0.0
 40
10.5
100
AcDbArc
 50
0.0
 51
79.67040807163844
1001
GENIUS_GENOBJ-N-FIL_13
1002
{
1000
OWNER
1000
GEN
1002
}
1001
GENIUS_GENODEF_13
1002
{
1000
HIER
1070
     0
1002
}
1002
{
1000
MANEDIT
1070
     0
1002
}
1002
{
1000
NOSEL
1070
     0
1002
}
1002
{
1000
BEHIND
1070
     0
1002
}
1002
{
1000
OTHER
1070
     0
1002
}
1002
{
1000
REACTOR
1002
}
  0
ARC
  5
40E
330
1F
100
AcDbEntity
  8
0
100
AcDbCircle
 10
18.79999975008779
 20
152.3549446512757
 30
0.0
 40
10.5
100
AcDbArc
 50
100.3295919283615
 51
180.0
1001
GENIUS_GENOBJ-N-FIL_13
1002
{
1000
OWNER
1000
GEN
1002
}
1001
GENIUS_GENODEF_13
1002
{
1000
HIER
1070
     0
1002
}
1002
{
1000
MANEDIT
1070
     0
1002
}
1002
{
1000
NOSEL
1070
     0
1002
}
1002
{
1000
BEHIND
1070
     0
1002
}
1002
{
1000
OTHER
1070
     0
1002
}
1002
{
1000
REACTOR
1002
}
  0
ARC
  5
40F
330
1F
100
AcDbEntity
  8
0
100
AcDbCircle
 10
270.9999997500878
 20
103.4999998563383
 30
0.0
 40
48.0
100
AcDbArc
 50
159.2232073939154
 51
200.0499757241517
  0
LINE
  5
410
330
1F
100
AcDbEntity
  8
0
100
AcDbLine
 10
184.9999997500878
 20
112.9999998563383
 30
0.0
 11
184.9999997500878
 21
58.49999985633832
 31
0.0
1001
GENIUS_GENODEF_13
1002
{
1000
HIER
1070
     0
1002
}
1002
{
1000
MANEDIT
1070
     0
1002
}
1002
{
1000
NOSEL
1070
     0
1002
}
1002
{
1000
BEHIND
1070
     0
1002
}
1002
{
1000
OTHER
1070
     0
1002
}
1002
{
1000
REACTOR
1002
}
1001
GENIUS_GENOBJ-N-CEN_13
1002
{
1000
OWNER
1000
GEN
1002
}
  0
LINE
  5
411
330
1F
100
AcDbEntity
  8
0
100
AcDbLine
 10
186.9999997500878
 20
112.9999998563383
 30
0.0
 11
186.9999997500878
 21
57.49999985633832
 31
0.0
1001
GENIUS_GENODEF_13
1002
{
1000
HIER
1070
     0
1002
}
1002
{
1000
MANEDIT
1070
     0
1002
}
1002
{
1000
NOSEL
1070
     0
1002
}
1002
{
1000
BEHIND
1070
     0
1002
}
1002
{
1000
OTHER
1070
     0
1002
}
1002
{
1000
REACTOR
1002
}
1001
GENIUS_GENOBJ-N-CEN_13
1002
{
1000
OWNER
1000
GEN
1002
}
  0
ARC
  5
412
330
1F
100
AcDbEntity
  8
0
100
AcDbCircle
 10
208.9999997500878
 20
75.49999985633831
 30
0.0
 40
18.0
100
AcDbArc
 50
270.0
 51
0.0
1001
GENIUS_GENOBJ-N-FIL_13
1002
{
1000
OWNER
1000
GEN
1002
}
1001
GENIUS_GENODEF_13
1002
{
1000
HIER
1070
     0
1002
}
1002
{
1000
MANEDIT
1070
     0
1002
}
1002
{
1000
NOSEL
1070
     0
1002
}
1002
{
1000
BEHIND
1070
     0
1002
}
1002
{
1000
OTHER
1070
     0
1002
}
1002
{
1000
REACTOR
1002
}
  0
ARC
  5
413
330
1F
100
AcDbEntity
  8
0
100
AcDbCircle
 10
208.9999997500878
 20
80.87258285836872
 30
0.0
 40
18.0
100
AcDbArc
 50
0.0
 51
20.04997572415129
1001
GENIUS_GENODEF_13
1002
{
1000
HIER
1070
     0
1002
}
1002
{
1000
MANEDIT
1070
     0
1002
}
1002
{
1000
NOSEL
1070
     0
1002
}
1002
{
1000
BEHIND
1070
     0
1002
}
1002
{
1000
OTHER
1070
     0
1002
}
1002
{
1000
REACTOR
1002
}
1001
GENIUS_GENOBJ-N-FIL_13
1002
{
1000
OWNER
1000
GEN
1002
}
  0
LINE
  5
414
330
1F
100
AcDbEntity
  8
0
100
AcDbLine
 10
226.9999997500878
 20
80.87258285836872
 30
0.0
 11
226.9999997500878
 21
75.49999985633831
 31
0.0
1001
GENIUS_GENODEF_13
1002
{
1000
HIER
1070
     0
1002
}
1002
{
1000
MANEDIT
1070
     0
1002
}
1002
{
1000
NOSEL
1070
     0
1002
}
1002
{
1000
BEHIND
1070
     0
1002
}
1002
{
1000
OTHER
1070
     0
1002
}
1002
{
1000
REACTOR
1002
}
1001
GENIUS_GENOBJ-N-CEN_13
1002
{
1000
OWNER
1000
GEN
1002
}
  0
LINE
  5
415
330
1F
100
AcDbEntity
  8
0
100
AcDbLine
 10
208.9999997500878
 20
57.49999985633832
 30
0.0
 11
186.9999997500878
 21
57.49999985633832
 31
0.0
  0
LINE
  5
416
330
1F
100
AcDbEntity
  8
0
100
AcDbLine
 10
184.9999997500878
 20
58.49999985633832
 30
0.0
 11
186.9999997500878
 21
57.49999985633832
 31
0.0
  0
ARC
  5
417
330
1F
100
AcDbEntity
  8
0
100
AcDbCircle
 10
191.9999997500878
 20
52.49999985633832
 30
0.0
 40
120.0
100
AcDbArc
 50
79.41256506168184
 51
99.59406822686071
  0
ARC
  5
418
330
1F
100
AcDbEntity
  8
0
100
AcDbCircle
 10
108.9999997500878
 20
145.4999998563383
 30
0.0
 40
120.0
100
AcDbArc
 50
349.500051703808
 51
4.083543737590383
  0
ARC
  5
419
330
1F
100
AcDbEntity
  8
0
100
AcDbCircle
 10
209.2920170954341
 20
126.9120667598169
 30
0.0
 40
18.0
100
AcDbArc
 50
339.2232073939153
 51
349.500051703808
1001
GENIUS_GENODEF_13
1002
{
1000
HIER
1070
     0
1002
}
1002
{
1000
MANEDIT
1070
     0
1002
}
1002
{
1000
NOSEL
1070
     0
1002
}
1002
{
1000
BEHIND
1070
     0
1002
}
1002
{
1000
OTHER
1070
     0
1002
}
1002
{
1000
REACTOR
1002
}
1001
GENIUS_GENOBJ-N-FIL_13
1002
{
1000
OWNER
1000
GEN
1002
}
  0
ARC
  5
41A
330
1F
100
AcDbEntity
  8
0
100
AcDbCircle
 10
210.7410500037761
 20
152.7635178246836
 30
0.0
 40
18.0
100
AcDbArc
 50
4.083543737590383
 51
79.41256506168184
1001
GENIUS_GENODEF_13
1002
{
1000
HIER
1070
     0
1002
}
1002
{
1000
MANEDIT
1070
     0
1002
}
1002
{
1000
NOSEL
1070
     0
1002
}
1002
{
1000
BEHIND
1070
     0
1002
}
1002
{
1000
OTHER
1070
     0
1002
}
1002
{
1000
REACTOR
1002
}
1001
GENIUS_GENOBJ-N-FIL_13
1002
{
1000
OWNER
1000
GEN
1002
}
  0
LINE
  5
41B
330
1F
100
AcDbEntity
  8
0
100
AcDbLine
 10
156.9999997500878
 20
153.0733561690318
 30
0.0
 11
156.9999997500878
 21
119.4999998563382
 31
0.0
1001
GENIUS_GENODEF_13
1002
{
1000
HIER
1070
     0
1002
}
1002
{
1000
MANEDIT
1070
     0
1002
}
1002
{
1000
NOSEL
1070
     0
1002
}
1002
{
1000
BEHIND
1070
     0
1002
}
1002
{
1000
OTHER
1070
     0
1002
}
1002
{
1000
REACTOR
1002
}
1001
GENIUS_GENOBJ-N-CEN_13
1002
{
1000
OWNER
1000
GEN
1002
}
  0
LINE
  5
41C
330
1F
100
AcDbEntity
  8
0
100
AcDbLine
 10
180.4999997500878
 20
117.4999998563383
 30
0.0
 11
157.9999997500878
 21
117.4999998563383
 31
0.0
  0
LINE
  5
41D
330
1F
100
AcDbEntity
  8
0
100
AcDbLine
 10
180.4999997500878
 20
119.4999998563383
 30
0.0
 11
156.9999997500878
 21
119.4999998563383
 31
0.0
  0
ARC
  5
41E
330
1F
100
AcDbEntity
  8
0
100
AcDbCircle
 10
180.4999997500878
 20
112.9999998563383
 30
0.0
 40
6.5
100
AcDbArc
 50
0.0
 51
90.0
1001
GENIUS_GENOBJ-N-CEN_13
1002
{
1000
OWNER
1000
GEN
1002
}
1001
GENIUS_GENOBJ-N-FIL_13
1002
{
1000
OWNER
1000
GEN
1002
}
1001
GENIUS_GENODEF_13
1002
{
1000
HIER
1070
     0
1002
}
1002
{
1000
MANEDIT
1070
     0
1002
}
1002
{
1000
NOSEL
1070
     0
1002
}
1002
{
1000
BEHIND
1070
     0
1002
}
1002
{
1000
OTHER
1070
     0
1002
}
1002
{
1000
REACTOR
1002
}
  0
ARC
  5
41F
330
1F
100
AcDbEntity
  8
0
100
AcDbCircle
 10
180.4999997500878
 20
112.9999998563383
 30
0.0
 40
4.5
100
AcDbArc
 50
0.0
 51
90.0
1001
GENIUS_GENOBJ-N-CEN_13
1002
{
1000
OWNER
1000
GEN
1002
}
1001
GENIUS_GENOBJ-N-FIL_13
1002
{
1000
OWNER
1000
GEN
1002
}
1001
GENIUS_GENODEF_13
1002
{
1000
HIER
1070
     0
1002
}
1002
{
1000
MANEDIT
1070
     0
1002
}
1002
{
1000
NOSEL
1070
     0
1002
}
1002
{
1000
BEHIND
1070
     0
1002
}
1002
{
1000
OTHER
1070
     0
1002
}
1002
{
1000
REACTOR
1002
}
  0
LINE
  5
420
330
1F
100
AcDbEntity
  8
0
100
AcDbLine
 10
157.9999997500878
 20
117.4999998563383
 30
0.0
 11
156.9999997500878
 21
119.4999998563383
 31
0.0
  0
ARC
  5
421
330
1F
100
AcDbEntity
  8
0
100
AcDbCircle
 10
174.9999997500878
 20
153.0733561690318
 30
0.0
 40
18.0
100
AcDbArc
 50
99.59406822686071
 51
180.0
1001
GENIUS_GENODEF_13
1002
{
1000
HIER
1070
     0
1002
}
1002
{
1000
MANEDIT
1070
     0
1002
}
1002
{
1000
NOSEL
1070
     0
1002
}
1002
{
1000
BEHIND
1070
     0
1002
}
1002
{
1000
OTHER
1070
     0
1002
}
1002
{
1000
REACTOR
1002
}
1001
GENIUS_GENOBJ-N-FIL_13
1002
{
1000
OWNER
1000
GEN
1002
}
  0
LINE
  5
422
330
1F
100
AcDbEntity
  8
0
100
AcDbLine
 10
163.9999997500878
 20
126.9999998563383
 30
0.0
 11
219.9999997500878
 21
126.9999998563383
 31
0.0
  0
LINE
  5
424
330
1F
100
AcDbEntity
  8
0
100
AcDbLine
 10
220.9999997500879
 20
167.5538508196724
 30
0.0
 11
220.9999997500878
 21
127.9999998563383
 31
0.0
1001
GENIUS_GENODEF_13
1002
{
1000
HIER
1070
     0
1002
}
1002
{
1000
MANEDIT
1070
     0
1002
}
1002
{
1000
NOSEL
1070
     0
1002
}
1002
{
1000
BEHIND
1070
     0
1002
}
1002
{
1000
OTHER
1070
     0
1002
}
1002
{
1000
REACTOR
1002
}
1001
GENIUS_GENOBJ-N-CEN_13
1002
{
1000
OWNER
1000
GEN
1002
}
  0
ARC
  5
425
330
1F
100
AcDbEntity
  8
0
100
AcDbCircle
 10
219.9999997500878
 20
127.9999998563383
 30
0.0
 40
1.0
100
AcDbArc
 50
270.0
 51
0.0
1001
GENIUS_GENOBJ-N-FIL_13
1002
{
1000
OWNER
1000
GEN
1002
}
1001
GENIUS_GENODEF_13
1002
{
1000
HIER
1070
     0
1002
}
1002
{
1000
MANEDIT
1070
     0
1002
}
1002
{
1000
NOSEL
1070
     0
1002
}
1002
{
1000
BEHIND
1070
     0
1002
}
1002
{
1000
OTHER
1070
     0
1002
}
1002
{
1000
REACTOR
1002
}
  0
ARC
  5
426
330
1F
100
AcDbEntity
  8
0
100
AcDbCircle
 10
163.9999997500878
 20
127.9999998563383
 30
0.0
 40
1.0
100
AcDbArc
 50
180.0
 51
270.0
1001
GENIUS_GENOBJ-N-CEN_13
1002
{
1000
OWNER
1000
GEN
1002
}
1001
GENIUS_GENODEF_13
1002
{
1000
HIER
1070
     0
1002
}
1002
{
1000
MANEDIT
1070
     0
1002
}
1002
{
1000
NOSEL
1070
     0
1002
}
1002
{
1000
BEHIND
1070
     0
1002
}
1002
{
1000
OTHER
1070
     0
1002
}
1002
{
1000
REACTOR
1002
}
1001
GENIUS_GENOBJ-N-FIL_13
1002
{
1000
OWNER
1000
GEN
1002
}
  0
LINE
  5
427
330
1F
100
AcDbEntity
  8
0
100
AcDbLine
 10
184.9999997500878
 20
58.49999985633832
 30
0.0
 11
174.9999997500878
 21
58.49999985633832
 31
0.0
  0
LINE
  5
428
330
1F
100
AcDbEntity
  8
0
100
AcDbLine
 10
157.9999997500878
 20
117.4999998563383
 30
0.0
 11
157.9999997500878
 21
75.49999985633831
 31
0.0
  0
ARC
  5
429
330
1F
100
AcDbEntity
  8
0
100
AcDbCircle
 10
174.9999997500878
 20
75.49999985633831
 30
0.0
 40
17.0
100
AcDbArc
 50
180.0
 51
270.0
1001
GENIUS_GENOBJ-N-FIL_13
1002
{
1000
OWNER
1000
GEN
1002
}
1001
GENIUS_GENODEF_13
1002
{
1000
HIER
1070
     0
1002
}
1002
{
1000
MANEDIT
1070
     0
1002
}
1002
{
1000
NOSEL
1070
     0
1002
}
1002
{
1000
BEHIND
1070
     0
1002
}
1002
{
1000
OTHER
1070
     0
1002
}
1002
{
1000
REACTOR
1002
}
  0
LINE
  5
42A
330
1F
100
AcDbEntity
  8
0
100
AcDbLine
 10
70.99999975008779
 20
117.4999998563383
 30
0.0
 11
70.9999997500877
 21
75.49999985633831
 31
0.0
  0
ARC
  5
42B
330
1F
100
AcDbEntity
  8
0
100
AcDbCircle
 10
53.99999975008771
 20
75.49999985633831
 30
0.0
 40
17.0
100
AcDbArc
 50
270.0
 51
0.0
1001
GENIUS_GENOBJ-N-FIL_13
1002
{
1000
OWNER
1000
GEN
1002
}
1001
GENIUS_GENODEF_13
1002
{
1000
HIER
1070
     0
1002
}
1002
{
1000
MANEDIT
1070
     0
1002
}
1002
{
1000
NOSEL
1070
     0
1002
}
1002
{
1000
BEHIND
1070
     0
1002
}
1002
{
1000
OTHER
1070
     0
1002
}
1002
{
1000
REACTOR
1002
}
  0
LINE
  5
42C
330
1F
100
AcDbEntity
  8
0
100
AcDbLine
 10
43.99999975008778
 20
58.49999985633832
 30
0.0
 11
53.99999975008771
 21
58.49999985633832
 31
0.0
  0
LINE
  5
42D
330
1F
100
AcDbEntity
  8
0
100
AcDbLine
 10
177.9999997500878
 20
132.4999998563383
 30
0.0
 11
205.9999997500878
 21
132.4999998563383
 31
0.0
  0
LINE
  5
42E
330
1F
100
AcDbEntity
  8
0
100
AcDbLine
 10
176.9999997500877
 20
139.9226495871487
 30
0.0
 11
176.9999997500878
 21
133.4999998563383
 31
0.0
1001
GENIUS_GENODEF_13
1002
{
1000
HIER
1070
     0
1002
}
1002
{
1000
MANEDIT
1070
     0
1002
}
1002
{
1000
NOSEL
1070
     0
1002
}
1002
{
1000
BEHIND
1070
     0
1002
}
1002
{
1000
OTHER
1070
     0
1002
}
1002
{
1000
REACTOR
1002
}
1001
GENIUS_GENOBJ-N-CEN_13
1002
{
1000
OWNER
1000
GEN
1002
}
  0
LINE
  5
42F
330
1F
100
AcDbEntity
  8
0
100
AcDbLine
 10
206.9999997500878
 20
139.9226495871487
 30
0.0
 11
206.9999997500878
 21
133.4999998563383
 31
0.0
1001
GENIUS_GENODEF_13
1002
{
1000
HIER
1070
     0
1002
}
1002
{
1000
MANEDIT
1070
     0
1002
}
1002
{
1000
NOSEL
1070
     0
1002
}
1002
{
1000
BEHIND
1070
     0
1002
}
1002
{
1000
OTHER
1070
     0
1002
}
1002
{
1000
REACTOR
1002
}
1001
GENIUS_GENOBJ-N-CEN_13
1002
{
1000
OWNER
1000
GEN
1002
}
  0
LINE
  5
430
330
1F
100
AcDbEntity
  8
0
100
AcDbLine
 10
181.9999997500878
 20
138.4999998563383
 30
0.0
 11
201.9999997500878
 21
138.4999998563383
 31
0.0
  0
LINE
  5
431
330
1F
100
AcDbEntity
  8
0
100
AcDbLine
 10
181.9999997500878
 20
137.4999998563383
 30
0.0
 11
201.9999997500878
 21
137.4999998563383
 31
0.0
  0
ARC
  5
432
330
1F
100
AcDbEntity
  8
0
100
AcDbCircle
 10
201.9999997500878
 20
137.9999998563383
 30
0.0
 40
0.5
100
AcDbArc
 50
270.0
 51
90.0
  0
ARC
  5
433
330
1F
100
AcDbEntity
  8
0
100
AcDbCircle
 10
181.9999997500878
 20
137.9999998563383
 30
0.0
 40
0.5
100
AcDbArc
 50
90.0
 51
270.0
  0
LINE
  5
434
330
1F
100
AcDbEntity
  8
0
100
AcDbLine
 10
181.9999997500878
 20
135.4999998563383
 30
0.0
 11
201.9999997500878
 21
135.4999998563383
 31
0.0
  0
LINE
  5
435
330
1F
100
AcDbEntity
  8
0
100
AcDbLine
 10
181.9999997500878
 20
136.4999998563383
 30
0.0
 11
201.9999997500878
 21
136.4999998563383
 31
0.0
  0
ARC
  5
436
330
1F
100
AcDbEntity
  8
0
100
AcDbCircle
 10
181.9999997500878
 20
135.9999998563383
 30
0.0
 40
0.5
100
AcDbArc
 50
90.0
 51
270.0
  0
ARC
  5
437
330
1F
100
AcDbEntity
  8
0
100
AcDbCircle
 10
201.9999997500878
 20
135.9999998563383
 30
0.0
 40
0.5
100
AcDbArc
 50
270.0
 51
90.0
  0
LINE
  5
438
330
1F
100
AcDbEntity
  8
0
100
AcDbLine
 10
181.9999997500878
 20
134.4999998563383
 30
0.0
 11
201.9999997500878
 21
134.4999998563383
 31
0.0
  0
LINE
  5
439
330
1F
100
AcDbEntity
  8
0
100
AcDbLine
 10
181.9999997500878
 20
133.4999998563383
 30
0.0
 11
201.9999997500878
 21
133.4999998563383
 31
0.0
  0
ARC
  5
43A
330
1F
100
AcDbEntity
  8
0
100
AcDbCircle
 10
181.9999997500878
 20
133.9999998563383
 30
0.0
 40
0.5
100
AcDbArc
 50
90.0
 51
270.0
  0
ARC
  5
43B
330
1F
100
AcDbEntity
  8
0
100
AcDbCircle
 10
201.9999997500878
 20
133.9999998563383
 30
0.0
 40
0.5
100
AcDbArc
 50
270.0
 51
90.0
  0
ARC
  5
43C
330
1F
100
AcDbEntity
  8
0
100
AcDbCircle
 10
205.9999997500878
 20
133.4999998563383
 30
0.0
 40
1.0
100
AcDbArc
 50
270.0
 51
0.0
1001
GENIUS_GENOBJ-N-FIL_13
1002
{
1000
OWNER
1000
GEN
1002
}
1001
GENIUS_GENODEF_13
1002
{
1000
HIER
1070
     0
1002
}
1002
{
1000
MANEDIT
1070
     0
1002
}
1002
{
1000
NOSEL
1070
     0
1002
}
1002
{
1000
BEHIND
1070
     0
1002
}
1002
{
1000
OTHER
1070
     0
1002
}
1002
{
1000
REACTOR
1002
}
  0
ARC
  5
43D
330
1F
100
AcDbEntity
  8
0
100
AcDbCircle
 10
177.9999997500878
 20
133.4999998563383
 30
0.0
 40
1.0
100
AcDbArc
 50
180.0
 51
270.0
1001
GENIUS_GENOBJ-N-CEN_13
1002
{
1000
OWNER
1000
GEN
1002
}
1001
GENIUS_GENODEF_13
1002
{
1000
HIER
1070
     0
1002
}
1002
{
1000
MANEDIT
1070
     0
1002
}
1002
{
1000
NOSEL
1070
     0
1002
}
1002
{
1000
BEHIND
1070
     0
1002
}
1002
{
1000
OTHER
1070
     0
1002
}
1002
{
1000
REACTOR
1002
}
1001
GENIUS_GENOBJ-N-FIL_13
1002
{
1000
OWNER
1000
GEN
1002
}
  0
LINE
  5
43E
330
1F
100
AcDbEntity
  8
0
100
AcDbLine
 10
206.4999997500878
 20
140.7886749909331
 30
0.0
 11
196.9999997500878
 21
146.2735025482346
 31
0.0
  0
LINE
  5
43F
330
1F
100
AcDbEntity
  8
0
100
AcDbLine
 10
177.4999997500877
 20
140.7886749909332
 30
0.0
 11
186.9999997500878
 21
146.2735025482346
 31
0.0
  0
ARC
  5
440
330
1F
100
AcDbEntity
  8
0
100
AcDbCircle
 10
191.9999997500878
 20
137.6132485103902
 30
0.0
 40
10.0
100
AcDbArc
 50
60.00000000000006
 51
119.9999999999999
1001
GENIUS_GENODEF_13
1002
{
1000
HIER
1070
     0
1002
}
1002
{
1000
MANEDIT
1070
     0
1002
}
1002
{
1000
NOSEL
1070
     0
1002
}
1002
{
1000
BEHIND
1070
     0
1002
}
1002
{
1000
OTHER
1070
     0
1002
}
1002
{
1000
REACTOR
1002
}
1001
GENIUS_GENOBJ-N-FIL_13
1002
{
1000
OWNER
1000
GEN
1002
}
  0
ARC
  5
441
330
1F
100
AcDbEntity
  8
0
100
AcDbCircle
 10
205.9999997500878
 20
139.9226495871487
 30
0.0
 40
1.0
100
AcDbArc
 50
0.0
 51
60.00000000000006
1001
GENIUS_GENOBJ-N-CEN_13
1002
{
1000
OWNER
1000
GEN
1002
}
1001
GENIUS_GENOBJ-N-FIL_13
1002
{
1000
OWNER
1000
GEN
1002
}
1001
GENIUS_GENODEF_13
1002
{
1000
HIER
1070
     0
1002
}
1002
{
1000
MANEDIT
1070
     0
1002
}
1002
{
1000
NOSEL
1070
     0
1002
}
1002
{
1000
BEHIND
1070
     0
1002
}
1002
{
1000
OTHER
1070
     0
1002
}
1002
{
1000
REACTOR
1002
}
  0
ARC
  5
442
330
1F
100
AcDbEntity
  8
0
100
AcDbCircle
 10
177.9999997500878
 20
139.9226495871487
 30
0.0
 40
1.0
100
AcDbArc
 50
119.9999999999999
 51
180.0
1001
GENIUS_GENOBJ-N-CEN_13
1002
{
1000
OWNER
1000
GEN
1002
}
1001
GENIUS_GENOBJ-N-FIL_13
1002
{
1000
OWNER
1000
GEN
1002
}
1001
GENIUS_GENODEF_13
1002
{
1000
HIER
1070
     0
1002
}
1002
{
1000
MANEDIT
1070
     0
1002
}
1002
{
1000
NOSEL
1070
     0
1002
}
1002
{
1000
BEHIND
1070
     0
1002
}
1002
{
1000
OTHER
1070
     0
1002
}
1002
{
1000
REACTOR
1002
}
  0
ELLIPSE
  5
443
330
1F
100
AcDbEntity
  8
0
100
AcDbEllipse
 10
17.01124161221069
 20
69.70689640806241
 30
0.0
 11
1.321653064122584
 21
0.0000000000000004
 31
0.0
210
0.0
220
0.0
230
1.0
 40
0.6522657033973779
 41
0.331498499987813
 42
5.951686807191772
  0
ELLIPSE
  5
444
330
1F
100
AcDbEntity
  8
0
100
AcDbEllipse
 10
16.86778265483499
 20
69.70689640806241
 30
0.0
 11
-2.09773433663198
 21
0.0000000000000448
 31
0.0
210
0.0
220
0.0
230
1.0
 40
0.5753333635477999
 41
3.859128061423152
 42
9.190159774811318
  0
LINE
  5
445
330
1F
100
AcDbEntity
  8
0
100
AcDbLine
 10
30.05747101445559
 20
70.5689653735797
 30
0.0
 11
30.05747101445559
 21
68.49999985633832
 31
0.0
  0
LINE
  5
446
330
1F
100
AcDbEntity
  8
0
100
AcDbLine
 10
27.81609170411089
 20
70.91379295978661
 30
0.0
 11
29.5402296351453
 21
69.18965502875209
 31
0.0
  0
LINE
  5
447
330
1F
100
AcDbEntity
  8
0
100
AcDbLine
 10
29.5402296351453
 20
70.5689653735797
 30
0.0
 11
29.5402296351453
 21
69.18965502875209
 31
0.0
  0
LINE
  5
448
330
1F
100
AcDbEntity
  8
0
100
AcDbLine
 10
27.35632158916831
 20
70.23569009350933
 30
0.0
 11
27.35632158916831
 21
68.84482744254524
 31
0.0
  0
LINE
  5
449
330
1F
100
AcDbEntity
  8
0
100
AcDbLine
 10
27.35632158916831
 20
70.23569009350933
 30
0.0
 11
29.0920118263394
 21
68.49999985633832
 31
0.0
  0
LINE
  5
44A
330
1F
100
AcDbEntity
  8
0
100
AcDbLine
 10
26.839080209858
 20
70.5689653735797
 30
0.0
 11
26.839080209858
 21
68.84482744254524
 31
0.0
  0
LINE
  5
44B
330
1F
100
AcDbEntity
  8
0
100
AcDbLine
 10
25.45976986503038
 20
70.5689653735797
 30
0.0
 11
25.45976986503038
 21
68.84482744254524
 31
0.0
  0
LINE
  5
44C
330
1F
100
AcDbEntity
  8
0
100
AcDbLine
 10
24.5402296351453
 20
70.5689653735797
 30
0.0
 11
24.5402296351453
 21
68.84482744254524
 31
0.0
  0
LINE
  5
44D
330
1F
100
AcDbEntity
  8
0
100
AcDbLine
 10
23.16091929031771
 20
70.5689653735797
 30
0.0
 11
23.16091929031771
 21
68.84482744254524
 31
0.0
  0
LINE
  5
44E
330
1F
100
AcDbEntity
  8
0
100
AcDbLine
 10
19.7701146926165
 20
70.5689653735797
 30
0.0
 11
19.7701146926165
 21
68.84482744254524
 31
0.0
  0
ELLIPSE
  5
44F
330
1F
100
AcDbEntity
  8
0
100
AcDbEllipse
 10
32.70118236258189
 20
69.70689640806241
 30
0.0
 11
-1.14945847456305
 21
0.0000000000000006
 31
0.0
210
0.0
220
0.0
230
1.0
 40
0.7499783459728237
 41
0.0
 42
6.283185307179584
  0
LINE
  5
450
330
1F
100
AcDbEntity
  8
0
100
AcDbLine
 10
25.9195399799728
 20
68.49999985633832
 30
0.0
 11
24.0804595202027
 21
68.49999985633832
 31
0.0
  0
LINE
  5
451
330
1F
100
AcDbEntity
  8
0
100
AcDbLine
 10
25.9195399799728
 20
68.84482744254524
 30
0.0
 11
25.45976986503038
 21
68.84482744254524
 31
0.0
  0
LINE
  5
452
330
1F
100
AcDbEntity
  8
0
100
AcDbLine
 10
22.24137906043259
 20
68.84482744254524
 30
0.0
 11
21.78160894549021
 21
68.84482744254524
 31
0.0
  0
LINE
  5
453
330
1F
100
AcDbEntity
  8
0
100
AcDbLine
 10
20.6896549225017
 20
69.50574698277512
 30
0.0
 11
22.24137906043259
 21
69.50574698277512
 31
0.0
  0
LINE
  5
454
330
1F
100
AcDbEntity
  8
0
100
AcDbLine
 10
23.62068940526029
 20
68.49999985633832
 30
0.0
 11
21.78160894549021
 21
68.49999985633832
 31
0.0
  0
LINE
  5
455
330
1F
100
AcDbEntity
  8
0
100
AcDbLine
 10
21.78160894549021
 20
68.84482744254524
 30
0.0
 11
21.78160894549021
 21
68.49999985633832
 31
0.0
  0
LINE
  5
456
330
1F
100
AcDbEntity
  8
0
100
AcDbLine
 10
21.14942503744409
 20
68.84482744254524
 30
0.0
 11
21.14942503744409
 21
68.49999985633832
 31
0.0
  0
LINE
  5
457
330
1F
100
AcDbEntity
  8
0
100
AcDbLine
 10
21.14942503744409
 20
68.84482744254524
 30
0.0
 11
20.6896549225017
 21
68.84482744254524
 31
0.0
  0
LINE
  5
458
330
1F
100
AcDbEntity
  8
0
100
AcDbLine
 10
20.6896549225017
 20
69.50574698277512
 30
0.0
 11
20.6896549225017
 21
68.84482744254524
 31
0.0
  0
LINE
  5
459
330
1F
100
AcDbEntity
  8
0
100
AcDbLine
 10
19.310344577674
 20
68.84482744254524
 30
0.0
 11
19.310344577674
 21
68.49999985633832
 31
0.0
  0
LINE
  5
45A
330
1F
100
AcDbEntity
  8
0
100
AcDbLine
 10
19.7701146926165
 20
68.84482744254524
 30
0.0
 11
19.310344577674
 21
68.84482744254524
 31
0.0
  0
LINE
  5
45B
330
1F
100
AcDbEntity
  8
0
100
AcDbLine
 10
21.14942503744409
 20
68.49999985633832
 30
0.0
 11
19.310344577674
 21
68.49999985633832
 31
0.0
  0
LINE
  5
45C
330
1F
100
AcDbEntity
  8
0
100
AcDbLine
 10
18.90804572709938
 20
69.4263271766099
 30
0.0
 11
18.2609382044666
 21
69.4263271766099
 31
0.0
  0
LINE
  5
45D
330
1F
100
AcDbEntity
  8
0
100
AcDbLine
 10
24.5402296351453
 20
68.84482744254524
 30
0.0
 11
24.0804595202027
 21
68.84482744254524
 31
0.0
  0
LINE
  5
45E
330
1F
100
AcDbEntity
  8
0
100
AcDbLine
 10
24.0804595202027
 20
68.84482744254524
 30
0.0
 11
24.0804595202027
 21
68.49999985633832
 31
0.0
  0
LINE
  5
45F
330
1F
100
AcDbEntity
  8
0
100
AcDbLine
 10
23.62068940526029
 20
68.84482744254524
 30
0.0
 11
23.62068940526029
 21
68.49999985633832
 31
0.0
  0
LINE
  5
460
330
1F
100
AcDbEntity
  8
0
100
AcDbLine
 10
22.24137906043259
 20
69.50574698277512
 30
0.0
 11
22.24137906043259
 21
68.84482744254524
 31
0.0
  0
LINE
  5
461
330
1F
100
AcDbEntity
  8
0
100
AcDbLine
 10
23.62068940526029
 20
68.84482744254524
 30
0.0
 11
23.16091929031771
 21
68.84482744254524
 31
0.0
  0
LINE
  5
462
330
1F
100
AcDbEntity
  8
0
100
AcDbLine
 10
30.05747101445559
 20
68.49999985633832
 30
0.0
 11
29.0920118263394
 21
68.49999985633832
 31
0.0
  0
LINE
  5
463
330
1F
100
AcDbEntity
  8
0
100
AcDbLine
 10
27.81609170411089
 20
68.84482744254524
 30
0.0
 11
27.81609170411089
 21
68.49999985633832
 31
0.0
  0
LINE
  5
464
330
1F
100
AcDbEntity
  8
0
100
AcDbLine
 10
27.35632158916831
 20
68.84482744254524
 30
0.0
 11
27.81609170411089
 21
68.84482744254524
 31
0.0
  0
LINE
  5
465
330
1F
100
AcDbEntity
  8
0
100
AcDbLine
 10
25.9195399799728
 20
68.84482744254524
 30
0.0
 11
25.9195399799728
 21
68.49999985633832
 31
0.0
  0
LINE
  5
466
330
1F
100
AcDbEntity
  8
0
100
AcDbLine
 10
26.3793100949154
 20
68.84482744254524
 30
0.0
 11
26.3793100949154
 21
68.49999985633832
 31
0.0
  0
LINE
  5
467
330
1F
100
AcDbEntity
  8
0
100
AcDbLine
 10
26.839080209858
 20
68.84482744254524
 30
0.0
 11
26.3793100949154
 21
68.84482744254524
 31
0.0
  0
LINE
  5
468
330
1F
100
AcDbEntity
  8
0
100
AcDbLine
 10
27.81609170411089
 20
68.49999985633832
 30
0.0
 11
26.3793100949154
 21
68.49999985633832
 31
0.0
  0
LINE
  5
469
330
1F
100
AcDbEntity
  8
0
100
AcDbLine
 10
25.9195399799728
 20
70.5689653735797
 30
0.0
 11
25.45976986503038
 21
70.5689653735797
 31
0.0
  0
LINE
  5
46A
330
1F
100
AcDbEntity
  8
0
100
AcDbLine
 10
22.24137906043259
 20
70.5689653735797
 30
0.0
 11
21.78160894549021
 21
70.5689653735797
 31
0.0
  0
LINE
  5
46B
330
1F
100
AcDbEntity
  8
0
100
AcDbLine
 10
20.6896549225017
 20
69.90804583334983
 30
0.0
 11
22.24137906043259
 21
69.90804583334983
 31
0.0
  0
LINE
  5
46C
330
1F
100
AcDbEntity
  8
0
100
AcDbLine
 10
21.78160894549021
 20
70.91379295978661
 30
0.0
 11
21.78160894549021
 21
70.5689653735797
 31
0.0
  0
LINE
  5
46D
330
1F
100
AcDbEntity
  8
0
100
AcDbLine
 10
21.14942503744409
 20
70.91379295978661
 30
0.0
 11
21.14942503744409
 21
70.5689653735797
 31
0.0
  0
LINE
  5
46E
330
1F
100
AcDbEntity
  8
0
100
AcDbLine
 10
20.6896549225017
 20
70.5689653735797
 30
0.0
 11
20.6896549225017
 21
69.90804583334983
 31
0.0
  0
LINE
  5
46F
330
1F
100
AcDbEntity
  8
0
100
AcDbLine
 10
21.14942503744409
 20
70.5689653735797
 30
0.0
 11
20.6896549225017
 21
70.5689653735797
 31
0.0
  0
LINE
  5
470
330
1F
100
AcDbEntity
  8
0
100
AcDbLine
 10
19.310344577674
 20
70.91379295978661
 30
0.0
 11
19.310344577674
 21
70.5689653735797
 31
0.0
  0
LINE
  5
471
330
1F
100
AcDbEntity
  8
0
100
AcDbLine
 10
19.7701146926165
 20
70.5689653735797
 30
0.0
 11
19.310344577674
 21
70.5689653735797
 31
0.0
  0
LINE
  5
472
330
1F
100
AcDbEntity
  8
0
100
AcDbLine
 10
18.90804572709938
 20
70.91379295978661
 30
0.0
 11
18.90804572709938
 21
69.98746563951502
 31
0.0
  0
LINE
  5
473
330
1F
100
AcDbEntity
  8
0
100
AcDbLine
 10
18.44827561215678
 20
70.91379295978661
 30
0.0
 11
18.44827561215678
 21
70.50046682823624
 31
0.0
  0
LINE
  5
474
330
1F
100
AcDbEntity
  8
0
100
AcDbLine
 10
18.90804572709938
 20
69.98746563951502
 30
0.0
 11
18.2609382044666
 21
69.98746563951502
 31
0.0
  0
LINE
  5
475
330
1F
100
AcDbEntity
  8
0
100
AcDbLine
 10
24.0804595202027
 20
70.91379295978661
 30
0.0
 11
24.0804595202027
 21
70.5689653735797
 31
0.0
  0
LINE
  5
476
330
1F
100
AcDbEntity
  8
0
100
AcDbLine
 10
24.5402296351453
 20
70.5689653735797
 30
0.0
 11
24.0804595202027
 21
70.5689653735797
 31
0.0
  0
LINE
  5
477
330
1F
100
AcDbEntity
  8
0
100
AcDbLine
 10
23.62068940526029
 20
70.91379295978661
 30
0.0
 11
23.62068940526029
 21
70.5689653735797
 31
0.0
  0
LINE
  5
478
330
1F
100
AcDbEntity
  8
0
100
AcDbLine
 10
22.24137906043259
 20
70.5689653735797
 30
0.0
 11
22.24137906043259
 21
69.90804583334983
 31
0.0
  0
LINE
  5
479
330
1F
100
AcDbEntity
  8
0
100
AcDbLine
 10
23.62068940526029
 20
70.5689653735797
 30
0.0
 11
23.16091929031771
 21
70.5689653735797
 31
0.0
  0
LINE
  5
47A
330
1F
100
AcDbEntity
  8
0
100
AcDbLine
 10
29.5402296351453
 20
70.5689653735797
 30
0.0
 11
29.0804595202027
 21
70.5689653735797
 31
0.0
  0
LINE
  5
47B
330
1F
100
AcDbEntity
  8
0
100
AcDbLine
 10
29.0804595202027
 20
70.91379295978652
 30
0.0
 11
29.0804595202027
 21
70.56896537357963
 31
0.0
  0
LINE
  5
47C
330
1F
100
AcDbEntity
  8
0
100
AcDbLine
 10
25.9195399799728
 20
70.91379295978661
 30
0.0
 11
25.9195399799728
 21
70.5689653735797
 31
0.0
  0
LINE
  5
47D
330
1F
100
AcDbEntity
  8
0
100
AcDbLine
 10
26.3793100949154
 20
70.91379295978661
 30
0.0
 11
26.3793100949154
 21
70.5689653735797
 31
0.0
  0
LINE
  5
47E
330
1F
100
AcDbEntity
  8
0
100
AcDbLine
 10
26.839080209858
 20
70.5689653735797
 30
0.0
 11
26.3793100949154
 21
70.5689653735797
 31
0.0
  0
LINE
  5
47F
330
1F
100
AcDbEntity
  8
0
100
AcDbLine
 10
30.51724112939819
 20
70.5689653735797
 30
0.0
 11
30.05747101445559
 21
70.5689653735797
 31
0.0
  0
LINE
  5
480
330
1F
100
AcDbEntity
  8
0
100
AcDbLine
 10
30.51724112939819
 20
70.91379295978652
 30
0.0
 11
30.51724112939819
 21
70.56896537357963
 31
0.0
  0
LINE
  5
481
330
1F
100
AcDbEntity
  8
0
100
AcDbLine
 10
67.38948792777629
 20
164.3415240032247
 30
0.0
 11
71.63339811306187
 21
168.5854341877438
 31
0.0
  0
LINE
  5
482
330
1F
100
AcDbEntity
  8
0
100
AcDbLine
 10
65.26816758389779
 20
166.4628443470424
 30
0.0
 11
69.51207777582431
 21
170.7067545313035
 31
0.0
  0
LINE
  5
483
330
1F
100
AcDbEntity
  8
0
100
AcDbLine
 10
71.63339811376437
 20
169.2925409682279
 30
0.0
 11
70.21918455701079
 21
170.7067545313035
 31
0.0
  0
ARC
  5
484
330
1F
100
AcDbEntity
  8
0
100
AcDbCircle
 10
69.86563116641758
 20
170.3532011407102
 30
0.0
 40
0.5
100
AcDbArc
 50
44.99999999999971
 51
135.0000000000003
1001
GENIUS_GENOBJ-N-FIL_13
1002
{
1000
OWNER
1000
GEN
1002
}
1001
GENIUS_GENODEF_13
1002
{
1000
HIER
1070
     0
1002
}
1002
{
1000
MANEDIT
1070
     0
1002
}
1002
{
1000
NOSEL
1070
     0
1002
}
1002
{
1000
BEHIND
1070
     0
1002
}
1002
{
1000
OTHER
1070
     0
1002
}
1002
{
1000
REACTOR
1002
}
  0
ARC
  5
485
330
1F
100
AcDbEntity
  8
0
100
AcDbCircle
 10
71.27984472246869
 20
168.938987578337
 30
0.0
 40
0.5
100
AcDbArc
 50
315.0000000000003
 51
44.99999988616286
1001
GENIUS_GENODEF_13
1002
{
1000
HIER
1070
     0
1002
}
1002
{
1000
MANEDIT
1070
     0
1002
}
1002
{
1000
NOSEL
1070
     0
1002
}
1002
{
1000
BEHIND
1070
     0
1002
}
1002
{
1000
OTHER
1070
     0
1002
}
1002
{
1000
REACTOR
1002
}
1001
GENIUS_GENOBJ-N-FIL_13
1002
{
1000
OWNER
1000
GEN
1002
}
  0
ARC
  5
486
330
1F
100
AcDbEntity
  8
0
100
AcDbCircle
 10
53.99999975008778
 20
153.0733561690318
 30
0.0
 40
17.5
100
AcDbArc
 50
40.08289966461989
 51
49.9171003370178
1001
GENIUS_GENODEF_13
1002
{
1000
HIER
1070
     0
1002
}
1002
{
1000
MANEDIT
1070
     0
1002
}
1002
{
1000
NOSEL
1070
     0
1002
}
1002
{
1000
BEHIND
1070
     0
1002
}
1002
{
1000
OTHER
1070
     0
1002
}
1002
{
1000
REACTOR
1002
}
1001
GENIUS_GENOBJ-N-FIL_13
1002
{
1000
OWNER
1000
GEN
1002
}
  0
ARC
  5
487
330
1F
100
AcDbEntity
  8
0
100
AcDbCircle
 10
53.99999975008778
 20
153.0733561690318
 30
0.0
 40
18.0
100
AcDbArc
 50
49.78019184719939
 51
80.40593177313928
1001
GENIUS_GENODEF_13
1002
{
1000
HIER
1070
     0
1002
}
1002
{
1000
MANEDIT
1070
     0
1002
}
1002
{
1000
NOSEL
1070
     0
1002
}
1002
{
1000
BEHIND
1070
     0
1002
}
1002
{
1000
OTHER
1070
     0
1002
}
1002
{
1000
REACTOR
1002
}
1001
GENIUS_GENOBJ-N-FIL_13
1002
{
1000
OWNER
1000
GEN
1002
}
  0
LINE
  5
495
330
1F
100
AcDbEntity
  8
0
100
AcDbLine
 10
17.8590845500878
 20
151.9039051896717
 30
0.0
 11
15.1706775100878
 21
151.9039051896717
 31
0.0
  0
LINE
  5
496
330
1F
100
AcDbEntity
  8
0
100
AcDbLine
 10
15.2780093500877
 20
151.0520651896717
 30
0.0
 11
17.39909095008769
 21
151.0520651896717
 31
0.0
  0
LINE
  5
497
330
1F
100
AcDbEntity
  8
0
100
AcDbLine
 10
17.53197799008769
 20
147.5453238563383
 30
0.0
 11
16.7959882300878
 21
147.1123051896717
 31
0.0
  0
LINE
  5
498
330
1F
100
AcDbEntity
  8
0
100
AcDbLine
 10
17.53197799008769
 20
147.5453238563383
 30
0.0
 11
16.91354215008781
 21
147.9641451896717
 31
0.0
  0
ELLIPSE
  5
499
330
1F
100
AcDbEntity
  8
0
100
AcDbEllipse
 10
16.7142115900878
 20
143.7368891896717
 30
0.0
 11
1.221538560000086
 21
0.0000000000001135
 31
0.0
210
0.0
220
0.0
230
1.0
 40
0.6944444444443924
 41
4.712388980384623
 42
5.310028193476336
  0
LINE
  5
49A
330
1F
100
AcDbEntity
  8
0
100
AcDbLine
 10
17.40156212767509
 20
143.0356358707999
 30
0.0
 11
16.54554727008779
 21
143.740438523005
 31
0.0
  0
LINE
  5
49B
330
1F
100
AcDbEntity
  8
0
100
AcDbLine
 10
14.3835773500877
 20
147.5346758563383
 30
0.0
 11
15.00201319008779
 21
147.1123051896717
 31
0.0
  0
LINE
  5
49C
330
1F
100
AcDbEntity
  8
0
100
AcDbLine
 10
14.22513511008778
 20
147.4423931896717
 30
0.0
 11
14.67490663008779
 21
147.137150523005
 31
0.0
  0
LINE
  5
49D
330
1F
100
AcDbEntity
  8
0
100
AcDbLine
 10
13.4227018300877
 20
146.9738811896716
 30
0.0
 11
14.22513511008778
 21
147.4423931896717
 31
0.0
  0
LINE
  5
49E
330
1F
100
AcDbEntity
  8
0
100
AcDbLine
 10
14.02580455008778
 20
142.8885985230049
 30
0.0
 11
16.7142115900878
 21
142.8885985230049
 31
0.0
  0
LINE
  5
49F
330
1F
100
AcDbEntity
  8
0
100
AcDbLine
 10
13.2577602739492
 20
143.1289891090199
 30
0.0
 11
14.25580135008769
 21
143.8220731896716
 31
0.0
  0
LINE
  5
4A0
330
1F
100
AcDbEntity
  8
0
100
AcDbLine
 10
13.40665514323271
 20
143.0336281347961
 30
0.0
 11
14.4295767100877
 21
143.740438523005
 31
0.0
  0
LINE
  5
4A1
330
1F
100
AcDbEntity
  8
0
100
AcDbLine
 10
13.4227018300877
 20
146.9738811896716
 30
0.0
 11
13.00359655008771
 21
143.6623531896716
 31
0.0
  0
ELLIPSE
  5
4A2
330
1F
100
AcDbEntity
  8
0
100
AcDbEllipse
 10
14.02580455008778
 20
143.5984651896717
 30
0.0
 11
1.022207999999906
 21
0.0000000000001424
 31
0.0
210
0.0
220
0.0
230
1.0
 40
0.6944444444444871
 41
4.061746103839042
 42
4.71238898038459
  0
ELLIPSE
  5
4A3
330
1F
100
AcDbEntity
  8
0
100
AcDbEllipse
 10
14.02191474003469
 20
143.6004842330865
 30
0.0
 11
-1.022208000000004
 21
0.0000000000000813
 31
0.0
210
0.0
220
0.0
230
1.0
 40
0.6944444444445353
 41
-0.0872664625996098
 42
0.726426326569341
  0
LINE
  5
4A4
330
1F
100
AcDbEntity
  8
0
100
AcDbLine
 10
15.00201319008779
 20
147.1123051896717
 30
0.0
 11
16.7959882300878
 21
147.1123051896717
 31
0.0
  0
LINE
  5
4A5
330
1F
100
AcDbEntity
  8
0
100
AcDbLine
 10
16.54554727008779
 20
143.740438523005
 30
0.0
 11
14.4295767100877
 21
143.740438523005
 31
0.0
  0
LINE
  5
4A6
330
1F
100
AcDbEntity
  8
0
100
AcDbLine
 10
14.67490663008779
 20
147.137150523005
 30
0.0
 11
14.25580135008769
 21
143.8220731896716
 31
0.0
  0
LINE
  5
4A7
330
1F
100
AcDbEntity
  8
0
100
AcDbLine
 10
16.91354215008781
 20
147.9641451896717
 30
0.0
 11
15.1246781500878
 21
147.9641451896717
 31
0.0
  0
ELLIPSE
  5
4A8
330
1F
100
AcDbEntity
  8
0
100
AcDbEllipse
 10
15.1706775100878
 20
151.055614523005
 30
0.0
 11
-1.221538559999977
 21
0.0000000000000804
 31
0.0
210
0.0
220
0.0
230
1.0
 40
0.6944444444444554
 41
-1.57079632679485
 42
-0.8446048637728191
  0
LINE
  5
4A9
330
1F
100
AcDbEntity
  8
0
100
AcDbLine
 10
14.35954319204349
 20
151.6898889105356
 30
0.0
 11
15.2780093500877
 21
151.0520651896717
 31
0.0
  0
LINE
  5
4AA
330
1F
100
AcDbEntity
  8
0
100
AcDbLine
 10
14.3835773500877
 20
147.5346758563383
 30
0.0
 11
15.1246781500878
 21
147.9641451896717
 31
0.0
  0
LINE
  5
4AB
330
1F
100
AcDbEntity
  8
0
100
AcDbLine
 10
23.01572360614521
 20
151.5874516229651
 30
0.0
 11
23.9553443900878
 21
150.9349371896717
 31
0.0
  0
LINE
  5
4AC
330
1F
100
AcDbEntity
  8
0
100
AcDbLine
 10
23.0404682300878
 20
147.6340571896716
 30
0.0
 11
23.5771274300878
 21
147.9499478563383
 31
0.0
  0
LINE
  5
4AD
330
1F
100
AcDbEntity
  8
0
100
AcDbLine
 10
23.02513511008779
 20
147.4423931896717
 30
0.0
 11
23.4749066300878
 21
147.137150523005
 31
0.0
  0
LINE
  5
4AE
330
1F
100
AcDbEntity
  8
0
100
AcDbLine
 10
23.4749066300878
 20
147.137150523005
 30
0.0
 11
23.05580135008771
 21
143.8220731896716
 31
0.0
  0
LINE
  5
4AF
330
1F
100
AcDbEntity
  8
0
100
AcDbLine
 10
22.8258045500878
 20
142.8885985230049
 30
0.0
 11
25.5142115900877
 21
142.8885985230049
 31
0.0
  0
LINE
  5
4B0
330
1F
100
AcDbEntity
  8
0
100
AcDbLine
 10
22.20665514323271
 20
143.0336281347961
 30
0.0
 11
23.2295767100877
 21
143.740438523005
 31
0.0
  0
LINE
  5
4B1
330
1F
100
AcDbEntity
  8
0
100
AcDbLine
 10
22.2227018300878
 20
146.9738811896716
 30
0.0
 11
23.02513511008779
 21
147.4423931896717
 31
0.0
  0
LINE
  5
4B2
330
1F
100
AcDbEntity
  8
0
100
AcDbLine
 10
22.2216796220878
 20
146.9738811896716
 30
0.0
 11
21.80768538208781
 21
143.6623531896716
 31
0.0
  0
LINE
  5
4B3
330
1F
100
AcDbEntity
  8
0
100
AcDbLine
 10
22.2227018300878
 20
146.9738811896716
 30
0.0
 11
21.80359655008779
 21
143.6623531896716
 31
0.0
  0
ELLIPSE
  5
4B4
330
1F
100
AcDbEntity
  8
0
100
AcDbEllipse
 10
22.8258045500878
 20
143.5984651896717
 30
0.0
 11
1.022207999999906
 21
0.0000000000001424
 31
0.0
210
0.0
220
0.0
230
1.0
 40
0.6944444444444871
 41
4.061746103839042
 42
4.71238898038459
  0
LINE
  5
4B5
330
1F
100
AcDbEntity
  8
0
100
AcDbLine
 10
22.0577602739492
 20
143.1289891090199
 30
0.0
 11
23.05580135008771
 21
143.8220731896716
 31
0.0
  0
ELLIPSE
  5
4B6
330
1F
100
AcDbEntity
  8
0
100
AcDbEllipse
 10
22.82478234208781
 20
143.5984651896717
 30
0.0
 11
1.022208000000017
 21
0.0000000000000813
 31
0.0
210
0.0
220
0.0
230
1.0
 40
0.6944444444443735
 41
3.054326190989932
 42
3.865904293167377
  0
ELLIPSE
  5
4B7
330
1F
100
AcDbEntity
  8
0
100
AcDbEllipse
 10
22.8219147400347
 20
143.6004842330865
 30
0.0
 11
-1.022208000000004
 21
0.0000000000000813
 31
0.0
210
0.0
220
0.0
230
1.0
 40
0.6944444444445353
 41
-0.0872664625996098
 42
0.726426326569341
  0
ELLIPSE
  5
4B8
330
1F
100
AcDbEntity
  8
0
100
AcDbEllipse
 10
17.8629307743644
 20
151.1915182473184
 30
0.0
 11
1.017096959999997
 21
0.0000000000000016
 31
0.0
210
0.0
220
0.0
230
1.0
 40
0.6944444444444163
 41
-0.0869937549040931
 42
0.8934850019237249
  0
LINE
  5
4B9
330
1F
100
AcDbEntity
  8
0
100
AcDbLine
 10
18.4928535100877
 20
148.1025691896716
 30
0.0
 11
18.8761815100877
 21
151.1301505230049
 31
0.0
  0
LINE
  5
4BA
330
1F
100
AcDbEntity
  8
0
100
AcDbLine
 10
18.50034555447901
 20
151.7419234642648
 30
0.0
 11
17.62908775008779
 21
151.0201211896717
 31
0.0
  0
LINE
  5
4BB
330
1F
100
AcDbEntity
  8
0
100
AcDbLine
 10
18.33104348313369
 20
151.8237139216274
 30
0.0
 11
17.39909095008769
 21
151.0520651896717
 31
0.0
  0
ELLIPSE
  5
4BC
330
1F
100
AcDbEntity
  8
0
100
AcDbEllipse
 10
17.8590845500878
 20
151.194038523005
 30
0.0
 11
1.022207999999874
 21
0.0000000000000963
 31
0.0
210
0.0
220
0.0
230
1.0
 40
0.6944444444445088
 41
1.090879522283304
 42
1.570796326794831
  0
LINE
  5
4BD
330
1F
100
AcDbEntity
  8
0
100
AcDbLine
 10
17.69042023008779
 20
147.6340571896716
 30
0.0
 11
18.4928535100877
 21
148.1025691896716
 31
0.0
  0
LINE
  5
4BE
330
1F
100
AcDbEntity
  8
0
100
AcDbLine
 10
17.69042023008779
 20
147.6340571896716
 30
0.0
 11
17.2406487100878
 21
147.9392998563383
 31
0.0
  0
LINE
  5
4BF
330
1F
100
AcDbEntity
  8
0
100
AcDbLine
 10
17.62908775008779
 20
151.0201211896717
 30
0.0
 11
17.2406487100878
 21
147.9392998563383
 31
0.0
  0
ELLIPSE
  5
4C0
330
1F
100
AcDbEntity
  8
0
100
AcDbEllipse
 10
23.9660097380241
 20
151.0488091084362
 30
0.0
 11
-1.226649599999972
 21
0.0000000000003375
 31
0.0
210
0.0
220
0.0
230
1.0
 40
0.6944444444442924
 41
-0.6845549209743858
 42
-0.0872664625993494
  0
LINE
  5
4C1
330
1F
100
AcDbEntity
  8
0
100
AcDbLine
 10
23.0404682300878
 20
147.6340571896716
 30
0.0
 11
22.36581095008779
 21
148.095470523005
 31
0.0
  0
LINE
  5
4C2
330
1F
100
AcDbEntity
  8
0
100
AcDbLine
 10
22.74402791008769
 20
151.1230518563383
 30
0.0
 11
22.36581095008779
 21
148.095470523005
 31
0.0
  0
LINE
  5
4C3
330
1F
100
AcDbEntity
  8
0
100
AcDbLine
 10
26.48019815008782
 20
147.4423931896717
 30
0.0
 11
25.9384279100877
 21
147.1300518563383
 31
0.0
  0
LINE
  5
4C4
330
1F
100
AcDbEntity
  8
0
100
AcDbLine
 10
27.1497443900877
 20
146.9845291896717
 30
0.0
 11
26.48019815008782
 21
147.4423931896717
 31
0.0
  0
ELLIPSE
  5
4C5
330
1F
100
AcDbEntity
  8
0
100
AcDbEllipse
 10
25.5142115900877
 20
143.7368891896717
 30
0.0
 11
1.221538560000086
 21
0.0000000000001135
 31
0.0
210
0.0
220
0.0
230
1.0
 40
0.6944444444443924
 41
4.712388980384623
 42
5.310028193476336
  0
LINE
  5
4C6
330
1F
100
AcDbEntity
  8
0
100
AcDbLine
 10
26.20156212767509
 20
143.0356358707999
 30
0.0
 11
25.34554727008779
 21
143.740438523005
 31
0.0
  0
LINE
  5
4C7
330
1F
100
AcDbEntity
  8
0
100
AcDbLine
 10
26.36059138930939
 20
143.1238631744697
 30
0.0
 11
25.5244336700878
 21
143.8185238563383
 31
0.0
  0
LINE
  5
4C8
330
1F
100
AcDbEntity
  8
0
100
AcDbLine
 10
25.34554727008779
 20
143.740438523005
 30
0.0
 11
23.2295767100877
 21
143.740438523005
 31
0.0
  0
LINE
  5
4C9
330
1F
100
AcDbEntity
  8
0
100
AcDbLine
 10
25.9384279100877
 20
147.1300518563383
 30
0.0
 11
25.5244336700878
 21
143.8185238563383
 31
0.0
  0
LINE
  5
4CA
330
1F
100
AcDbEntity
  8
0
100
AcDbLine
 10
26.7357501500878
 20
143.665902523005
 30
0.0
 11
27.1497443900877
 21
146.9845291896717
 31
0.0
  0
ELLIPSE
  5
4CB
330
1F
100
AcDbEntity
  8
0
100
AcDbEllipse
 10
25.51376832215139
 20
143.7401452709072
 30
0.0
 11
1.226649600000049
 21
0.0000000000001333
 31
0.0
210
0.0
220
0.0
230
1.0
 40
0.6944444444444593
 41
-0.8088176475258341
 42
-0.0872664625998758
  0
LINE
  5
4CC
330
1F
100
AcDbEntity
  8
0
100
AcDbLine
 10
24.07800935008778
 20
151.0520651896717
 30
0.0
 11
26.1990909500877
 21
151.0520651896717
 31
0.0
  0
LINE
  5
4CD
330
1F
100
AcDbEntity
  8
0
100
AcDbLine
 10
26.6590845500878
 20
151.9039051896717
 30
0.0
 11
23.9706775100878
 21
151.9039051896717
 31
0.0
  0
LINE
  5
4CE
330
1F
100
AcDbEntity
  8
0
100
AcDbLine
 10
26.49042023008779
 20
147.6340571896716
 30
0.0
 11
26.0406487100877
 21
147.9392998563383
 31
0.0
  0
LINE
  5
4CF
330
1F
100
AcDbEntity
  8
0
100
AcDbLine
 10
26.42908775008779
 20
151.0201211896717
 30
0.0
 11
26.0406487100877
 21
147.9392998563383
 31
0.0
  0
LINE
  5
4D0
330
1F
100
AcDbEntity
  8
0
100
AcDbLine
 10
23.1595431920435
 20
151.6898889105356
 30
0.0
 11
24.07800935008778
 21
151.0520651896717
 31
0.0
  0
ELLIPSE
  5
4D1
330
1F
100
AcDbEntity
  8
0
100
AcDbEllipse
 10
23.9706775100878
 20
151.055614523005
 30
0.0
 11
-1.221538559999977
 21
0.0000000000000804
 31
0.0
210
0.0
220
0.0
230
1.0
 40
0.6944444444444554
 41
-1.57079632679485
 42
-0.8446048637728191
  0
LINE
  5
4D2
330
1F
100
AcDbEntity
  8
0
100
AcDbLine
 10
23.9553443900878
 20
150.9349371896717
 30
0.0
 11
23.5771274300878
 21
147.9499478563383
 31
0.0
  0
ELLIPSE
  5
4D3
330
1F
100
AcDbEntity
  8
0
100
AcDbEllipse
 10
26.6629307743644
 20
151.1915182473184
 30
0.0
 11
1.017096959999997
 21
0.0000000000000016
 31
0.0
210
0.0
220
0.0
230
1.0
 40
0.6944444444444163
 41
-0.0869937549040931
 42
0.8934850019237249
  0
LINE
  5
4D4
330
1F
100
AcDbEntity
  8
0
100
AcDbLine
 10
27.2928535100877
 20
148.1025691896716
 30
0.0
 11
27.6761815100877
 21
151.1301505230049
 31
0.0
  0
ELLIPSE
  5
4D5
330
1F
100
AcDbEntity
  8
0
100
AcDbEllipse
 10
26.6590845500878
 20
151.194038523005
 30
0.0
 11
1.022207999999874
 21
0.0000000000000963
 31
0.0
210
0.0
220
0.0
230
1.0
 40
0.6944444444445088
 41
1.090879522283304
 42
1.570796326794831
  0
LINE
  5
4D6
330
1F
100
AcDbEntity
  8
0
100
AcDbLine
 10
27.1310434831337
 20
151.8237139216274
 30
0.0
 11
26.1990909500877
 21
151.0520651896717
 31
0.0
  0
LINE
  5
4D7
330
1F
100
AcDbEntity
  8
0
100
AcDbLine
 10
27.30034555447901
 20
151.7419234642648
 30
0.0
 11
26.42908775008779
 21
151.0201211896717
 31
0.0
  0
LINE
  5
4D8
330
1F
100
AcDbEntity
  8
0
100
AcDbLine
 10
26.49042023008779
 20
147.6340571896716
 30
0.0
 11
27.2928535100877
 21
148.1025691896716
 31
0.0
  0
LINE
  5
4D9
330
1F
100
AcDbEntity
  8
0
100
AcDbLine
 10
38.68019815008782
 20
147.4423931896717
 30
0.0
 11
38.13842791008779
 21
147.1300518563383
 31
0.0
  0
LINE
  5
4DA
330
1F
100
AcDbEntity
  8
0
100
AcDbLine
 10
38.6904202300878
 20
147.6340571896716
 30
0.0
 11
38.2406487100878
 21
147.9392998563383
 31
0.0
  0
LINE
  5
4DB
330
1F
100
AcDbEntity
  8
0
100
AcDbLine
 10
38.62908775008779
 20
151.0201211896717
 30
0.0
 11
38.2406487100878
 21
147.9392998563383
 31
0.0
  0
ELLIPSE
  5
4DC
330
1F
100
AcDbEntity
  8
0
100
AcDbEllipse
 10
37.71376832215139
 20
143.7401452709072
 30
0.0
 11
1.226649600000049
 21
0.0000000000001333
 31
0.0
210
0.0
220
0.0
230
1.0
 40
0.6944444444444593
 41
-0.8088176475258341
 42
-0.0872664625998758
  0
LINE
  5
4DD
330
1F
100
AcDbEntity
  8
0
100
AcDbLine
 10
38.8590845500878
 20
151.9039051896717
 30
0.0
 11
36.17067751008779
 21
151.9039051896717
 31
0.0
  0
LINE
  5
4DE
330
1F
100
AcDbEntity
  8
0
100
AcDbLine
 10
39.33104348313371
 20
151.8237139216274
 30
0.0
 11
38.39909095008771
 21
151.0520651896717
 31
0.0
  0
LINE
  5
4DF
330
1F
100
AcDbEntity
  8
0
100
AcDbLine
 10
35.38357735008772
 20
147.5346758563383
 30
0.0
 11
36.0020131900878
 21
147.1123051896717
 31
0.0
  0
LINE
  5
4E0
330
1F
100
AcDbEntity
  8
0
100
AcDbLine
 10
38.5319779900877
 20
147.5453238563383
 30
0.0
 11
37.7959882300877
 21
147.1123051896717
 31
0.0
  0
LINE
  5
4E1
330
1F
100
AcDbEntity
  8
0
100
AcDbLine
 10
37.5455472700878
 20
143.740438523005
 30
0.0
 11
35.4295767100877
 21
143.740438523005
 31
0.0
  0
LINE
  5
4E2
330
1F
100
AcDbEntity
  8
0
100
AcDbLine
 10
35.02580455008779
 20
142.8885985230049
 30
0.0
 11
37.7142115900878
 21
142.8885985230049
 31
0.0
  0
ELLIPSE
  5
4E3
330
1F
100
AcDbEntity
  8
0
100
AcDbEllipse
 10
35.02580455008779
 20
143.5984651896717
 30
0.0
 11
1.022207999999906
 21
0.0000000000001424
 31
0.0
210
0.0
220
0.0
230
1.0
 40
0.6944444444444871
 41
4.061746103839042
 42
4.71238898038459
  0
LINE
  5
4E4
330
1F
100
AcDbEntity
  8
0
100
AcDbLine
 10
34.40665514323271
 20
143.0336281347961
 30
0.0
 11
35.4295767100877
 21
143.740438523005
 31
0.0
  0
LINE
  5
4E5
330
1F
100
AcDbEntity
  8
0
100
AcDbLine
 10
36.0020131900878
 20
147.1123051896717
 30
0.0
 11
37.7959882300877
 21
147.1123051896717
 31
0.0
  0
LINE
  5
4E6
330
1F
100
AcDbEntity
  8
0
100
AcDbLine
 10
38.13842791008779
 20
147.1300518563383
 30
0.0
 11
37.72443367008779
 21
143.8185238563383
 31
0.0
  0
ELLIPSE
  5
4E7
330
1F
100
AcDbEntity
  8
0
100
AcDbEllipse
 10
37.71421159008771
 20
143.7368891896717
 30
0.0
 11
1.221538560000086
 21
0.0000000000001135
 31
0.0
210
0.0
220
0.0
230
1.0
 40
0.6944444444443924
 41
4.712388980384623
 42
5.310028193476336
  0
LINE
  5
4E8
330
1F
100
AcDbEntity
  8
0
100
AcDbLine
 10
38.56059138930929
 20
143.1238631744697
 30
0.0
 11
37.72443367008779
 21
143.8185238563383
 31
0.0
  0
LINE
  5
4E9
330
1F
100
AcDbEntity
  8
0
100
AcDbLine
 10
38.40156212767509
 20
143.0356358707999
 30
0.0
 11
37.5455472700878
 21
143.740438523005
 31
0.0
  0
ELLIPSE
  5
4EA
330
1F
100
AcDbEntity
  8
0
100
AcDbEllipse
 10
36.17067751008779
 20
151.055614523005
 30
0.0
 11
-1.221538559999977
 21
0.0000000000000804
 31
0.0
210
0.0
220
0.0
230
1.0
 40
0.6944444444444554
 41
-1.57079632679485
 42
-0.8446048637728191
  0
LINE
  5
4EB
330
1F
100
AcDbEntity
  8
0
100
AcDbLine
 10
35.35954319204338
 20
151.6898889105356
 30
0.0
 11
36.27800935008771
 21
151.0520651896717
 31
0.0
  0
LINE
  5
4EC
330
1F
100
AcDbEntity
  8
0
100
AcDbLine
 10
35.2157236061452
 20
151.5874516229651
 30
0.0
 11
36.15534439008779
 21
150.9349371896717
 31
0.0
  0
LINE
  5
4ED
330
1F
100
AcDbEntity
  8
0
100
AcDbLine
 10
35.38357735008772
 20
147.5346758563383
 30
0.0
 11
36.12467815008779
 21
147.9641451896717
 31
0.0
  0
LINE
  5
4EE
330
1F
100
AcDbEntity
  8
0
100
AcDbLine
 10
35.2404682300878
 20
147.6340571896716
 30
0.0
 11
35.7771274300877
 21
147.9499478563383
 31
0.0
  0
ELLIPSE
  5
4EF
330
1F
100
AcDbEntity
  8
0
100
AcDbEllipse
 10
36.1660097380241
 20
151.0488091084362
 30
0.0
 11
-1.226649599999972
 21
0.0000000000003375
 31
0.0
210
0.0
220
0.0
230
1.0
 40
0.6944444444442924
 41
-0.6845549209743858
 42
-0.0872664625993494
  0
LINE
  5
4F0
330
1F
100
AcDbEntity
  8
0
100
AcDbLine
 10
35.2404682300878
 20
147.6340571896716
 30
0.0
 11
34.56581095008779
 21
148.095470523005
 31
0.0
  0
LINE
  5
4F1
330
1F
100
AcDbEntity
  8
0
100
AcDbLine
 10
34.9440279100877
 20
151.1230518563383
 30
0.0
 11
34.56581095008779
 21
148.095470523005
 31
0.0
  0
LINE
  5
4F2
330
1F
100
AcDbEntity
  8
0
100
AcDbLine
 10
36.27800935008771
 20
151.0520651896717
 30
0.0
 11
38.39909095008771
 21
151.0520651896717
 31
0.0
  0
LINE
  5
4F3
330
1F
100
AcDbEntity
  8
0
100
AcDbLine
 10
37.91354215008782
 20
147.9641451896717
 30
0.0
 11
36.12467815008779
 21
147.9641451896717
 31
0.0
  0
LINE
  5
4F4
330
1F
100
AcDbEntity
  8
0
100
AcDbLine
 10
36.15534439008779
 20
150.9349371896717
 30
0.0
 11
35.7771274300877
 21
147.9499478563383
 31
0.0
  0
LINE
  5
4F5
330
1F
100
AcDbEntity
  8
0
100
AcDbLine
 10
38.5319779900877
 20
147.5453238563383
 30
0.0
 11
37.91354215008782
 21
147.9641451896717
 31
0.0
  0
LINE
  5
4F6
330
1F
100
AcDbEntity
  8
0
100
AcDbLine
 10
39.34974439008779
 20
146.9845291896717
 30
0.0
 11
38.68019815008782
 21
147.4423931896717
 31
0.0
  0
LINE
  5
4F7
330
1F
100
AcDbEntity
  8
0
100
AcDbLine
 10
38.93575015008778
 20
143.665902523005
 30
0.0
 11
39.34974439008779
 21
146.9845291896717
 31
0.0
  0
ELLIPSE
  5
4F8
330
1F
100
AcDbEntity
  8
0
100
AcDbEllipse
 10
38.86293077436429
 20
151.1915182473184
 30
0.0
 11
1.017096959999997
 21
0.0000000000000016
 31
0.0
210
0.0
220
0.0
230
1.0
 40
0.6944444444444163
 41
-0.0869937549040931
 42
0.8934850019237249
  0
ELLIPSE
  5
4F9
330
1F
100
AcDbEntity
  8
0
100
AcDbEllipse
 10
38.8590845500878
 20
151.194038523005
 30
0.0
 11
1.022207999999874
 21
0.0000000000000963
 31
0.0
210
0.0
220
0.0
230
1.0
 40
0.6944444444445088
 41
1.090879522283304
 42
1.570796326794831
  0
LINE
  5
4FA
330
1F
100
AcDbEntity
  8
0
100
AcDbLine
 10
39.49285351008771
 20
148.1025691896716
 30
0.0
 11
39.87618151008771
 21
151.1301505230049
 31
0.0
  0
LINE
  5
4FB
330
1F
100
AcDbEntity
  8
0
100
AcDbLine
 10
38.6904202300878
 20
147.6340571896716
 30
0.0
 11
39.49285351008771
 21
148.1025691896716
 31
0.0
  0
LINE
  5
4FC
330
1F
100
AcDbEntity
  8
0
100
AcDbLine
 10
39.50034555447901
 20
151.7419234642648
 30
0.0
 11
38.62908775008779
 21
151.0201211896717
 31
0.0
  0
ARC
  5
4FD
330
1F
100
AcDbEntity
  8
0
100
AcDbCircle
 10
36.99999975008779
 20
52.49999985633832
 30
0.0
 40
111.8
100
AcDbArc
 50
79.67040807163844
 51
100.3295919283615
  0
ARC
  5
4FE
330
1F
100
AcDbEntity
  8
0
100
AcDbCircle
 10
55.19999975008778
 20
152.3549446512757
 30
0.0
 40
10.3
100
AcDbArc
 50
0.0
 51
79.67040807163844
1001
GENIUS_GENOBJ-N-FIL_13
1002
{
1000
OWNER
1000
GEN
1002
}
1001
GENIUS_GENODEF_13
1002
{
1000
HIER
1070
     0
1002
}
1002
{
1000
MANEDIT
1070
     0
1002
}
1002
{
1000
NOSEL
1070
     0
1002
}
1002
{
1000
BEHIND
1070
     0
1002
}
1002
{
1000
OTHER
1070
     0
1002
}
1002
{
1000
REACTOR
1002
}
  0
LINE
  5
4FF
330
1F
100
AcDbEntity
  8
0
100
AcDbLine
 10
65.4999997500878
 20
152.3549446512757
 30
0.0
 11
65.4999997500878
 21
127.7999998563383
 31
0.0
1001
GENIUS_GENODEF_13
1002
{
1000
HIER
1070
     0
1002
}
1002
{
1000
MANEDIT
1070
     0
1002
}
1002
{
1000
NOSEL
1070
     0
1002
}
1002
{
1000
BEHIND
1070
     0
1002
}
1002
{
1000
OTHER
1070
     0
1002
}
1002
{
1000
REACTOR
1002
}
1001
GENIUS_GENOBJ-N-CEN_13
1002
{
1000
OWNER
1000
GEN
1002
}
  0
ARC
  5
500
330
1F
100
AcDbEntity
  8
0
100
AcDbCircle
 10
61.69999975008778
 20
127.7999998563383
 30
0.0
 40
3.799999999999998
100
AcDbArc
 50
270.0
 51
0.0
1001
GENIUS_GENOBJ-N-FIL_13
1002
{
1000
OWNER
1000
GEN
1002
}
1001
GENIUS_GENODEF_13
1002
{
1000
HIER
1070
     0
1002
}
1002
{
1000
MANEDIT
1070
     0
1002
}
1002
{
1000
NOSEL
1070
     0
1002
}
1002
{
1000
BEHIND
1070
     0
1002
}
1002
{
1000
OTHER
1070
     0
1002
}
1002
{
1000
REACTOR
1002
}
  0
LINE
  5
501
330
1F
100
AcDbEntity
  8
0
100
AcDbLine
 10
61.69999975008778
 20
123.9999998563383
 30
0.0
 11
12.29999975008779
 21
123.9999998563383
 31
0.0
  0
ARC
  5
502
330
1F
100
AcDbEntity
  8
0
100
AcDbCircle
 10
12.29999975008779
 20
127.7999998563383
 30
0.0
 40
3.799999999999998
100
AcDbArc
 50
180.0
 51
270.0
1001
GENIUS_GENOBJ-N-CEN_13
1002
{
1000
OWNER
1000
GEN
1002
}
1001
GENIUS_GENODEF_13
1002
{
1000
HIER
1070
     0
1002
}
1002
{
1000
MANEDIT
1070
     0
1002
}
1002
{
1000
NOSEL
1070
     0
1002
}
1002
{
1000
BEHIND
1070
     0
1002
}
1002
{
1000
OTHER
1070
     0
1002
}
1002
{
1000
REACTOR
1002
}
1001
GENIUS_GENOBJ-N-FIL_13
1002
{
1000
OWNER
1000
GEN
1002
}
  0
LINE
  5
503
330
1F
100
AcDbEntity
  8
0
100
AcDbLine
 10
8.499999750087795
 20
152.3549446512757
 30
0.0
 11
8.499999750087795
 21
127.7999998563383
 31
0.0
1001
GENIUS_GENODEF_13
1002
{
1000
HIER
1070
     0
1002
}
1002
{
1000
MANEDIT
1070
     0
1002
}
1002
{
1000
NOSEL
1070
     0
1002
}
1002
{
1000
BEHIND
1070
     0
1002
}
1002
{
1000
OTHER
1070
     0
1002
}
1002
{
1000
REACTOR
1002
}
1001
GENIUS_GENOBJ-N-CEN_13
1002
{
1000
OWNER
1000
GEN
1002
}
  0
ARC
  5
504
330
1F
100
AcDbEntity
  8
0
100
AcDbCircle
 10
18.79999975008779
 20
152.3549446512757
 30
0.0
 40
10.3
100
AcDbArc
 50
100.3295919283615
 51
180.0
1001
GENIUS_GENOBJ-N-FIL_13
1002
{
1000
OWNER
1000
GEN
1002
}
1001
GENIUS_GENODEF_13
1002
{
1000
HIER
1070
     0
1002
}
1002
{
1000
MANEDIT
1070
     0
1002
}
1002
{
1000
NOSEL
1070
     0
1002
}
1002
{
1000
BEHIND
1070
     0
1002
}
1002
{
1000
OTHER
1070
     0
1002
}
1002
{
1000
REACTOR
1002
}
  0
LINE
  5
505
330
1F
100
AcDbEntity
  8
0
100
AcDbLine
 10
41.5999997500877
 20
141.4999998563383
 30
0.0
 11
11.59999975008776
 21
141.4999998563383
 31
0.0
  0
LINE
  5
506
330
1F
100
AcDbEntity
  8
0
100
AcDbLine
 10
41.5999997500877
 20
153.4999998563383
 30
0.0
 11
11.59999975008776
 21
153.4999998563383
 31
0.0
  0
LINE
  5
507
330
1F
100
AcDbEntity
  8
0
100
AcDbLine
 10
11.59999975008776
 20
153.4999998563383
 30
0.0
 11
11.59999975008776
 21
141.4999998563383
 31
0.0
1001
GENIUS_GENODEF_13
1002
{
1000
HIER
1070
     0
1002
}
1002
{
1000
MANEDIT
1070
     0
1002
}
1002
{
1000
NOSEL
1070
     0
1002
}
1002
{
1000
BEHIND
1070
     0
1002
}
1002
{
1000
OTHER
1070
     0
1002
}
1002
{
1000
REACTOR
1002
}
1001
GENIUS_GENOBJ-N-CEN_13
1002
{
1000
OWNER
1000
GEN
1002
}
  0
LINE
  5
508
330
1F
100
AcDbEntity
  8
0
100
AcDbLine
 10
41.5999997500877
 20
153.4999998563383
 30
0.0
 11
41.5999997500877
 21
141.4999998563383
 31
0.0
1001
GENIUS_GENODEF_13
1002
{
1000
HIER
1070
     0
1002
}
1002
{
1000
MANEDIT
1070
     0
1002
}
1002
{
1000
NOSEL
1070
     0
1002
}
1002
{
1000
BEHIND
1070
     0
1002
}
1002
{
1000
OTHER
1070
     0
1002
}
1002
{
1000
REACTOR
1002
}
1001
GENIUS_GENOBJ-N-CEN_13
1002
{
1000
OWNER
1000
GEN
1002
}
  0
LINE
  5
509
330
1F
100
AcDbEntity
  8
0
100
AcDbLine
 10
42.9999997500878
 20
153.4999998563383
 30
0.0
 11
42.9999997500878
 21
141.4999998563383
 31
0.0
1001
GENIUS_GENODEF_13
1002
{
1000
HIER
1070
     0
1002
}
1002
{
1000
MANEDIT
1070
     0
1002
}
1002
{
1000
NOSEL
1070
     0
1002
}
1002
{
1000
BEHIND
1070
     0
1002
}
1002
{
1000
OTHER
1070
     0
1002
}
1002
{
1000
REACTOR
1002
}
1001
GENIUS_GENOBJ-N-CEN_13
1002
{
1000
OWNER
1000
GEN
1002
}
  0
LINE
  5
50A
330
1F
100
AcDbEntity
  8
0
100
AcDbLine
 10
63.79999975008781
 20
153.4999998563383
 30
0.0
 11
63.79999975008769
 21
141.4999998563383
 31
0.0
1001
GENIUS_GENODEF_13
1002
{
1000
HIER
1070
     0
1002
}
1002
{
1000
MANEDIT
1070
     0
1002
}
1002
{
1000
NOSEL
1070
     0
1002
}
1002
{
1000
BEHIND
1070
     0
1002
}
1002
{
1000
OTHER
1070
     0
1002
}
1002
{
1000
REACTOR
1002
}
1001
GENIUS_GENOBJ-N-CEN_13
1002
{
1000
OWNER
1000
GEN
1002
}
  0
LINE
  5
50B
330
1F
100
AcDbEntity
  8
0
100
AcDbLine
 10
42.9999997500878
 20
153.4999998563383
 30
0.0
 11
63.79999975008769
 21
153.4999998563383
 31
0.0
  0
LINE
  5
50C
330
1F
100
AcDbEntity
  8
0
100
AcDbLine
 10
42.9999997500878
 20
141.4999998563383
 30
0.0
 11
63.79999975008769
 21
141.4999998563383
 31
0.0
  0
LINE
  5
50D
330
1F
100
AcDbEntity
  8
0
100
AcDbLine
 10
65.27416165901269
 20
154.4999998563383
 30
0.0
 11
8.725837841162826
 21
154.4999998563383
 31
0.0
  0
LINE
  5
50E
330
1F
100
AcDbEntity
  8
0
100
AcDbLine
 10
65.49999975008771
 20
135.9999998563382
 30
0.0
 11
8.499999750087795
 21
135.9999998563383
 31
0.0
  0
LINE
  5
50F
330
1F
100
AcDbEntity
  8
0
100
AcDbLine
 10
65.49999975008771
 20
136.9999998563383
 30
0.0
 11
8.499999750087795
 21
136.9999998563383
 31
0.0
  0
LINE
  5
513
330
1F
100
AcDbEntity
  8
0
100
AcDbLine
 10
43.99999975008778
 20
152.4999998563383
 30
0.0
 11
43.99999975008778
 21
142.4999998563383
 31
0.0
1001
GENIUS_GENODEF_13
1002
{
1000
HIER
1070
     0
1002
}
1002
{
1000
MANEDIT
1070
     0
1002
}
1002
{
1000
NOSEL
1070
     0
1002
}
1002
{
1000
BEHIND
1070
     0
1002
}
1002
{
1000
OTHER
1070
     0
1002
}
1002
{
1000
REACTOR
1002
}
1001
GENIUS_GENOBJ-N-CEN_13
1002
{
1000
OWNER
1000
GEN
1002
}
  0
LINE
  5
514
330
1F
100
AcDbEntity
  8
0
100
AcDbLine
 10
51.99999975008779
 20
152.4999998563383
 30
0.0
 11
51.99999975008779
 21
142.4999998563383
 31
0.0
1001
GENIUS_GENODEF_13
1002
{
1000
HIER
1070
     0
1002
}
1002
{
1000
MANEDIT
1070
     0
1002
}
1002
{
1000
NOSEL
1070
     0
1002
}
1002
{
1000
BEHIND
1070
     0
1002
}
1002
{
1000
OTHER
1070
     0
1002
}
1002
{
1000
REACTOR
1002
}
1001
GENIUS_GENOBJ-N-CEN_13
1002
{
1000
OWNER
1000
GEN
1002
}
  0
LINE
  5
515
330
1F
100
AcDbEntity
  8
0
100
AcDbLine
 10
43.99999975008778
 20
152.4999998563383
 30
0.0
 11
51.99999975008779
 21
152.4999998563383
 31
0.0
  0
LINE
  5
516
330
1F
100
AcDbEntity
  8
0
100
AcDbLine
 10
43.99999975008778
 20
142.4999998563383
 30
0.0
 11
51.99999975008779
 21
142.4999998563384
 31
0.0
  0
CIRCLE
  5
517
330
1F
100
AcDbEntity
  8
0
100
AcDbCircle
 10
60.79999975008769
 20
138.7999998563383
 30
0.0
 40
1.25
  0
LINE
  5
518
330
1F
100
AcDbEntity
  8
0
100
AcDbLine
 10
49.29179815008779
 20
147.6548398563383
 30
0.0
 11
48.72958375008781
 21
148.035586523005
 31
0.0
  0
LINE
  5
519
330
1F
100
AcDbEntity
  8
0
100
AcDbLine
 10
46.99183015008778
 20
147.261186523005
 30
0.0
 11
48.62271655008779
 21
147.261186523005
 31
0.0
  0
LINE
  5
51A
330
1F
100
AcDbEntity
  8
0
100
AcDbLine
 10
46.42961575008778
 20
147.6451598563383
 30
0.0
 11
46.99183015008778
 21
147.261186523005
 31
0.0
  0
LINE
  5
51B
330
1F
100
AcDbEntity
  8
0
100
AcDbLine
 10
46.42961575008778
 20
147.6451598563383
 30
0.0
 11
47.1033437500879
 21
148.035586523005
 31
0.0
  0
LINE
  5
51C
330
1F
100
AcDbEntity
  8
0
100
AcDbLine
 10
48.72958375008781
 20
148.035586523005
 30
0.0
 11
47.1033437500879
 21
148.035586523005
 31
0.0
  0
LINE
  5
51D
330
1F
100
AcDbEntity
  8
0
100
AcDbLine
 10
49.29179815008779
 20
147.6548398563383
 30
0.0
 11
48.62271655008779
 21
147.261186523005
 31
0.0
  0
CIRCLE
  5
51E
330
1F
100
AcDbEntity
  8
0
100
AcDbCircle
 10
30.54417790972109
 20
143.2014604474524
 30
0.0
 40
0.3300000000000001
  0
LINE
  5
51F
330
1F
100
AcDbEntity
  8
0
100
AcDbLine
 10
-0.0000002499122047
 20
23.99999985633832
 30
0.0
 11
-0.0000002499122047
 21
20.46999985633832
 31
0.0
  0
LINE
  5
520
330
1F
100
AcDbEntity
  8
0
100
AcDbLine
 10
163.3770090279017
 20
166.8176672347774
 30
0.0
 11
159.4879217243513
 21
170.7067545313035
 31
0.0
  0
LINE
  5
521
330
1F
100
AcDbEntity
  8
0
100
AcDbLine
 10
157.3666013864112
 20
169.2925409682279
 30
0.0
 11
158.7808149431647
 21
170.7067545313035
 31
0.0
  0
LINE
  5
522
330
1F
100
AcDbEntity
  8
0
100
AcDbLine
 10
161.2556886843422
 20
164.6963468912178
 30
0.0
 11
157.3666013871137
 21
168.5854341877438
 31
0.0
  0
ARC
  5
523
330
1F
100
AcDbEntity
  8
0
100
AcDbCircle
 10
157.7201547777069
 20
168.938987578337
 30
0.0
 40
0.5
100
AcDbArc
 50
135.0000001138371
 51
224.9999999999997
1001
GENIUS_GENODEF_13
1002
{
1000
HIER
1070
     0
1002
}
1002
{
1000
MANEDIT
1070
     0
1002
}
1002
{
1000
NOSEL
1070
     0
1002
}
1002
{
1000
BEHIND
1070
     0
1002
}
1002
{
1000
OTHER
1070
     0
1002
}
1002
{
1000
REACTOR
1002
}
1001
GENIUS_GENOBJ-N-FIL_13
1002
{
1000
OWNER
1000
GEN
1002
}
  0
ARC
  5
524
330
1F
100
AcDbEntity
  8
0
100
AcDbCircle
 10
159.134368333758
 20
170.3532011407102
 30
0.0
 40
0.5
100
AcDbArc
 50
44.99999999999971
 51
135.0000000000003
1001
GENIUS_GENOBJ-N-FIL_13
1002
{
1000
OWNER
1000
GEN
1002
}
1001
GENIUS_GENODEF_13
1002
{
1000
HIER
1070
     0
1002
}
1002
{
1000
MANEDIT
1070
     0
1002
}
1002
{
1000
NOSEL
1070
     0
1002
}
1002
{
1000
BEHIND
1070
     0
1002
}
1002
{
1000
OTHER
1070
     0
1002
}
1002
{
1000
REACTOR
1002
}
  0
LINE
  5
525
330
1F
100
AcDbEntity
  8
0
100
AcDbLine
 10
191.9999997500878
 20
117.4999998563383
 30
0.0
 11
216.9999997500878
 21
117.4999998563383
 31
0.0
  0
LINE
  5
526
330
1F
100
AcDbEntity
  8
0
100
AcDbLine
 10
191.9999997500878
 20
72.49999985633831
 30
0.0
 11
216.9999997500878
 21
72.49999985633831
 31
0.0
  0
LINE
  5
527
330
1F
100
AcDbEntity
  8
0
100
AcDbLine
 10
191.9999997500878
 20
117.4999998563383
 30
0.0
 11
191.9999997500878
 21
72.49999985633831
 31
0.0
  0
LINE
  5
528
330
1F
100
AcDbEntity
  8
0
100
AcDbLine
 10
216.9999997500878
 20
117.4999998563383
 30
0.0
 11
216.9999997500878
 21
72.49999985633831
 31
0.0
  0
CIRCLE
  5
529
330
1F
100
AcDbEntity
  8
0
100
AcDbCircle
 10
191.9999997500878
 20
64.99999985633841
 30
0.0
 40
3.25
  0
CIRCLE
  5
52A
330
1F
100
AcDbEntity
  8
0
100
AcDbCircle
 10
191.9999997500878
 20
64.99999985633841
 30
0.0
 40
1.75
  0
LINE
  5
52B
330
1F
100
AcDbEntity
  8
0
100
AcDbLine
 10
208.9999997500878
 20
69.49999985633832
 30
0.0
 11
200.9999997500878
 21
69.49999985633832
 31
0.0
  0
LINE
  5
52C
330
1F
100
AcDbEntity
  8
0
100
AcDbLine
 10
199.9999997500878
 20
68.49999985633832
 30
0.0
 11
199.9999997500878
 21
58.49999985633832
 31
0.0
1001
GENIUS_GENODEF_13
1002
{
1000
HIER
1070
     0
1002
}
1002
{
1000
MANEDIT
1070
     0
1002
}
1002
{
1000
NOSEL
1070
     0
1002
}
1002
{
1000
BEHIND
1070
     0
1002
}
1002
{
1000
OTHER
1070
     0
1002
}
1002
{
1000
REACTOR
1002
}
1001
GENIUS_GENOBJ-N-CEN_13
1002
{
1000
OWNER
1000
GEN
1002
}
  0
LINE
  5
52D
330
1F
100
AcDbEntity
  8
0
100
AcDbLine
 10
209.9999997500878
 20
68.49999985633832
 30
0.0
 11
209.9999997500878
 21
58.61805684020411
 31
0.0
1001
GENIUS_GENODEF_13
1002
{
1000
HIER
1070
     0
1002
}
1002
{
1000
MANEDIT
1070
     0
1002
}
1002
{
1000
NOSEL
1070
     0
1002
}
1002
{
1000
BEHIND
1070
     0
1002
}
1002
{
1000
OTHER
1070
     0
1002
}
1002
{
1000
REACTOR
1002
}
1001
GENIUS_GENOBJ-N-CEN_13
1002
{
1000
OWNER
1000
GEN
1002
}
  0
ARC
  5
52E
330
1F
100
AcDbEntity
  8
0
100
AcDbCircle
 10
200.9999997500878
 20
68.49999985633832
 30
0.0
 40
1.0
100
AcDbArc
 50
90.0
 51
180.0
1001
GENIUS_GENOBJ-N-CEN_13
1002
{
1000
OWNER
1000
GEN
1002
}
1001
GENIUS_GENODEF_13
1002
{
1000
HIER
1070
     0
1002
}
1002
{
1000
MANEDIT
1070
     0
1002
}
1002
{
1000
NOSEL
1070
     0
1002
}
1002
{
1000
BEHIND
1070
     0
1002
}
1002
{
1000
OTHER
1070
     0
1002
}
1002
{
1000
REACTOR
1002
}
1001
GENIUS_GENOBJ-N-FIL_13
1002
{
1000
OWNER
1000
GEN
1002
}
  0
ARC
  5
52F
330
1F
100
AcDbEntity
  8
0
100
AcDbCircle
 10
208.9999997500878
 20
68.49999985633832
 30
0.0
 40
1.0
100
AcDbArc
 50
0.0
 51
90.0
1001
GENIUS_GENOBJ-N-CEN_13
1002
{
1000
OWNER
1000
GEN
1002
}
1001
GENIUS_GENODEF_13
1002
{
1000
HIER
1070
     0
1002
}
1002
{
1000
MANEDIT
1070
     0
1002
}
1002
{
1000
NOSEL
1070
     0
1002
}
1002
{
1000
BEHIND
1070
     0
1002
}
1002
{
1000
OTHER
1070
     0
1002
}
1002
{
1000
REACTOR
1002
}
1001
GENIUS_GENOBJ-N-FIL_13
1002
{
1000
OWNER
1000
GEN
1002
}
  0
ARC
  5
530
330
1F
100
AcDbEntity
  8
0
100
AcDbCircle
 10
210.9999997500878
 20
58.61805684020411
 30
0.0
 40
1.0
100
AcDbArc
 50
180.0
 51
276.7563270305883
1001
GENIUS_GENODEF_13
1002
{
1000
HIER
1070
     0
1002
}
1002
{
1000
MANEDIT
1070
     0
1002
}
1002
{
1000
NOSEL
1070
     0
1002
}
1002
{
1000
BEHIND
1070
     0
1002
}
1002
{
1000
OTHER
1070
     0
1002
}
1002
{
1000
REACTOR
1002
}
1001
GENIUS_GENOBJ-N-FIL_13
1002
{
1000
OWNER
1000
GEN
1002
}
  0
ARC
  5
531
330
1F
100
AcDbEntity
  8
0
100
AcDbCircle
 10
198.9999997500878
 20
58.49999985633832
 30
0.0
 40
1.0
100
AcDbArc
 50
270.0
 51
0.0
1001
GENIUS_GENODEF_13
1002
{
1000
HIER
1070
     0
1002
}
1002
{
1000
MANEDIT
1070
     0
1002
}
1002
{
1000
NOSEL
1070
     0
1002
}
1002
{
1000
BEHIND
1070
     0
1002
}
1002
{
1000
OTHER
1070
     0
1002
}
1002
{
1000
REACTOR
1002
}
1001
GENIUS_GENOBJ-N-FIL_13
1002
{
1000
OWNER
1000
GEN
1002
}
  0
LINE
  5
532
330
1F
100
AcDbEntity
  8
0
100
AcDbLine
 10
204.9999997500878
 20
66.49999985633832
 30
0.0
 11
204.9999997500878
 21
66.49999985633832
 31
0.0
  0
LINE
  5
533
330
1F
100
AcDbEntity
  8
0
100
AcDbLine
 10
203.9999997500878
 20
65.49999985633832
 30
0.0
 11
203.9999997500878
 21
57.49999985633832
 31
0.0
1001
GENIUS_GENODEF_13
1002
{
1000
HIER
1070
     0
1002
}
1002
{
1000
MANEDIT
1070
     0
1002
}
1002
{
1000
NOSEL
1070
     0
1002
}
1002
{
1000
BEHIND
1070
     0
1002
}
1002
{
1000
OTHER
1070
     0
1002
}
1002
{
1000
REACTOR
1002
}
1001
GENIUS_GENOBJ-N-CEN_13
1002
{
1000
OWNER
1000
GEN
1002
}
  0
LINE
  5
534
330
1F
100
AcDbEntity
  8
0
100
AcDbLine
 10
205.9999997500878
 20
65.49999985633832
 30
0.0
 11
205.9999997500878
 21
57.49999985633832
 31
0.0
1001
GENIUS_GENODEF_13
1002
{
1000
HIER
1070
     0
1002
}
1002
{
1000
MANEDIT
1070
     0
1002
}
1002
{
1000
NOSEL
1070
     0
1002
}
1002
{
1000
BEHIND
1070
     0
1002
}
1002
{
1000
OTHER
1070
     0
1002
}
1002
{
1000
REACTOR
1002
}
1001
GENIUS_GENOBJ-N-CEN_13
1002
{
1000
OWNER
1000
GEN
1002
}
  0
ARC
  5
535
330
1F
100
AcDbEntity
  8
0
100
AcDbCircle
 10
204.9999997500878
 20
65.49999985633832
 30
0.0
 40
1.0
100
AcDbArc
 50
90.0
 51
180.0
1001
GENIUS_GENODEF_13
1002
{
1000
HIER
1070
     0
1002
}
1002
{
1000
MANEDIT
1070
     0
1002
}
1002
{
1000
NOSEL
1070
     0
1002
}
1002
{
1000
BEHIND
1070
     0
1002
}
1002
{
1000
OTHER
1070
     0
1002
}
1002
{
1000
REACTOR
1002
}
1001
GENIUS_GENOBJ-N-FIL_13
1002
{
1000
OWNER
1000
GEN
1002
}
  0
ARC
  5
536
330
1F
100
AcDbEntity
  8
0
100
AcDbCircle
 10
204.9999997500878
 20
65.49999985633832
 30
0.0
 40
1.0
100
AcDbArc
 50
0.0
 51
90.0
1001
GENIUS_GENOBJ-N-CEN_13
1002
{
1000
OWNER
1000
GEN
1002
}
1001
GENIUS_GENODEF_13
1002
{
1000
HIER
1070
     0
1002
}
1002
{
1000
MANEDIT
1070
     0
1002
}
1002
{
1000
NOSEL
1070
     0
1002
}
1002
{
1000
BEHIND
1070
     0
1002
}
1002
{
1000
OTHER
1070
     0
1002
}
1002
{
1000
REACTOR
1002
}
1001
GENIUS_GENOBJ-N-FIL_13
1002
{
1000
OWNER
1000
GEN
1002
}
  0
LINE
  5
544
330
1F
100
AcDbEntity
  8
0
100
AcDbLine
 10
162.9999997500878
 20
127.9999998563383
 30
0.0
 11
162.9999997500878
 21
166.4897640340306
 31
0.0
  0
LINE
  5
545
330
1F
100
AcDbEntity
  8
0
100
AcDbLine
 10
5.999999750087795
 20
-0.0000001436616799
 30
0.0
 11
65.99999975008778
 21
-0.0000001436616799
 31
0.0
  0
LINE
  5
546
330
1F
100
AcDbEntity
  8
0
100
AcDbLine
 10
5.999999750087795
 20
29.99999985633832
 30
0.0
 11
65.99999975008778
 21
29.99999985633832
 31
0.0
  0
LINE
  5
547
330
1F
100
AcDbEntity
  8
0
100
AcDbLine
 10
133.4999997500878
 20
166.4999998563383
 30
0.0
 11
133.4999997500877
 21
63.49999985633832
 31
0.0
1001
GENIUS_GENODEF_13
1002
{
1000
HIER
1070
     0
1002
}
1002
{
1000
MANEDIT
1070
     0
1002
}
1002
{
1000
NOSEL
1070
     0
1002
}
1002
{
1000
BEHIND
1070
     0
1002
}
1002
{
1000
OTHER
1070
     0
1002
}
1002
{
1000
REACTOR
1002
}
1001
GENIUS_GENOBJ-N-CEN_13
1002
{
1000
OWNER
1000
GEN
1002
}
  0
LINE
  5
548
330
1F
100
AcDbEntity
  8
0
100
AcDbLine
 10
103.4999997500878
 20
166.4999998563383
 30
0.0
 11
103.4999997500878
 21
63.49999985633832
 31
0.0
1001
GENIUS_GENODEF_13
1002
{
1000
HIER
1070
     0
1002
}
1002
{
1000
MANEDIT
1070
     0
1002
}
1002
{
1000
NOSEL
1070
     0
1002
}
1002
{
1000
BEHIND
1070
     0
1002
}
1002
{
1000
OTHER
1070
     0
1002
}
1002
{
1000
REACTOR
1002
}
1001
GENIUS_GENOBJ-N-CEN_13
1002
{
1000
OWNER
1000
GEN
1002
}
  0
LINE
  5
549
330
1F
100
AcDbEntity
  8
0
100
AcDbLine
 10
109.4999997500878
 20
172.4999998563383
 30
0.0
 11
112.9999997500878
 21
172.4999998563383
 31
0.0
  0
LINE
  5
54A
330
1F
100
AcDbEntity
  8
0
100
AcDbLine
 10
109.4999997500878
 20
57.49999985633832
 30
0.0
 11
112.9999997500878
 21
57.49999985633832
 31
0.0
  0
ARC
  5
54B
330
1F
100
AcDbEntity
  8
0
100
AcDbCircle
 10
109.4999997500878
 20
166.4999998563383
 30
0.0
 40
6.0
100
AcDbArc
 50
90.0
 51
180.0
1001
GENIUS_GENOBJ-N-CEN_13
1002
{
1000
OWNER
1000
GEN
1002
}
1001
GENIUS_GENOBJ-N-FIL_13
1002
{
1000
OWNER
1000
GEN
1002
}
1001
GENIUS_GENODEF_13
1002
{
1000
HIER
1070
     0
1002
}
1002
{
1000
MANEDIT
1070
     0
1002
}
1002
{
1000
NOSEL
1070
     0
1002
}
1002
{
1000
BEHIND
1070
     0
1002
}
1002
{
1000
OTHER
1070
     0
1002
}
1002
{
1000
REACTOR
1002
}
  0
ARC
  5
54C
330
1F
100
AcDbEntity
  8
0
100
AcDbCircle
 10
109.4999997500878
 20
63.49999985633832
 30
0.0
 40
6.0
100
AcDbArc
 50
180.0
 51
270.0
1001
GENIUS_GENODEF_13
1002
{
1000
HIER
1070
     0
1002
}
1002
{
1000
MANEDIT
1070
     0
1002
}
1002
{
1000
NOSEL
1070
     0
1002
}
1002
{
1000
BEHIND
1070
     0
1002
}
1002
{
1000
OTHER
1070
     0
1002
}
1002
{
1000
REACTOR
1002
}
1001
GENIUS_GENOBJ-N-FIL_13
1002
{
1000
OWNER
1000
GEN
1002
}
  0
ARC
  5
54D
330
1F
100
AcDbEntity
  8
0
100
AcDbCircle
 10
127.4999997500878
 20
166.4999998563383
 30
0.0
 40
6.0
100
AcDbArc
 50
0.0
 51
90.0
1001
GENIUS_GENOBJ-N-CEN_13
1002
{
1000
OWNER
1000
GEN
1002
}
1001
GENIUS_GENOBJ-N-FIL_13
1002
{
1000
OWNER
1000
GEN
1002
}
1001
GENIUS_GENODEF_13
1002
{
1000
HIER
1070
     0
1002
}
1002
{
1000
MANEDIT
1070
     0
1002
}
1002
{
1000
NOSEL
1070
     0
1002
}
1002
{
1000
BEHIND
1070
     0
1002
}
1002
{
1000
OTHER
1070
     0
1002
}
1002
{
1000
REACTOR
1002
}
  0
ARC
  5
54E
330
1F
100
AcDbEntity
  8
0
100
AcDbCircle
 10
127.4999997500877
 20
63.49999985633832
 30
0.0
 40
6.0
100
AcDbArc
 50
270.0
 51
0.0
1001
GENIUS_GENODEF_13
1002
{
1000
HIER
1070
     0
1002
}
1002
{
1000
MANEDIT
1070
     0
1002
}
1002
{
1000
NOSEL
1070
     0
1002
}
1002
{
1000
BEHIND
1070
     0
1002
}
1002
{
1000
OTHER
1070
     0
1002
}
1002
{
1000
REACTOR
1002
}
1001
GENIUS_GENOBJ-N-FIL_13
1002
{
1000
OWNER
1000
GEN
1002
}
  0
LINE
  5
54F
330
1F
100
AcDbEntity
  8
0
100
AcDbLine
 10
113.9999997500878
 20
172.4999998563383
 30
0.0
 11
127.4999997500878
 21
172.4999998563383
 31
0.0
  0
LINE
  5
550
330
1F
100
AcDbEntity
  8
0
100
AcDbLine
 10
112.9999997500878
 20
171.4999998563383
 30
0.0
 11
113.9999997500878
 21
171.4999998563383
 31
0.0
  0
LINE
  5
551
330
1F
100
AcDbEntity
  8
0
100
AcDbLine
 10
112.9999997500878
 20
58.49999985633832
 30
0.0
 11
113.9999997500878
 21
58.49999985633832
 31
0.0
  0
LINE
  5
552
330
1F
100
AcDbEntity
  8
0
100
AcDbLine
 10
113.9999997500878
 20
57.49999985633832
 30
0.0
 11
127.4999997500877
 21
57.49999985633832
 31
0.0
  0
LINE
  5
553
330
1F
100
AcDbEntity
  8
0
100
AcDbLine
 10
103.4999997500877
 20
119.4999998563383
 30
0.0
 11
112.9999997500878
 21
119.4999998563383
 31
0.0
  0
LINE
  5
554
330
1F
100
AcDbEntity
  8
0
100
AcDbLine
 10
104.4999997500878
 20
117.4999998563383
 30
0.0
 11
104.4999997500878
 21
63.49999985633832
 31
0.0
1001
GENIUS_GENODEF_13
1002
{
1000
HIER
1070
     0
1002
}
1002
{
1000
MANEDIT
1070
     0
1002
}
1002
{
1000
NOSEL
1070
     0
1002
}
1002
{
1000
BEHIND
1070
     0
1002
}
1002
{
1000
OTHER
1070
     0
1002
}
1002
{
1000
REACTOR
1002
}
1001
GENIUS_GENOBJ-N-CEN_13
1002
{
1000
OWNER
1000
GEN
1002
}
  0
LINE
  5
555
330
1F
100
AcDbEntity
  8
0
100
AcDbLine
 10
103.4999997500878
 20
119.4999998563383
 30
0.0
 11
104.4999997500878
 21
117.4999998563383
 31
0.0
  0
ARC
  5
556
330
1F
100
AcDbEntity
  8
0
100
AcDbCircle
 10
109.4999997500878
 20
63.49999985633832
 30
0.0
 40
5.0
100
AcDbArc
 50
180.0
 51
270.0
1001
GENIUS_GENODEF_13
1002
{
1000
HIER
1070
     0
1002
}
1002
{
1000
MANEDIT
1070
     0
1002
}
1002
{
1000
NOSEL
1070
     0
1002
}
1002
{
1000
BEHIND
1070
     0
1002
}
1002
{
1000
OTHER
1070
     0
1002
}
1002
{
1000
REACTOR
1002
}
1001
GENIUS_GENOBJ-N-FIL_13
1002
{
1000
OWNER
1000
GEN
1002
}
  0
LINE
  5
557
330
1F
100
AcDbEntity
  8
0
100
AcDbLine
 10
109.4999997500878
 20
58.49999985633832
 30
0.0
 11
112.9999997500878
 21
58.49999985633832
 31
0.0
  0
LINE
  5
558
330
1F
100
AcDbEntity
  8
0
100
AcDbLine
 10
132.4999997500878
 20
117.4999998563383
 30
0.0
 11
132.4999997500878
 21
63.49999985633832
 31
0.0
1001
GENIUS_GENODEF_13
1002
{
1000
HIER
1070
     0
1002
}
1002
{
1000
MANEDIT
1070
     0
1002
}
1002
{
1000
NOSEL
1070
     0
1002
}
1002
{
1000
BEHIND
1070
     0
1002
}
1002
{
1000
OTHER
1070
     0
1002
}
1002
{
1000
REACTOR
1002
}
1001
GENIUS_GENOBJ-N-CEN_13
1002
{
1000
OWNER
1000
GEN
1002
}
  0
ARC
  5
559
330
1F
100
AcDbEntity
  8
0
100
AcDbCircle
 10
127.4999997500877
 20
63.49999985633832
 30
0.0
 40
5.0
100
AcDbArc
 50
270.0
 51
0.0
1001
GENIUS_GENODEF_13
1002
{
1000
HIER
1070
     0
1002
}
1002
{
1000
MANEDIT
1070
     0
1002
}
1002
{
1000
NOSEL
1070
     0
1002
}
1002
{
1000
BEHIND
1070
     0
1002
}
1002
{
1000
OTHER
1070
     0
1002
}
1002
{
1000
REACTOR
1002
}
1001
GENIUS_GENOBJ-N-FIL_13
1002
{
1000
OWNER
1000
GEN
1002
}
  0
LINE
  5
55A
330
1F
100
AcDbEntity
  8
0
100
AcDbLine
 10
113.9999997500878
 20
58.49999985633832
 30
0.0
 11
127.4999997500877
 21
58.49999985633832
 31
0.0
  0
LINE
  5
55B
330
1F
100
AcDbEntity
  8
0
100
AcDbLine
 10
132.4999997500878
 20
117.4999998563383
 30
0.0
 11
133.4999997500878
 21
119.4999998563383
 31
0.0
  0
LINE
  5
55C
330
1F
100
AcDbEntity
  8
0
100
AcDbLine
 10
113.9999997500878
 20
119.4999998563383
 30
0.0
 11
133.4999997500877
 21
119.4999998563383
 31
0.0
  0
LINE
  5
55D
330
1F
100
AcDbEntity
  8
0
100
AcDbLine
 10
112.9999997500878
 20
58.49999985633832
 30
0.0
 11
112.9999997500878
 21
57.49999985633832
 31
0.0
  0
LINE
  5
55E
330
1F
100
AcDbEntity
  8
0
100
AcDbLine
 10
113.9999997500878
 20
58.49999985633832
 30
0.0
 11
113.9999997500878
 21
57.49999985633832
 31
0.0
  0
LINE
  5
55F
330
1F
100
AcDbEntity
  8
0
100
AcDbLine
 10
107.9999997500878
 20
164.6963468912178
 30
0.0
 11
111.4999997500878
 21
164.6963468912178
 31
0.0
  0
LINE
  5
560
330
1F
100
AcDbEntity
  8
0
100
AcDbLine
 10
107.9999997500878
 20
169.8532011407102
 30
0.0
 11
107.9999997500878
 21
164.6963468912178
 31
0.0
  0
LINE
  5
561
330
1F
100
AcDbEntity
  8
0
100
AcDbLine
 10
118.9999997500878
 20
169.8532011407102
 30
0.0
 11
118.9999997500878
 21
164.6963468912178
 31
0.0
  0
LINE
  5
562
330
1F
100
AcDbEntity
  8
0
100
AcDbLine
 10
111.4999997500878
 20
167.5247740152694
 30
0.0
 11
111.4999997500878
 21
164.6963468912178
 31
0.0
  0
LINE
  5
563
330
1F
100
AcDbEntity
  8
0
100
AcDbLine
 10
115.4999997500878
 20
167.5247740152694
 30
0.0
 11
115.4999997500878
 21
164.6963468912178
 31
0.0
  0
LINE
  5
564
330
1F
100
AcDbEntity
  8
0
100
AcDbLine
 10
115.4999997500878
 20
164.6963468912178
 30
0.0
 11
118.9999997500878
 21
164.6963468912178
 31
0.0
  0
LINE
  5
565
330
1F
100
AcDbEntity
  8
0
100
AcDbLine
 10
113.9999997500878
 20
172.4999998563383
 30
0.0
 11
113.9999997500878
 21
170.8532011407102
 31
0.0
  0
LINE
  5
566
330
1F
100
AcDbEntity
  8
0
100
AcDbLine
 10
113.9999997500878
 20
167.5247740152693
 30
0.0
 11
113.9999997500878
 21
117.4999998563383
 31
0.0
  0
LINE
  5
567
330
1F
100
AcDbEntity
  8
0
100
AcDbLine
 10
112.9999997500878
 20
172.4999998563383
 30
0.0
 11
112.9999997500878
 21
170.8532011407102
 31
0.0
  0
LINE
  5
568
330
1F
100
AcDbEntity
  8
0
100
AcDbLine
 10
112.9999997500878
 20
167.5247740152693
 30
0.0
 11
112.9999997500877
 21
117.4999998563383
 31
0.0
  0
ARC
  5
569
330
1F
100
AcDbEntity
  8
0
100
AcDbCircle
 10
108.9999997500878
 20
169.8532011407102
 30
0.0
 40
1.0
100
AcDbArc
 50
90.0
 51
180.0
1001
GENIUS_GENODEF_13
1002
{
1000
HIER
1070
     0
1002
}
1002
{
1000
MANEDIT
1070
     0
1002
}
1002
{
1000
NOSEL
1070
     0
1002
}
1002
{
1000
BEHIND
1070
     0
1002
}
1002
{
1000
OTHER
1070
     0
1002
}
1002
{
1000
REACTOR
1002
}
1001
GENIUS_GENOBJ-N-FIL_13
1002
{
1000
OWNER
1000
GEN
1002
}
  0
ARC
  5
56A
330
1F
100
AcDbEntity
  8
0
100
AcDbCircle
 10
117.9999997500878
 20
169.8532011407102
 30
0.0
 40
1.0
100
AcDbArc
 50
0.0
 51
90.0
1001
GENIUS_GENOBJ-N-FIL_13
1002
{
1000
OWNER
1000
GEN
1002
}
1001
GENIUS_GENODEF_13
1002
{
1000
HIER
1070
     0
1002
}
1002
{
1000
MANEDIT
1070
     0
1002
}
1002
{
1000
NOSEL
1070
     0
1002
}
1002
{
1000
BEHIND
1070
     0
1002
}
1002
{
1000
OTHER
1070
     0
1002
}
1002
{
1000
REACTOR
1002
}
  0
LINE
  5
56B
330
1F
100
AcDbEntity
  8
0
100
AcDbLine
 10
127.4999997500878
 20
166.4897640340305
 30
0.0
 11
125.4999997500878
 21
166.4897640340306
 31
0.0
  0
LINE
  5
56C
330
1F
100
AcDbEntity
  8
0
100
AcDbLine
 10
125.4999997500878
 20
172.4999998563383
 30
0.0
 11
125.4999997500878
 21
166.4897640340306
 31
0.0
1001
GENIUS_GENODEF_13
1002
{
1000
HIER
1070
     0
1002
}
1002
{
1000
MANEDIT
1070
     0
1002
}
1002
{
1000
NOSEL
1070
     0
1002
}
1002
{
1000
BEHIND
1070
     0
1002
}
1002
{
1000
OTHER
1070
     0
1002
}
1002
{
1000
REACTOR
1002
}
1001
GENIUS_GENOBJ-N-CEN_13
1002
{
1000
OWNER
1000
GEN
1002
}
  0
ARC
  5
56D
330
1F
100
AcDbEntity
  8
0
100
AcDbCircle
 10
127.4999997500878
 20
160.4897640340305
 30
0.0
 40
6.0
100
AcDbArc
 50
0.0
 51
90.0
1001
GENIUS_GENOBJ-N-CEN_13
1002
{
1000
OWNER
1000
GEN
1002
}
1001
GENIUS_GENOBJ-N-FIL_13
1002
{
1000
OWNER
1000
GEN
1002
}
1001
GENIUS_GENODEF_13
1002
{
1000
HIER
1070
     0
1002
}
1002
{
1000
MANEDIT
1070
     0
1002
}
1002
{
1000
NOSEL
1070
     0
1002
}
1002
{
1000
BEHIND
1070
     0
1002
}
1002
{
1000
OTHER
1070
     0
1002
}
1002
{
1000
REACTOR
1002
}
  0
LINE
  5
56E
330
1F
100
AcDbEntity
  8
0
100
AcDbLine
 10
-0.0000002499122047
 20
20.46999985633832
 30
0.0
 11
22.27638884316499
 21
20.46999985633832
 31
0.0
  0
LINE
  5
56F
330
1F
100
AcDbEntity
  8
0
100
AcDbLine
 10
-0.0000002499122047
 20
19.46999985633832
 30
0.0
 11
22.27638884316499
 21
19.46999985633832
 31
0.0
  0
LINE
  5
570
330
1F
100
AcDbEntity
  8
0
100
AcDbLine
 10
71.99999975008779
 20
23.99999985633832
 30
0.0
 11
71.99999975008779
 21
20.46999985633832
 31
0.0
  0
ARC
  5
571
330
1F
100
AcDbEntity
  8
0
100
AcDbCircle
 10
5.999999750087795
 20
23.99999985633832
 30
0.0
 40
6.0
100
AcDbArc
 50
90.0
 51
180.0
1001
GENIUS_GENOBJ-N-FIL_13
1002
{
1000
OWNER
1000
GEN
1002
}
1001
GENIUS_GENODEF_13
1002
{
1000
HIER
1070
     0
1002
}
1002
{
1000
MANEDIT
1070
     0
1002
}
1002
{
1000
NOSEL
1070
     0
1002
}
1002
{
1000
BEHIND
1070
     0
1002
}
1002
{
1000
OTHER
1070
     0
1002
}
1002
{
1000
REACTOR
1002
}
  0
ARC
  5
572
330
1F
100
AcDbEntity
  8
0
100
AcDbCircle
 10
65.99999975008778
 20
23.99999985633832
 30
0.0
 40
6.0
100
AcDbArc
 50
0.0
 51
90.0
1001
GENIUS_GENOBJ-N-FIL_13
1002
{
1000
OWNER
1000
GEN
1002
}
1001
GENIUS_GENODEF_13
1002
{
1000
HIER
1070
     0
1002
}
1002
{
1000
MANEDIT
1070
     0
1002
}
1002
{
1000
NOSEL
1070
     0
1002
}
1002
{
1000
BEHIND
1070
     0
1002
}
1002
{
1000
OTHER
1070
     0
1002
}
1002
{
1000
REACTOR
1002
}
  0
ARC
  5
573
330
1F
100
AcDbEntity
  8
0
100
AcDbCircle
 10
5.999999750087795
 20
5.99999985633832
 30
0.0
 40
6.0
100
AcDbArc
 50
180.0
 51
270.0
1001
GENIUS_GENODEF_13
1002
{
1000
HIER
1070
     0
1002
}
1002
{
1000
MANEDIT
1070
     0
1002
}
1002
{
1000
NOSEL
1070
     0
1002
}
1002
{
1000
BEHIND
1070
     0
1002
}
1002
{
1000
OTHER
1070
     0
1002
}
1002
{
1000
REACTOR
1002
}
1001
GENIUS_GENOBJ-N-FIL_13
1002
{
1000
OWNER
1000
GEN
1002
}
  0
ARC
  5
574
330
1F
100
AcDbEntity
  8
0
100
AcDbCircle
 10
65.99999975008778
 20
5.99999985633832
 30
0.0
 40
6.0
100
AcDbArc
 50
270.0
 51
0.0
1001
GENIUS_GENOBJ-N-FIL_13
1002
{
1000
OWNER
1000
GEN
1002
}
1001
GENIUS_GENODEF_13
1002
{
1000
HIER
1070
     0
1002
}
1002
{
1000
MANEDIT
1070
     0
1002
}
1002
{
1000
NOSEL
1070
     0
1002
}
1002
{
1000
BEHIND
1070
     0
1002
}
1002
{
1000
OTHER
1070
     0
1002
}
1002
{
1000
REACTOR
1002
}
  0
LINE
  5
575
330
1F
100
AcDbEntity
  8
0
100
AcDbLine
 10
0.9999997500877951
 20
20.46999985633832
 30
0.0
 11
0.9999997500877951
 21
19.46999985633832
 31
0.0
  0
LINE
  5
576
330
1F
100
AcDbEntity
  8
0
100
AcDbLine
 10
-0.0000002499122047
 20
19.46999985633832
 30
0.0
 11
-0.0000002499122047
 21
5.99999985633832
 31
0.0
  0
LINE
  5
577
330
1F
100
AcDbEntity
  8
0
100
AcDbLine
 10
71.99999975008779
 20
19.46999985633832
 30
0.0
 11
71.99999975008779
 21
5.99999985633832
 31
0.0
  0
LINE
  5
578
330
1F
100
AcDbEntity
  8
0
100
AcDbLine
 10
41.99999975008778
 20
29.99999985633832
 30
0.0
 11
41.99999975008778
 21
20.46999985633832
 31
0.0
  0
LINE
  5
579
330
1F
100
AcDbEntity
  8
0
100
AcDbLine
 10
43.99999975008778
 20
28.99999985633832
 30
0.0
 11
43.99999975008778
 21
0.9999998563383199
 31
0.0
  0
LINE
  5
57A
330
1F
100
AcDbEntity
  8
0
100
AcDbLine
 10
43.99999975008778
 20
28.99999985633832
 30
0.0
 11
65.99999975008778
 21
28.99999985633832
 31
0.0
  0
LINE
  5
57B
330
1F
100
AcDbEntity
  8
0
100
AcDbLine
 10
43.99999975008778
 20
0.9999998563383199
 30
0.0
 11
65.99999975008778
 21
0.9999998563383199
 31
0.0
  0
LINE
  5
57C
330
1F
100
AcDbEntity
  8
0
100
AcDbLine
 10
41.99999975008778
 20
29.99999985633832
 30
0.0
 11
43.99999975008778
 21
28.99999985633832
 31
0.0
  0
ARC
  5
57D
330
1F
100
AcDbEntity
  8
0
100
AcDbCircle
 10
65.99999975008778
 20
23.99999985633832
 30
0.0
 40
5.0
100
AcDbArc
 50
0.0
 51
90.0
1001
GENIUS_GENOBJ-N-FIL_13
1002
{
1000
OWNER
1000
GEN
1002
}
1001
GENIUS_GENODEF_13
1002
{
1000
HIER
1070
     0
1002
}
1002
{
1000
MANEDIT
1070
     0
1002
}
1002
{
1000
NOSEL
1070
     0
1002
}
1002
{
1000
BEHIND
1070
     0
1002
}
1002
{
1000
OTHER
1070
     0
1002
}
1002
{
1000
REACTOR
1002
}
  0
LINE
  5
57E
330
1F
100
AcDbEntity
  8
0
100
AcDbLine
 10
70.99999975008779
 20
23.99999985633832
 30
0.0
 11
70.99999975008779
 21
5.99999985633832
 31
0.0
  0
ARC
  5
57F
330
1F
100
AcDbEntity
  8
0
100
AcDbCircle
 10
65.99999975008778
 20
5.99999985633832
 30
0.0
 40
5.0
100
AcDbArc
 50
270.0
 51
0.0
1001
GENIUS_GENOBJ-N-FIL_13
1002
{
1000
OWNER
1000
GEN
1002
}
1001
GENIUS_GENODEF_13
1002
{
1000
HIER
1070
     0
1002
}
1002
{
1000
MANEDIT
1070
     0
1002
}
1002
{
1000
NOSEL
1070
     0
1002
}
1002
{
1000
BEHIND
1070
     0
1002
}
1002
{
1000
OTHER
1070
     0
1002
}
1002
{
1000
REACTOR
1002
}
  0
LINE
  5
580
330
1F
100
AcDbEntity
  8
0
100
AcDbLine
 10
70.99999975008779
 20
20.46999985633832
 30
0.0
 11
71.99999975008779
 21
20.46999985633832
 31
0.0
  0
LINE
  5
581
330
1F
100
AcDbEntity
  8
0
100
AcDbLine
 10
70.99999975008779
 20
19.46999985633832
 30
0.0
 11
71.99999975008779
 21
19.46999985633832
 31
0.0
  0
LINE
  5
582
330
1F
100
AcDbEntity
  8
0
100
AcDbLine
 10
1.999999750087795
 20
23.99999985633832
 30
0.0
 11
1.999999750087795
 21
20.46999985633829
 31
0.0
  0
ARC
  5
583
330
1F
100
AcDbEntity
  8
0
100
AcDbCircle
 10
7.999999750087795
 20
23.99999985633832
 30
0.0
 40
6.0
100
AcDbArc
 50
90.0
 51
180.0
1001
GENIUS_GENOBJ-N-FIL_13
1002
{
1000
OWNER
1000
GEN
1002
}
1001
GENIUS_GENODEF_13
1002
{
1000
HIER
1070
     0
1002
}
1002
{
1000
MANEDIT
1070
     0
1002
}
1002
{
1000
NOSEL
1070
     0
1002
}
1002
{
1000
BEHIND
1070
     0
1002
}
1002
{
1000
OTHER
1070
     0
1002
}
1002
{
1000
REACTOR
1002
}
  0
ARC
  5
584
330
1F
100
AcDbEntity
  8
0
100
AcDbCircle
 10
7.999999750087752
 20
5.99999985633832
 30
0.0
 40
6.0
100
AcDbArc
 50
180.0
 51
270.0
1001
GENIUS_GENOBJ-N-FIL_13
1002
{
1000
OWNER
1000
GEN
1002
}
1001
GENIUS_GENODEF_13
1002
{
1000
HIER
1070
     0
1002
}
1002
{
1000
MANEDIT
1070
     0
1002
}
1002
{
1000
NOSEL
1070
     0
1002
}
1002
{
1000
BEHIND
1070
     0
1002
}
1002
{
1000
OTHER
1070
     0
1002
}
1002
{
1000
REACTOR
1002
}
  0
LINE
  5
585
330
1F
100
AcDbEntity
  8
0
100
AcDbLine
 10
2.999999750087794
 20
20.46999985633829
 30
0.0
 11
2.999999750087751
 21
19.46999985633829
 31
0.0
  0
LINE
  5
586
330
1F
100
AcDbEntity
  8
0
100
AcDbLine
 10
1.999999750087795
 20
19.46999985633829
 30
0.0
 11
1.99999975008778
 21
5.99999985633832
 31
0.0
  0
LINE
  5
588
330
1F
100
AcDbEntity
  8
0
100
AcDbLine
 10
41.99999975008778
 20
19.46999985633832
 30
0.0
 11
41.99999975008778
 21
-0.0000001436616799
 31
0.0
  0
LINE
  5
589
330
1F
100
AcDbEntity
  8
0
100
AcDbLine
 10
104.4999997500878
 20
117.4999998563383
 30
0.0
 11
132.4999997500878
 21
117.4999998563383
 31
0.0
  0
LINE
  5
58A
330
1F
100
AcDbEntity
  8
0
100
AcDbLine
 10
216.7999997500877
 20
72.69999985633829
 30
0.0
 11
216.7999997500877
 21
117.2999998563383
 31
0.0
1001
GENIUS_GENREC_14
1002
{
1000
PYDIR
1011
216.7999997500877
1021
117.2999998563383
1031
0.0
1002
}
1002
{
1000
PXDIR
1011
192.1999997500878
1021
72.69999985633829
1031
0.0
1002
}
1002
{
1000
PORI
1011
192.1999997500878
1021
117.2999998563383
1031
0.0
1002
}
1002
{
1000
PINS
1011
192.1999997500878
1021
117.2999998563383
1031
0.0
1002
}
1002
{
1000
HVAL
1000
24.6
1002
}
1002
{
1000
H
1070
     2
1002
}
1002
{
1000
WVAL
1000
44.6
1002
}
1002
{
1000
W
1070
     2
1002
}
1002
{
1000
C
1070
     1
1002
}
1001
GENIUS_GENODEF_13
1002
{
1000
HIER
1070
     0
1002
}
1002
{
1000
MANEDIT
1070
     0
1002
}
1002
{
1000
NOSEL
1070
     0
1002
}
1002
{
1000
BEHIND
1070
     0
1002
}
1002
{
1000
OTHER
1070
     0
1002
}
1002
{
1000
REACTOR
1002
}
1001
GENIUS_GENOBJ-N-REC_13
1002
{
1000
OWNER
1000
GEN
1002
}
  0
LINE
  5
58B
330
1F
100
AcDbEntity
  8
0
100
AcDbLine
 10
192.1999997500878
 20
117.2999998563383
 30
0.0
 11
192.1999997500878
 21
72.69999985633829
 31
0.0
1001
GENIUS_GENREC_14
1002
{
1000
PYDIR
1011
216.7999997500877
1021
117.2999998563383
1031
0.0
1002
}
1002
{
1000
PXDIR
1011
192.1999997500878
1021
72.69999985633829
1031
0.0
1002
}
1002
{
1000
PORI
1011
192.1999997500878
1021
117.2999998563383
1031
0.0
1002
}
1002
{
1000
PINS
1011
192.1999997500878
1021
117.2999998563383
1031
0.0
1002
}
1002
{
1000
HVAL
1000
24.6
1002
}
1002
{
1000
H
1070
     2
1002
}
1002
{
1000
WVAL
1000
44.6
1002
}
1002
{
1000
W
1070
     2
1002
}
1002
{
1000
C
1070
     1
1002
}
1001
GENIUS_GENODEF_13
1002
{
1000
HIER
1070
     0
1002
}
1002
{
1000
MANEDIT
1070
     0
1002
}
1002
{
1000
NOSEL
1070
     0
1002
}
1002
{
1000
BEHIND
1070
     0
1002
}
1002
{
1000
OTHER
1070
     0
1002
}
1002
{
1000
REACTOR
1002
}
1001
GENIUS_GENOBJ-N-REC_13
1002
{
1000
OWNER
1000
GEN
1002
}
  0
LINE
  5
58C
330
1F
100
AcDbEntity
  8
0
100
AcDbLine
 10
216.7999997500877
 20
117.2999998563383
 30
0.0
 11
192.1999997500878
 21
117.2999998563383
 31
0.0
1001
GENIUS_GENREC_14
1002
{
1000
PYDIR
1011
216.7999997500877
1021
117.2999998563383
1031
0.0
1002
}
1002
{
1000
PXDIR
1011
192.1999997500878
1021
72.69999985633829
1031
0.0
1002
}
1002
{
1000
PORI
1011
192.1999997500878
1021
117.2999998563383
1031
0.0
1002
}
1002
{
1000
PINS
1011
192.1999997500878
1021
117.2999998563383
1031
0.0
1002
}
1002
{
1000
HVAL
1000
24.6
1002
}
1002
{
1000
H
1070
     2
1002
}
1002
{
1000
WVAL
1000
44.6
1002
}
1002
{
1000
W
1070
     2
1002
}
1002
{
1000
C
1070
     1
1002
}
1001
GENIUS_GENODEF_13
1002
{
1000
HIER
1070
     0
1002
}
1002
{
1000
MANEDIT
1070
     0
1002
}
1002
{
1000
NOSEL
1070
     0
1002
}
1002
{
1000
BEHIND
1070
     0
1002
}
1002
{
1000
OTHER
1070
     0
1002
}
1002
{
1000
REACTOR
1002
}
1001
GENIUS_GENOBJ-N-REC_13
1002
{
1000
OWNER
1000
GEN
1002
}
  0
LINE
  5
58D
330
1F
100
AcDbEntity
  8
0
100
AcDbLine
 10
192.1999997500878
 20
72.69999985633829
 30
0.0
 11
216.7999997500877
 21
72.69999985633829
 31
0.0
1001
GENIUS_GENREC_14
1002
{
1000
PYDIR
1011
216.7999997500877
1021
117.2999998563383
1031
0.0
1002
}
1002
{
1000
PXDIR
1011
192.1999997500878
1021
72.69999985633829
1031
0.0
1002
}
1002
{
1000
PORI
1011
192.1999997500878
1021
117.2999998563383
1031
0.0
1002
}
1002
{
1000
PINS
1011
192.1999997500878
1021
117.2999998563383
1031
0.0
1002
}
1002
{
1000
HVAL
1000
24.6
1002
}
1002
{
1000
H
1070
     2
1002
}
1002
{
1000
WVAL
1000
44.6
1002
}
1002
{
1000
W
1070
     2
1002
}
1002
{
1000
C
1070
     1
1002
}
1001
GENIUS_GENODEF_13
1002
{
1000
HIER
1070
     0
1002
}
1002
{
1000
MANEDIT
1070
     0
1002
}
1002
{
1000
NOSEL
1070
     0
1002
}
1002
{
1000
BEHIND
1070
     0
1002
}
1002
{
1000
OTHER
1070
     0
1002
}
1002
{
1000
REACTOR
1002
}
1001
GENIUS_GENOBJ-N-REC_13
1002
{
1000
OWNER
1000
GEN
1002
}
  0
LINE
  5
58E
330
1F
100
AcDbEntity
  8
0
100
AcDbLine
 10
28.9999997500878
 20
4.969999856338303
 30
0.0
 11
28.9999997500878
 21
0.9999998563383199
 31
0.0
1001
GENIUS_GENODEF_13
1002
{
1000
HIER
1070
     0
1002
}
1002
{
1000
MANEDIT
1070
     0
1002
}
1002
{
1000
NOSEL
1070
     0
1002
}
1002
{
1000
BEHIND
1070
     0
1002
}
1002
{
1000
OTHER
1070
     0
1002
}
1002
{
1000
REACTOR
1002
}
1001
GENIUS_GENOBJ-N-CEN_13
1002
{
1000
OWNER
1000
GEN
1002
}
  0
ARC
  5
58F
330
1F
100
AcDbEntity
  8
0
100
AcDbCircle
 10
26.99999975008779
 20
19.9699998563383
 30
0.0
 40
2.5
100
AcDbArc
 50
233.1301023541561
 51
306.8698976458439
  0
ARC
  5
590
330
1F
100
AcDbEntity
  8
0
100
AcDbCircle
 10
26.99999975008779
 20
19.9699998563383
 30
0.0
 40
4.75
100
AcDbArc
 50
6.042328419054287
 51
173.9576715809457
  0
ARC
  5
591
330
1F
100
AcDbEntity
  8
0
100
AcDbCircle
 10
26.99999975008779
 20
19.9699998563383
 30
0.0
 40
4.75
100
AcDbArc
 50
186.0423284190543
 51
353.9576715809456
  0
LINE
  5
592
330
1F
100
AcDbEntity
  8
0
100
AcDbLine
 10
31.72361065701061
 20
20.46999985633832
 30
0.0
 11
43.99999975008778
 21
20.46999985633832
 31
0.0
  0
LINE
  5
593
330
1F
100
AcDbEntity
  8
0
100
AcDbLine
 10
31.72361065701061
 20
19.46999985633832
 30
0.0
 11
43.99999975008778
 21
19.46999985633832
 31
0.0
  0
LINE
  5
594
330
1F
100
AcDbEntity
  8
0
100
AcDbLine
 10
29.49999975008779
 20
19.9699998563383
 30
0.0
 11
29.49999975008779
 21
17.96999985633832
 31
0.0
  0
LINE
  5
595
330
1F
100
AcDbEntity
  8
0
100
AcDbLine
 10
24.49999975008779
 20
19.9699998563383
 30
0.0
 11
24.49999975008779
 21
17.96999985633832
 31
0.0
  0
LINE
  5
596
330
1F
100
AcDbEntity
  8
0
100
AcDbLine
 10
22.69157776518429
 20
17.96999985633832
 30
0.0
 11
25.4999997500878
 21
17.96999985633832
 31
0.0
  0
ARC
  5
597
330
1F
100
AcDbEntity
  8
0
100
AcDbCircle
 10
26.99999975008779
 20
19.9699998563383
 30
0.0
 40
2.5
100
AcDbArc
 50
0.0000000000004071
 51
179.9999999999996
  0
LINE
  5
598
330
1F
100
AcDbEntity
  8
0
100
AcDbLine
 10
28.4999997500878
 20
17.96999985633832
 30
0.0
 11
31.3084217349913
 21
17.96999985633832
 31
0.0
  0
CIRCLE
  5
599
330
1F
100
AcDbEntity
  8
0
100
AcDbCircle
 10
26.99999975008779
 20
19.9699998563383
 30
0.0
 40
2.25
  0
CIRCLE
  5
59A
330
1F
100
AcDbEntity
  8
0
100
AcDbCircle
 10
26.99999975008779
 20
19.9699998563383
 30
0.0
 40
1.75
  0
CIRCLE
  5
59B
330
1F
100
AcDbEntity
  8
0
100
AcDbCircle
 10
54.9999997500878
 20
14.99999985633832
 30
0.0
 40
8.0
  0
CIRCLE
  5
59C
330
1F
100
AcDbEntity
  8
0
100
AcDbCircle
 10
54.9999997500878
 20
14.99999985633832
 30
0.0
 40
4.283
  0
CIRCLE
  5
59D
330
1F
100
AcDbEntity
  8
0
100
AcDbCircle
 10
54.9999997500878
 20
14.99999985633832
 30
0.0
 40
4.863999999999998
  0
CIRCLE
  5
59E
330
1F
100
AcDbEntity
  8
0
100
AcDbCircle
 10
54.9999997500878
 20
14.99999985633832
 30
0.0
 40
4.151499999999998
  0
LINE
  5
59F
330
1F
100
AcDbEntity
  8
0
100
AcDbLine
 10
18.99999975008778
 20
4.969999856338303
 30
0.0
 11
18.99999975008778
 21
0.9999998563383199
 31
0.0
1001
GENIUS_GENODEF_13
1002
{
1000
HIER
1070
     0
1002
}
1002
{
1000
MANEDIT
1070
     0
1002
}
1002
{
1000
NOSEL
1070
     0
1002
}
1002
{
1000
BEHIND
1070
     0
1002
}
1002
{
1000
OTHER
1070
     0
1002
}
1002
{
1000
REACTOR
1002
}
1001
GENIUS_GENOBJ-N-CEN_13
1002
{
1000
OWNER
1000
GEN
1002
}
  0
LINE
  5
5A0
330
1F
100
AcDbEntity
  8
0
100
AcDbLine
 10
18.99999975008778
 20
4.969999856338303
 30
0.0
 11
22.9999997500878
 21
4.969999856338303
 31
0.0
  0
LINE
  5
5A1
330
1F
100
AcDbEntity
  8
0
100
AcDbLine
 10
24.9999997500878
 20
4.969999856338303
 30
0.0
 11
24.9999997500878
 21
-0.0000001436616799
 31
0.0
  0
LINE
  5
5A2
330
1F
100
AcDbEntity
  8
0
100
AcDbLine
 10
22.9999997500878
 20
4.969999856338303
 30
0.0
 11
22.9999997500878
 21
-0.0000001436616799
 31
0.0
  0
ARC
  5
5A3
330
1F
100
AcDbEntity
  8
0
100
AcDbCircle
 10
29.9999997500878
 20
0.9999998563383199
 30
0.0
 40
1.0
100
AcDbArc
 50
180.0
 51
270.0
1001
GENIUS_GENODEF_13
1002
{
1000
HIER
1070
     0
1002
}
1002
{
1000
MANEDIT
1070
     0
1002
}
1002
{
1000
NOSEL
1070
     0
1002
}
1002
{
1000
BEHIND
1070
     0
1002
}
1002
{
1000
OTHER
1070
     0
1002
}
1002
{
1000
REACTOR
1002
}
1001
GENIUS_GENOBJ-N-FIL_13
1002
{
1000
OWNER
1000
GEN
1002
}
  0
ARC
  5
5A4
330
1F
100
AcDbEntity
  8
0
100
AcDbCircle
 10
17.99999975008779
 20
0.9999998563383199
 30
0.0
 40
1.0
100
AcDbArc
 50
270.0
 51
0.0
1001
GENIUS_GENOBJ-N-CEN_13
1002
{
1000
OWNER
1000
GEN
1002
}
1001
GENIUS_GENOBJ-N-FIL_13
1002
{
1000
OWNER
1000
GEN
1002
}
1001
GENIUS_GENODEF_13
1002
{
1000
HIER
1070
     0
1002
}
1002
{
1000
MANEDIT
1070
     0
1002
}
1002
{
1000
NOSEL
1070
     0
1002
}
1002
{
1000
BEHIND
1070
     0
1002
}
1002
{
1000
OTHER
1070
     0
1002
}
1002
{
1000
REACTOR
1002
}
  0
LINE
  5
5A5
330
1F
100
AcDbEntity
  8
0
100
AcDbLine
 10
29.9999997500878
 20
5.969999856338303
 30
0.0
 11
29.9999997500878
 21
-0.0000001436616799
 31
0.0
1001
GENIUS_GENODEF_13
1002
{
1000
HIER
1070
     0
1002
}
1002
{
1000
MANEDIT
1070
     0
1002
}
1002
{
1000
NOSEL
1070
     0
1002
}
1002
{
1000
BEHIND
1070
     0
1002
}
1002
{
1000
OTHER
1070
     0
1002
}
1002
{
1000
REACTOR
1002
}
1001
GENIUS_GENOBJ-N-CEN_13
1002
{
1000
OWNER
1000
GEN
1002
}
  0
LINE
  5
5A6
330
1F
100
AcDbEntity
  8
0
100
AcDbLine
 10
17.99999975008779
 20
5.969999856338317
 30
0.0
 11
29.99999975008769
 21
5.969999856338303
 31
0.0
  0
LINE
  5
5A7
330
1F
100
AcDbEntity
  8
0
100
AcDbLine
 10
17.99999975008779
 20
5.969999856338303
 30
0.0
 11
17.99999975008779
 21
-0.0000001436616799
 31
0.0
1001
GENIUS_GENODEF_13
1002
{
1000
HIER
1070
     0
1002
}
1002
{
1000
MANEDIT
1070
     0
1002
}
1002
{
1000
NOSEL
1070
     0
1002
}
1002
{
1000
BEHIND
1070
     0
1002
}
1002
{
1000
OTHER
1070
     0
1002
}
1002
{
1000
REACTOR
1002
}
1001
GENIUS_GENOBJ-N-CEN_13
1002
{
1000
OWNER
1000
GEN
1002
}
  0
LINE
  5
5A8
330
1F
100
AcDbEntity
  8
0
100
AcDbLine
 10
29.9999997500878
 20
5.969999856338303
 30
0.0
 11
28.9999997500878
 21
4.969999856338303
 31
0.0
  0
LINE
  5
5A9
330
1F
100
AcDbEntity
  8
0
100
AcDbLine
 10
17.99999975008779
 20
5.969999856338303
 30
0.0
 11
18.99999975008778
 21
4.969999856338303
 31
0.0
  0
LINE
  5
5AA
330
1F
100
AcDbEntity
  8
0
100
AcDbLine
 10
24.9999997500877
 20
4.969999856338303
 30
0.0
 11
28.9999997500878
 21
4.969999856338303
 31
0.0
  0
LINE
  5
5AB
330
1F
100
AcDbEntity
  8
0
100
AcDbLine
 10
18.99999975008778
 20
0.9999998563383199
 30
0.0
 11
22.9999997500878
 21
0.9999998563383199
 31
0.0
  0
LINE
  5
5AC
330
1F
100
AcDbEntity
  8
0
100
AcDbLine
 10
24.9999997500877
 20
0.9999998563383199
 30
0.0
 11
28.9999997500878
 21
0.9999998563383199
 31
0.0
  0
LINE
  5
5AD
330
1F
100
AcDbEntity
  8
0
100
AcDbLine
 10
70.92629133538761
 20
169.9996477497657
 30
0.0
 11
66.3743684206755
 21
165.4477248399732
 31
0.0
  0
LINE
  5
5AE
330
1F
100
AcDbEntity
  8
0
100
AcDbLine
 10
111.4999997500878
 20
167.5247740152691
 30
0.0
 11
115.4999997500878
 21
167.5247740152695
 31
0.0
  0
LINE
  5
5AF
330
1F
100
AcDbEntity
  8
0
100
AcDbLine
 10
108.9999997500878
 20
170.8532011407102
 30
0.0
 11
117.9999997500878
 21
170.8532011407102
 31
0.0
  0
LINE
  5
5B0
330
1F
100
AcDbEntity
  8
0
100
AcDbLine
 10
18.44827561215678
 20
70.91379295978661
 30
0.0
 11
18.90804572709938
 21
70.91379295978661
 31
0.0
  0
LINE
  5
5B1
330
1F
100
AcDbEntity
  8
0
100
AcDbLine
 10
19.310344577674
 20
70.91379295978661
 30
0.0
 11
21.14942503744409
 21
70.91379295978661
 31
0.0
  0
LINE
  5
5B2
330
1F
100
AcDbEntity
  8
0
100
AcDbLine
 10
21.78160894549021
 20
70.91379295978661
 30
0.0
 11
23.62068940526029
 21
70.91379295978661
 31
0.0
  0
LINE
  5
5B3
330
1F
100
AcDbEntity
  8
0
100
AcDbLine
 10
24.0804595202027
 20
70.91379295978661
 30
0.0
 11
25.9195399799728
 21
70.91379295978661
 31
0.0
  0
LINE
  5
5B4
330
1F
100
AcDbEntity
  8
0
100
AcDbLine
 10
26.3793100949154
 20
70.91379295978661
 30
0.0
 11
27.81609170411089
 21
70.91379295978661
 31
0.0
  0
LINE
  5
5B5
330
1F
100
AcDbEntity
  8
0
100
AcDbLine
 10
29.0804595202027
 20
70.91379295978652
 30
0.0
 11
30.51724112939819
 21
70.91379295978652
 31
0.0
  0
ELLIPSE
  5
5B6
330
1F
100
AcDbEntity
  8
0
100
AcDbEllipse
 10
32.70114917537509
 20
69.70689640806241
 30
0.0
 11
-2.068965517241366
 21
0.0
 31
0.0
210
0.0
220
0.0
230
1.0
 40
0.5833333335538823
 41
0.0
 42
6.283185307179585
  0
LINE
  5
5B7
330
1F
100
AcDbEntity
  8
AM_0
100
AcDbLine
 10
43.99999975008778
 20
0.9999998563383199
 30
0.0
 11
41.99999975008778
 21
-0.0000001436616799
 31
0.0
  0
LINE
  5
65C
330
1F
100
AcDbEntity
  8
0
100
AcDbLine
 10
12.49999975008779
 20
127.9999998563382
 30
0.0
 11
21.4999997500878
 21
127.9999998563383
 31
0.0
1001
GENIUS_GENREC_14
1002
{
1000
PYDIR
1011
10.99999975008778
1021
133.9999998563383
1031
0.0
1002
}
1002
{
1000
PXDIR
1011
22.9999997500878
1021
127.9999998563383
1031
0.0
1002
}
1002
{
1000
PORI
1011
10.99999975008778
1021
127.9999998563383
1031
0.0
1002
}
1002
{
1000
PINS
1011
10.99999975008778
1021
127.9999998563383
1031
0.0
1002
}
1002
{
1000
HVAL
1000
6
1002
}
1002
{
1000
H
1070
     2
1002
}
1002
{
1000
WVAL
1000
12
1002
}
1002
{
1000
W
1070
     2
1002
}
1002
{
1000
C
1070
     1
1002
}
1001
GENIUS_GENODEF_13
1002
{
1000
HIER
1070
     0
1002
}
1002
{
1000
MANEDIT
1070
     0
1002
}
1002
{
1000
NOSEL
1070
     0
1002
}
1002
{
1000
BEHIND
1070
     0
1002
}
1002
{
1000
OTHER
1070
     0
1002
}
1002
{
1000
REACTOR
1002
}
1001
GENIUS_GENOBJ-N-REC_13
1002
{
1000
OWNER
1000
GEN
1002
}
  0
ARC
  5
65D
330
1F
100
AcDbEntity
  8
0
100
AcDbCircle
 10
21.4999997500878
 20
129.4999998563383
 30
0.0
 40
1.5
100
AcDbArc
 50
270.0000000000001
 51
0.0
1001
GENIUS_GENREC_14
1002
{
1000
PYDIR
1011
10.99999975008778
1021
133.9999998563383
1031
0.0
1002
}
1002
{
1000
PXDIR
1011
22.9999997500878
1021
127.9999998563383
1031
0.0
1002
}
1002
{
1000
PORI
1011
10.99999975008778
1021
127.9999998563383
1031
0.0
1002
}
1002
{
1000
PINS
1011
10.99999975008778
1021
127.9999998563383
1031
0.0
1002
}
1002
{
1000
HVAL
1000
6
1002
}
1002
{
1000
H
1070
     2
1002
}
1002
{
1000
WVAL
1000
12
1002
}
1002
{
1000
W
1070
     2
1002
}
1002
{
1000
C
1070
     1
1002
}
1001
GENIUS_GENODEF_13
1002
{
1000
HIER
1070
     0
1002
}
1002
{
1000
MANEDIT
1070
     0
1002
}
1002
{
1000
NOSEL
1070
     0
1002
}
1002
{
1000
BEHIND
1070
     0
1002
}
1002
{
1000
OTHER
1070
     0
1002
}
1002
{
1000
REACTOR
1002
}
1001
GENIUS_GENOBJ-N-REC_13
1002
{
1000
OWNER
1000
GEN
1002
}
  0
LINE
  5
65E
330
1F
100
AcDbEntity
  8
0
100
AcDbLine
 10
22.9999997500878
 20
129.4999998563383
 30
0.0
 11
22.9999997500878
 21
132.4999998563383
 31
0.0
1001
GENIUS_GENREC_14
1002
{
1000
PYDIR
1011
10.99999975008778
1021
133.9999998563383
1031
0.0
1002
}
1002
{
1000
PXDIR
1011
22.9999997500878
1021
127.9999998563383
1031
0.0
1002
}
1002
{
1000
PORI
1011
10.99999975008778
1021
127.9999998563383
1031
0.0
1002
}
1002
{
1000
PINS
1011
10.99999975008778
1021
127.9999998563383
1031
0.0
1002
}
1002
{
1000
HVAL
1000
6
1002
}
1002
{
1000
H
1070
     2
1002
}
1002
{
1000
WVAL
1000
12
1002
}
1002
{
1000
W
1070
     2
1002
}
1002
{
1000
C
1070
     1
1002
}
1001
GENIUS_GENODEF_13
1002
{
1000
HIER
1070
     0
1002
}
1002
{
1000
MANEDIT
1070
     0
1002
}
1002
{
1000
NOSEL
1070
     0
1002
}
1002
{
1000
BEHIND
1070
     0
1002
}
1002
{
1000
OTHER
1070
     0
1002
}
1002
{
1000
REACTOR
1002
}
1001
GENIUS_GENOBJ-N-REC_13
1002
{
1000
OWNER
1000
GEN
1002
}
  0
ARC
  5
65F
330
1F
100
AcDbEntity
  8
0
100
AcDbCircle
 10
21.4999997500878
 20
132.4999998563383
 30
0.0
 40
1.5
100
AcDbArc
 50
0.0
 51
90.0
1001
GENIUS_GENREC_14
1002
{
1000
PYDIR
1011
10.99999975008778
1021
133.9999998563383
1031
0.0
1002
}
1002
{
1000
PXDIR
1011
22.9999997500878
1021
127.9999998563383
1031
0.0
1002
}
1002
{
1000
PORI
1011
10.99999975008778
1021
127.9999998563383
1031
0.0
1002
}
1002
{
1000
PINS
1011
10.99999975008778
1021
127.9999998563383
1031
0.0
1002
}
1002
{
1000
HVAL
1000
6
1002
}
1002
{
1000
H
1070
     2
1002
}
1002
{
1000
WVAL
1000
12
1002
}
1002
{
1000
W
1070
     2
1002
}
1002
{
1000
C
1070
     1
1002
}
1001
GENIUS_GENODEF_13
1002
{
1000
HIER
1070
     0
1002
}
1002
{
1000
MANEDIT
1070
     0
1002
}
1002
{
1000
NOSEL
1070
     0
1002
}
1002
{
1000
BEHIND
1070
     0
1002
}
1002
{
1000
OTHER
1070
     0
1002
}
1002
{
1000
REACTOR
1002
}
1001
GENIUS_GENOBJ-N-REC_13
1002
{
1000
OWNER
1000
GEN
1002
}
  0
LINE
  5
660
330
1F
100
AcDbEntity
  8
0
100
AcDbLine
 10
21.4999997500878
 20
133.9999998563383
 30
0.0
 11
12.49999975008779
 21
133.9999998563383
 31
0.0
1001
GENIUS_GENREC_14
1002
{
1000
PYDIR
1011
10.99999975008778
1021
133.9999998563383
1031
0.0
1002
}
1002
{
1000
PXDIR
1011
22.9999997500878
1021
127.9999998563383
1031
0.0
1002
}
1002
{
1000
PORI
1011
10.99999975008778
1021
127.9999998563383
1031
0.0
1002
}
1002
{
1000
PINS
1011
10.99999975008778
1021
127.9999998563383
1031
0.0
1002
}
1002
{
1000
HVAL
1000
6
1002
}
1002
{
1000
H
1070
     2
1002
}
1002
{
1000
WVAL
1000
12
1002
}
1002
{
1000
W
1070
     2
1002
}
1002
{
1000
C
1070
     1
1002
}
1001
GENIUS_GENODEF_13
1002
{
1000
HIER
1070
     0
1002
}
1002
{
1000
MANEDIT
1070
     0
1002
}
1002
{
1000
NOSEL
1070
     0
1002
}
1002
{
1000
BEHIND
1070
     0
1002
}
1002
{
1000
OTHER
1070
     0
1002
}
1002
{
1000
REACTOR
1002
}
1001
GENIUS_GENOBJ-N-REC_13
1002
{
1000
OWNER
1000
GEN
1002
}
  0
ARC
  5
661
330
1F
100
AcDbEntity
  8
0
100
AcDbCircle
 10
12.49999975008778
 20
132.4999998563383
 30
0.0
 40
1.5
100
AcDbArc
 50
89.99999999999987
 51
180.0
1001
GENIUS_GENREC_14
1002
{
1000
PYDIR
1011
10.99999975008778
1021
133.9999998563383
1031
0.0
1002
}
1002
{
1000
PXDIR
1011
22.9999997500878
1021
127.9999998563383
1031
0.0
1002
}
1002
{
1000
PORI
1011
10.99999975008778
1021
127.9999998563383
1031
0.0
1002
}
1002
{
1000
PINS
1011
10.99999975008778
1021
127.9999998563383
1031
0.0
1002
}
1002
{
1000
HVAL
1000
6
1002
}
1002
{
1000
H
1070
     2
1002
}
1002
{
1000
WVAL
1000
12
1002
}
1002
{
1000
W
1070
     2
1002
}
1002
{
1000
C
1070
     1
1002
}
1001
GENIUS_GENODEF_13
1002
{
1000
HIER
1070
     0
1002
}
1002
{
1000
MANEDIT
1070
     0
1002
}
1002
{
1000
NOSEL
1070
     0
1002
}
1002
{
1000
BEHIND
1070
     0
1002
}
1002
{
1000
OTHER
1070
     0
1002
}
1002
{
1000
REACTOR
1002
}
1001
GENIUS_GENOBJ-N-REC_13
1002
{
1000
OWNER
1000
GEN
1002
}
  0
LINE
  5
662
330
1F
100
AcDbEntity
  8
0
100
AcDbLine
 10
10.99999975008778
 20
132.4999998563383
 30
0.0
 11
10.99999975008778
 21
129.4999998563382
 31
0.0
1001
GENIUS_GENREC_14
1002
{
1000
PYDIR
1011
10.99999975008778
1021
133.9999998563383
1031
0.0
1002
}
1002
{
1000
PXDIR
1011
22.9999997500878
1021
127.9999998563383
1031
0.0
1002
}
1002
{
1000
PORI
1011
10.99999975008778
1021
127.9999998563383
1031
0.0
1002
}
1002
{
1000
PINS
1011
10.99999975008778
1021
127.9999998563383
1031
0.0
1002
}
1002
{
1000
HVAL
1000
6
1002
}
1002
{
1000
H
1070
     2
1002
}
1002
{
1000
WVAL
1000
12
1002
}
1002
{
1000
W
1070
     2
1002
}
1002
{
1000
C
1070
     1
1002
}
1001
GENIUS_GENODEF_13
1002
{
1000
HIER
1070
     0
1002
}
1002
{
1000
MANEDIT
1070
     0
1002
}
1002
{
1000
NOSEL
1070
     0
1002
}
1002
{
1000
BEHIND
1070
     0
1002
}
1002
{
1000
OTHER
1070
     0
1002
}
1002
{
1000
REACTOR
1002
}
1001
GENIUS_GENOBJ-N-REC_13
1002
{
1000
OWNER
1000
GEN
1002
}
  0
ARC
  5
663
330
1F
100
AcDbEntity
  8
0
100
AcDbCircle
 10
12.49999975008779
 20
129.4999998563382
 30
0.0
 40
1.500000000000012
100
AcDbArc
 50
180.0
 51
269.9999999999999
1001
GENIUS_GENREC_14
1002
{
1000
PYDIR
1011
10.99999975008778
1021
133.9999998563383
1031
0.0
1002
}
1002
{
1000
PXDIR
1011
22.9999997500878
1021
127.9999998563383
1031
0.0
1002
}
1002
{
1000
PORI
1011
10.99999975008778
1021
127.9999998563383
1031
0.0
1002
}
1002
{
1000
PINS
1011
10.99999975008778
1021
127.9999998563383
1031
0.0
1002
}
1002
{
1000
HVAL
1000
6
1002
}
1002
{
1000
H
1070
     2
1002
}
1002
{
1000
WVAL
1000
12
1002
}
1002
{
1000
W
1070
     2
1002
}
1002
{
1000
C
1070
     1
1002
}
1001
GENIUS_GENODEF_13
1002
{
1000
HIER
1070
     0
1002
}
1002
{
1000
MANEDIT
1070
     0
1002
}
1002
{
1000
NOSEL
1070
     0
1002
}
1002
{
1000
BEHIND
1070
     0
1002
}
1002
{
1000
OTHER
1070
     0
1002
}
1002
{
1000
REACTOR
1002
}
1001
GENIUS_GENOBJ-N-REC_13
1002
{
1000
OWNER
1000
GEN
1002
}
  0
LINE
  5
665
330
1F
100
AcDbEntity
  8
0
100
AcDbLine
 10
32.4999997500878
 20
127.9999998563382
 30
0.0
 11
41.49999975008778
 21
127.9999998563383
 31
0.0
1001
GENIUS_GENREC_14
1002
{
1000
PYDIR
1011
30.9999997500878
1021
133.9999998563383
1031
0.0
1002
}
1002
{
1000
PXDIR
1011
42.9999997500878
1021
127.9999998563383
1031
0.0
1002
}
1002
{
1000
PORI
1011
30.9999997500878
1021
127.9999998563383
1031
0.0
1002
}
1002
{
1000
PINS
1011
30.9999997500878
1021
127.9999998563383
1031
0.0
1002
}
1002
{
1000
HVAL
1000
6
1002
}
1002
{
1000
H
1070
     2
1002
}
1002
{
1000
WVAL
1000
12
1002
}
1002
{
1000
W
1070
     2
1002
}
1002
{
1000
C
1070
     1
1002
}
1001
GENIUS_GENODEF_13
1002
{
1000
HIER
1070
     0
1002
}
1002
{
1000
MANEDIT
1070
     0
1002
}
1002
{
1000
NOSEL
1070
     0
1002
}
1002
{
1000
BEHIND
1070
     0
1002
}
1002
{
1000
OTHER
1070
     0
1002
}
1002
{
1000
REACTOR
1002
}
1001
GENIUS_GENOBJ-N-REC_13
1002
{
1000
OWNER
1000
GEN
1002
}
  0
ARC
  5
666
330
1F
100
AcDbEntity
  8
0
100
AcDbCircle
 10
41.49999975008779
 20
129.4999998563383
 30
0.0
 40
1.5
100
AcDbArc
 50
269.9999999999998
 51
0.0
1001
GENIUS_GENREC_14
1002
{
1000
PYDIR
1011
30.9999997500878
1021
133.9999998563383
1031
0.0
1002
}
1002
{
1000
PXDIR
1011
42.9999997500878
1021
127.9999998563383
1031
0.0
1002
}
1002
{
1000
PORI
1011
30.9999997500878
1021
127.9999998563383
1031
0.0
1002
}
1002
{
1000
PINS
1011
30.9999997500878
1021
127.9999998563383
1031
0.0
1002
}
1002
{
1000
HVAL
1000
6
1002
}
1002
{
1000
H
1070
     2
1002
}
1002
{
1000
WVAL
1000
12
1002
}
1002
{
1000
W
1070
     2
1002
}
1002
{
1000
C
1070
     1
1002
}
1001
GENIUS_GENODEF_13
1002
{
1000
HIER
1070
     0
1002
}
1002
{
1000
MANEDIT
1070
     0
1002
}
1002
{
1000
NOSEL
1070
     0
1002
}
1002
{
1000
BEHIND
1070
     0
1002
}
1002
{
1000
OTHER
1070
     0
1002
}
1002
{
1000
REACTOR
1002
}
1001
GENIUS_GENOBJ-N-REC_13
1002
{
1000
OWNER
1000
GEN
1002
}
  0
LINE
  5
667
330
1F
100
AcDbEntity
  8
0
100
AcDbLine
 10
42.9999997500878
 20
129.4999998563383
 30
0.0
 11
42.9999997500878
 21
132.4999998563383
 31
0.0
1001
GENIUS_GENREC_14
1002
{
1000
PYDIR
1011
30.9999997500878
1021
133.9999998563383
1031
0.0
1002
}
1002
{
1000
PXDIR
1011
42.9999997500878
1021
127.9999998563383
1031
0.0
1002
}
1002
{
1000
PORI
1011
30.9999997500878
1021
127.9999998563383
1031
0.0
1002
}
1002
{
1000
PINS
1011
30.9999997500878
1021
127.9999998563383
1031
0.0
1002
}
1002
{
1000
HVAL
1000
6
1002
}
1002
{
1000
H
1070
     2
1002
}
1002
{
1000
WVAL
1000
12
1002
}
1002
{
1000
W
1070
     2
1002
}
1002
{
1000
C
1070
     1
1002
}
1001
GENIUS_GENODEF_13
1002
{
1000
HIER
1070
     0
1002
}
1002
{
1000
MANEDIT
1070
     0
1002
}
1002
{
1000
NOSEL
1070
     0
1002
}
1002
{
1000
BEHIND
1070
     0
1002
}
1002
{
1000
OTHER
1070
     0
1002
}
1002
{
1000
REACTOR
1002
}
1001
GENIUS_GENOBJ-N-REC_13
1002
{
1000
OWNER
1000
GEN
1002
}
  0
ARC
  5
668
330
1F
100
AcDbEntity
  8
0
100
AcDbCircle
 10
41.49999975008779
 20
132.4999998563383
 30
0.0
 40
1.5
100
AcDbArc
 50
0.0
 51
90.00000000000026
1001
GENIUS_GENREC_14
1002
{
1000
PYDIR
1011
30.9999997500878
1021
133.9999998563383
1031
0.0
1002
}
1002
{
1000
PXDIR
1011
42.9999997500878
1021
127.9999998563383
1031
0.0
1002
}
1002
{
1000
PORI
1011
30.9999997500878
1021
127.9999998563383
1031
0.0
1002
}
1002
{
1000
PINS
1011
30.9999997500878
1021
127.9999998563383
1031
0.0
1002
}
1002
{
1000
HVAL
1000
6
1002
}
1002
{
1000
H
1070
     2
1002
}
1002
{
1000
WVAL
1000
12
1002
}
1002
{
1000
W
1070
     2
1002
}
1002
{
1000
C
1070
     1
1002
}
1001
GENIUS_GENODEF_13
1002
{
1000
HIER
1070
     0
1002
}
1002
{
1000
MANEDIT
1070
     0
1002
}
1002
{
1000
NOSEL
1070
     0
1002
}
1002
{
1000
BEHIND
1070
     0
1002
}
1002
{
1000
OTHER
1070
     0
1002
}
1002
{
1000
REACTOR
1002
}
1001
GENIUS_GENOBJ-N-REC_13
1002
{
1000
OWNER
1000
GEN
1002
}
  0
LINE
  5
669
330
1F
100
AcDbEntity
  8
0
100
AcDbLine
 10
41.49999975008778
 20
133.9999998563383
 30
0.0
 11
32.4999997500878
 21
133.9999998563383
 31
0.0
1001
GENIUS_GENREC_14
1002
{
1000
PYDIR
1011
30.9999997500878
1021
133.9999998563383
1031
0.0
1002
}
1002
{
1000
PXDIR
1011
42.9999997500878
1021
127.9999998563383
1031
0.0
1002
}
1002
{
1000
PORI
1011
30.9999997500878
1021
127.9999998563383
1031
0.0
1002
}
1002
{
1000
PINS
1011
30.9999997500878
1021
127.9999998563383
1031
0.0
1002
}
1002
{
1000
HVAL
1000
6
1002
}
1002
{
1000
H
1070
     2
1002
}
1002
{
1000
WVAL
1000
12
1002
}
1002
{
1000
W
1070
     2
1002
}
1002
{
1000
C
1070
     1
1002
}
1001
GENIUS_GENODEF_13
1002
{
1000
HIER
1070
     0
1002
}
1002
{
1000
MANEDIT
1070
     0
1002
}
1002
{
1000
NOSEL
1070
     0
1002
}
1002
{
1000
BEHIND
1070
     0
1002
}
1002
{
1000
OTHER
1070
     0
1002
}
1002
{
1000
REACTOR
1002
}
1001
GENIUS_GENOBJ-N-REC_13
1002
{
1000
OWNER
1000
GEN
1002
}
  0
ARC
  5
66A
330
1F
100
AcDbEntity
  8
0
100
AcDbCircle
 10
32.4999997500878
 20
132.4999998563383
 30
0.0
 40
1.5
100
AcDbArc
 50
90.0
 51
180.0
1001
GENIUS_GENREC_14
1002
{
1000
PYDIR
1011
30.9999997500878
1021
133.9999998563383
1031
0.0
1002
}
1002
{
1000
PXDIR
1011
42.9999997500878
1021
127.9999998563383
1031
0.0
1002
}
1002
{
1000
PORI
1011
30.9999997500878
1021
127.9999998563383
1031
0.0
1002
}
1002
{
1000
PINS
1011
30.9999997500878
1021
127.9999998563383
1031
0.0
1002
}
1002
{
1000
HVAL
1000
6
1002
}
1002
{
1000
H
1070
     2
1002
}
1002
{
1000
WVAL
1000
12
1002
}
1002
{
1000
W
1070
     2
1002
}
1002
{
1000
C
1070
     1
1002
}
1001
GENIUS_GENODEF_13
1002
{
1000
HIER
1070
     0
1002
}
1002
{
1000
MANEDIT
1070
     0
1002
}
1002
{
1000
NOSEL
1070
     0
1002
}
1002
{
1000
BEHIND
1070
     0
1002
}
1002
{
1000
OTHER
1070
     0
1002
}
1002
{
1000
REACTOR
1002
}
1001
GENIUS_GENOBJ-N-REC_13
1002
{
1000
OWNER
1000
GEN
1002
}
  0
LINE
  5
66B
330
1F
100
AcDbEntity
  8
0
100
AcDbLine
 10
30.9999997500878
 20
132.4999998563383
 30
0.0
 11
30.9999997500878
 21
129.4999998563382
 31
0.0
1001
GENIUS_GENREC_14
1002
{
1000
PYDIR
1011
30.9999997500878
1021
133.9999998563383
1031
0.0
1002
}
1002
{
1000
PXDIR
1011
42.9999997500878
1021
127.9999998563383
1031
0.0
1002
}
1002
{
1000
PORI
1011
30.9999997500878
1021
127.9999998563383
1031
0.0
1002
}
1002
{
1000
PINS
1011
30.9999997500878
1021
127.9999998563383
1031
0.0
1002
}
1002
{
1000
HVAL
1000
6
1002
}
1002
{
1000
H
1070
     2
1002
}
1002
{
1000
WVAL
1000
12
1002
}
1002
{
1000
W
1070
     2
1002
}
1002
{
1000
C
1070
     1
1002
}
1001
GENIUS_GENODEF_13
1002
{
1000
HIER
1070
     0
1002
}
1002
{
1000
MANEDIT
1070
     0
1002
}
1002
{
1000
NOSEL
1070
     0
1002
}
1002
{
1000
BEHIND
1070
     0
1002
}
1002
{
1000
OTHER
1070
     0
1002
}
1002
{
1000
REACTOR
1002
}
1001
GENIUS_GENOBJ-N-REC_13
1002
{
1000
OWNER
1000
GEN
1002
}
  0
ARC
  5
66C
330
1F
100
AcDbEntity
  8
0
100
AcDbCircle
 10
32.49999975008781
 20
129.4999998563382
 30
0.0
 40
1.50000000000001
100
AcDbArc
 50
180.0
 51
269.9999999999998
1001
GENIUS_GENREC_14
1002
{
1000
PYDIR
1011
30.9999997500878
1021
133.9999998563383
1031
0.0
1002
}
1002
{
1000
PXDIR
1011
42.9999997500878
1021
127.9999998563383
1031
0.0
1002
}
1002
{
1000
PORI
1011
30.9999997500878
1021
127.9999998563383
1031
0.0
1002
}
1002
{
1000
PINS
1011
30.9999997500878
1021
127.9999998563383
1031
0.0
1002
}
1002
{
1000
HVAL
1000
6
1002
}
1002
{
1000
H
1070
     2
1002
}
1002
{
1000
WVAL
1000
12
1002
}
1002
{
1000
W
1070
     2
1002
}
1002
{
1000
C
1070
     1
1002
}
1001
GENIUS_GENODEF_13
1002
{
1000
HIER
1070
     0
1002
}
1002
{
1000
MANEDIT
1070
     0
1002
}
1002
{
1000
NOSEL
1070
     0
1002
}
1002
{
1000
BEHIND
1070
     0
1002
}
1002
{
1000
OTHER
1070
     0
1002
}
1002
{
1000
REACTOR
1002
}
1001
GENIUS_GENOBJ-N-REC_13
1002
{
1000
OWNER
1000
GEN
1002
}
  0
LINE
  5
66D
330
1F
100
AcDbEntity
  8
0
100
AcDbLine
 10
52.4999997500878
 20
127.9999998563382
 30
0.0
 11
61.49999975008778
 21
127.9999998563383
 31
0.0
1001
GENIUS_GENREC_14
1002
{
1000
PYDIR
1011
50.99999975008778
1021
133.9999998563383
1031
0.0
1002
}
1002
{
1000
PXDIR
1011
62.9999997500878
1021
127.9999998563383
1031
0.0
1002
}
1002
{
1000
PORI
1011
50.99999975008778
1021
127.9999998563383
1031
0.0
1002
}
1002
{
1000
PINS
1011
50.99999975008778
1021
127.9999998563383
1031
0.0
1002
}
1002
{
1000
HVAL
1000
6
1002
}
1002
{
1000
H
1070
     2
1002
}
1002
{
1000
WVAL
1000
12
1002
}
1002
{
1000
W
1070
     2
1002
}
1002
{
1000
C
1070
     1
1002
}
1001
GENIUS_GENODEF_13
1002
{
1000
HIER
1070
     0
1002
}
1002
{
1000
MANEDIT
1070
     0
1002
}
1002
{
1000
NOSEL
1070
     0
1002
}
1002
{
1000
BEHIND
1070
     0
1002
}
1002
{
1000
OTHER
1070
     0
1002
}
1002
{
1000
REACTOR
1002
}
1001
GENIUS_GENOBJ-N-REC_13
1002
{
1000
OWNER
1000
GEN
1002
}
  0
ARC
  5
66E
330
1F
100
AcDbEntity
  8
0
100
AcDbCircle
 10
61.49999975008779
 20
129.4999998563383
 30
0.0
 40
1.5
100
AcDbArc
 50
269.9999999999998
 51
0.0
1001
GENIUS_GENREC_14
1002
{
1000
PYDIR
1011
50.99999975008778
1021
133.9999998563383
1031
0.0
1002
}
1002
{
1000
PXDIR
1011
62.9999997500878
1021
127.9999998563383
1031
0.0
1002
}
1002
{
1000
PORI
1011
50.99999975008778
1021
127.9999998563383
1031
0.0
1002
}
1002
{
1000
PINS
1011
50.99999975008778
1021
127.9999998563383
1031
0.0
1002
}
1002
{
1000
HVAL
1000
6
1002
}
1002
{
1000
H
1070
     2
1002
}
1002
{
1000
WVAL
1000
12
1002
}
1002
{
1000
W
1070
     2
1002
}
1002
{
1000
C
1070
     1
1002
}
1001
GENIUS_GENODEF_13
1002
{
1000
HIER
1070
     0
1002
}
1002
{
1000
MANEDIT
1070
     0
1002
}
1002
{
1000
NOSEL
1070
     0
1002
}
1002
{
1000
BEHIND
1070
     0
1002
}
1002
{
1000
OTHER
1070
     0
1002
}
1002
{
1000
REACTOR
1002
}
1001
GENIUS_GENOBJ-N-REC_13
1002
{
1000
OWNER
1000
GEN
1002
}
  0
LINE
  5
66F
330
1F
100
AcDbEntity
  8
0
100
AcDbLine
 10
62.9999997500878
 20
129.4999998563383
 30
0.0
 11
62.9999997500878
 21
132.4999998563383
 31
0.0
1001
GENIUS_GENREC_14
1002
{
1000
PYDIR
1011
50.99999975008778
1021
133.9999998563383
1031
0.0
1002
}
1002
{
1000
PXDIR
1011
62.9999997500878
1021
127.9999998563383
1031
0.0
1002
}
1002
{
1000
PORI
1011
50.99999975008778
1021
127.9999998563383
1031
0.0
1002
}
1002
{
1000
PINS
1011
50.99999975008778
1021
127.9999998563383
1031
0.0
1002
}
1002
{
1000
HVAL
1000
6
1002
}
1002
{
1000
H
1070
     2
1002
}
1002
{
1000
WVAL
1000
12
1002
}
1002
{
1000
W
1070
     2
1002
}
1002
{
1000
C
1070
     1
1002
}
1001
GENIUS_GENODEF_13
1002
{
1000
HIER
1070
     0
1002
}
1002
{
1000
MANEDIT
1070
     0
1002
}
1002
{
1000
NOSEL
1070
     0
1002
}
1002
{
1000
BEHIND
1070
     0
1002
}
1002
{
1000
OTHER
1070
     0
1002
}
1002
{
1000
REACTOR
1002
}
1001
GENIUS_GENOBJ-N-REC_13
1002
{
1000
OWNER
1000
GEN
1002
}
  0
ARC
  5
670
330
1F
100
AcDbEntity
  8
0
100
AcDbCircle
 10
61.49999975008779
 20
132.4999998563383
 30
0.0
 40
1.5
100
AcDbArc
 50
0.0
 51
90.00000000000026
1001
GENIUS_GENREC_14
1002
{
1000
PYDIR
1011
50.99999975008778
1021
133.9999998563383
1031
0.0
1002
}
1002
{
1000
PXDIR
1011
62.9999997500878
1021
127.9999998563383
1031
0.0
1002
}
1002
{
1000
PORI
1011
50.99999975008778
1021
127.9999998563383
1031
0.0
1002
}
1002
{
1000
PINS
1011
50.99999975008778
1021
127.9999998563383
1031
0.0
1002
}
1002
{
1000
HVAL
1000
6
1002
}
1002
{
1000
H
1070
     2
1002
}
1002
{
1000
WVAL
1000
12
1002
}
1002
{
1000
W
1070
     2
1002
}
1002
{
1000
C
1070
     1
1002
}
1001
GENIUS_GENODEF_13
1002
{
1000
HIER
1070
     0
1002
}
1002
{
1000
MANEDIT
1070
     0
1002
}
1002
{
1000
NOSEL
1070
     0
1002
}
1002
{
1000
BEHIND
1070
     0
1002
}
1002
{
1000
OTHER
1070
     0
1002
}
1002
{
1000
REACTOR
1002
}
1001
GENIUS_GENOBJ-N-REC_13
1002
{
1000
OWNER
1000
GEN
1002
}
  0
LINE
  5
671
330
1F
100
AcDbEntity
  8
0
100
AcDbLine
 10
61.49999975008778
 20
133.9999998563383
 30
0.0
 11
52.4999997500878
 21
133.9999998563383
 31
0.0
1001
GENIUS_GENREC_14
1002
{
1000
PYDIR
1011
50.99999975008778
1021
133.9999998563383
1031
0.0
1002
}
1002
{
1000
PXDIR
1011
62.9999997500878
1021
127.9999998563383
1031
0.0
1002
}
1002
{
1000
PORI
1011
50.99999975008778
1021
127.9999998563383
1031
0.0
1002
}
1002
{
1000
PINS
1011
50.99999975008778
1021
127.9999998563383
1031
0.0
1002
}
1002
{
1000
HVAL
1000
6
1002
}
1002
{
1000
H
1070
     2
1002
}
1002
{
1000
WVAL
1000
12
1002
}
1002
{
1000
W
1070
     2
1002
}
1002
{
1000
C
1070
     1
1002
}
1001
GENIUS_GENODEF_13
1002
{
1000
HIER
1070
     0
1002
}
1002
{
1000
MANEDIT
1070
     0
1002
}
1002
{
1000
NOSEL
1070
     0
1002
}
1002
{
1000
BEHIND
1070
     0
1002
}
1002
{
1000
OTHER
1070
     0
1002
}
1002
{
1000
REACTOR
1002
}
1001
GENIUS_GENOBJ-N-REC_13
1002
{
1000
OWNER
1000
GEN
1002
}
  0
ARC
  5
672
330
1F
100
AcDbEntity
  8
0
100
AcDbCircle
 10
52.4999997500878
 20
132.4999998563383
 30
0.0
 40
1.5
100
AcDbArc
 50
90.0
 51
180.0
1001
GENIUS_GENREC_14
1002
{
1000
PYDIR
1011
50.99999975008778
1021
133.9999998563383
1031
0.0
1002
}
1002
{
1000
PXDIR
1011
62.9999997500878
1021
127.9999998563383
1031
0.0
1002
}
1002
{
1000
PORI
1011
50.99999975008778
1021
127.9999998563383
1031
0.0
1002
}
1002
{
1000
PINS
1011
50.99999975008778
1021
127.9999998563383
1031
0.0
1002
}
1002
{
1000
HVAL
1000
6
1002
}
1002
{
1000
H
1070
     2
1002
}
1002
{
1000
WVAL
1000
12
1002
}
1002
{
1000
W
1070
     2
1002
}
1002
{
1000
C
1070
     1
1002
}
1001
GENIUS_GENODEF_13
1002
{
1000
HIER
1070
     0
1002
}
1002
{
1000
MANEDIT
1070
     0
1002
}
1002
{
1000
NOSEL
1070
     0
1002
}
1002
{
1000
BEHIND
1070
     0
1002
}
1002
{
1000
OTHER
1070
     0
1002
}
1002
{
1000
REACTOR
1002
}
1001
GENIUS_GENOBJ-N-REC_13
1002
{
1000
OWNER
1000
GEN
1002
}
  0
LINE
  5
673
330
1F
100
AcDbEntity
  8
0
100
AcDbLine
 10
50.99999975008778
 20
132.4999998563383
 30
0.0
 11
50.99999975008778
 21
129.4999998563382
 31
0.0
1001
GENIUS_GENREC_14
1002
{
1000
PYDIR
1011
50.99999975008778
1021
133.9999998563383
1031
0.0
1002
}
1002
{
1000
PXDIR
1011
62.9999997500878
1021
127.9999998563383
1031
0.0
1002
}
1002
{
1000
PORI
1011
50.99999975008778
1021
127.9999998563383
1031
0.0
1002
}
1002
{
1000
PINS
1011
50.99999975008778
1021
127.9999998563383
1031
0.0
1002
}
1002
{
1000
HVAL
1000
6
1002
}
1002
{
1000
H
1070
     2
1002
}
1002
{
1000
WVAL
1000
12
1002
}
1002
{
1000
W
1070
     2
1002
}
1002
{
1000
C
1070
     1
1002
}
1001
GENIUS_GENODEF_13
1002
{
1000
HIER
1070
     0
1002
}
1002
{
1000
MANEDIT
1070
     0
1002
}
1002
{
1000
NOSEL
1070
     0
1002
}
1002
{
1000
BEHIND
1070
     0
1002
}
1002
{
1000
OTHER
1070
     0
1002
}
1002
{
1000
REACTOR
1002
}
1001
GENIUS_GENOBJ-N-REC_13
1002
{
1000
OWNER
1000
GEN
1002
}
  0
ARC
  5
674
330
1F
100
AcDbEntity
  8
0
100
AcDbCircle
 10
52.4999997500878
 20
129.4999998563382
 30
0.0
 40
1.500000000000014
100
AcDbArc
 50
180.0
 51
269.9999999999998
1001
GENIUS_GENREC_14
1002
{
1000
PYDIR
1011
50.99999975008778
1021
133.9999998563383
1031
0.0
1002
}
1002
{
1000
PXDIR
1011
62.9999997500878
1021
127.9999998563383
1031
0.0
1002
}
1002
{
1000
PORI
1011
50.99999975008778
1021
127.9999998563383
1031
0.0
1002
}
1002
{
1000
PINS
1011
50.99999975008778
1021
127.9999998563383
1031
0.0
1002
}
1002
{
1000
HVAL
1000
6
1002
}
1002
{
1000
H
1070
     2
1002
}
1002
{
1000
WVAL
1000
12
1002
}
1002
{
1000
W
1070
     2
1002
}
1002
{
1000
C
1070
     1
1002
}
1001
GENIUS_GENODEF_13
1002
{
1000
HIER
1070
     0
1002
}
1002
{
1000
MANEDIT
1070
     0
1002
}
1002
{
1000
NOSEL
1070
     0
1002
}
1002
{
1000
BEHIND
1070
     0
1002
}
1002
{
1000
OTHER
1070
     0
1002
}
1002
{
1000
REACTOR
1002
}
1001
GENIUS_GENOBJ-N-REC_13
1002
{
1000
OWNER
1000
GEN
1002
}
  0
ENDSEC
  0
SECTION
  2
OBJECTS
  0
DICTIONARY
  5
C
330
0
100
AcDbDictionary
281
     1
  3
ACAD_COLOR
350
BE
  3
ACAD_GROUP
350
D
  3
ACAD_LAYOUT
350
1A
  3
ACAD_MATERIAL
350
BD
  3
ACAD_MLINESTYLE
350
17
  3
ACAD_PLOTSETTINGS
350
19
  3
ACAD_PLOTSTYLENAME
350
E
  3
ACAD_TABLESTYLE
350
11A
  3
ACDBHEADERROUNDTRIPXREC
350
677
  3
AcDbVariableDictionary
350
94
  3
AcmDictionary
350
5B
  3
AMG
350
41
  3
AMGSNAPSETTINGS
350
1B8
  3
DWGPROPS
350
676
  0
DICTIONARY
  5
8F
330
1F
100
AcDbDictionary
280
     1
281
     1
  3
ACAD_SORTENTS
360
664
  0
DICTIONARY
  5
BE
102
{ACAD_REACTORS
330
C
102
}
330
C
100
AcDbDictionary
281
     1
  0
DICTIONARY
  5
D
102
{ACAD_REACTORS
330
C
102
}
330
C
100
AcDbDictionary
281
     1
  0
DICTIONARY
  5
1A
102
{ACAD_REACTORS
330
C
102
}
330
C
100
AcDbDictionary
281
     1
  3
Model
350
22
  3
レイアウト1
350
1E
  3
レイアウト2
350
26
  0
DICTIONARY
  5
BD
102
{ACAD_REACTORS
330
C
102
}
330
C
100
AcDbDictionary
281
     1
  0
DICTIONARY
  5
17
102
{ACAD_REACTORS
330
C
102
}
330
C
100
AcDbDictionary
281
     1
  3
Standard
350
18
  0
DICTIONARY
  5
19
102
{ACAD_REACTORS
330
C
102
}
330
C
100
AcDbDictionary
281
     1
  0
ACDBDICTIONARYWDFLT
  5
E
102
{ACAD_REACTORS
330
C
102
}
330
C
100
AcDbDictionary
281
     1
  3
Normal
350
F
100
AcDbDictionaryWithDefault
340
F
  0
DICTIONARY
  5
11A
102
{ACAD_REACTORS
330
C
102
}
330
C
100
AcDbDictionary
281
     1
  3
Standard
350
11B
  0
DICTIONARY
  5
677
102
{ACAD_REACTORS
330
C
102
}
330
C
100
AcDbDictionary
281
     1
  0
DICTIONARY
  5
94
102
{ACAD_REACTORS
330
C
102
}
330
C
100
AcDbDictionary
281
     1
  3
CTABLESTYLE
350
138
  3
DIMASSOC
350
96
  3
INDEXCTL
350
95
  3
PROJECTNAME
350
5B9
  0
DICTIONARY
  5
5B
102
{ACAD_REACTORS
330
C
102
}
330
C
100
AcDbDictionary
281
     1
  3
AcmBOM
350
1B5
  3
AcmStdDictionary
350
61
  3
AMDTSECTSYM_ARROWCOLOR
350
123
  0
DICTIONARY
  5
41
102
{ACAD_REACTORS
330
C
102
}
330
C
100
AcDbDictionary
281
     1
  0
DICTIONARY
  5
1B8
102
{ACAD_REACTORS
330
C
102
}
330
C
100
AcDbDictionary
281
     1
  0
XRECORD
  5
676
102
{ACAD_REACTORS
330
C
102
}
330
C
100
AcDbXrecord
280
     1
  1
DWGPROPS COOKIE
  2

  3

  4

  6

  7

  8

  9

300
AmdtFileType=84
301
=
302
=
303
=
304
=
305
=
306
=
307
=
308
=
309
=
 40
0.0017749421296296
 41
2456406.536113009
 42
2456406.639345428
  1

 90
        1
  0
SORTENTSTABLE
  5
664
102
{ACAD_REACTORS
330
8F
102
}
330
8F
100
AcDbSortentsTable
330
1F
331
670
  5
516
331
591
  5
5A9
331
5AB
  5
668
331
516
  5
52E
331
4F4
  5
4F4
331
4D2
  5
4D2
331
4B0
  5
4B0
331
534
  5
559
331
55E
  5
576
331
47D
  5
47D
331
45B
  5
45B
331
439
  5
439
331
65F
  5
526
331
580
  5
599
331
4A7
  5
4A7
331
5A2
  5
65E
331
527
  5
54C
331
505
  5
505
331
4E3
  5
4E3
331
4C1
  5
4C1
331
54D
  5
565
331
46C
  5
46C
331
44A
  5
44A
331
428
  5
428
331
406
  5
406
331
56F
  5
588
331
496
  5
496
331
417
  5
417
331
3F5
  5
3F5
331
5A9
  5
666
331
514
  5
52C
331
4F2
  5
4F2
331
4D0
  5
4D0
331
532
  5
557
331
55C
  5
574
331
47B
  5
47B
331
459
  5
459
331
437
  5
437
331
65D
  5
524
331
57E
  5
597
331
4A5
  5
4A5
331
5A0
  5
65C
331
525
  5
54A
331
503
  5
503
331
4E1
  5
4E1
331
4BF
  5
4BF
331
56D
  5
585
331
54B
  5
563
331
46A
  5
46A
331
448
  5
448
331
426
  5
426
331
58F
  5
5A7
331
66E
  5
514
331
415
  5
415
331
404
  5
404
331
4F0
  5
4F0
331
530
  5
555
331
55A
  5
572
331
479
  5
479
331
457
  5
457
331
435
  5
435
331
57C
  5
595
331
4A3
  5
4A3
331
59E
  5
5B6
331
523
  5
548
331
501
  5
501
331
4DF
  5
4DF
331
4BD
  5
4BD
331
56B
  5
583
331
549
  5
561
331
468
  5
468
331
446
  5
446
331
424
  5
424
331
58D
  5
5A5
331
66C
  5
522
331
4CE
  5
4CE
331
413
  5
413
331
402
  5
402
331
52E
  5
553
331
558
  5
570
331
477
  5
477
331
455
  5
455
331
433
  5
433
331
57A
  5
593
331
4A1
  5
4A1
331
59C
  5
5B4
331
5B6
  5
673
331
521
  5
546
331
4FF
  5
4FF
331
4DD
  5
4DD
331
4BB
  5
4BB
331
569
  5
581
331
547
  5
55F
331
466
  5
466
331
444
  5
444
331
422
  5
422
331
58B
  5
5A3
331
66A
  5
520
331
4EE
  5
4EE
331
4CC
  5
4CC
331
411
  5
411
331
400
  5
400
331
52C
  5
551
331
556
  5
56E
331
475
  5
475
331
453
  5
453
331
431
  5
431
331
578
  5
591
331
49F
  5
49F
331
59A
  5
5B2
331
5B4
  5
671
331
51F
  5
544
331
4FD
  5
4FD
331
4DB
  5
4DB
331
4B9
  5
4B9
331
545
  5
55D
331
567
  5
57F
331
486
  5
486
331
464
  5
464
331
442
  5
442
331
420
  5
420
331
589
  5
5A1
331
668
  5
51E
331
50E
  5
50E
331
4EC
  5
4EC
331
4CA
  5
4CA
331
40F
  5
40F
331
3FE
  5
3FE
331
52A
  5
54F
331
554
  5
56C
331
473
  5
473
331
451
  5
451
331
576
  5
58F
331
49D
  5
49D
331
598
  5
5B0
331
5B2
  5
66F
331
51D
  5
535
331
4FB
  5
4FB
331
4D9
  5
4D9
331
4B7
  5
4B7
331
565
  5
57D
331
484
  5
484
331
462
  5
462
331
440
  5
440
331
41E
  5
41E
331
666
  5
51C
331
4AE
  5
4AE
331
50C
  5
50C
331
4EA
  5
4EA
331
4C8
  5
4C8
331
42F
  5
42F
331
40D
  5
40D
331
3FC
  5
3FC
331
528
  5
54D
331
552
  5
56A
331
471
  5
471
331
574
  5
58D
331
49B
  5
49B
331
596
  5
5AE
331
5B0
  5
66D
331
51B
  5
533
331
4F9
  5
4F9
331
4D7
  5
4D7
331
4B5
  5
4B5
331
563
  5
57B
331
482
  5
482
331
460
  5
460
331
43E
  5
43E
331
41C
  5
41C
331
585
  5
59E
331
4AC
  5
4AC
331
5A7
  5
663
331
50A
  5
50A
331
4E8
  5
4E8
331
4C6
  5
4C6
331
44F
  5
44F
331
42D
  5
42D
331
40B
  5
40B
331
3FA
  5
3FA
331
550
  5
568
331
572
  5
58B
331
499
  5
499
331
673
  5
519
331
594
  5
5AC
331
5AE
  5
66B
331
519
  5
531
331
4F7
  5
4F7
331
4D5
  5
4D5
331
4B3
  5
4B3
331
561
  5
579
331
480
  5
480
331
45E
  5
45E
331
43C
  5
43C
331
41A
  5
41A
331
662
  5
529
331
583
  5
59C
331
4AA
  5
4AA
331
5A5
  5
661
331
508
  5
508
331
4E6
  5
4E6
331
4C4
  5
4C4
331
46F
  5
46F
331
44D
  5
44D
331
42B
  5
42B
331
409
  5
409
331
3F8
  5
3F8
331
570
  5
589
331
671
  5
517
331
592
  5
5AA
331
5AC
  5
669
331
517
  5
52F
331
4F5
  5
4F5
331
4D3
  5
4D3
331
4B1
  5
4B1
331
535
  5
55A
331
55F
  5
577
331
47E
  5
47E
331
45C
  5
45C
331
43A
  5
43A
331
418
  5
418
331
660
  5
527
331
581
  5
59A
331
4A8
  5
4A8
331
5A3
  5
65F
331
506
  5
506
331
4E4
  5
4E4
331
4C2
  5
4C2
331
54E
  5
566
331
46D
  5
46D
331
44B
  5
44B
331
429
  5
429
331
407
  5
407
331
497
  5
497
331
3F6
  5
3F6
331
590
  5
5A8
331
5AA
  5
667
331
515
  5
52D
331
4F3
  5
4F3
331
4D1
  5
4D1
331
533
  5
558
331
55D
  5
575
331
47C
  5
47C
331
45A
  5
45A
331
438
  5
438
331
65E
  5
525
331
57F
  5
598
331
4A6
  5
4A6
331
5A1
  5
65D
331
526
  5
54B
331
504
  5
504
331
4E2
  5
4E2
331
4C0
  5
4C0
331
54C
  5
564
331
46B
  5
46B
331
449
  5
449
331
427
  5
427
331
405
  5
405
331
56E
  5
586
331
495
  5
495
331
66F
  5
515
331
416
  5
416
331
3F4
  5
3F4
331
5A8
  5
665
331
513
  5
52B
331
4F1
  5
4F1
331
531
  5
556
331
55B
  5
573
331
47A
  5
47A
331
458
  5
458
331
436
  5
436
331
65C
  5
523
331
57D
  5
596
331
4A4
  5
4A4
331
59F
  5
5B7
331
524
  5
549
331
502
  5
502
331
4E0
  5
4E0
331
4BE
  5
4BE
331
56C
  5
584
331
54A
  5
562
331
469
  5
469
331
447
  5
447
331
425
  5
425
331
58E
  5
5A6
331
66D
  5
513
331
4CF
  5
4CF
331
414
  5
414
331
403
  5
403
331
52F
  5
554
331
559
  5
571
331
478
  5
478
331
456
  5
456
331
434
  5
434
331
57B
  5
594
331
59D
  5
5B5
331
5B7
  5
674
331
522
  5
547
331
500
  5
500
331
4DE
  5
4DE
331
4BC
  5
4BC
331
4A2
  5
4A2
331
56A
  5
582
331
548
  5
560
331
467
  5
467
331
445
  5
445
331
58C
  5
5A4
331
66B
  5
521
331
4EF
  5
4EF
331
4CD
  5
4CD
331
412
  5
412
331
401
  5
401
331
52D
  5
552
331
557
  5
56F
331
476
  5
476
331
454
  5
454
331
432
  5
432
331
579
  5
592
331
4A0
  5
4A0
331
59B
  5
5B3
331
5B5
  5
672
331
520
  5
545
331
4FE
  5
4FE
331
4DC
  5
4DC
331
4BA
  5
4BA
331
546
  5
55E
331
568
  5
580
331
487
  5
487
331
465
  5
465
331
443
  5
443
331
421
  5
421
331
58A
  5
5A2
331
669
  5
51F
331
50F
  5
50F
331
4ED
  5
4ED
331
4CB
  5
4CB
331
410
  5
410
331
3FF
  5
3FF
331
52B
  5
550
331
555
  5
56D
331
474
  5
474
331
452
  5
452
331
430
  5
430
331
577
  5
590
331
49E
  5
49E
331
599
  5
5B1
331
5B3
  5
670
331
51E
  5
536
331
4FC
  5
4FC
331
4DA
  5
4DA
331
4B8
  5
4B8
331
544
  5
55C
331
566
  5
57E
331
485
  5
485
331
463
  5
463
331
441
  5
441
331
41F
  5
41F
331
667
  5
51D
331
588
  5
5A0
331
50D
  5
50D
331
4EB
  5
4EB
331
4C9
  5
4C9
331
4AF
  5
4AF
331
40E
  5
40E
331
3FD
  5
3FD
331
529
  5
54E
331
553
  5
56B
331
472
  5
472
331
450
  5
450
331
575
  5
58E
331
49C
  5
49C
331
597
  5
5AF
331
5B1
  5
66E
331
51C
  5
534
331
4FA
  5
4FA
331
4D8
  5
4D8
331
4B6
  5
4B6
331
564
  5
57C
331
483
  5
483
331
461
  5
461
331
43F
  5
43F
331
41D
  5
41D
331
665
  5
51B
331
586
  5
59F
331
4AD
  5
4AD
331
50B
  5
50B
331
4E9
  5
4E9
331
4C7
  5
4C7
331
42E
  5
42E
331
40C
  5
40C
331
3FB
  5
3FB
331
551
  5
569
331
470
  5
470
331
573
  5
58C
331
49A
  5
49A
331
674
  5
51A
331
595
  5
5AD
331
5AF
  5
66C
331
51A
  5
532
331
4F8
  5
4F8
331
4D6
  5
4D6
331
4B4
  5
4B4
331
562
  5
57A
331
481
  5
481
331
45F
  5
45F
331
43D
  5
43D
331
41B
  5
41B
331
663
  5
52A
331
584
  5
59D
331
4AB
  5
4AB
331
5A6
  5
662
331
509
  5
509
331
4E7
  5
4E7
331
4C5
  5
4C5
331
44E
  5
44E
331
42C
  5
42C
331
40A
  5
40A
331
3F9
  5
3F9
331
571
  5
58A
331
498
  5
498
331
672
  5
518
331
593
  5
5AB
331
5AD
  5
66A
331
518
  5
530
331
4F6
  5
4F6
331
4D4
  5
4D4
331
4B2
  5
4B2
331
536
  5
55B
331
560
  5
578
331
47F
  5
47F
331
45D
  5
45D
331
43B
  5
43B
331
419
  5
419
331
661
  5
528
331
582
  5
59B
331
4A9
  5
4A9
331
5A4
  5
660
331
507
  5
507
331
4E5
  5
4E5
331
4C3
  5
4C3
331
54F
  5
567
331
46E
  5
46E
331
44C
  5
44C
331
42A
  5
42A
331
408
  5
408
331
3F7
  5
3F7
  0
LAYOUT
  5
22
102
{ACAD_XDICTIONARY
360
67A
102
}
102
{ACAD_REACTORS
330
1A
102
}
330
1A
100
AcDbPlotSettings
  1

  2

  4

  6

 40
0.0
 41
0.0
 42
0.0
 43
0.0
 44
0.0
 45
0.0
 46
0.0
 47
0.0
 48
0.0
 49
0.0
140
0.0
141
0.0
142
1.0
143
1.0
 70
  1712
 72
     0
 73
     0
 74
     0
  7

 75
     0
147
1.0
148
0.0
149
0.0
100
AcDbLayout
  1
Model
 70
     1
 71
     0
 10
0.0
 20
0.0
 11
12.0
 21
9.0
 12
0.0
 22
0.0
 32
0.0
 14
0.0
 24
0.0
 34
0.0
 15
0.0
 25
0.0
 35
0.0
146
0.0
 13
0.0
 23
0.0
 33
0.0
 16
1.0
 26
0.0
 36
0.0
 17
0.0
 27
1.0
 37
0.0
 76
     0
330
1F
  0
LAYOUT
  5
1E
102
{ACAD_XDICTIONARY
360
678
102
}
102
{ACAD_REACTORS
330
1A
102
}
330
1A
100
AcDbPlotSettings
  1

  2

  4

  6

 40
0.0
 41
0.0
 42
0.0
 43
0.0
 44
0.0
 45
0.0
 46
0.0
 47
0.0
 48
0.0
 49
0.0
140
0.0
141
0.0
142
1.0
143
1.0
 70
   688
 72
     0
 73
     0
 74
     5
  7

 75
    16
147
1.0
148
0.0
149
0.0
100
AcDbLayout
  1
レイアウト1
 70
     1
 71
     1
 10
0.0
 20
0.0
 11
420.0
 21
297.0
 12
0.0
 22
0.0
 32
0.0
 14
1.000000000000000E+20
 24
1.000000000000000E+20
 34
1.000000000000000E+20
 15
-1.000000000000000E+20
 25
-1.000000000000000E+20
 35
-1.000000000000000E+20
146
0.0
 13
0.0
 23
0.0
 33
0.0
 16
1.0
 26
0.0
 36
0.0
 17
0.0
 27
1.0
 37
0.0
 76
     0
330
1B
  0
LAYOUT
  5
26
102
{ACAD_XDICTIONARY
360
67C
102
}
102
{ACAD_REACTORS
330
1A
102
}
330
1A
100
AcDbPlotSettings
  1

  2

  4

  6

 40
0.0
 41
0.0
 42
0.0
 43
0.0
 44
0.0
 45
0.0
 46
0.0
 47
0.0
 48
0.0
 49
0.0
140
0.0
141
0.0
142
1.0
143
1.0
 70
   688
 72
     0
 73
     0
 74
     5
  7

 75
    16
147
1.0
148
0.0
149
0.0
100
AcDbLayout
  1
レイアウト2
 70
     1
 71
     2
 10
0.0
 20
0.0
 11
12.0
 21
9.0
 12
0.0
 22
0.0
 32
0.0
 14
0.0
 24
0.0
 34
0.0
 15
0.0
 25
0.0
 35
0.0
146
0.0
 13
0.0
 23
0.0
 33
0.0
 16
1.0
 26
0.0
 36
0.0
 17
0.0
 27
1.0
 37
0.0
 76
     0
330
23
  0
MLINESTYLE
  5
18
102
{ACAD_REACTORS
330
17
102
}
330
17
100
AcDbMlineStyle
  2
STANDARD
 70
     0
  3

 62
   256
 51
90.0
 52
90.0
 71
     2
 49
0.5
 62
   256
  6
BYLAYER
 49
-0.5
 62
   256
  6
BYLAYER
  0
ACDBPLACEHOLDER
  5
F
102
{ACAD_REACTORS
330
E
102
}
330
E
  0
TABLESTYLE
  5
11B
102
{ACAD_REACTORS
330
11A
102
}
330
11A
100
AcDbTableStyle
  3
Standard
 70
     0
 71
     0
 40
1.5
 41
1.5
280
     0
281
     0
  7
STANDARD
140
4.5
170
     2
 62
     0
 63
     7
283
     0
274
    -2
284
     1
 64
     0
275
    -2
285
     1
 65
     0
276
    -2
286
     1
 66
     0
277
    -2
287
     1
 67
     0
278
    -2
288
     1
 68
     0
279
    -2
289
     1
 69
     0
  7
STANDARD
140
6.0
170
     5
 62
     0
 63
     7
283
     0
274
    -2
284
     1
 64
     0
275
    -2
285
     1
 65
     0
276
    -2
286
     1
 66
     0
277
    -2
287
     1
 67
     0
278
    -2
288
     1
 68
     0
279
    -2
289
     1
 69
     0
  7
STANDARD
140
4.5
170
     5
 62
     0
 63
     7
283
     0
274
    -2
284
     1
 64
     0
275
    -2
285
     1
 65
     0
276
    -2
286
     1
 66
     0
277
    -2
287
     1
 67
     0
278
    -2
288
     1
 68
     0
279
    -2
289
     1
 69
     0
  0
DICTIONARYVAR
  5
138
102
{ACAD_REACTORS
330
94
102
}
330
94
100
DictionaryVariables
280
     0
  1
STANDARD
  0
DICTIONARYVAR
  5
96
102
{ACAD_REACTORS
330
94
102
}
330
94
100
DictionaryVariables
280
     0
  1
2
  0
DICTIONARYVAR
  5
95
102
{ACAD_REACTORS
330
94
102
}
330
94
100
DictionaryVariables
280
     0
  1
0
  0
DICTIONARYVAR
  5
5B9
102
{ACAD_REACTORS
330
94
102
}
330
94
100
DictionaryVariables
280
     0
  1

  0
DICTIONARY
  5
1B5
102
{ACAD_REACTORS
330
5B
102
}
330
5B
100
AcDbDictionary
281
     1
  0
DICTIONARY
  5
61
102
{ACAD_REACTORS
330
5B
102
}
330
5B
100
AcDbDictionary
281
     1
  0
XRECORD
  5
123
102
{ACAD_REACTORS
330
5B
102
}
330
5B
100
AcDbXrecord
280
     1
 90
-1023410169
  0
DICTIONARY
  5
67A
330
22
100
AcDbDictionary
280
     1
281
     1
  3
ACAD_XREC_ROUNDTRIP
360
67B
  0
DICTIONARY
  5
678
330
1E
100
AcDbDictionary
280
     1
281
     1
  3
ACAD_XREC_ROUNDTRIP
360
679
  0
DICTIONARY
  5
67C
330
26
100
AcDbDictionary
280
     1
281
     1
  3
ACAD_XREC_ROUNDTRIP
360
67D
  0
XRECORD
  5
67B
102
{ACAD_REACTORS
330
67A
102
}
330
67A
100
AcDbXrecord
280
     1
102
SHADEPLOT
 70
     0
102
SHADEPLOTRESLEVEL
 70
     2
102
SHADEPLOTCUSTOMDPI
 70
   300
  0
XRECORD
  5
679
102
{ACAD_REACTORS
330
678
102
}
330
678
100
AcDbXrecord
280
     1
102
SHADEPLOT
 70
     0
102
SHADEPLOTRESLEVEL
 70
     2
102
SHADEPLOTCUSTOMDPI
 70
   300
  0
XRECORD
  5
67D
102
{ACAD_REACTORS
330
67C
102
}
330
67C
100
AcDbXrecord
280
     1
102
SHADEPLOT
 70
     0
102
SHADEPLOTRESLEVEL
 70
     2
102
SHADEPLOTCUSTOMDPI
 70
   300
  0
ENDSEC
  0
EOF
