  0
SECTION
  2
HEADER
  9
$ACADVER
  1
AC1015
  9
$ACADMAINTVER
 70
    20
  9
$DWGCODEPAGE
  3
ANSI_932
  9
$INSBASE
 10
0.0
 20
0.0
 30
0.0
  9
$EXTMIN
 10
198.457099277594
 20
130.4141797642067
 30
0.0
  9
$EXTMAX
 10
365.0636846156103
 20
375.1481803163388
 30
0.0
  9
$LIMMIN
 10
0.0
 20
0.0
  9
$LIMMAX
 10
420.0
 20
297.0
  9
$ORTHOMODE
 70
     1
  9
$REGENMODE
 70
     1
  9
$FILLMODE
 70
     1
  9
$QTEXTMODE
 70
     0
  9
$MIRRTEXT
 70
     1
  9
$LTSCALE
 40
1.0
  9
$ATTMODE
 70
     1
  9
$TEXTSIZE
 40
1.0
  9
$TRACEWID
 40
1.0
  9
$TEXTSTYLE
  7
ACISOTS
  9
$CLAYER
  8
0
  9
$CELTYPE
  6
ByLayer
  9
$CECOLOR
 62
     9
  9
$CELTSCALE
 40
1.0
  9
$DISPSILH
 70
     0
  9
$DIMSCALE
 40
1.0
  9
$DIMASZ
 40
2.5
  9
$DIMEXO
 40
1.0
  9
$DIMDLI
 40
10.0
  9
$DIMRND
 40
0.0
  9
$DIMDLE
 40
0.0
  9
$DIMEXE
 40
1.0
  9
$DIMTP
 40
0.1
  9
$DIMTM
 40
0.1
  9
$DIMTXT
 40
3.5
  9
$DIMCEN
 40
0.0
  9
$DIMTSZ
 40
0.0
  9
$DIMTOL
 70
     0
  9
$DIMLIM
 70
     0
  9
$DIMTIH
 70
     0
  9
$DIMTOH
 70
     0
  9
$DIMSE1
 70
     0
  9
$DIMSE2
 70
     0
  9
$DIMTAD
 70
     1
  9
$DIMZIN
 70
     8
  9
$DIMBLK
  1

  9
$DIMASO
 70
     1
  9
$DIMSHO
 70
     1
  9
$DIMPOST
  1

  9
$DIMAPOST
  1
"
  9
$DIMALT
 70
     0
  9
$DIMALTD
 70
     2
  9
$DIMALTF
 40
0.0393701
  9
$DIMLFAC
 40
1.0
  9
$DIMTOFL
 70
     1
  9
$DIMTVP
 40
0.0
  9
$DIMTIX
 70
     0
  9
$DIMSOXD
 70
     0
  9
$DIMSAH
 70
     0
  9
$DIMBLK1
  1

  9
$DIMBLK2
  1

  9
$DIMSTYLE
  2
AM_ISO
  9
$DIMCLRD
 70
   256
  9
$DIMCLRE
 70
   256
  9
$DIMCLRT
 70
     2
  9
$DIMTFAC
 40
0.71
  9
$DIMGAP
 40
1.5
  9
$DIMJUST
 70
     0
  9
$DIMSD1
 70
     0
  9
$DIMSD2
 70
     0
  9
$DIMTOLJ
 70
     0
  9
$DIMTZIN
 70
     8
  9
$DIMALTZ
 70
     0
  9
$DIMALTTZ
 70
     0
  9
$DIMUPT
 70
     0
  9
$DIMDEC
 70
     2
  9
$DIMTDEC
 70
     3
  9
$DIMALTU
 70
     2
  9
$DIMALTTD
 70
     4
  9
$DIMTXSTY
  7
STANDARD
  9
$DIMAUNIT
 70
     0
  9
$DIMADEC
 70
     0
  9
$DIMALTRND
 40
0.0
  9
$DIMAZIN
 70
     2
  9
$DIMDSEP
 70
    46
  9
$DIMATFIT
 70
     3
  9
$DIMFRAC
 70
     0
  9
$DIMLDRBLK
  1

  9
$DIMLUNIT
 70
     2
  9
$DIMLWD
 70
    -1
  9
$DIMLWE
 70
    -1
  9
$DIMTMOVE
 70
     0
  9
$LUNITS
 70
     2
  9
$LUPREC
 70
     2
  9
$SKETCHINC
 40
1.0
  9
$FILLETRAD
 40
2.5
  9
$AUNITS
 70
     0
  9
$AUPREC
 70
     0
  9
$MENU
  1
.
  9
$ELEVATION
 40
0.0
  9
$PELEVATION
 40
0.0
  9
$THICKNESS
 40
0.0
  9
$LIMCHECK
 70
     0
  9
$CHAMFERA
 40
2.5
  9
$CHAMFERB
 40
2.5
  9
$CHAMFERC
 40
20.0
  9
$CHAMFERD
 40
0.0
  9
$SKPOLY
 70
     0
  9
$TDCREATE
 40
2454118.944882222
  9
$TDUCREATE
 40
2454118.569882222
  9
$TDUPDATE
 40
2456399.824112303
  9
$TDUUPDATE
 40
2456399.449112303
  9
$TDINDWG
 40
0.0242746296
  9
$TDUSRTIMER
 40
0.0242744560
  9
$USRTIMER
 70
     1
  9
$ANGBASE
 50
0.0
  9
$ANGDIR
 70
     0
  9
$PDMODE
 70
     0
  9
$PDSIZE
 40
0.0
  9
$PLINEWID
 40
0.0
  9
$SPLFRAME
 70
     0
  9
$SPLINETYPE
 70
     6
  9
$SPLINESEGS
 70
     8
  9
$HANDSEED
  5
7F9
  9
$SURFTAB1
 70
     6
  9
$SURFTAB2
 70
     6
  9
$SURFTYPE
 70
     6
  9
$SURFU
 70
     6
  9
$SURFV
 70
     6
  9
$UCSBASE
  2

  9
$UCSNAME
  2

  9
$UCSORG
 10
0.0
 20
0.0
 30
0.0
  9
$UCSXDIR
 10
1.0
 20
0.0
 30
0.0
  9
$UCSYDIR
 10
0.0
 20
1.0
 30
0.0
  9
$UCSORTHOREF
  2

  9
$UCSORTHOVIEW
 70
     0
  9
$UCSORGTOP
 10
0.0
 20
0.0
 30
0.0
  9
$UCSORGBOTTOM
 10
0.0
 20
0.0
 30
0.0
  9
$UCSORGLEFT
 10
0.0
 20
0.0
 30
0.0
  9
$UCSORGRIGHT
 10
0.0
 20
0.0
 30
0.0
  9
$UCSORGFRONT
 10
0.0
 20
0.0
 30
0.0
  9
$UCSORGBACK
 10
0.0
 20
0.0
 30
0.0
  9
$PUCSBASE
  2

  9
$PUCSNAME
  2

  9
$PUCSORG
 10
0.0
 20
0.0
 30
0.0
  9
$PUCSXDIR
 10
1.0
 20
0.0
 30
0.0
  9
$PUCSYDIR
 10
0.0
 20
1.0
 30
0.0
  9
$PUCSORTHOREF
  2

  9
$PUCSORTHOVIEW
 70
     0
  9
$PUCSORGTOP
 10
0.0
 20
0.0
 30
0.0
  9
$PUCSORGBOTTOM
 10
0.0
 20
0.0
 30
0.0
  9
$PUCSORGLEFT
 10
0.0
 20
0.0
 30
0.0
  9
$PUCSORGRIGHT
 10
0.0
 20
0.0
 30
0.0
  9
$PUCSORGFRONT
 10
0.0
 20
0.0
 30
0.0
  9
$PUCSORGBACK
 10
0.0
 20
0.0
 30
0.0
  9
$USERI1
 70
     0
  9
$USERI2
 70
     0
  9
$USERI3
 70
     0
  9
$USERI4
 70
     0
  9
$USERI5
 70
     0
  9
$USERR1
 40
0.0
  9
$USERR2
 40
0.0
  9
$USERR3
 40
0.0
  9
$USERR4
 40
0.0
  9
$USERR5
 40
0.0
  9
$WORLDVIEW
 70
     1
  9
$SHADEDGE
 70
     3
  9
$SHADEDIF
 70
    70
  9
$TILEMODE
 70
     1
  9
$MAXACTVP
 70
    64
  9
$PINSBASE
 10
0.0
 20
0.0
 30
0.0
  9
$PLIMCHECK
 70
     0
  9
$PEXTMIN
 10
1.000000000000000E+20
 20
1.000000000000000E+20
 30
1.000000000000000E+20
  9
$PEXTMAX
 10
-1.000000000000000E+20
 20
-1.000000000000000E+20
 30
-1.000000000000000E+20
  9
$PLIMMIN
 10
0.0
 20
0.0
  9
$PLIMMAX
 10
420.0
 20
297.0
  9
$UNITMODE
 70
     0
  9
$VISRETAIN
 70
     1
  9
$PLINEGEN
 70
     0
  9
$PSLTSCALE
 70
     1
  9
$TREEDEPTH
 70
  3020
  9
$CMLSTYLE
  2
Standard
  9
$CMLJUST
 70
     0
  9
$CMLSCALE
 40
20.0
  9
$PROXYGRAPHICS
 70
     1
  9
$MEASUREMENT
 70
     1
  9
$CELWEIGHT
370
    -1
  9
$ENDCAPS
280
     0
  9
$JOINSTYLE
280
     0
  9
$LWDISPLAY
290
     0
  9
$INSUNITS
 70
     4
  9
$HYPERLINKBASE
  1

  9
$STYLESHEET
  1

  9
$XEDIT
290
     1
  9
$CEPSNTYPE
380
     0
  9
$PSTYLEMODE
290
     1
  9
$FINGERPRINTGUID
  2
{0438307A-2A21-4553-8AE9-C2C714550F9E}
  9
$VERSIONGUID
  2
{601F6F71-FE53-44FA-87AA-002744E24F7A}
  9
$EXTNAMES
290
     1
  9
$PSVPSCALE
 40
0.0
  9
$OLESTARTUP
290
     0
  0
ENDSEC
  0
SECTION
  2
CLASSES
  0
CLASS
  1
ACDBDICTIONARYWDFLT
  2
AcDbDictionaryWithDefault
  3
ObjectDBX Classes
 90
        0
280
     0
281
     0
  0
CLASS
  1
ACDBPLACEHOLDER
  2
AcDbPlaceHolder
  3
ObjectDBX Classes
 90
        0
280
     0
281
     0
  0
CLASS
  1
LAYOUT
  2
AcDbLayout
  3
ObjectDBX Classes
 90
        0
280
     0
281
     0
  0
CLASS
  1
ACME_DOCUMENT
  2
AcMeDbDoc
  3
AcMeServices
 90
     1024
280
     0
281
     0
  0
CLASS
  1
AMGSETTINGSOBJ
  2
AmgSettingsObj
  3
"AcadM|Product Description: AutoCAD Mechanical|Company: Autodesk, Inc."
 90
     1024
280
     0
281
     0
  0
CLASS
  1
ACMESCOPE
  2
AcMeScope
  3
AcMeServices
 90
     1024
280
     0
281
     0
  0
CLASS
  1
ACMECOMMANDHISTORY
  2
AcMeCommandHistory
  3
AcMeServices
 90
     1024
280
     0
281
     0
  0
CLASS
  1
ACIMSYSVARMAN
  2
AcImSysVarManager
  3
AcMeServices
 90
     1024
280
     0
281
     0
  0
CLASS
  1
ACIMREALSYSVAR
  2
AcImRealSysVar
  3
AcMeServices
 90
    33792
280
     0
281
     0
  0
CLASS
  1
ACIMINTSYSVAR
  2
AcImIntSysVar
  3
AcMeServices
 90
     1024
280
     0
281
     0
  0
CLASS
  1
ACMEDRAWINGMAN
  2
AcMeDrawingMan
  3
AcMeServices
 90
    33792
280
     0
281
     0
  0
CLASS
  1
ACMEVIEW
  2
AcMeView
  3
AcMeServices
 90
    33792
280
     0
281
     0
  0
CLASS
  1
ACDBENTITYCACHE
  2
AcMeEntityCache
  3
AcMeServices
 90
     1024
280
     0
281
     0
  0
CLASS
  1
GSMANAGER
  2
AcMeGSManager
  3
AcMeServices
 90
    32768
280
     0
281
     0
  0
CLASS
  1
AMDTINTERNALREACTOR
  2
AmdtInternalReactor
  3
AcMeServices
 90
    33792
280
     0
281
     0
  0
CLASS
  1
ACMESTATEMGR
  2
AcMeStateMgr
  3
AcMeServices
 90
     1024
280
     0
281
     0
  0
CLASS
  1
ACGREFMASTER
  2
AcGrefMaster
  3
AcAttribServices
 90
     1024
280
     0
281
     0
  0
CLASS
  1
ACME_DATABASE
  2
AcMeDbDatabase
  3
AcMeServices
 90
     1024
280
     0
281
     0
  0
CLASS
  1
ACRFINSADJUSTERMGR
  2
AcRfInsAdjusterMgr
  3
AcMeServices
 90
     1024
280
     0
281
     0
  0
CLASS
  1
ACGREFACADMASTER
  2
AcGrefacadMaster
  3
AcGrefServices
 90
     1024
280
     0
281
     0
  0
CLASS
  1
AMIMASTER
  2
AmiMaster
  3
AmiServices
 90
     1024
280
     0
281
     0
  0
CLASS
  1
ACMDATADICTIONARY
  2
AcmDataDictionary
  3
"AcmSymBB|Product Description: AutoCAD Mechanical|Company: Autodesk, Inc."
 90
     1024
280
     0
281
     0
  0
CLASS
  1
ACMDATAENTRYBLOCK
  2
AcmDataEntryBlock
  3
AcmSymBB|Product Description: AutoCAD Mechanical|Company: Autodesk, Inc.
 90
    33792
280
     0
281
     0
  0
CLASS
  1
ACIMSTRSYSVAR
  2
AcImStrSysVar
  3
AcMeServices
 90
     1024
280
     0
281
     0
  0
CLASS
  1
ACMSTANDARDISO
  2
AcmStandardISO
  3
"Amdt_StdImp|Product Description: AutoCAD Mechanical|Company: Autodesk, Inc."
 90
     1024
280
     0
281
     0
  0
CLASS
  1
AMGOBJPROPCFG
  2
AmgObjPropCfg
  3
"AmgLay|Product Description: AutoCAD Mechanical|Company: Autodesk, Inc."
 90
     1024
280
     0
281
     0
  0
CLASS
  1
AMDTEDGESTANDARDISO
  2
AmdtEdgeStdISO
  3
"Amdt_StdImp|Product Description: AutoCAD Mechanical|Company: Autodesk, Inc."
 90
    33792
280
     0
281
     0
  0
CLASS
  1
ACMSURFSTANDARDISO
  2
AcmSurfTextStdISO
  3
"Amdt_StdImp|Product Description: AutoCAD Mechanical|Company: Autodesk, Inc."
 90
    33792
280
     0
281
     0
  0
CLASS
  1
ACMFCFSTANDARDISO
  2
AcmFCFStdISO
  3
"Amdt_StdImp|Product Description: AutoCAD Mechanical|Company: Autodesk, Inc."
 90
    33792
280
     0
281
     0
  0
CLASS
  1
ACMWELDSTANDARDISO
  2
AcmWeldingStdISO
  3
"Amdt_StdImp|Product Description: AutoCAD Mechanical|Company: Autodesk, Inc."
 90
     1024
280
     0
281
     0
  0
CLASS
  1
ACMIDSTANDARDISO
  2
AcmIdStdISO
  3
"Amdt_StdImp|Product Description: AutoCAD Mechanical|Company: Autodesk, Inc."
 90
    33792
280
     0
281
     0
  0
CLASS
  1
ACMDATUMSTANDARDISO
  2
AcmDatumStdISO
  3
"Amdt_StdImp|Product Description: AutoCAD Mechanical|Company: Autodesk, Inc."
 90
     1024
280
     0
281
     0
  0
CLASS
  1
ACMBOMSTANDARDISO
  2
AcmBOMStdISO
  3
"Amdt_StdImp|Product Description: AutoCAD Mechanical|Company: Autodesk, Inc."
 90
     1024
280
     0
281
     0
  0
CLASS
  1
ACMDETAILSTANDARDISO
  2
AmdtDetailSymStdISO
  3
"Amdt_StdImp|Product Description: AutoCAD Mechanical|Company: Autodesk, Inc."
 90
     1024
280
     0
281
     0
  0
CLASS
  1
ACMSECTIONSTANDARDISO
  2
AmdtSectionSymStdISO
  3
"Amdt_StdImp|Product Description: AutoCAD Mechanical|Company: Autodesk, Inc."
 90
    33792
280
     0
281
     0
  0
CLASS
  1
ACMCENTERLINESTANDARDISO
  2
AmdtCenterLineStdISO
  3
"Amdt_StdImp|Product Description: AutoCAD Mechanical|Company: Autodesk, Inc."
 90
     1024
280
     0
281
     0
  0
CLASS
  1
ACMNOTESTANDARDISO
  2
AmdtNoteStdISO
  3
"Amdt_StdImp|Product Description: AutoCAD Mechanical|Company: Autodesk, Inc."
 90
     1024
280
     0
281
     0
  0
CLASS
  1
ACAMGLAYSTD
  2
AcAmgLayStd
  3
"AmgLay|Product Description: AutoCAD Mechanical|Company: Autodesk, Inc."
 90
     1024
280
     0
281
     0
  0
CLASS
  1
ACAMGDIMSTD
  2
AcAmgDimStd
  3
"AmgDim|Product Description: AutoCAD Mechanical|Company: Autodesk, Inc."
 90
     1024
280
     0
281
     0
  0
CLASS
  1
ACAMGHOLECHARTSTDISO
  2
AcAmgHoleChartStdISO
  3
AmgDim|Product Description: AutoCAD Mechanical|Company: Autodesk, Inc.
 90
     1024
280
     0
281
     0
  0
CLASS
  1
ACAMGTITLESTD
  2
AcAmgTitleStd
  3
"AmgTitle|Product Description: AutoCAD Mechanical|Company: Autodesk, Inc."
 90
     1024
280
     0
281
     0
  0
CLASS
  1
LAYER_INDEX
  2
AcDbLayerIndex
  3
ObjectDBX Classes
 90
    32768
280
     0
281
     0
  0
CLASS
  1
IDBUFFER
  2
AcDbIdBuffer
  3
ObjectDBX Classes
 90
    32768
280
     0
281
     0
  0
CLASS
  1
DICTIONARYVAR
  2
AcDbDictionaryVar
  3
ObjectDBX Classes
 90
        0
280
     0
281
     0
  0
CLASS
  1
AM_DRAWING_MGR
  2
AcDmDwgMgr
  3
AcMechDwgViewMgmt
 90
    33792
280
     0
281
     0
  0
CLASS
  1
AM_DWG_DOCUMENT
  2
AcDmDwgDocument
  3
AcMechDwgViewMgmt
 90
    33792
280
     0
281
     0
  0
CLASS
  1
AM_DWG_SHEET
  2
AcDmSheet
  3
AcMechDwgViewMgmt
 90
    33792
280
     0
281
     0
  0
CLASS
  1
AM_VIEWDIMPARMAP
  2
AcDmViewDimParMap
  3
AcMechDwgViewMgmt
 90
    33792
280
     0
281
     0
  0
CLASS
  1
AM_DWGMGR_NAME
  2
AcDmDwgMgrName
  3
AcMechDwgViewMgmt
 90
    33792
280
     0
281
     0
  0
CLASS
  1
AMDTMENUSTATEMGR
  2
AmdtMenuStateMgr
  3
McadcomServices
 90
     1024
280
     0
281
     0
  0
CLASS
  1
AMDTMCOMMENUSTATE
  2
AmdtMcomMenuState
  3
McadcomServices
 90
     1024
280
     0
281
     0
  0
CLASS
  1
MAPIAMMOUDLE
  2
MApiAmModule
  3
MApiAmServices
 90
     1024
280
     0
281
     0
  0
CLASS
  1
AMDTADMENUSTATE
  2
AmdtAdMenuState
  3
DesignerServices
 90
    32768
280
     0
281
     0
  0
CLASS
  1
ADAPPL
  2
AcAdAppl
  3
DesignerAssemblies
 90
    33792
280
     0
281
     0
  0
CLASS
  1
DEPMGR
  2
AcAdDepMgr
  3
DesignerAssemblies
 90
    33792
280
     0
281
     0
  0
CLASS
  1
PARAMMGR
  2
AcAdParamMgr
  3
DesignerAssemblies
 90
    33792
280
     0
281
     0
  0
CLASS
  1
PARAMSCOPE
  2
AcAdParamScope
  3
DesignerAssemblies
 90
    33792
280
     0
281
     0
  0
CLASS
  1
NAMEDAPPL
  2
AcAdNamedAppl
  3
DesignerAssemblies
 90
    33792
280
     0
281
     0
  0
CLASS
  1
AMDTDMMENUSTATE
  2
AmdtDmMenuState
  3
AcMechDwgViewMgmt
 90
    32768
280
     0
281
     0
  0
CLASS
  1
AMDTAMMENUSTATE
  2
AmdtAmMenuState
  3
DesignerAssemblies
 90
     1024
280
     0
281
     0
  0
CLASS
  1
ACAMPROJECT
  2
AcAmProject
  3
DesignerAssemblies
 90
     1024
280
     0
281
     0
  0
CLASS
  1
ACAMGRCOMPDEF
  2
AcAmGrCompDef
  3
DesignerAssemblies
 90
     1024
280
     0
281
     0
  0
CLASS
  1
ACCMCONTEXT
  2
AcCmContext
  3
DesignerAssemblies
 90
    33792
280
     0
281
     0
  0
CLASS
  1
ACAMCOMPDEF
  2
AcAmCompDef
  3
DesignerAssemblies
 90
     1024
280
     0
281
     0
  0
CLASS
  1
ACAMCOMPDEFMGR
  2
AcAmCompDefMgr
  3
DesignerAssemblies
 90
     1024
280
     0
281
     0
  0
CLASS
  1
AMCONTEXTMGR
  2
AcAmContextMgr
  3
DesignerAssemblies
 90
     1024
280
     0
281
     0
  0
CLASS
  1
ACAMCONTEXTMODELER
  2
AcAmContextModeler
  3
DesignerAssemblies
 90
     1024
280
     0
281
     0
  0
CLASS
  1
ACMTHREADLINESTANDARDISO
  2
AmdtThreadLineStdISO
  3
"Amdt_StdImp|Product Description: AutoCAD Mechanical|Company: Autodesk, Inc."
 90
     1024
280
     0
281
     0
  0
CLASS
  1
CATALOGSTATE
  2
AcAmCatalogState
  3
DesignerAssemblies
 90
    33792
280
     0
281
     0
  0
CLASS
  1
ACAMGRCOMPDEFSET
  2
AcAmGrCompDefSet
  3
DesignerAssemblies
 90
     1024
280
     0
281
     0
  0
CLASS
  1
AMDTBROWSERDBTAB
  2
AmdtBrowserDbTab
  3
McadcomServices
 90
     1024
280
     0
281
     0
  0
CLASS
  1
CBROWSERAPPOBJECT
  2
CBrowserAppObject
  3
McadcomServices
 90
     1024
280
     0
281
     0
  0
CLASS
  1
DM_PLACEHOLDER
  2
AcDmSelsetPlaceholder
  3
McadcomServices
 90
     1024
280
     0
281
     0
  0
CLASS
  1
TABLESTYLE
  2
AcDbTableStyle
  3
ObjectDBX Classes
 90
     4095
280
     0
281
     0
  0
CLASS
  1
VAACXREFPANELOBJECT
  2
VaAcXREFPanelObject
  3
VAAC_ADDIN
 90
    32768
280
     0
281
     0
  0
CLASS
  1
VAACIMAGEINVENTORY
  2
VaAcImageInventory
  3
VAAC_ADDIN
 90
    32768
280
     0
281
     0
  0
CLASS
  1
AMDTNOTETEMPLATEDB
  2
AmdtNoteTemplateDB
  3
AcmSymBB|Product Description: AutoCAD Mechanical|Company: Autodesk, Inc.
 90
     1024
280
     0
281
     0
  0
CLASS
  1
ACMBOM
  2
AcmBom
  3
"AcmSymBB|Product Description: AutoCAD Mechanical|Company: Autodesk, Inc."
 90
    33792
280
     0
281
     0
  0
CLASS
  1
AMDTFORMULAUPDATEDISPATCHER
  2
AmdtFormulaUpdateDispatcher
  3
AcMeServices
 90
    33792
280
     0
281
     0
  0
CLASS
  1
ACMPARTLIST
  2
AcmPartList
  3
"AcmSymBB|Product Description: AutoCAD Mechanical|Company: Autodesk, Inc."
 90
    33792
280
     0
281
     1
  0
CLASS
  1
ACAMGFILTERDAT
  2
AcAmgFilterDat
  3
"AcadM|Product Description: AutoCAD Mechanical|Company: Autodesk, Inc."
 90
    33792
280
     0
281
     0
  0
CLASS
  1
SORTENTSTABLE
  2
AcDbSortentsTable
  3
ObjectDBX Classes
 90
        0
280
     0
281
     0
  0
CLASS
  1
DIMASSOC
  2
AcDbDimAssoc
  3
"AcDbDimAssoc|Product Desc:     AcDim ARX App For Dimension|Company:          Autodesk, Inc.|WEB Address:      www.autodesk.com"
 90
    32768
280
     0
281
     0
  0
CLASS
  1
ACRFATTGENMGR
  2
AcRfAttGeneralMgr
  3
AcAttribServices
 90
    33792
280
     0
281
     0
  0
CLASS
  1
MATERIAL
  2
AcDbMaterial
  3
ObjectDBX Classes
 90
     1153
280
     0
281
     0
  0
CLASS
  1
VISUALSTYLE
  2
AcDbVisualStyle
  3
ObjectDBX Classes
 90
     4095
280
     0
281
     0
  0
CLASS
  1
SCALE
  2
AcDbScale
  3
ObjectDBX Classes
 90
     1153
280
     0
281
     0
  0
CLASS
  1
MLEADERSTYLE
  2
AcDbMLeaderStyle
  3
ACDB_MLEADERSTYLE_CLASS
 90
     4095
280
     0
281
     0
  0
CLASS
  1
ACDBSECTIONVIEWSTYLE
  2
AcDbSectionViewStyle
  3
ObjectDBX Classes
 90
     1025
280
     0
281
     0
  0
CLASS
  1
ACDBDETAILVIEWSTYLE
  2
AcDbDetailViewStyle
  3
ObjectDBX Classes
 90
     1025
280
     0
281
     0
  0
CLASS
  1
EXACXREFPANELOBJECT
  2
ExAcXREFPanelObject
  3
EXAC_ESW
 90
     1025
280
     0
281
     0
  0
CLASS
  1
NPOCOLLECTION
  2
AcDbImpNonPersistentObjectsCollection
  3
ObjectDBX Classes
 90
     1153
280
     0
281
     0
  0
CLASS
  1
AMDTEDGESTANDARDISO13715
  2
AmdtEdgeStdISO13715
  3
"Amdt_StdImp|Product Description: AutoCAD Mechanical|Company: Autodesk, Inc."
 90
     1024
280
     0
281
     0
  0
CLASS
  1
ACMSURFSTANDARDISO2002
  2
AcmSurfTextStdISO2002
  3
"Amdt_StdImp|Product Description: AutoCAD Mechanical|Company: Autodesk, Inc."
 90
     1024
280
     0
281
     0
  0
CLASS
  1
ACMFCFSTANDARDISO2004
  2
AcmFCFStdISO2004
  3
"Amdt_StdImp|Product Description: AutoCAD Mechanical|Company: Autodesk, Inc."
 90
     1024
280
     0
281
     0
  0
CLASS
  1
ACMIDSTANDARDISO2004
  2
AcmIdStdISO2004
  3
"Amdt_StdImp|Product Description: AutoCAD Mechanical|Company: Autodesk, Inc."
 90
     1024
280
     0
281
     0
  0
CLASS
  1
ACMSECTIONSTANDARDISO2001
  2
AmdtSectionSymStdISO2001
  3
"Amdt_StdImp|Product Description: AutoCAD Mechanical|Company: Autodesk, Inc."
 90
     1024
280
     0
281
     0
  0
CLASS
  1
ACMTAPERSTANDARDISO
  2
AcmTaperStdISO
  3
"Amdt_StdImp|Product Description: AutoCAD Mechanical|Company: Autodesk, Inc."
 90
     1024
280
     0
281
     0
  0
CLASS
  1
ACMANOOTATIONVIEWSTANDARDISO
  2
AmdtAnViewStdISO
  3
"Amdt_StdImp|Product Description: AutoCAD Mechanical|Company: Autodesk, Inc."
 90
     1024
280
     0
281
     0
  0
CLASS
  1
CELLSTYLEMAP
  2
AcDbCellStyleMap
  3
ObjectDBX Classes
 90
     1152
280
     0
281
     0
  0
ENDSEC
  0
SECTION
  2
TABLES
  0
TABLE
  2
VPORT
  5
8
330
0
100
AcDbSymbolTable
 70
     1
  0
VPORT
  5
5DD
330
8
100
AcDbSymbolTableRecord
100
AcDbViewportTableRecord
  2
*Active
 70
     0
 10
0.0
 20
0.0
 11
1.0
 21
1.0
 12
264.7609784545689
 22
193.6363956857226
 13
0.0
 23
0.0
 14
2.5
 24
2.5
 15
10.0
 25
10.0
 16
0.0
 26
0.0
 36
1.0
 17
0.0
 27
0.0
 37
0.0
 40
275.1403727995794
 41
0.9857142857142857
 42
50.0
 43
0.0
 44
0.0
 50
0.0
 51
0.0
 71
     0
 72
   100
 73
     1
 74
     3
 75
     0
 76
     0
 77
     0
 78
     0
281
     0
 65
     0
110
0.0
120
0.0
130
0.0
111
1.0
121
0.0
131
0.0
112
0.0
122
1.0
132
0.0
 79
     0
146
0.0
1001
ACAD_NAV_VCDISPLAY
1070
     3
  0
ENDTAB
  0
TABLE
  2
LTYPE
  5
5
330
0
100
AcDbSymbolTable
 70
    14
  0
LTYPE
  5
14
330
5
100
AcDbSymbolTableRecord
100
AcDbLinetypeTableRecord
  2
ByBlock
 70
     0
  3

 72
    65
 73
     0
 40
0.0
  0
LTYPE
  5
15
330
5
100
AcDbSymbolTableRecord
100
AcDbLinetypeTableRecord
  2
ByLayer
 70
     0
  3

 72
    65
 73
     0
 40
0.0
  0
LTYPE
  5
16
330
5
100
AcDbSymbolTableRecord
100
AcDbLinetypeTableRecord
  2
Continuous
 70
     0
  3
Solid line
 72
    65
 73
     0
 40
0.0
  0
LTYPE
  5
64
330
5
100
AcDbSymbolTableRecord
100
AcDbLinetypeTableRecord
  2
AM_ISO02W050
 70
     0
  3
__ __ __ __ __ __ __ __ __ __ __ __ __ __ __
 72
    65
 73
     2
 40
7.5
 49
6.0
 74
     0
 49
-1.5
 74
     0
  0
LTYPE
  5
65
330
5
100
AcDbSymbolTableRecord
100
AcDbLinetypeTableRecord
  2
AM_ISO08W050
 70
     0
  3
____ . ____ . ____ . ____ . ____ . ____ . ____
 72
    65
 73
     4
 40
18.0
 49
12.0
 74
     0
 49
-1.5
 74
     0
 49
3.0
 74
     0
 49
-1.5
 74
     0
  0
LTYPE
  5
66
330
5
100
AcDbSymbolTableRecord
100
AcDbLinetypeTableRecord
  2
AM_ISO09W050
 70
     0
  3
_____ . . _____ . . _____ . . ____ .. ____
 72
    65
 73
     6
 40
22.5
 49
12.0
 74
     0
 49
-1.5
 74
     0
 49
3.0
 74
     0
 49
-1.5
 74
     0
 49
3.0
 74
     0
 49
-1.5
 74
     0
  0
LTYPE
  5
67
330
5
100
AcDbSymbolTableRecord
100
AcDbLinetypeTableRecord
  2
Amconstr
 70
     0
  3
_______________________
 72
    65
 73
     2
 40
9999.0
 49
9999.0
 74
     0
 49
0.0
 74
     0
  0
LTYPE
  5
68
330
5
100
AcDbSymbolTableRecord
100
AcDbLinetypeTableRecord
  2
AM_ISO08W050x2
 70
     0
  3
__ . __ . __ . __ . __ . __
 72
    65
 73
     4
 40
9.0
 49
6.0
 74
     0
 49
-0.75
 74
     0
 49
1.5
 74
     0
 49
-0.75
 74
     0
  0
LTYPE
  5
69
330
5
100
AcDbSymbolTableRecord
100
AcDbLinetypeTableRecord
  2
AM_ISO02W050x2
 70
     0
  3
 _ _ _ _ _ _ _ _ _ _ _ _
 72
    65
 73
     2
 40
3.75
 49
3.0
 74
     0
 49
-0.75
 74
     0
  0
LTYPE
  5
6C
330
5
100
AcDbSymbolTableRecord
100
AcDbLinetypeTableRecord
  2
Amzigzag
 70
     0
  3
/\/-/\/-/\/-/\/-/\/-/\/
 72
    65
 73
     2
 40
11.0001
 49
0.0001
 74
     4
 75
   135
340
6B
 46
0.04
 50
0.0
 44
0.0
 45
0.0
 49
-11.0
 74
     0
  0
LTYPE
  5
7A
330
5
100
AcDbSymbolTableRecord
100
AcDbLinetypeTableRecord
  2
ACISOWELD
 70
     0
  3
_ _ _ _ _
 72
    65
 73
     2
 40
2.0
 49
2.0
 74
     0
 49
-1.0
 74
     0
  0
LTYPE
  5
7B
330
5
100
AcDbSymbolTableRecord
100
AcDbLinetypeTableRecord
  2
ACISOTGB
 70
     0
  3
__ . . __ . .
 72
    65
 73
     6
 40
9.0
 49
4.0
 74
     0
 49
-1.0
 74
     0
 49
1.0
 74
     0
 49
-1.0
 74
     0
 49
1.0
 74
     0
 49
-1.0
 74
     0
  0
LTYPE
  5
7C
330
5
100
AcDbSymbolTableRecord
100
AcDbLinetypeTableRecord
  2
ACISOTGL
 70
     0
  3
_ _ _ _ _
 72
    65
 73
     2
 40
3.0
 49
2.0
 74
     0
 49
-1.0
 74
     0
  0
LTYPE
  5
7E
330
5
100
AcDbSymbolTableRecord
100
AcDbLinetypeTableRecord
  2
CENTER
 70
     0
  3
__ . __
 72
    65
 73
     4
 40
7.0
 49
4.0
 74
     0
 49
-1.0
 74
     0
 49
1.0
 74
     0
 49
-1.0
 74
     0
  0
LTYPE
  5
D8
330
5
100
AcDbSymbolTableRecord
100
AcDbLinetypeTableRecord
  2
HIDDEN
 70
     0
  3
Hidden __ __ __ __ __ __ __ __ __ __ __ __ __ _
 72
    65
 73
     2
 40
9.524999999999996
 49
6.349999999999998
 74
     0
 49
-3.174999999999998
 74
     0
  0
LTYPE
  5
D9
330
5
100
AcDbSymbolTableRecord
100
AcDbLinetypeTableRecord
  2
PHANTOM2
 70
     0
  3
Phantom (.5x) ___ _ _ ___ _ _ ___ _ _ ___ _ _
 72
    65
 73
     6
 40
31.75
 49
15.875
 74
     0
 49
-3.174999999999998
 74
     0
 49
3.174999999999998
 74
     0
 49
-3.174999999999998
 74
     0
 49
3.174999999999998
 74
     0
 49
-3.174999999999998
 74
     0
  0
ENDTAB
  0
TABLE
  2
LAYER
  5
2
102
{ACAD_XDICTIONARY
360
278
102
}
330
0
100
AcDbSymbolTable
 70
     5
  0
LAYER
  5
10
102
{ACAD_XDICTIONARY
360
7AC
102
}
330
2
100
AcDbSymbolTableRecord
100
AcDbLayerTableRecord
  2
0
 70
     0
 62
     7
  6
Continuous
370
    -3
390
F
  0
LAYER
  5
1B0
102
{ACAD_XDICTIONARY
360
7AE
102
}
330
2
100
AcDbSymbolTableRecord
100
AcDbLayerTableRecord
  2
AM_5
 70
     0
 62
     3
  6
Continuous
370
    25
390
F
  0
LAYER
  5
270
102
{ACAD_XDICTIONARY
360
7B0
102
}
330
2
100
AcDbSymbolTableRecord
100
AcDbLayerTableRecord
  2
AM_8
 70
     0
 62
     9
  6
Continuous
370
    25
390
F
  0
LAYER
  5
271
330
2
100
AcDbSymbolTableRecord
100
AcDbLayerTableRecord
  2
Defpoints
 70
     0
 62
     7
  6
Continuous
290
     0
370
    -3
390
F
  0
LAYER
  5
272
102
{ACAD_XDICTIONARY
360
7B2
102
}
330
2
100
AcDbSymbolTableRecord
100
AcDbLayerTableRecord
  2
top
 70
     0
 62
     9
  6
Continuous
370
    -3
390
F
  0
ENDTAB
  0
TABLE
  2
STYLE
  5
3
330
0
100
AcDbSymbolTable
 70
     7
  0
STYLE
  5
11
330
3
100
AcDbSymbolTableRecord
100
AcDbTextStyleTableRecord
  2
STANDARD
 70
     0
 40
0.0
 41
1.0
 50
0.0
 71
     0
 42
1.0
  3
ISOCP.SHX
  4
EXTFONT.SHX
  0
STYLE
  5
6B
330
3
100
AcDbSymbolTableRecord
100
AcDbTextStyleTableRecord
  2

 70
     1
 40
0.0
 41
1.0
 50
0.0
 71
     0
 42
2.5
  3
ltypeshp.shx
  4

  0
STYLE
  5
6D
330
3
100
AcDbSymbolTableRecord
100
AcDbTextStyleTableRecord
  2
ACISOTS
 70
     0
 40
1.0
 41
1.0
 50
0.0
 71
     0
 42
1.0
  3
isocp.shx
  4
extfont.shx
  0
STYLE
  5
79
330
3
100
AcDbSymbolTableRecord
100
AcDbTextStyleTableRecord
  2
ACISOGDT
 70
     0
 40
0.0
 41
1.0
 50
0.0
 71
     0
 42
2.5
  3
amgdt.shx
  4
extfont.shx
  0
STYLE
  5
1F8
330
3
100
AcDbSymbolTableRecord
100
AcDbTextStyleTableRecord
  2
USER1
 70
     0
 40
0.0
 41
1.0
 50
0.0
 71
     0
 42
1.0
  3
TXT.SHX
  4

  0
STYLE
  5
1F9
330
3
100
AcDbSymbolTableRecord
100
AcDbTextStyleTableRecord
  2
USER2
 70
     0
 40
0.0
 41
1.0
 50
0.0
 71
     0
 42
1.0
  3
SIMPLEX.SHX
  4

  0
STYLE
  5
1FA
330
3
100
AcDbSymbolTableRecord
100
AcDbTextStyleTableRecord
  2
USER3
 70
     0
 40
0.0
 41
1.0
 50
0.0
 71
     0
 42
1.0
  3
ITALIC.SHX
  4

  0
ENDTAB
  0
TABLE
  2
VIEW
  5
6
330
0
100
AcDbSymbolTable
 70
     0
  0
ENDTAB
  0
TABLE
  2
UCS
  5
7
330
0
100
AcDbSymbolTable
 70
     0
  0
ENDTAB
  0
TABLE
  2
APPID
  5
9
330
0
100
AcDbSymbolTable
 70
    16
  0
APPID
  5
12
330
9
100
AcDbSymbolTableRecord
100
AcDbRegAppTableRecord
  2
ACAD
 70
     0
  0
APPID
  5
46
330
9
100
AcDbSymbolTableRecord
100
AcDbRegAppTableRecord
  2
MCAD_NO_VIS
 70
     0
  0
APPID
  5
47
330
9
100
AcDbSymbolTableRecord
100
AcDbRegAppTableRecord
  2
ACAD_TEMP_GRAPHIC
 70
     0
  0
APPID
  5
58
330
9
100
AcDbSymbolTableRecord
100
AcDbRegAppTableRecord
  2
ACATTRIBSERVICES
 70
     0
  0
APPID
  5
EE
330
9
100
AcDbSymbolTableRecord
100
AcDbRegAppTableRecord
  2
AD_DRAW
 70
     0
  0
APPID
  5
10C
330
9
100
AcDbSymbolTableRecord
100
AcDbRegAppTableRecord
  2
DESIGNERASSEMBLIES
 70
     0
  0
APPID
  5
111
330
9
100
AcDbSymbolTableRecord
100
AcDbRegAppTableRecord
  2
ACADM_DIM_EDIT
 70
     0
  0
APPID
  5
112
330
9
100
AcDbSymbolTableRecord
100
AcDbRegAppTableRecord
  2
AMDT_DM_ADJ
 70
     0
  0
APPID
  5
274
330
9
100
AcDbSymbolTableRecord
100
AcDbRegAppTableRecord
  2
GENIUS_GENODEF_13
 70
     0
  0
APPID
  5
275
330
9
100
AcDbSymbolTableRecord
100
AcDbRegAppTableRecord
  2
GENIUS_GENOBJ-N-HTC_13
 70
     0
  0
APPID
  5
276
330
9
100
AcDbSymbolTableRecord
100
AcDbRegAppTableRecord
  2
GENIUS_GENHATCH_13
 70
     0
  0
APPID
  5
277
330
9
100
AcDbSymbolTableRecord
100
AcDbRegAppTableRecord
  2
ACAD_PSEXT
 70
     0
  0
APPID
  5
677
330
9
100
AcDbSymbolTableRecord
100
AcDbRegAppTableRecord
  2
ACAD_DSTYLE_DIMBREAK
 70
     0
  0
APPID
  5
678
330
9
100
AcDbSymbolTableRecord
100
AcDbRegAppTableRecord
  2
ACAD_DSTYLE_DIMJAG
 70
     0
  0
APPID
  5
683
330
9
100
AcDbSymbolTableRecord
100
AcDbRegAppTableRecord
  2
ACAD_NAV_VCDISPLAY
 70
     0
  0
APPID
  5
7F8
330
9
100
AcDbSymbolTableRecord
100
AcDbRegAppTableRecord
  2
ACAD_MLEADERVER
 70
     0
  0
ENDTAB
  0
TABLE
  2
DIMSTYLE
  5
A
330
0
100
AcDbSymbolTable
 70
    10
100
AcDbDimStyleTable
 71
     1
340
81
  0
DIMSTYLE
105
27
330
A
100
AcDbSymbolTableRecord
100
AcDbDimStyleTableRecord
  2
ISO-25
 70
     0
 41
2.5
 42
0.625
 43
3.75
 44
1.25
 73
     0
 74
     0
 77
     1
 78
     8
140
2.5
141
2.5
143
0.03937007874016
147
0.625
171
     3
172
     1
271
     2
272
     2
274
     3
278
    44
283
     0
284
     8
340
11
  0
DIMSTYLE
105
81
102
{ACAD_REACTORS
330
666
102
}
330
A
100
AcDbSymbolTableRecord
100
AcDbDimStyleTableRecord
  2
AM_ISO
 70
     0
  4
"
 41
2.5
 42
1.0
 43
10.0
 44
1.0
 47
0.1
 48
0.1
 73
     0
 74
     0
 77
     1
 78
     8
 79
     2
140
3.5
141
0.0
143
0.0393701
146
0.71
147
1.5
172
     1
176
   256
177
   256
178
     2
271
     2
272
     3
274
     4
283
     0
284
     8
340
11
371
    -1
372
    -1
  0
DIMSTYLE
105
82
330
A
100
AcDbSymbolTableRecord
100
AcDbDimStyleTableRecord
  2
AM_ISO$3
 70
     0
  4
"
 41
2.5
 42
1.0
 43
10.0
 44
1.0
 47
0.1
 48
0.1
 73
     0
 77
     1
 78
     8
 79
     2
140
3.5
141
0.0
143
0.0393701
146
0.71
147
1.5
176
   256
177
   256
178
     2
271
     2
272
     3
274
     4
283
     0
284
     8
288
     1
289
     0
340
11
371
    -1
372
    -1
  0
DIMSTYLE
105
83
330
A
100
AcDbSymbolTableRecord
100
AcDbDimStyleTableRecord
  2
AM_ISO$4
 70
     0
  4
"
 41
2.5
 42
1.0
 43
10.0
 44
1.0
 47
0.1
 48
0.1
 73
     0
 77
     1
 78
     8
 79
     2
140
3.5
141
0.0
143
0.0393701
146
0.71
147
1.5
176
   256
177
   256
178
     2
271
     2
272
     3
274
     4
283
     0
284
     8
288
     1
289
     0
340
11
371
    -1
372
    -1
  0
DIMSTYLE
105
84
330
A
100
AcDbSymbolTableRecord
100
AcDbDimStyleTableRecord
  2
AM_ISO$6
 70
     0
  4
"
 41
2.5
 42
1.0
 43
10.0
 44
1.0
 47
0.1
 48
0.1
 73
     0
 74
     0
 78
     8
 79
     2
140
3.5
141
0.0
143
0.0393701
146
0.71
147
1.5
172
     1
176
   256
177
   256
178
     2
271
     2
272
     3
274
     4
283
     0
284
     8
340
11
371
    -1
372
    -1
  0
DIMSTYLE
105
85
330
A
100
AcDbSymbolTableRecord
100
AcDbDimStyleTableRecord
  2
AM_ISO$7
 70
     0
  4
"
 41
2.5
 42
1.0
 43
10.0
 44
1.0
 47
0.1
 48
0.1
 73
     0
 74
     0
 77
     1
 78
     8
 79
     2
140
5.0
141
0.0
143
0.0393701
146
0.71
147
1.5
172
     1
176
   256
177
   256
178
     2
271
     2
272
     3
274
     4
283
     0
284
     8
340
11
371
    -1
372
    -1
  0
DIMSTYLE
105
86
330
A
100
AcDbSymbolTableRecord
100
AcDbDimStyleTableRecord
  2
AM_ISO$SF
 70
     0
  4
"
 41
2.5
 42
1.0
 43
10.0
 44
1.0
 47
0.1
 48
0.1
 73
     0
 74
     0
 75
     1
 76
     1
 77
     1
 78
     8
 79
     2
140
3.5
141
0.0
143
0.0393701
146
0.71
147
1.5
172
     1
176
   256
177
   256
178
     2
271
     2
272
     3
274
     4
283
     0
284
     8
340
11
371
    -1
372
    -1
  0
DIMSTYLE
105
8B
330
A
100
AcDbSymbolTableRecord
100
AcDbDimStyleTableRecord
  2
AM_ISO$SH
 70
     0
  4
"
 41
2.5
 42
1.0
 43
10.0
 44
1.0
 47
0.1
 48
0.1
 73
     0
 74
     0
 75
     1
 76
     1
 77
     1
 78
     8
 79
     2
140
3.5
141
0.0
143
0.0393701
144
2.0
146
0.71
147
1.5
172
     1
173
     1
176
   256
177
   256
178
     2
271
     2
272
     3
274
     4
283
     0
284
     8
340
11
343
87
371
    -1
372
    -1
  0
DIMSTYLE
105
273
330
A
100
AcDbSymbolTableRecord
100
AcDbDimStyleTableRecord
  2
AM_ISO$0
 70
     0
  4
"
 41
2.5
 42
1.0
 43
10.0
 44
1.0
 47
0.1
 48
0.1
 73
     0
 74
     0
 77
     1
 78
     8
 79
     2
140
3.5
141
0.0
143
0.0393701
146
0.71
147
1.5
172
     1
176
   256
177
   256
178
     2
271
     2
272
     3
274
     4
283
     0
284
     8
340
11
371
    -1
372
    -1
  0
DIMSTYLE
105
571
330
A
100
AcDbSymbolTableRecord
100
AcDbDimStyleTableRecord
  2
AM_ISO$2
 70
     0
  4
"
 41
2.5
 42
1.0
 43
10.0
 44
1.0
 47
0.1
 48
0.1
 73
     0
 74
     0
 77
     1
 78
     8
 79
     2
140
3.5
141
0.0
143
0.0393701
146
0.71
147
1.5
172
     1
176
   256
177
   256
178
     2
271
     2
272
     3
274
     4
283
     0
284
     8
340
11
371
    -1
372
    -1
  0
ENDTAB
  0
TABLE
  2
BLOCK_RECORD
  5
1
330
0
100
AcDbSymbolTable
 70
     8
  0
BLOCK_RECORD
  5
1F
102
{ACAD_XDICTIONARY
360
8F
102
}
330
1
100
AcDbSymbolTableRecord
100
AcDbBlockTableRecord
  2
*Model_Space
340
22
  0
BLOCK_RECORD
  5
1B
330
1
100
AcDbSymbolTableRecord
100
AcDbBlockTableRecord
  2
*Paper_Space
340
1E
  0
BLOCK_RECORD
  5
23
330
1
100
AcDbSymbolTableRecord
100
AcDbBlockTableRecord
  2
*Paper_Space0
340
26
  0
BLOCK_RECORD
  5
87
330
1
100
AcDbSymbolTableRecord
100
AcDbBlockTableRecord
  2
GENAXEH
340
0
  0
BLOCK_RECORD
  5
1FD
102
{ACAD_XDICTIONARY
360
1FE
102
}
330
1
100
AcDbSymbolTableRecord
100
AcDbBlockTableRecord
  2
A$C33E15F0C
340
0
102
{BLKREFS
331
43E
102
}
  0
BLOCK_RECORD
  5
525
330
1
100
AcDbSymbolTableRecord
100
AcDbBlockTableRecord
  2
*D3
340
0
  0
BLOCK_RECORD
  5
531
330
1
100
AcDbSymbolTableRecord
100
AcDbBlockTableRecord
  2
*D4
340
0
  0
BLOCK_RECORD
  5
546
330
1
100
AcDbSymbolTableRecord
100
AcDbBlockTableRecord
  2
*D5
340
0
  0
ENDTAB
  0
ENDSEC
  0
SECTION
  2
BLOCKS
  0
BLOCK
  5
20
330
1F
100
AcDbEntity
  8
0
100
AcDbBlockBegin
  2
*Model_Space
 70
     0
 10
0.0
 20
0.0
 30
0.0
  3
*Model_Space
  1

  0
ENDBLK
  5
21
330
1F
100
AcDbEntity
  8
0
100
AcDbBlockEnd
  0
BLOCK
  5
1C
330
1B
100
AcDbEntity
 67
     1
  8
0
100
AcDbBlockBegin
  2
*Paper_Space
 70
     0
 10
0.0
 20
0.0
 30
0.0
  3
*Paper_Space
  1

  0
ENDBLK
  5
1D
330
1B
100
AcDbEntity
 67
     1
  8
0
100
AcDbBlockEnd
  0
BLOCK
  5
24
330
23
100
AcDbEntity
 67
     1
  8
0
100
AcDbBlockBegin
  2
*Paper_Space0
 70
     0
 10
0.0
 20
0.0
 30
0.0
  3
*Paper_Space0
  1

  0
ENDBLK
  5
25
330
23
100
AcDbEntity
 67
     1
  8
0
100
AcDbBlockEnd
  0
BLOCK
  5
89
330
87
100
AcDbEntity
  8
0
100
AcDbBlockBegin
  2
GENAXEH
 70
     0
 10
0.0
 20
0.0
 30
0.0
  3
GENAXEH
  1

  0
LINE
  5
88
330
87
100
AcDbEntity
  8
0
100
AcDbLine
 10
-1.0
 20
0.0
 30
0.0
 11
1.0
 21
0.0
 31
0.0
  0
ENDBLK
  5
8A
330
87
100
AcDbEntity
  8
0
100
AcDbBlockEnd
  0
BLOCK
  5
200
330
1FD
100
AcDbEntity
  8
0
 62
     9
100
AcDbBlockBegin
  2
A$C33E15F0C
 70
     0
 10
0.0
 20
0.0
 30
0.0
  3
A$C33E15F0C
  1

  0
LINE
  5
201
330
1FD
100
AcDbEntity
  8
0
100
AcDbLine
 10
-3.907440000000065
 20
-2.449440000000095
 30
0.0
 11
-5.773680000000126
 21
-2.449440000000095
 31
0.0
  0
LINE
  5
202
330
1FD
100
AcDbEntity
  8
0
100
AcDbLine
 10
-3.907440000000065
 20
0.0
 30
0.0
 11
-5.773680000000126
 21
0.0
 31
0.0
  0
HATCH
  5
203
330
1FD
100
AcDbEntity
  8
AM_8
100
AcDbHatch
 10
0.0
 20
0.0
 30
0.0
210
0.0
220
0.0
230
1.0
  2
SOLID
 70
     1
 71
     0
 91
        1
 92
        1
 93
       28
 72
     1
 10
-4.374000000000023
 20
-0.3499200000001679
 11
-3.907439999999951
 21
-0.3499200000001679
 72
     1
 10
-3.907439999999951
 20
-0.3499200000001679
 11
-3.907439999999951
 21
-0.0000000000001137
 72
     1
 10
-3.907439999999951
 20
-0.0000000000001137
 11
-5.773680000000013
 21
-0.0000000000001137
 72
     1
 10
-5.773680000000126
 20
-0.0000000000001137
 11
-5.773680000000126
 21
-0.3499200000001679
 72
     1
 10
-5.773680000000126
 20
-0.3499200000001679
 11
-5.307120000000053
 21
-0.3499200000001679
 72
     1
 10
-5.307120000000053
 20
-0.3499200000001679
 11
-5.307120000000053
 21
-2.09952000000021
 72
     1
 10
-5.307120000000053
 20
-2.09952000000021
 11
-5.773680000000126
 21
-2.09952000000021
 72
     1
 10
-5.773680000000126
 20
-2.09952000000021
 11
-5.773680000000126
 21
-2.449440000000265
 72
     1
 10
-5.773680000000126
 20
-2.449440000000207
 11
-3.907440000000065
 21
-2.449440000000207
 72
     1
 10
-3.907439999999951
 20
-2.449440000000207
 11
-3.907439999999951
 21
-2.099520000000154
 72
     1
 10
-3.907439999999951
 20
-2.09952000000021
 11
-4.374000000000023
 21
-2.09952000000021
 72
     1
 10
-4.374000000000023
 20
-2.09952000000021
 11
-4.374000000000023
 21
-1.42884000000015
 72
     1
 10
-4.374000000000023
 20
-1.42884000000015
 11
-2.799360000000091
 21
-1.42884000000015
 72
     1
 10
-2.79935999999975
 20
-1.42884000000015
 11
-2.79935999999975
 21
-2.09952000000021
 72
     1
 10
-2.79935999999975
 20
-2.09952000000021
 11
-3.265919999999823
 21
-2.09952000000021
 72
     1
 10
-3.265919999999823
 20
-2.09952000000021
 11
-3.265919999999823
 21
-2.449440000000265
 72
     1
 10
-3.265919999999823
 20
-2.449440000000207
 11
-1.399679999999988
 21
-2.449440000000207
 72
     1
 10
-1.399679999999988
 20
-2.449440000000207
 11
-1.399679999999988
 21
-2.099520000000154
 72
     1
 10
-1.399679999999988
 20
-2.09952000000021
 11
-1.866240000000061
 21
-2.09952000000021
 72
     1
 10
-1.866239999999834
 20
-2.09952000000021
 11
-1.866239999999834
 21
-0.3499200000001679
 72
     1
 10
-1.866239999999834
 20
-0.3499200000001679
 11
-1.399679999999988
 21
-0.3499200000001679
 72
     1
 10
-1.399679999999988
 20
-0.3499200000001679
 11
-1.399679999999988
 21
-0.0000000000001137
 72
     1
 10
-1.399679999999988
 20
-0.0000000000001137
 11
-3.265920000000051
 21
-0.0000000000001137
 72
     1
 10
-3.265919999999823
 20
-0.0000000000001137
 11
-3.265919999999823
 21
-0.3499200000001679
 72
     1
 10
-3.265919999999823
 20
-0.3499200000001679
 11
-2.799359999999636
 21
-0.3499200000001679
 72
     1
 10
-2.79935999999975
 20
-0.3499200000001679
 11
-2.79935999999975
 21
-1.020600000000229
 72
     1
 10
-2.79935999999975
 20
-1.020600000000114
 11
-4.373999999999681
 21
-1.020600000000114
 72
     1
 10
-4.374000000000023
 20
-1.020600000000114
 11
-4.374000000000023
 21
-0.3499200000000542
 97
        0
 75
     0
 76
     1
 98
        1
 10
-335.7470661938136
 20
-272.0088518731996
1001
GENIUS_GENOBJ-N-HTC_13
1002
{
1000
OWNER
1000
GEN
1002
}
1001
GENIUS_GENODEF_13
1002
{
1000
HIER
1070
     0
1002
}
1002
{
1000
MANEDIT
1070
     0
1002
}
1002
{
1000
NOSEL
1070
     0
1002
}
1002
{
1000
BEHIND
1070
     0
1002
}
1002
{
1000
OTHER
1070
     0
1002
}
1002
{
1000
REACTOR
1002
}
1001
GENIUS_GENHATCH_13
1002
{
1000
DATA
1040
45.0
1042
3.645
1000
_U
1070
     0
1011
-4.802250346675235
1021
-1.078881215933563
1031
0.0
1002
}
1002
{
1000
UCS
1010
0.0
1020
0.0
1030
0.0
1010
1.0
1020
0.0
1030
0.0
1010
0.0
1020
1.0
1030
0.0
1002
}
  0
LINE
  5
204
330
1FD
100
AcDbEntity
  8
0
100
AcDbLine
 10
-6.18191999999999
 20
-0.9400073221374327
 30
0.0
 11
-6.838584006526956
 21
-0.9400073221374327
 31
0.0
  0
LINE
  5
205
330
1FD
100
AcDbEntity
  8
0
100
AcDbLine
 10
-6.18191999999999
 20
-1.509432677862776
 30
0.0
 11
-6.838584006526956
 21
-1.509432677862776
 31
0.0
  0
LINE
  5
206
330
1FD
100
AcDbEntity
  8
0
100
AcDbLine
 10
-6.18191999999999
 20
0.0
 30
0.0
 11
-6.648480000000062
 21
0.0
 31
0.0
  0
ELLIPSE
  5
207
330
1FD
100
AcDbEntity
  8
0
100
AcDbEllipse
 10
-8.106736118057026
 20
-1.224720000000047
 30
0.0
 11
1.341171236573521
 21
0.0
 31
0.0
210
0.0
220
0.0
230
1.0
 40
0.6522657033974081
 41
0.3314984999877911
 42
5.951686807191793
  0
LINE
  5
208
330
1FD
100
AcDbEntity
  8
0
100
AcDbLine
 10
-6.648480000000062
 20
0.0
 30
0.0
 11
-6.648480000000062
 21
-0.4194301318611339
 31
0.0
  0
LINE
  5
209
330
1FD
100
AcDbEntity
  8
0
100
AcDbLine
 10
-5.307120000000053
 20
-0.3499200000000542
 30
0.0
 11
-5.307120000000053
 21
-2.099520000000154
 31
0.0
  0
LINE
  5
20A
330
1FD
100
AcDbEntity
  8
0
100
AcDbLine
 10
-5.307120000000053
 20
-2.099520000000154
 30
0.0
 11
-5.773680000000126
 21
-2.099520000000154
 31
0.0
  0
LINE
  5
20B
330
1FD
100
AcDbEntity
  8
0
100
AcDbLine
 10
-5.773680000000126
 20
-2.099520000000154
 30
0.0
 11
-5.773680000000126
 21
-2.449440000000095
 31
0.0
  0
LINE
  5
20C
330
1FD
100
AcDbEntity
  8
0
100
AcDbLine
 10
-5.307120000000053
 20
-0.3499200000000542
 30
0.0
 11
-5.773680000000126
 21
-0.3499200000000542
 31
0.0
  0
LINE
  5
20D
330
1FD
100
AcDbEntity
  8
0
100
AcDbLine
 10
-6.18191999999999
 20
0.0
 30
0.0
 11
-6.18191999999999
 21
-0.9400073221374327
 31
0.0
  0
LINE
  5
20E
330
1FD
100
AcDbEntity
  8
0
100
AcDbLine
 10
-5.773680000000126
 20
0.0
 30
0.0
 11
-5.773680000000126
 21
-0.3499200000000542
 31
0.0
  0
HATCH
  5
20F
330
1FD
100
AcDbEntity
  8
AM_8
100
AcDbHatch
 10
0.0
 20
0.0
 30
0.0
210
0.0
220
0.0
230
1.0
  2
SOLID
 70
     1
 71
     0
 91
        1
 92
        1
 93
        7
 72
     1
 10
-6.18191999999999
 20
-0.9400073221374896
 11
-6.18191999999999
 21
-0.0000000000001137
 72
     1
 10
-6.18191999999999
 20
-0.0000000000001137
 11
-6.648480000000062
 21
-0.0000000000001137
 72
     1
 10
-6.648480000000062
 20
-0.0000000000001137
 11
-6.648480000000062
 21
-0.4194301318612476
 72
     3
 10
-8.252313677315212
 20
-1.224720000000047
 11
2.128713677315389
 21
0.0
 40
0.5753333635477672
 50
26.66136925906811
 51
352.1700123371432
 73
     1
 72
     1
 10
-6.181919999999878
 20
-1.509432677862661
 11
-6.838584006526615
 21
-1.509432677862661
 72
     3
 10
-8.106736118057026
 20
-1.224720000000047
 11
1.341171236573521
 21
0.0
 40
0.6522657033974081
 50
12.65365199701549
 51
347.3463480029844
 73
     0
 72
     1
 10
-6.838584006526843
 20
-0.9400073221374896
 11
-6.181920000000103
 21
-0.9400073221374896
 97
        0
 75
     0
 76
     1
 98
        1
 10
-335.7470661938136
 20
-272.0088518731996
1001
GENIUS_GENOBJ-N-HTC_13
1002
{
1000
OWNER
1000
GEN
1002
}
1001
GENIUS_GENODEF_13
1002
{
1000
HIER
1070
     0
1002
}
1002
{
1000
MANEDIT
1070
     0
1002
}
1002
{
1000
NOSEL
1070
     0
1002
}
1002
{
1000
BEHIND
1070
     0
1002
}
1002
{
1000
OTHER
1070
     0
1002
}
1002
{
1000
REACTOR
1002
}
1001
GENIUS_GENHATCH_13
1002
{
1000
DATA
1040
45.0
1042
3.645
1000
_U
1070
     0
1011
-9.890696664195502
1021
-1.123496238521795
1031
0.0
1002
}
1002
{
1000
UCS
1010
0.0
1020
0.0
1030
0.0
1010
1.0
1020
0.0
1030
0.0
1010
0.0
1020
1.0
1030
0.0
1002
}
  0
ELLIPSE
  5
210
330
1FD
100
AcDbEntity
  8
0
100
AcDbEllipse
 10
-8.252313677315212
 20
-1.224720000000047
 30
0.0
 11
-2.128713677315389
 21
0.0
 31
0.0
210
0.0
220
0.0
230
1.0
 40
0.5753333635477672
 41
3.859128061423156
 42
9.190159774811283
  0
LINE
  5
211
330
1FD
100
AcDbEntity
  8
0
100
AcDbLine
 10
2.857680000000073
 20
0.0
 30
0.0
 11
1.399680000000103
 21
0.0
 31
0.0
  0
LINE
  5
212
330
1FD
100
AcDbEntity
  8
0
100
AcDbLine
 10
2.857680000000073
 20
-2.449440000000095
 30
0.0
 11
1.399680000000103
 21
-2.449440000000095
 31
0.0
  0
LINE
  5
213
330
1FD
100
AcDbEntity
  8
0
100
AcDbLine
 10
2.391119999999999
 20
-0.6881170894064895
 30
0.0
 11
4.152442910593662
 21
-2.449440000000095
 31
0.0
  0
LINE
  5
214
330
1FD
100
AcDbEntity
  8
0
100
AcDbLine
 10
2.391119999999999
 20
-2.099520000000154
 30
0.0
 11
2.857680000000073
 21
-2.099520000000154
 31
0.0
  0
HATCH
  5
215
330
1FD
100
AcDbEntity
  8
AM_8
100
AcDbHatch
 10
0.0
 20
0.0
 30
0.0
210
0.0
220
0.0
230
1.0
  2
SOLID
 70
     1
 71
     0
 91
        1
 92
        1
 93
       20
 72
     1
 10
5.132159999999998
 20
-2.449440000000207
 11
5.132159999999998
 21
-0.349920000000111
 72
     1
 10
5.132159999999998
 20
-0.3499200000001679
 11
5.598720000000297
 21
-0.3499200000001679
 72
     1
 10
5.598720000000071
 20
-0.3499200000001679
 11
5.598720000000071
 21
-0.0000000000001137
 72
     1
 10
5.598720000000071
 20
-0.0000000000001137
 11
4.140720000000101
 21
-0.0000000000001137
 72
     1
 10
4.140720000000101
 20
-0.0000000000001137
 11
4.140720000000101
 21
-0.3499200000001679
 72
     1
 10
4.140720000000101
 20
-0.3499200000001679
 11
4.607280000000172
 21
-0.3499200000001679
 72
     1
 10
4.607280000000057
 20
-0.3499200000001679
 11
4.607280000000057
 21
-1.749600000000157
 72
     1
 10
4.607280000000057
 20
-1.749600000000157
 11
2.857680000000185
 21
-0.0000000000001137
 72
     1
 10
2.857680000000185
 20
-0.0000000000001137
 11
1.399680000000215
 21
-0.0000000000001137
 72
     1
 10
1.399680000000103
 20
-0.0000000000001137
 11
1.399680000000103
 21
-0.3499200000001679
 72
     1
 10
1.399680000000103
 20
-0.3499200000001679
 11
1.866240000000174
 21
-0.3499200000001679
 72
     1
 10
1.866240000000174
 20
-0.3499200000001679
 11
1.866240000000174
 21
-2.09952000000021
 72
     1
 10
1.866240000000174
 20
-2.09952000000021
 11
1.399680000000103
 21
-2.09952000000021
 72
     1
 10
1.399680000000103
 20
-2.09952000000021
 11
1.399680000000103
 21
-2.449440000000265
 72
     1
 10
1.399680000000103
 20
-2.449440000000207
 11
2.857680000000073
 21
-2.449440000000207
 72
     1
 10
2.857680000000185
 20
-2.449440000000207
 11
2.857680000000185
 21
-2.099520000000154
 72
     1
 10
2.857680000000185
 20
-2.09952000000021
 11
2.391120000000114
 21
-2.09952000000021
 72
     1
 10
2.391120000000114
 20
-2.09952000000021
 11
2.391120000000114
 21
-0.6881170894066031
 72
     1
 10
2.391120000000114
 20
-0.6881170894066031
 11
4.152442910593777
 21
-2.449440000000265
 72
     1
 10
4.152442910593662
 20
-2.449440000000207
 11
5.132159999999998
 21
-2.449440000000207
 97
        0
 75
     0
 76
     1
 98
        1
 10
-335.7470661938136
 20
-272.0088518731996
1001
GENIUS_GENOBJ-N-HTC_13
1002
{
1000
OWNER
1000
GEN
1002
}
1001
GENIUS_GENODEF_13
1002
{
1000
HIER
1070
     0
1002
}
1002
{
1000
MANEDIT
1070
     0
1002
}
1002
{
1000
NOSEL
1070
     0
1002
}
1002
{
1000
BEHIND
1070
     0
1002
}
1002
{
1000
OTHER
1070
     0
1002
}
1002
{
1000
REACTOR
1002
}
1001
GENIUS_GENHATCH_13
1002
{
1000
DATA
1040
45.0
1042
3.645
1000
_U
1070
     0
1011
3.44072779579244
1021
-1.346739740427948
1031
0.0
1002
}
1002
{
1000
UCS
1010
0.0
1020
0.0
1030
0.0
1010
1.0
1020
0.0
1030
0.0
1010
0.0
1020
1.0
1030
0.0
1002
}
  0
HATCH
  5
216
330
1FD
100
AcDbEntity
  8
AM_8
100
AcDbHatch
 10
0.0
 20
0.0
 30
0.0
210
0.0
220
0.0
230
1.0
  2
SOLID
 70
     1
 71
     0
 91
        1
 92
        1
 93
       12
 72
     1
 10
-0.9331200000000308
 20
-2.09952000000021
 11
-0.9331200000000308
 21
-2.449440000000265
 72
     1
 10
-0.9331200000000308
 20
-2.449440000000207
 11
0.9331200000000308
 21
-2.449440000000207
 72
     1
 10
0.9331200000000308
 20
-2.449440000000207
 11
0.9331200000000308
 21
-2.099520000000154
 72
     1
 10
0.9331200000000308
 20
-2.09952000000021
 11
0.4665599999999587
 21
-2.09952000000021
 72
     1
 10
0.4665600000000724
 20
-2.09952000000021
 11
0.4665599999998449
 21
-0.3499200000001679
 72
     1
 10
0.4665600000000724
 20
-0.3499200000001679
 11
0.9331200000001443
 21
-0.3499200000001679
 72
     1
 10
0.9331200000000308
 20
-0.3499200000001679
 11
0.9331200000000308
 21
-0.0000000000001137
 72
     1
 10
0.9331200000000308
 20
-0.0000000000001137
 11
-0.9331200000000308
 21
-0.0000000000001137
 72
     1
 10
-0.9331200000000308
 20
-0.0000000000001137
 11
-0.9331200000000308
 21
-0.3499200000001679
 72
     1
 10
-0.9331200000000308
 20
-0.3499200000001679
 11
-0.4665599999999587
 21
-0.3499200000001679
 72
     1
 10
-0.4665599999999587
 20
-0.3499200000001679
 11
-0.4665599999999587
 21
-2.09952000000021
 72
     1
 10
-0.4665599999999587
 20
-2.09952000000021
 11
-0.9331200000000308
 21
-2.09952000000021
 97
        0
 75
     0
 76
     1
 98
        1
 10
-335.7470661938136
 20
-272.0088518731996
1001
GENIUS_GENOBJ-N-HTC_13
1002
{
1000
OWNER
1000
GEN
1002
}
1001
GENIUS_GENODEF_13
1002
{
1000
HIER
1070
     0
1002
}
1002
{
1000
MANEDIT
1070
     0
1002
}
1002
{
1000
NOSEL
1070
     0
1002
}
1002
{
1000
BEHIND
1070
     0
1002
}
1002
{
1000
OTHER
1070
     0
1002
}
1002
{
1000
REACTOR
1002
}
1001
GENIUS_GENHATCH_13
1002
{
1000
DATA
1040
45.0
1042
3.645
1000
_U
1070
     0
1011
-0.0262533612651623
1021
-1.056574070702652
1031
0.0
1002
}
1002
{
1000
UCS
1010
0.0
1020
0.0
1030
0.0
1010
1.0
1020
0.0
1030
0.0
1010
0.0
1020
1.0
1030
0.0
1002
}
  0
LINE
  5
217
330
1FD
100
AcDbEntity
  8
0
100
AcDbLine
 10
-1.866239999999946
 20
-0.3499200000000542
 30
0.0
 11
-1.866239999999946
 21
-2.099520000000154
 31
0.0
  0
LINE
  5
218
330
1FD
100
AcDbEntity
  8
0
100
AcDbLine
 10
-0.4665599999999587
 20
-0.3499200000000542
 30
0.0
 11
-0.4665599999999587
 21
-2.099520000000154
 31
0.0
  0
LINE
  5
219
330
1FD
100
AcDbEntity
  8
0
100
AcDbLine
 10
1.866240000000061
 20
-0.3499200000000542
 30
0.0
 11
1.866240000000061
 21
-2.099520000000154
 31
0.0
  0
LINE
  5
21A
330
1FD
100
AcDbEntity
  8
0
100
AcDbLine
 10
0.4665600000000724
 20
-0.3499200000000542
 30
0.0
 11
0.4665600000000724
 21
-2.099520000000154
 31
0.0
  0
LINE
  5
21B
330
1FD
100
AcDbEntity
  8
0
100
AcDbLine
 10
0.9331200000000308
 20
-2.099520000000154
 30
0.0
 11
0.4665600000000724
 21
-2.099520000000154
 31
0.0
  0
LINE
  5
21C
330
1FD
100
AcDbEntity
  8
0
100
AcDbLine
 10
1.399680000000103
 20
-2.099520000000154
 30
0.0
 11
1.399680000000103
 21
-2.449440000000095
 31
0.0
  0
LINE
  5
21D
330
1FD
100
AcDbEntity
  8
0
100
AcDbLine
 10
0.9331200000000308
 20
-2.099520000000154
 30
0.0
 11
0.9331200000000308
 21
-2.449440000000095
 31
0.0
  0
LINE
  5
21E
330
1FD
100
AcDbEntity
  8
0
100
AcDbLine
 10
1.866240000000061
 20
-2.099520000000154
 30
0.0
 11
1.399680000000103
 21
-2.099520000000154
 31
0.0
  0
LINE
  5
21F
330
1FD
100
AcDbEntity
  8
0
100
AcDbLine
 10
-1.399680000000103
 20
-2.099520000000154
 30
0.0
 11
-1.866239999999946
 21
-2.099520000000154
 31
0.0
  0
LINE
  5
220
330
1FD
100
AcDbEntity
  8
0
100
AcDbLine
 10
-0.9331200000000308
 20
-2.099520000000154
 30
0.0
 11
-0.9331200000000308
 21
-2.449440000000095
 31
0.0
  0
LINE
  5
221
330
1FD
100
AcDbEntity
  8
0
100
AcDbLine
 10
-1.399680000000103
 20
-2.099520000000154
 30
0.0
 11
-1.399680000000103
 21
-2.449440000000095
 31
0.0
  0
LINE
  5
222
330
1FD
100
AcDbEntity
  8
0
100
AcDbLine
 10
0.9331200000000308
 20
-2.449440000000095
 30
0.0
 11
-0.9331200000000308
 21
-2.449440000000095
 31
0.0
  0
LINE
  5
223
330
1FD
100
AcDbEntity
  8
0
100
AcDbLine
 10
-0.4665599999999587
 20
-2.099520000000154
 30
0.0
 11
-0.9331200000000308
 21
-2.099520000000154
 31
0.0
  0
LINE
  5
224
330
1FD
100
AcDbEntity
  8
0
100
AcDbLine
 10
0.9331200000000308
 20
-0.3499200000000542
 30
0.0
 11
0.4665600000000724
 21
-0.3499200000000542
 31
0.0
  0
LINE
  5
225
330
1FD
100
AcDbEntity
  8
0
100
AcDbLine
 10
0.9331200000000308
 20
0.0
 30
0.0
 11
0.9331200000000308
 21
-0.3499200000000542
 31
0.0
  0
LINE
  5
226
330
1FD
100
AcDbEntity
  8
0
100
AcDbLine
 10
1.399680000000103
 20
0.0
 30
0.0
 11
1.399680000000103
 21
-0.3499200000000542
 31
0.0
  0
LINE
  5
227
330
1FD
100
AcDbEntity
  8
0
100
AcDbLine
 10
1.866240000000061
 20
-0.3499200000000542
 30
0.0
 11
1.399680000000103
 21
-0.3499200000000542
 31
0.0
  0
LINE
  5
228
330
1FD
100
AcDbEntity
  8
0
100
AcDbLine
 10
-1.399680000000103
 20
-0.3499200000000542
 30
0.0
 11
-1.866239999999946
 21
-0.3499200000000542
 31
0.0
  0
LINE
  5
229
330
1FD
100
AcDbEntity
  8
0
100
AcDbLine
 10
-0.9331200000000308
 20
0.0
 30
0.0
 11
-0.9331200000000308
 21
-0.3499200000000542
 31
0.0
  0
LINE
  5
22A
330
1FD
100
AcDbEntity
  8
0
100
AcDbLine
 10
-1.399680000000103
 20
0.0
 30
0.0
 11
-1.399680000000103
 21
-0.3499200000000542
 31
0.0
  0
LINE
  5
22B
330
1FD
100
AcDbEntity
  8
0
100
AcDbLine
 10
0.9331200000000308
 20
0.0
 30
0.0
 11
-0.9331200000000308
 21
0.0
 31
0.0
  0
LINE
  5
22C
330
1FD
100
AcDbEntity
  8
0
100
AcDbLine
 10
-0.4665599999999587
 20
-0.3499200000000542
 30
0.0
 11
-0.9331200000000308
 21
-0.3499200000000542
 31
0.0
  0
LINE
  5
22D
330
1FD
100
AcDbEntity
  8
0
100
AcDbLine
 10
2.391119999999999
 20
-0.6881170894064895
 30
0.0
 11
2.391119999999999
 21
-2.099520000000154
 31
0.0
  0
LINE
  5
22E
330
1FD
100
AcDbEntity
  8
0
100
AcDbLine
 10
-4.374000000000023
 20
-1.428840000000092
 30
0.0
 11
-2.799359999999865
 21
-1.428840000000092
 31
0.0
  0
LINE
  5
22F
330
1FD
100
AcDbEntity
  8
0
100
AcDbLine
 10
-2.799359999999865
 20
-2.099520000000154
 30
0.0
 11
-3.265920000000163
 21
-2.099520000000154
 31
0.0
  0
LINE
  5
230
330
1FD
100
AcDbEntity
  8
0
100
AcDbLine
 10
-3.265920000000163
 20
-2.099520000000154
 30
0.0
 11
-3.265920000000163
 21
-2.449440000000095
 31
0.0
  0
LINE
  5
231
330
1FD
100
AcDbEntity
  8
0
100
AcDbLine
 10
-3.907440000000065
 20
-2.099520000000154
 30
0.0
 11
-4.374000000000023
 21
-2.099520000000154
 31
0.0
  0
LINE
  5
232
330
1FD
100
AcDbEntity
  8
0
100
AcDbLine
 10
-3.907440000000065
 20
-2.099520000000154
 30
0.0
 11
-3.907440000000065
 21
-2.449440000000095
 31
0.0
  0
LINE
  5
233
330
1FD
100
AcDbEntity
  8
0
100
AcDbLine
 10
-2.799359999999865
 20
-1.428840000000092
 30
0.0
 11
-2.799359999999865
 21
-2.099520000000154
 31
0.0
  0
LINE
  5
234
330
1FD
100
AcDbEntity
  8
0
100
AcDbLine
 10
-4.374000000000023
 20
-1.428840000000092
 30
0.0
 11
-4.374000000000023
 21
-2.099520000000154
 31
0.0
  0
LINE
  5
235
330
1FD
100
AcDbEntity
  8
0
100
AcDbLine
 10
-2.799359999999865
 20
-0.3499200000000542
 30
0.0
 11
-2.799359999999865
 21
-1.020600000000114
 31
0.0
  0
LINE
  5
236
330
1FD
100
AcDbEntity
  8
0
100
AcDbLine
 10
-2.799359999999865
 20
-0.3499200000000542
 30
0.0
 11
-3.265920000000163
 21
-0.3499200000000542
 31
0.0
  0
LINE
  5
237
330
1FD
100
AcDbEntity
  8
0
100
AcDbLine
 10
-3.265920000000163
 20
0.0
 30
0.0
 11
-3.265920000000163
 21
-0.3499200000000542
 31
0.0
  0
LINE
  5
238
330
1FD
100
AcDbEntity
  8
0
100
AcDbLine
 10
-4.374000000000023
 20
-0.3499200000000542
 30
0.0
 11
-4.374000000000023
 21
-1.020600000000114
 31
0.0
  0
LINE
  5
239
330
1FD
100
AcDbEntity
  8
0
100
AcDbLine
 10
-3.907440000000065
 20
-0.3499200000000542
 30
0.0
 11
-4.374000000000023
 21
-0.3499200000000542
 31
0.0
  0
LINE
  5
23A
330
1FD
100
AcDbEntity
  8
0
100
AcDbLine
 10
-3.907440000000065
 20
0.0
 30
0.0
 11
-3.907440000000065
 21
-0.3499200000000542
 31
0.0
  0
LINE
  5
23B
330
1FD
100
AcDbEntity
  8
0
100
AcDbLine
 10
-4.374000000000023
 20
-1.020600000000114
 30
0.0
 11
-2.799359999999865
 21
-1.020600000000114
 31
0.0
  0
LINE
  5
23C
330
1FD
100
AcDbEntity
  8
0
100
AcDbLine
 10
-1.399680000000103
 20
-2.449440000000095
 30
0.0
 11
-3.265920000000163
 21
-2.449440000000095
 31
0.0
  0
LINE
  5
23D
330
1FD
100
AcDbEntity
  8
0
100
AcDbLine
 10
-1.399680000000103
 20
0.0
 30
0.0
 11
-3.265920000000163
 21
0.0
 31
0.0
  0
ELLIPSE
  5
23E
330
1FD
100
AcDbEntity
  8
0
100
AcDbEllipse
 10
7.814913677315644
 20
-1.224720000000047
 30
0.0
 11
-1.166433677315396
 21
0.0
 31
0.0
210
0.0
220
0.0
230
1.0
 40
0.7499783459728239
 41
0.0
 42
6.283185307179585
  0
HATCH
  5
23F
330
1FD
100
AcDbEntity
  8
AM_8
100
AcDbHatch
 10
0.0
 20
0.0
 30
0.0
210
0.0
220
0.0
230
1.0
  2
SOLID
 70
     1
 71
     0
 91
        2
 92
        1
 93
        2
 72
     3
 10
7.81488000000013
 20
-1.224720000000047
 11
2.099519999999997
 21
0.0
 40
0.5833333335538832
 50
6.743768695798088
 51
347.6138156855553
 73
     1
 72
     3
 10
7.81488000000013
 20
-1.224720000000047
 11
2.099519999999997
 21
0.0
 40
0.5833333335538832
 50
347.6138156855553
 51
366.7437686957981
 73
     1
 97
        0
 92
       16
 93
        2
 72
     3
 10
7.814913677315644
 20
-1.224720000000047
 11
1.166433677315396
 21
0.0
 40
0.7499783459728239
 50
356.5927042089461
 51
188.6443783071995
 73
     1
 72
     3
 10
7.814913677315644
 20
-1.224720000000047
 11
1.166433677315396
 21
0.0
 40
0.7499783459728239
 50
188.6443783071994
 51
356.5927042089461
 73
     1
 97
        0
 75
     0
 76
     1
 98
        1
 10
-335.7470661938136
 20
-272.0088518731996
1001
GENIUS_GENOBJ-N-HTC_13
1002
{
1000
OWNER
1000
GEN
1002
}
1001
GENIUS_GENODEF_13
1002
{
1000
HIER
1070
     0
1002
}
1002
{
1000
MANEDIT
1070
     0
1002
}
1002
{
1000
NOSEL
1070
     0
1002
}
1002
{
1000
BEHIND
1070
     0
1002
}
1002
{
1000
OTHER
1070
     0
1002
}
1002
{
1000
REACTOR
1002
}
1001
GENIUS_GENHATCH_13
1002
{
1000
DATA
1040
45.0
1042
3.645
1000
_U
1070
     0
1011
9.265659093776092
1021
-1.324432595197038
1031
0.0
1002
}
1002
{
1000
UCS
1010
0.0
1020
0.0
1030
0.0
1010
1.0
1020
0.0
1030
0.0
1010
0.0
1020
1.0
1030
0.0
1002
}
  0
ELLIPSE
  5
240
330
1FD
100
AcDbEntity
  8
0
100
AcDbEllipse
 10
7.81488000000013
 20
-1.224720000000047
 30
0.0
 11
-2.099519999999997
 21
0.0
 31
0.0
210
0.0
220
0.0
230
1.0
 40
0.5833333335538832
 41
0.0
 42
6.283185307179585
  0
LINE
  5
241
330
1FD
100
AcDbEntity
  8
0
100
AcDbLine
 10
5.598720000000071
 20
0.0
 30
0.0
 11
5.598720000000071
 21
-0.3499200000000542
 31
0.0
  0
LINE
  5
242
330
1FD
100
AcDbEntity
  8
0
100
AcDbLine
 10
4.607280000000172
 20
-0.3499200000000542
 30
0.0
 11
4.607280000000172
 21
-1.7496000000001
 31
0.0
  0
LINE
  5
243
330
1FD
100
AcDbEntity
  8
0
100
AcDbLine
 10
2.857680000000073
 20
0.0
 30
0.0
 11
4.607280000000172
 21
-1.7496000000001
 31
0.0
  0
LINE
  5
244
330
1FD
100
AcDbEntity
  8
0
100
AcDbLine
 10
5.132159999999998
 20
-0.3499200000000542
 30
0.0
 11
5.132159999999998
 21
-2.449440000000095
 31
0.0
  0
LINE
  5
245
330
1FD
100
AcDbEntity
  8
0
100
AcDbLine
 10
5.132159999999998
 20
-2.449440000000095
 30
0.0
 11
4.152442910593662
 21
-2.449440000000095
 31
0.0
  0
LINE
  5
246
330
1FD
100
AcDbEntity
  8
0
100
AcDbLine
 10
2.857680000000073
 20
-2.099520000000154
 30
0.0
 11
2.857680000000073
 21
-2.449440000000095
 31
0.0
  0
LINE
  5
247
330
1FD
100
AcDbEntity
  8
0
100
AcDbLine
 10
4.607280000000172
 20
-0.3499200000000542
 30
0.0
 11
4.140720000000101
 21
-0.3499200000000542
 31
0.0
  0
LINE
  5
248
330
1FD
100
AcDbEntity
  8
0
100
AcDbLine
 10
4.140720000000101
 20
0.0
 30
0.0
 11
4.140720000000101
 21
-0.3499200000000542
 31
0.0
  0
LINE
  5
249
330
1FD
100
AcDbEntity
  8
0
100
AcDbLine
 10
5.598720000000071
 20
0.0
 30
0.0
 11
4.140720000000101
 21
0.0
 31
0.0
  0
LINE
  5
24A
330
1FD
100
AcDbEntity
  8
0
100
AcDbLine
 10
5.598720000000071
 20
-0.3499200000000542
 30
0.0
 11
5.132159999999998
 21
-0.3499200000000542
 31
0.0
  0
ENDBLK
  5
24B
330
1FD
100
AcDbEntity
  8
0
 62
     9
100
AcDbBlockEnd
  0
BLOCK
  5
52F
330
525
100
AcDbEntity
  8
0
100
AcDbBlockBegin
  2
*D3
 70
     1
 10
0.0
 20
0.0
 30
0.0
  3
*D3
  1

  0
LINE
  5
598
330
525
100
AcDbEntity
  8
AM_5
100
AcDbLine
 10
237.7190050487842
 20
130.8450201787684
 30
0.0
 11
294.0833880321897
 21
130.8450201787684
 31
0.0
  0
LINE
  5
599
330
525
100
AcDbEntity
  8
AM_5
100
AcDbLine
 10
237.719005048784
 20
294.8450201787677
 30
0.0
 11
294.0833880321897
 21
294.8450201787677
 31
0.0
  0
LINE
  5
59A
330
525
100
AcDbEntity
  8
AM_5
100
AcDbLine
 10
293.0833880321897
 20
133.3450201787684
 30
0.0
 11
293.0833880321897
 21
292.3450201787678
 31
0.0
  0
SOLID
  5
59B
330
525
100
AcDbEntity
  8
AM_5
100
AcDbTrace
 10
292.666721365523
 20
133.3450201787684
 30
0.0
 11
293.5000546988564
 21
133.3450201787684
 31
0.0
 12
293.0833880321897
 22
130.8450201787684
 32
0.0
 13
293.0833880321897
 23
130.8450201787684
 33
0.0
  0
SOLID
  5
59C
330
525
100
AcDbEntity
  8
AM_5
100
AcDbTrace
 10
292.666721365523
 20
292.3450201787678
 30
0.0
 11
293.5000546988564
 21
292.3450201787678
 31
0.0
 12
293.0833880321897
 22
294.8450201787677
 32
0.0
 13
293.0833880321897
 23
294.8450201787677
 33
0.0
  0
MTEXT
  5
59D
330
525
100
AcDbEntity
  8
AM_5
 62
     2
100
AcDbMText
 10
289.8333880321896
 20
212.8450201787681
 30
0.0
 40
3.5
 41
0.0
 71
     5
 72
     1
  1
164
 11
0.0000000000000001
 21
1.0
 31
0.0
 73
     1
 44
1.0
1001
ACAD
1000
MTEXTBEGIN
1070
    73
1070
     1
1070
    44
1040
1.0
1070
    74
1070
     0
1000
MTEXTEND
  0
POINT
  5
59E
330
525
100
AcDbEntity
  8
Defpoints
 62
     0
100
AcDbPoint
 10
236.7190050487843
 20
130.8450201787684
 30
0.0
  0
POINT
  5
59F
330
525
100
AcDbEntity
  8
Defpoints
 62
     0
100
AcDbPoint
 10
236.719005048784
 20
294.8450201787677
 30
0.0
  0
POINT
  5
5A0
330
525
100
AcDbEntity
  8
Defpoints
 62
     0
100
AcDbPoint
 10
293.0833880321897
 20
294.8450201787677
 30
0.0
  0
ENDBLK
  5
530
330
525
100
AcDbEntity
  8
0
100
AcDbBlockEnd
  0
BLOCK
  5
53B
330
531
100
AcDbEntity
  8
0
100
AcDbBlockBegin
  2
*D4
 70
     1
 10
0.0
 20
0.0
 30
0.0
  3
*D4
  1

  0
LINE
  5
5BF
330
531
100
AcDbEntity
  8
AM_5
100
AcDbLine
 10
198.7242481274759
 20
290.3110268441774
 30
0.0
 11
198.7242481274759
 21
310.2916946046191
 31
0.0
  0
LINE
  5
5C0
330
531
100
AcDbEntity
  8
AM_5
100
AcDbLine
 10
274.7137619700925
 20
290.3110268441774
 30
0.0
 11
274.7137619700925
 21
310.2916946046191
 31
0.0
  0
LINE
  5
5C1
330
531
100
AcDbEntity
  8
AM_5
100
AcDbLine
 10
201.2242481274759
 20
309.2916946046191
 30
0.0
 11
272.2137619700925
 21
309.2916946046191
 31
0.0
  0
SOLID
  5
5C2
330
531
100
AcDbEntity
  8
AM_5
100
AcDbTrace
 10
201.2242481274759
 20
309.7083612712858
 30
0.0
 11
201.2242481274759
 21
308.8750279379524
 31
0.0
 12
198.7242481274759
 22
309.2916946046191
 32
0.0
 13
198.7242481274759
 23
309.2916946046191
 33
0.0
  0
SOLID
  5
5C3
330
531
100
AcDbEntity
  8
AM_5
100
AcDbTrace
 10
272.2137619700925
 20
309.7083612712858
 30
0.0
 11
272.2137619700925
 21
308.8750279379524
 31
0.0
 12
274.7137619700925
 22
309.2916946046191
 32
0.0
 13
274.7137619700925
 23
309.2916946046191
 33
0.0
  0
MTEXT
  5
5C4
330
531
100
AcDbEntity
  8
AM_5
 62
     2
100
AcDbMText
 10
236.7190050487842
 20
312.5416946046191
 30
0.0
 40
3.5
 41
0.0
 71
     5
 72
     1
  1
76
 73
     1
 44
1.0
1001
ACAD
1000
MTEXTBEGIN
1070
    73
1070
     1
1070
    44
1040
1.0
1070
    74
1070
     0
1000
MTEXTEND
  0
POINT
  5
5C5
330
531
100
AcDbEntity
  8
Defpoints
 62
     0
100
AcDbPoint
 10
198.7242481274759
 20
289.3110268441774
 30
0.0
  0
POINT
  5
5C6
330
531
100
AcDbEntity
  8
Defpoints
 62
     0
100
AcDbPoint
 10
274.7137619700925
 20
289.3110268441774
 30
0.0
  0
POINT
  5
5C7
330
531
100
AcDbEntity
  8
Defpoints
 62
     0
100
AcDbPoint
 10
274.7137619700925
 20
309.2916946046191
 30
0.0
  0
ENDBLK
  5
53C
330
531
100
AcDbEntity
  8
0
100
AcDbBlockEnd
  0
BLOCK
  5
550
330
546
100
AcDbEntity
  8
0
100
AcDbBlockBegin
  2
*D5
 70
     1
 10
0.0
 20
0.0
 30
0.0
  3
*D5
  1

  0
LINE
  5
5C8
330
546
100
AcDbEntity
  8
AM_5
100
AcDbLine
 10
328.7953776370934
 20
292.9488618451314
 30
0.0
 11
328.7953776370934
 21
310.0398146790969
 31
0.0
  0
LINE
  5
5C9
330
546
100
AcDbEntity
  8
AM_5
100
AcDbLine
 10
365.0618570966676
 20
287.8094812740993
 30
0.0
 11
365.0618570966676
 21
310.0398146790969
 31
0.0
  0
LINE
  5
5CA
330
546
100
AcDbEntity
  8
AM_5
100
AcDbLine
 10
331.2953776370934
 20
309.039814679097
 30
0.0
 11
362.5618570966676
 21
309.039814679097
 31
0.0
  0
SOLID
  5
5CB
330
546
100
AcDbEntity
  8
AM_5
100
AcDbTrace
 10
331.2953776370934
 20
309.4564813457636
 30
0.0
 11
331.2953776370934
 21
308.6231480124303
 31
0.0
 12
328.7953776370934
 22
309.039814679097
 32
0.0
 13
328.7953776370934
 23
309.039814679097
 33
0.0
  0
SOLID
  5
5CC
330
546
100
AcDbEntity
  8
AM_5
100
AcDbTrace
 10
362.5618570966676
 20
309.4564813457636
 30
0.0
 11
362.5618570966676
 21
308.6231480124303
 31
0.0
 12
365.0618570966676
 22
309.039814679097
 32
0.0
 13
365.0618570966676
 23
309.039814679097
 33
0.0
  0
MTEXT
  5
5CD
330
546
100
AcDbEntity
  8
AM_5
 62
     2
100
AcDbMText
 10
346.9286173668805
 20
312.2898146790969
 30
0.0
 40
3.5
 41
0.0
 71
     5
 72
     1
  1
36.3
 73
     1
 44
1.0
1001
ACAD
1000
MTEXTBEGIN
1070
    73
1070
     1
1070
    44
1040
1.0
1070
    74
1070
     0
1000
MTEXTEND
  0
POINT
  5
5CE
330
546
100
AcDbEntity
  8
Defpoints
 62
     0
100
AcDbPoint
 10
328.7953776370934
 20
291.9488618451314
 30
0.0
  0
POINT
  5
5CF
330
546
100
AcDbEntity
  8
Defpoints
 62
     0
100
AcDbPoint
 10
365.0618570966676
 20
286.8094812740992
 30
0.0
  0
POINT
  5
5D0
330
546
100
AcDbEntity
  8
Defpoints
 62
     0
100
AcDbPoint
 10
365.0618570966676
 20
309.039814679097
 30
0.0
  0
ENDBLK
  5
551
330
546
100
AcDbEntity
  8
0
100
AcDbBlockEnd
  0
ENDSEC
  0
SECTION
  2
ENTITIES
  0
LINE
  5
3D4
330
1F
100
AcDbEntity
  8
0
100
AcDbLine
 10
205.7190050487828
 20
346.6481803163384
 30
0.0
 11
234.1690050487796
 21
346.6481803163384
 31
0.0
  0
ARC
  5
3D5
330
1F
100
AcDbEntity
  8
0
100
AcDbCircle
 10
205.7190050487828
 20
347.1481803163384
 30
0.0
 40
0.5
100
AcDbArc
 50
180.0000000000032
 51
270.0
  0
LINE
  5
3D6
330
1F
100
AcDbEntity
  8
0
100
AcDbLine
 10
237.1690050487767
 20
346.6481803163384
 30
0.0
 11
267.1690050487795
 21
346.6481803163384
 31
0.0
  0
ARC
  5
3D7
330
1F
100
AcDbEntity
  8
0
100
AcDbCircle
 10
237.1690050487767
 20
347.1481803163384
 30
0.0
 40
0.5
100
AcDbArc
 50
179.9999999999381
 51
270.0
  0
LINE
  5
3D8
330
1F
100
AcDbEntity
  8
0
100
AcDbLine
 10
234.6690050487796
 20
347.148180316338
 30
0.0
 11
234.6690050487826
 21
351.6481803163391
 31
0.0
  0
ARC
  5
3D9
330
1F
100
AcDbEntity
  8
0
100
AcDbCircle
 10
234.1690050487796
 20
347.1481803163384
 30
0.0
 40
0.5
100
AcDbArc
 50
270.0
 51
359.9999999999643
  0
ARC
  5
3DA
330
1F
100
AcDbEntity
  8
0
100
AcDbCircle
 10
235.6690050487826
 20
351.6481803163383
 30
0.0
 40
1.0
100
AcDbArc
 50
90.0
 51
179.9999999999641
  0
LINE
  5
3DB
330
1F
100
AcDbEntity
  8
0
100
AcDbLine
 10
236.6690050487767
 20
347.1481803163388
 30
0.0
 11
236.6690050487817
 21
351.6481803163373
 31
0.0
  0
ARC
  5
3DC
330
1F
100
AcDbEntity
  8
0
100
AcDbCircle
 10
235.6690050487817
 20
351.6481803163383
 30
0.0
 40
1.0
100
AcDbArc
 50
359.9999999999414
 51
90.0
  0
LINE
  5
3DD
330
1F
100
AcDbEntity
  8
0
100
AcDbLine
 10
267.6690050487795
 20
347.148180316338
 30
0.0
 11
267.6690050487822
 21
351.6481803163387
 31
0.0
  0
ARC
  5
3DE
330
1F
100
AcDbEntity
  8
0
100
AcDbCircle
 10
267.1690050487794
 20
347.1481803163384
 30
0.0
 40
0.5
100
AcDbArc
 50
270.0
 51
359.9999999999643
  0
LINE
  5
3DF
330
1F
100
AcDbEntity
  8
0
100
AcDbLine
 10
218.7690050487827
 20
352.9481803163396
 30
0.0
 11
221.6690050487828
 21
352.9481803163396
 31
0.0
  0
LINE
  5
3E0
330
1F
100
AcDbEntity
  8
0
100
AcDbLine
 10
218.7690050487827
 20
354.1481803163397
 30
0.0
 11
221.6690050487828
 21
354.1481803163397
 31
0.0
  0
LINE
  5
3E1
330
1F
100
AcDbEntity
  8
0
100
AcDbLine
 10
218.7690050487827
 20
354.1481803163397
 30
0.0
 11
218.7690050487827
 21
352.9481803163396
 31
0.0
  0
LINE
  5
3E2
330
1F
100
AcDbEntity
  8
0
100
AcDbLine
 10
221.6690050487828
 20
354.1481803163397
 30
0.0
 11
221.6690050487828
 21
352.9481803163396
 31
0.0
  0
LINE
  5
3E3
330
1F
100
AcDbEntity
  8
0
100
AcDbLine
 10
210.8690050487831
 20
352.9481803163398
 30
0.0
 11
213.7690050487827
 21
352.9481803163398
 31
0.0
  0
LINE
  5
3E4
330
1F
100
AcDbEntity
  8
0
100
AcDbLine
 10
210.8690050487831
 20
354.1481803163399
 30
0.0
 11
213.7690050487827
 21
354.1481803163397
 31
0.0
  0
LINE
  5
3E5
330
1F
100
AcDbEntity
  8
0
100
AcDbLine
 10
210.8690050487831
 20
354.1481803163399
 30
0.0
 11
210.8690050487831
 21
352.9481803163398
 31
0.0
  0
LINE
  5
3E6
330
1F
100
AcDbEntity
  8
0
100
AcDbLine
 10
213.7690050487827
 20
354.1481803163397
 30
0.0
 11
213.7690050487827
 21
352.9481803163398
 31
0.0
  0
LINE
  5
3E7
330
1F
100
AcDbEntity
  8
0
100
AcDbLine
 10
229.9190050487828
 20
354.1481803163395
 30
0.0
 11
229.9190050487828
 21
352.9481803163394
 31
0.0
  0
LINE
  5
3E8
330
1F
100
AcDbEntity
  8
0
100
AcDbLine
 10
226.3190050487829
 20
354.1481803163395
 30
0.0
 11
226.3190050487829
 21
352.9481803163396
 31
0.0
  0
LINE
  5
3E9
330
1F
100
AcDbEntity
  8
0
100
AcDbLine
 10
226.3190050487829
 20
352.9481803163396
 30
0.0
 11
229.9190050487828
 21
352.9481803163394
 31
0.0
  0
LINE
  5
3EA
330
1F
100
AcDbEntity
  8
0
100
AcDbLine
 10
226.3190050487829
 20
354.1481803163395
 30
0.0
 11
229.9190050487828
 21
354.1481803163395
 31
0.0
  0
LINE
  5
3EB
330
1F
100
AcDbEntity
  8
0
100
AcDbLine
 10
268.6690050487836
 20
352.6481803163382
 30
0.0
 11
268.6690050487836
 21
352.6481803163382
 31
0.0
  0
ARC
  5
3EC
330
1F
100
AcDbEntity
  8
0
100
AcDbCircle
 10
268.6690050487835
 20
351.6481803163381
 30
0.0
 40
1.0
100
AcDbArc
 50
90.0
 51
179.9999999999641
  0
LINE
  5
3ED
330
1F
100
AcDbEntity
  8
0
100
AcDbLine
 10
205.2190050487825
 20
352.1481803163384
 30
0.0
 11
205.2190050487828
 21
347.1481803163384
 31
0.0
  0
ARC
  5
3EE
330
1F
100
AcDbEntity
  8
0
100
AcDbCircle
 10
204.7190050487825
 20
352.1481803163384
 30
0.0
 40
0.5
100
AcDbArc
 50
0.0000000000032569
 51
90.0
  0
LINE
  5
3EF
330
1F
100
AcDbEntity
  8
0
100
AcDbLine
 10
269.6690050487795
 20
351.6481803163381
 30
0.0
 11
269.6690050487792
 21
347.1481803163384
 31
0.0
  0
ARC
  5
3F0
330
1F
100
AcDbEntity
  8
0
100
AcDbCircle
 10
268.6690050487794
 20
351.6481803163381
 30
0.0
 40
1.0
100
AcDbArc
 50
0.0
 51
90.0
  0
LINE
  5
3F1
330
1F
100
AcDbEntity
  8
0
100
AcDbLine
 10
199.0332919742084
 20
352.6481803163384
 30
0.0
 11
204.7190050487825
 21
352.6481803163384
 31
0.0
  0
LINE
  5
3F2
330
1F
100
AcDbEntity
  8
0
100
AcDbLine
 10
235.6690050487826
 20
352.6481803163384
 30
0.0
 11
235.6690050487817
 21
352.6481803163384
 31
0.0
  0
LINE
  5
3F3
330
1F
100
AcDbEntity
  8
0
100
AcDbLine
 10
268.6690050487833
 20
352.6481803163382
 30
0.0
 11
268.6690050487795
 21
352.6481803163382
 31
0.0
  0
LINE
  5
3F4
330
1F
100
AcDbEntity
  8
0
100
AcDbLine
 10
198.9983712047179
 20
369.6481803163385
 30
0.0
 11
274.4396388928482
 21
369.6481803163387
 31
0.0
  0
LINE
  5
3F5
330
1F
100
AcDbEntity
  8
0
100
AcDbLine
 10
198.457099277594
 20
369.1481803163384
 30
0.0
 11
274.9809108199712
 21
369.1481803163388
 31
0.0
  0
LINE
  5
3F6
330
1F
100
AcDbEntity
  8
0
100
AcDbLine
 10
208.9255729281857
 20
375.1481803163385
 30
0.0
 11
264.5124371693793
 21
375.1481803163388
 31
0.0
  0
ARC
  5
3F7
330
1F
100
AcDbEntity
  8
0
100
AcDbCircle
 10
264.5124371693792
 20
372.1481803163388
 30
0.0
 40
3.0
100
AcDbArc
 50
72.24898604608927
 51
90.0
  0
LINE
  5
3F9
330
1F
100
AcDbEntity
  8
0
100
AcDbLine
 10
201.2190050487848
 20
344.3481803163384
 30
0.0
 11
272.2190050487826
 21
344.3481803163385
 31
0.0
  0
LINE
  5
3FA
330
1F
100
AcDbEntity
  8
0
100
AcDbLine
 10
270.1690050487792
 20
346.6481803163384
 30
0.0
 11
271.737290531573
 21
346.6481803163384
 31
0.0
  0
ARC
  5
3FB
330
1F
100
AcDbEntity
  8
0
100
AcDbCircle
 10
270.1690050487792
 20
347.1481803163384
 30
0.0
 40
0.5
100
AcDbArc
 50
180.0
 51
270.0
  0
LINE
  5
3FC
330
1F
100
AcDbEntity
  8
0
100
AcDbLine
 10
272.737290531573
 20
352.6481803163384
 30
0.0
 11
274.4047181233574
 21
352.6481803163384
 31
0.0
  0
LINE
  5
3FD
330
1F
100
AcDbEntity
  8
0
100
AcDbLine
 10
272.2372905315729
 20
347.1481803163384
 30
0.0
 11
272.2372905315729
 21
352.1481803163384
 31
0.0
  0
ARC
  5
3FE
330
1F
100
AcDbEntity
  8
0
100
AcDbCircle
 10
272.7372905315729
 20
352.1481803163384
 30
0.0
 40
0.5
100
AcDbArc
 50
90.0
 51
180.0
  0
ARC
  5
3FF
330
1F
100
AcDbEntity
  8
0
100
AcDbCircle
 10
271.7372905315729
 20
347.1481803163384
 30
0.0
 40
0.5
100
AcDbArc
 50
270.0
 51
0.0
  0
LINE
  5
400
330
1F
100
AcDbEntity
  8
0
100
AcDbLine
 10
271.229201453464
 20
339.9380919503926
 30
0.0
 11
272.2190050487831
 21
341.0805308590309
 31
0.0
  0
LINE
  5
401
330
1F
100
AcDbEntity
  8
0
100
AcDbLine
 10
274.9809108199712
 20
369.1481803163388
 30
0.0
 11
274.0798729296376
 21
343.3458310712845
 31
0.0
  0
ARC
  5
402
330
1F
100
AcDbEntity
  8
0
100
AcDbCircle
 10
272.580786689109
 20
343.3981803163383
 30
0.0
 40
1.5
100
AcDbArc
 50
270.0
 51
357.9999999999964
  0
ARC
  5
403
330
1F
100
AcDbEntity
  8
0
100
AcDbCircle
 10
236.7190050487834
 20
1838.648180316338
 30
0.0
 40
1500.0
100
AcDbArc
 50
268.9583349512401
 51
271.0416650487598
  0
LINE
  5
404
330
1F
100
AcDbEntity
  8
0
100
AcDbLine
 10
263.9882299802072
 20
338.8960710090568
 30
0.0
 11
271.229201453464
 21
339.9380919503926
 31
0.0
  0
LINE
  5
405
330
1F
100
AcDbEntity
  8
0
100
AcDbLine
 10
198.457099277594
 20
369.1481803163384
 30
0.0
 11
199.3668673603002
 21
343.0958310712859
 31
0.0
  0
ARC
  5
406
330
1F
100
AcDbEntity
  8
0
100
AcDbCircle
 10
200.8659536008289
 20
343.1481803163398
 30
0.0
 40
1.5
100
AcDbArc
 50
182.0000000000035
 51
270.0
  0
LINE
  5
407
330
1F
100
AcDbEntity
  8
0
100
AcDbLine
 10
209.4497801173589
 20
338.8960710090568
 30
0.0
 11
202.208808644102
 21
339.9380919503926
 31
0.0
  0
LINE
  5
408
330
1F
100
AcDbEntity
  8
0
100
AcDbLine
 10
272.2190050487824
 20
341.8981803163383
 30
0.0
 11
272.580786689109
 21
341.8981803163383
 31
0.0
  0
LINE
  5
409
330
1F
100
AcDbEntity
  8
0
100
AcDbLine
 10
201.2190050487835
 20
341.0805308590322
 30
0.0
 11
201.2190050487848
 21
344.3481803163384
 31
0.0
  0
LINE
  5
40A
330
1F
100
AcDbEntity
  8
0
100
AcDbLine
 10
202.2088086441022
 20
339.9380919503939
 30
0.0
 11
201.2190050487835
 21
341.0805308590322
 31
0.0
  0
LINE
  5
40B
330
1F
100
AcDbEntity
  8
0
100
AcDbLine
 10
201.2190050487835
 20
341.6481803163397
 30
0.0
 11
200.8659536008289
 21
341.6481803163398
 31
0.0
  0
LINE
  5
40C
330
1F
100
AcDbEntity
  8
0
100
AcDbLine
 10
272.2190050487824
 20
341.0805308590318
 30
0.0
 11
272.2190050487826
 21
344.3481803163385
 31
0.0
  0
LINE
  5
40D
330
1F
100
AcDbEntity
  8
0
100
AcDbLine
 10
274.4396388928479
 20
369.6481803163385
 30
0.0
 11
274.4259871848443
 21
370.0391140845044
 31
0.0
  0
LINE
  5
40E
330
1F
100
AcDbEntity
  8
0
100
AcDbLine
 10
198.9983712047179
 20
369.6481803163385
 30
0.0
 11
199.0120229127223
 21
370.0391140845062
 31
0.0
  0
LINE
  5
40F
330
1F
100
AcDbEntity
  8
0
100
AcDbLine
 10
274.4190050487756
 20
369.1481803163386
 30
0.0
 11
274.4190050487756
 21
369.6481803163388
 31
0.0
  0
LINE
  5
410
330
1F
100
AcDbEntity
  8
0
100
AcDbLine
 10
199.0190050487907
 20
369.1481803163386
 30
0.0
 11
199.0190050487907
 21
369.6481803163388
 31
0.0
  0
LINE
  5
411
330
1F
100
AcDbEntity
  8
0
100
AcDbLine
 10
239.7190050487842
 20
134.2450201787685
 30
0.0
 11
239.719005048784
 21
133.844977887969
 31
0.0
  0
LINE
  5
412
330
1F
100
AcDbEntity
  8
0
100
AcDbLine
 10
233.719005048784
 20
134.2450201787685
 30
0.0
 11
233.7190050487838
 21
133.8450201787684
 31
0.0
  0
LINE
  5
413
330
1F
100
AcDbEntity
  8
0
100
AcDbLine
 10
264.519005048784
 20
268.6450201787682
 30
0.0
 11
264.519005048784
 21
229.0450201787681
 31
0.0
  0
ARC
  5
414
330
1F
100
AcDbEntity
  8
0
100
AcDbCircle
 10
263.519005048784
 20
229.0450201787681
 30
0.0
 40
1.0
100
AcDbArc
 50
270.0
 51
0.0
  0
ARC
  5
415
330
1F
100
AcDbEntity
  8
0
100
AcDbCircle
 10
263.519005048784
 20
268.6450201787682
 30
0.0
 40
1.0
100
AcDbArc
 50
0.0
 51
90.0
  0
LINE
  5
416
330
1F
100
AcDbEntity
  8
0
100
AcDbLine
 10
209.9190050487688
 20
269.645020178768
 30
0.0
 11
263.519005048784
 21
269.6450201787682
 31
0.0
  0
ARC
  5
417
330
1F
100
AcDbEntity
  8
0
100
AcDbCircle
 10
209.9190050487688
 20
268.6450201787681
 30
0.0
 40
1.0
100
AcDbArc
 50
90.0
 51
180.0000000000195
  0
LINE
  5
418
330
1F
100
AcDbEntity
  8
0
100
AcDbLine
 10
263.519005048784
 20
228.0450201787681
 30
0.0
 11
209.9190050487822
 21
228.0450201787681
 31
0.0
  0
LINE
  5
419
330
1F
100
AcDbEntity
  8
0
100
AcDbLine
 10
208.9190050487689
 20
268.6450201787677
 30
0.0
 11
208.9190050487823
 21
229.0450201787677
 31
0.0
  0
ARC
  5
41A
330
1F
100
AcDbEntity
  8
0
100
AcDbCircle
 10
209.9190050487822
 20
229.0450201787681
 30
0.0
 40
1.0
100
AcDbArc
 50
180.0000000000195
 51
270.0
  0
ARC
  5
41B
330
1F
100
AcDbEntity
  8
0
100
AcDbCircle
 10
230.7190050487838
 20
133.8450201787684
 30
0.0
 40
3.0
100
AcDbArc
 50
270.0
 51
0.0
  0
CIRCLE
  5
41C
330
1F
100
AcDbEntity
  8
0
100
AcDbCircle
 10
236.7190050486897
 20
134.2450201787685
 30
0.0
 40
1.5
  0
ARC
  5
41D
330
1F
100
AcDbEntity
  8
0
100
AcDbCircle
 10
236.7190050486897
 20
134.2450201787685
 30
0.0
 40
3.000000000000311
100
AcDbArc
 50
0.0
 51
180.0
  0
ARC
  5
41E
330
1F
100
AcDbEntity
  8
0
100
AcDbCircle
 10
242.7190050484859
 20
133.8450201793651
 30
0.0
 40
3.0
100
AcDbArc
 50
180.0000000056963
 51
270.0000000056931
  0
ARC
  5
420
330
1F
100
AcDbEntity
  8
0
100
AcDbCircle
 10
236.7190050487843
 20
630.8450201787684
 30
0.0
 40
500.0
100
AcDbArc
 50
267.7064211657959
 51
272.2935788342041
  0
ARC
  5
421
330
1F
100
AcDbEntity
  8
0
100
AcDbCircle
 10
1698.719005048689
 20
285.3450201787684
 30
0.0
 40
1500.0
100
AcDbArc
 50
179.8485095278622
 51
185.5101264174337
  0
ARC
  5
422
330
1F
100
AcDbEntity
  8
0
100
AcDbCircle
 10
215.603932819097
 20
142.2727219327005
 30
0.0
 40
10.0
100
AcDbArc
 50
185.5101264174337
 51
249.9999999999963
  0
ARC
  5
423
330
1F
100
AcDbEntity
  8
0
100
AcDbCircle
 10
1698.719005048689
 20
285.3450201787684
 30
0.0
 40
1490.0
100
AcDbArc
 50
179.9684620151616
 51
180.5650969341688
  0
ARC
  5
424
330
1F
100
AcDbEntity
  8
0
100
AcDbCircle
 10
1698.719005048689
 20
285.3450201787684
 30
0.0
 40
1490.0
100
AcDbArc
 50
182.2540303597352
 51
184.990367558597
  0
ARC
  5
425
330
1F
100
AcDbEntity
  8
0
100
AcDbCircle
 10
1698.719005048689
 20
285.3450201787684
 30
0.0
 40
1490.0
100
AcDbArc
 50
184.990367558597
 51
185.9362844773251
  0
ARC
  5
426
330
1F
100
AcDbEntity
  8
0
100
AcDbCircle
 10
1698.719005048689
 20
285.3450201787684
 30
0.0
 40
1497.5
100
AcDbArc
 50
179.6826962105034
 51
182.1431131565075
  0
ARC
  5
427
330
1F
100
AcDbEntity
  8
0
100
AcDbCircle
 10
203.7242306505468
 20
289.2978068219594
 30
0.0
 40
5.0
100
AcDbArc
 50
91.90030950415071
 51
179.8485095278589
  0
ARC
  5
428
330
1F
100
AcDbEntity
  8
0
100
AcDbCircle
 10
236.7190050487838
 20
-705.1549798212322
 30
0.0
 40
1000.0
100
AcDbArc
 50
88.09969049584928
 51
91.90030950415071
  0
ARC
  5
429
330
1F
100
AcDbEntity
  8
0
100
AcDbCircle
 10
269.7137794470218
 20
289.2978068219594
 30
0.0
 40
5.0
100
AcDbArc
 50
0.1514904721378025
 51
88.09969049584928
  0
ARC
  5
42A
330
1F
100
AcDbEntity
  8
0
100
AcDbCircle
 10
236.7190050487843
 20
341.3450201787686
 30
0.0
 40
177.0
100
AcDbArc
 50
265.2565062486691
 51
274.7434937513309
  0
ARC
  5
42B
330
1F
100
AcDbEntity
  8
0
100
AcDbCircle
 10
251.1079422738305
 20
167.9409876837493
 30
0.0
 40
3.0
100
AcDbArc
 50
274.7434937513309
 51
345.4461554506079
  0
LINE
  5
42C
330
1F
100
AcDbEntity
  8
0
100
AcDbLine
 10
216.6569776109806
 20
131.2476672483466
 30
0.0
 11
212.1837313858399
 21
132.8757957248414
 31
0.0
  0
ARC
  5
42D
330
1F
100
AcDbEntity
  8
0
100
AcDbCircle
 10
-1225.280994951121
 20
285.3450201787684
 30
0.0
 40
1500.0
100
AcDbArc
 50
354.490629956074
 51
0.1514904721378025
  0
ARC
  5
42E
330
1F
100
AcDbEntity
  8
0
100
AcDbCircle
 10
257.8359658764179
 20
142.2923008558438
 30
0.0
 40
10.0
100
AcDbArc
 50
290.0000000000022
 51
354.4906299560675
  0
LINE
  5
42F
330
1F
100
AcDbEntity
  8
0
100
AcDbLine
 10
256.7291284353006
 20
131.2476672483466
 30
0.0
 11
261.2561673096745
 21
132.8953746479847
 31
0.0
  0
ARC
  5
430
330
1F
100
AcDbEntity
  8
0
100
AcDbCircle
 10
502.0566111480828
 20
240.5637180084427
 30
0.0
 40
300.0
100
AcDbArc
 50
182.1431131564977
 51
195.7734856484431
  0
ARC
  5
431
330
1F
100
AcDbEntity
  8
0
100
AcDbCircle
 10
219.1275070038464
 20
160.6442458621649
 30
0.0
 40
6.0
100
AcDbArc
 50
195.7734856484431
 51
264.7973969467933
  0
ARC
  5
432
330
1F
100
AcDbEntity
  8
0
100
AcDbCircle
 10
502.0566111480828
 20
240.5637180084427
 30
0.0
 40
292.0
100
AcDbArc
 50
183.9446512186598
 51
194.5538445493921
  0
ARC
  5
433
330
1F
100
AcDbEntity
  8
0
100
AcDbCircle
 10
211.7459986358908
 20
220.5450201787678
 30
0.0
 40
1.0
100
AcDbArc
 50
90.0
 51
183.9446512186565
  0
ARC
  5
434
330
1F
100
AcDbEntity
  8
0
100
AcDbCircle
 10
222.3300678237376
 20
167.9409876837493
 30
0.0
 40
3.0
100
AcDbArc
 50
194.5538445493921
 51
265.2565062486691
  0
ARC
  5
435
330
1F
100
AcDbEntity
  8
0
100
AcDbCircle
 10
-1225.280994951121
 20
285.3450201787684
 30
0.0
 40
1490.0
100
AcDbArc
 50
354.0637155226749
 51
355.009632441403
  0
ARC
  5
436
330
1F
100
AcDbEntity
  8
0
100
AcDbCircle
 10
-28.61860105051483
 20
240.5637180084427
 30
0.0
 40
300.0
100
AcDbArc
 50
344.2265143515568
 51
357.8568868435024
  0
ARC
  5
437
330
1F
100
AcDbEntity
  8
0
100
AcDbCircle
 10
-28.61860105051483
 20
240.5637180084427
 30
0.0
 40
292.0
100
AcDbArc
 50
345.4461554506079
 51
356.0553487813402
  0
ARC
  5
438
330
1F
100
AcDbEntity
  8
0
100
AcDbCircle
 10
261.6920114616773
 20
220.545020178768
 30
0.0
 40
1.0
100
AcDbArc
 50
356.0553487813336
 51
90.0
  0
ARC
  5
439
330
1F
100
AcDbEntity
  8
0
100
AcDbCircle
 10
-1225.28099495112
 20
285.3450201787684
 30
0.0
 40
1490.0
100
AcDbArc
 50
355.009632441403
 51
357.7460597222843
  0
ARC
  5
43A
330
1F
100
AcDbEntity
  8
0
100
AcDbCircle
 10
-1225.28099495112
 20
285.3450201787684
 30
0.0
 40
1490.0
100
AcDbArc
 50
359.4349030658313
 51
0.0315379848384236
  0
ARC
  5
43B
330
1F
100
AcDbEntity
  8
0
100
AcDbCircle
 10
-1225.28099495112
 20
285.3450201787684
 30
0.0
 40
1497.5
100
AcDbArc
 50
357.8568868434924
 51
0.3173037894965427
  0
MTEXT
  5
43C
330
1F
100
AcDbEntity
  8
0
100
AcDbMText
 10
209.2331421658457
 20
281.056399168791
 30
0.0
 40
4.5
 41
58.35335237949834
 71
     1
 72
     5
  1
{\fImpact|b0|i0|c0|p34;DIGITAL}　{\fImpact|b0|i0|c0|p34;THERMOMETER}
  7
ACISOTS
 73
     1
 44
1.0
1001
ACAD
1000
MTEXTBEGIN
1070
    73
1070
     1
1070
    44
1040
1.0
1070
    74
1070
     0
1000
MTEXTEND
  0
MTEXT
  5
43D
330
1F
100
AcDbEntity
  8
0
100
AcDbMText
 10
230.1502420107095
 20
225.8255426556384
 30
0.0
 40
3.0
 41
58.35335237949834
 71
     1
 72
     5
  1
{\fImpact|b0|i0|c0|p34;MCseries}
  7
ACISOTS
 73
     1
 44
1.0
1001
ACAD
1000
MTEXTBEGIN
1070
    73
1070
     1
1070
    44
1040
1.0
1070
    74
1070
     0
1000
MTEXTEND
  0
INSERT
  5
43E
330
1F
100
AcDbEntity
  8
0
100
AcDbBlockReference
  2
A$C33E15F0C
 10
236.7190050487843
 20
160.5690754007891
 30
0.0
 41
1.000352415743917
 42
1.000352415743917
 43
1.000352415743917
  0
LINE
  5
43F
330
1F
100
AcDbEntity
  8
0
100
AcDbLine
 10
227.7190050487852
 20
210.3450201787684
 30
0.0
 11
245.7190050487852
 21
210.3450201787684
 31
0.0
  0
LINE
  5
440
330
1F
100
AcDbEntity
  8
0
100
AcDbLine
 10
224.6939768274271
 20
175.8385920394976
 30
0.0
 11
232.4619800517391
 21
183.6065952638098
 31
0.0
  0
LINE
  5
441
330
1F
100
AcDbEntity
  8
0
100
AcDbLine
 10
240.9472572410602
 20
192.0918724531309
 30
0.0
 11
248.7356059107403
 21
199.8802211228109
 31
0.0
  0
LINE
  5
442
102
{ACAD_REACTORS
330
565
102
}
330
1F
100
AcDbEntity
  8
0
100
AcDbLine
 10
233.7228149751265
 20
205.8551929014523
 30
0.0
 11
239.7190050487854
 21
205.8551929014523
 31
0.0
  0
LINE
  5
443
330
1F
100
AcDbEntity
  8
0
100
AcDbLine
 10
227.7190050487852
 20
218.3450201787684
 30
0.0
 11
245.7190050487852
 21
218.3450201787684
 31
0.0
  0
ARC
  5
444
330
1F
100
AcDbEntity
  8
0
100
AcDbCircle
 10
227.7190050487852
 20
214.3450201787684
 30
0.0
 40
4.0
100
AcDbArc
 50
90.0
 51
270.0
  0
ARC
  5
445
330
1F
100
AcDbEntity
  8
0
100
AcDbCircle
 10
245.7190050487852
 20
214.3450201787684
 30
0.0
 40
4.0
100
AcDbArc
 50
270.0
 51
90.0
  0
LINE
  5
446
330
1F
100
AcDbEntity
  8
0
100
AcDbLine
 10
261.6920114616773
 20
221.545020178768
 30
0.0
 11
211.7459986358908
 21
221.5450201787679
 31
0.0
  0
MTEXT
  5
447
330
1F
100
AcDbEntity
  8
0
100
AcDbMText
 10
230.7947581413809
 20
216.2240398978198
 30
0.0
 40
3.5
 41
58.35335237949834
 71
     1
 72
     5
  1
{\fImpact|b0|i0|c0|p34;H O L D}
  7
ACISOTS
 73
     1
 44
1.0
1001
ACAD
1000
MTEXTBEGIN
1070
    73
1070
     1
1070
    44
1040
1.0
1070
    74
1070
     0
1000
MTEXTEND
  0
ARC
  5
448
330
1F
100
AcDbEntity
  8
0
100
AcDbCircle
 10
179.377007664626
 20
172.6035351569276
 30
0.0
 40
24.41928817077033
100
AcDbArc
 50
348.7630420822214
 51
19.72457190266798
  0
ARC
  5
449
330
1F
100
AcDbEntity
  8
0
100
AcDbCircle
 10
180.7136885746906
 20
155.3331085777483
 30
0.0
 40
24.46279894467632
100
AcDbArc
 50
349.4282982902253
 51
20.36218074509928
  0
ARC
  5
44A
330
1F
100
AcDbEntity
  8
0
100
AcDbCircle
 10
294.0610024329425
 20
172.6035351569289
 30
0.0
 40
24.41928817077033
100
AcDbArc
 50
160.275428097332
 51
191.2369579177786
  0
ARC
  5
44B
330
1F
100
AcDbEntity
  8
0
100
AcDbCircle
 10
292.7243215228784
 20
155.3331085777496
 30
0.0
 40
24.46279894467632
100
AcDbArc
 50
159.6378192549007
 51
190.5717017097747
  0
LINE
  5
44C
330
1F
100
AcDbEntity
  8
0
100
AcDbLine
 10
224.6880213503096
 20
199.8658311545602
 30
0.0
 11
232.4661916389825
 21
192.0876608658876
 31
0.0
  0
LINE
  5
44D
330
1F
100
AcDbEntity
  8
0
100
AcDbLine
 10
240.9514730132207
 20
183.602379491649
 30
0.0
 11
248.729643301893
 21
175.8242092029767
 31
0.0
  0
CIRCLE
  5
44E
330
1F
100
AcDbEntity
  8
0
100
AcDbCircle
 10
236.7190050487854
 20
187.8551929014524
 30
0.0
 40
17.0
  0
CIRCLE
  5
44F
330
1F
100
AcDbEntity
  8
0
100
AcDbCircle
 10
236.7088323261016
 20
187.8450201787684
 30
0.0
 40
6.0
  0
MTEXT
  5
450
330
1F
100
AcDbEntity
  8
0
100
AcDbMText
 10
233.5866781864794
 20
201.6410332702942
 30
0.0
 40
3.5
 41
58.35335237949834
 71
     1
 72
     5
  1
{\fImpact|b0|i0|c0|p34;REC}
  7
ACISOTS
 73
     1
 44
1.0
1001
ACAD
1000
MTEXTBEGIN
1070
    73
1070
     1
1070
    44
1040
1.0
1070
    74
1070
     0
1000
MTEXTEND
  0
MTEXT
  5
451
330
1F
100
AcDbEntity
  8
0
100
AcDbMText
 10
232.605829343726
 20
177.1439157285774
 30
0.0
 40
3.5
 41
58.35335237949834
 71
     1
 72
     5
  1
{\fImpact|b0|i0|c0|p34;READ}
  7
ACISOTS
 73
     1
 44
1.0
1001
ACAD
1000
MTEXTBEGIN
1070
    73
1070
     1
1070
    44
1040
1.0
1070
    74
1070
     0
1000
MTEXTEND
  0
MTEXT
  5
452
330
1F
100
AcDbEntity
  8
0
100
AcDbMText
 10
222.0502393791423
 20
194.6039315125791
 30
0.0
 40
3.5
 41
58.35335237949834
 71
     1
 72
     5
  1
{\fImpact|b0|i0|c0|p34;MAX}
  7
ACISOTS
 73
     1
 44
1.0
1001
ACAD
1000
MTEXTBEGIN
1070
    73
1070
     1
1070
    44
1040
1.0
1070
    74
1070
     0
1000
MTEXTEND
  0
MTEXT
  5
453
330
1F
100
AcDbEntity
  8
0
100
AcDbMText
 10
222.0502393791423
 20
189.7858230500443
 30
0.0
 40
3.5
 41
58.35335237949834
 71
     1
 72
     5
  1
{\fImpact|b0|i0|c0|p34;MIN}
  7
ACISOTS
 73
     1
 44
1.0
1001
ACAD
1000
MTEXTBEGIN
1070
    73
1070
     1
1070
    44
1040
1.0
1070
    74
1070
     0
1000
MTEXTEND
  0
MTEXT
  5
454
330
1F
100
AcDbEntity
  8
0
100
AcDbMText
 10
222.1420889011908
 20
185.1207362865754
 30
0.0
 40
3.5
 41
58.35335237949834
 71
     1
 72
     5
  1
{\fImpact|b0|i0|c0|p34;AVE}
  7
ACISOTS
 73
     1
 44
1.0
1001
ACAD
1000
MTEXTBEGIN
1070
    73
1070
     1
1070
    44
1040
1.0
1070
    74
1070
     0
1000
MTEXTEND
  0
MTEXT
  5
455
330
1F
100
AcDbEntity
  8
0
100
AcDbMText
 10
233.7593448293216
 20
189.7646634693593
 30
0.0
 40
3.5
 41
58.35335237949834
 71
     1
 72
     5
  1
{\fImpact|b0|i0|c0|p34;FNC}
  7
ACISOTS
 73
     1
 44
1.0
1001
ACAD
1000
MTEXTBEGIN
1070
    73
1070
     1
1070
    44
1040
1.0
1070
    74
1070
     0
1000
MTEXTEND
  0
MTEXT
  5
456
330
1F
100
AcDbEntity
  8
0
100
AcDbMText
 10
246.758257595806
 20
189.6202739651982
 30
0.0
 40
3.5
 41
58.35335237949834
 71
     1
 72
     5
  1
{\fImpact|b0|i0|c0|p34;REL}
  7
ACISOTS
 73
     1
 44
1.0
1001
ACAD
1000
MTEXTBEGIN
1070
    73
1070
     1
1070
    44
1040
1.0
1070
    74
1070
     0
1000
MTEXTEND
  0
LINE
  5
458
330
1F
100
AcDbEntity
  8
0
100
AcDbLine
 10
250.4690050487854
 20
202.3450201787684
 30
0.0
 11
254.9690050487854
 21
202.3450201787684
 31
0.0
  0
LINE
  5
459
330
1F
100
AcDbEntity
  8
0
100
AcDbLine
 10
250.4690050487854
 20
209.3450201787685
 30
0.0
 11
254.9690050487854
 21
209.3450201787685
 31
0.0
  0
ARC
  5
45A
330
1F
100
AcDbEntity
  8
0
100
AcDbCircle
 10
250.4690050487854
 20
205.8450201787684
 30
0.0
 40
3.5
100
AcDbArc
 50
90.0
 51
270.0
  0
ARC
  5
45B
330
1F
100
AcDbEntity
  8
0
100
AcDbCircle
 10
254.9690050487854
 20
205.8450201787684
 30
0.0
 40
3.5
100
AcDbArc
 50
270.0
 51
90.0
  0
MTEXT
  5
45C
330
1F
100
AcDbEntity
  8
0
100
AcDbMText
 10
249.3391161684469
 20
208.5867015257914
 30
0.0
 40
2.0
 41
58.35335237949834
 71
     1
 72
     5
  1
{\fImpact|b0|i0|c0|p34;ON/OFF}
  7
ACISOTS
 73
     1
 44
1.0
1001
ACAD
1000
MTEXTBEGIN
1070
    73
1070
     1
1070
    44
1040
1.0
1070
    74
1070
     0
1000
MTEXTEND
  0
MTEXT
  5
45D
330
1F
100
AcDbEntity
  8
0
100
AcDbMText
 10
249.8421685155896
 20
205.1926653495632
 30
0.0
 40
2.0
 41
58.35335237949834
 71
     1
 72
     5
  1
{\fImpact|b0|i0|c0|p34;CLEAR}
  7
ACISOTS
 73
     1
 44
1.0
1001
ACAD
1000
MTEXTBEGIN
1070
    73
1070
     1
1070
    44
1040
1.0
1070
    74
1070
     0
1000
MTEXTEND
  0
LINE
  5
45F
330
1F
100
AcDbEntity
  8
0
100
AcDbLine
 10
222.9690050487854
 20
202.3450201787684
 30
0.0
 11
218.4690050487854
 21
202.3450201787684
 31
0.0
  0
LINE
  5
460
330
1F
100
AcDbEntity
  8
0
100
AcDbLine
 10
222.9690050487854
 20
209.3450201787685
 30
0.0
 11
218.4690050487854
 21
209.3450201787685
 31
0.0
  0
ARC
  5
461
330
1F
100
AcDbEntity
  8
0
100
AcDbCircle
 10
222.9690050487854
 20
205.8450201787684
 30
0.0
 40
3.5
100
AcDbArc
 50
270.0
 51
90.0
  0
ARC
  5
462
330
1F
100
AcDbEntity
  8
0
100
AcDbCircle
 10
218.4690050487854
 20
205.8450201787684
 30
0.0
 40
3.5
100
AcDbArc
 50
90.0
 51
270.0
  0
LINE
  5
463
330
1F
100
AcDbEntity
  8
0
100
AcDbLine
 10
248.7073556098491
 20
205.8450201787684
 30
0.0
 11
256.7306544877216
 21
205.8450201787684
 31
0.0
  0
LINE
  5
465
102
{ACAD_REACTORS
330
565
102
}
330
1F
100
AcDbEntity
  8
0
100
AcDbLine
 10
236.7209100119559
 20
208.3551929014524
 30
0.0
 11
233.7228149751265
 21
205.8551929014523
 31
0.0
  0
LINE
  5
466
102
{ACAD_REACTORS
330
565
102
}
330
1F
100
AcDbEntity
  8
0
100
AcDbLine
 10
218.7190050487854
 20
184.8590028277933
 30
0.0
 11
218.7190050487854
 21
190.8551929014523
 31
0.0
  0
LINE
  5
467
102
{ACAD_REACTORS
330
565
102
}
330
1F
100
AcDbEntity
  8
0
100
AcDbLine
 10
216.2190050487854
 20
187.8570978646229
 30
0.0
 11
218.7190050487854
 21
184.8590028277933
 31
0.0
  0
LINE
  5
468
102
{ACAD_REACTORS
330
565
102
}
330
1F
100
AcDbEntity
  8
0
100
AcDbLine
 10
216.2190050487854
 20
187.8570978646229
 30
0.0
 11
218.7190050487854
 21
190.8551929014523
 31
0.0
  0
LINE
  5
469
102
{ACAD_REACTORS
330
565
102
}
330
1F
100
AcDbEntity
  8
0
100
AcDbLine
 10
239.7151951224448
 20
169.8551929014523
 30
0.0
 11
233.7190050487854
 21
169.8551929014523
 31
0.0
  0
LINE
  5
46A
102
{ACAD_REACTORS
330
565
102
}
330
1F
100
AcDbEntity
  8
0
100
AcDbLine
 10
236.7171000856148
 20
167.3551929014523
 30
0.0
 11
239.7151951224448
 21
169.8551929014523
 31
0.0
  0
LINE
  5
46B
102
{ACAD_REACTORS
330
565
102
}
330
1F
100
AcDbEntity
  8
0
100
AcDbLine
 10
236.7171000856148
 20
167.3551929014523
 30
0.0
 11
233.7190050487854
 21
169.8551929014523
 31
0.0
  0
LINE
  5
46C
102
{ACAD_REACTORS
330
565
102
}
330
1F
100
AcDbEntity
  8
0
100
AcDbLine
 10
254.7190050487854
 20
190.8513829751114
 30
0.0
 11
254.7190050487854
 21
184.8551929014524
 31
0.0
  0
LINE
  5
46D
102
{ACAD_REACTORS
330
565
102
}
330
1F
100
AcDbEntity
  8
0
100
AcDbLine
 10
257.2190050487854
 20
187.8532879382819
 30
0.0
 11
254.7190050487854
 21
190.8513829751114
 31
0.0
  0
LINE
  5
46E
102
{ACAD_REACTORS
330
565
102
}
330
1F
100
AcDbEntity
  8
0
100
AcDbLine
 10
257.2190050487854
 20
187.8532879382819
 30
0.0
 11
254.7190050487854
 21
184.8551929014524
 31
0.0
  0
LINE
  5
46F
102
{ACAD_REACTORS
330
565
102
}
330
1F
100
AcDbEntity
  8
0
100
AcDbLine
 10
236.7209100119559
 20
208.3551929014524
 30
0.0
 11
239.7190050487854
 21
205.8551929014523
 31
0.0
  0
MTEXT
  5
470
330
1F
100
AcDbEntity
  8
0
100
AcDbMText
 10
216.6022137369497
 20
207.3351662943003
 30
0.0
 40
3.0
 41
58.35335237949834
 71
     1
 72
     5
  1
{\fImpact|b0|i0|c0|p34;LIGHT}
  7
ACISOTS
 73
     1
 44
1.0
1001
ACAD
1000
MTEXTBEGIN
1070
    73
1070
     1
1070
    44
1040
1.0
1070
    74
1070
     0
1000
MTEXTEND
  0
ARC
  5
471
330
1F
100
AcDbEntity
  8
0
100
AcDbCircle
 10
236.7190050487765
 20
353.8450201787686
 30
0.0
 40
200.0
100
AcDbArc
 50
264.7973969467933
 51
275.2026030532066
  0
ARC
  5
472
330
1F
100
AcDbEntity
  8
0
100
AcDbCircle
 10
254.3105030937222
 20
160.6442458621663
 30
0.0
 40
6.0
100
AcDbArc
 50
275.2026030532066
 51
344.2265143515568
  0
LINE
  5
487
330
1F
100
AcDbEntity
  8
0
100
AcDbLine
 10
351.170275556982
 20
223.6311029888007
 30
0.0
 11
351.1702755569817
 21
130.4141797642069
 31
0.0
  0
LINE
  5
488
330
1F
100
AcDbEntity
  8
0
100
AcDbLine
 10
356.1702755569819
 20
223.6311029888008
 30
0.0
 11
356.1702755569817
 21
131.6768919601834
 31
0.0
  0
LINE
  5
489
330
1F
100
AcDbEntity
  8
0
100
AcDbLine
 10
359.1702755569817
 20
289.9141797642071
 30
0.0
 11
359.1702755569817
 21
281.1972565396129
 31
0.0
  0
LINE
  5
48A
330
1F
100
AcDbEntity
  8
0
100
AcDbLine
 10
362.1702755569817
 20
289.9141797642071
 30
0.0
 11
362.1702755569815
 21
271.883102700841
 31
0.0
  0
ARC
  5
48B
330
1F
100
AcDbEntity
  8
0
100
AcDbCircle
 10
262.1702755569817
 20
271.8831027008409
 30
0.0
 40
100.0
100
AcDbArc
 50
347.1249984403899
 51
0.0
  0
LINE
  5
48C
330
1F
100
AcDbEntity
  8
0
100
AcDbLine
 10
342.1702755569815
 20
293.9141797642069
 30
0.0
 11
342.1702755569815
 21
289.9141797642069
 31
0.0
  0
ARC
  5
48D
330
1F
100
AcDbEntity
  8
0
100
AcDbCircle
 10
341.6702755569815
 20
293.9141797642069
 30
0.0
 40
0.5
100
AcDbArc
 50
0.0
 51
90.0
  0
LINE
  5
48E
330
1F
100
AcDbEntity
  8
0
100
AcDbLine
 10
359.6702755569817
 20
289.6141797642071
 30
0.0
 11
359.670275556982
 21
289.9141797642069
 31
0.0
  0
LINE
  5
48F
330
1F
100
AcDbEntity
  8
0
100
AcDbLine
 10
359.8704495739241
 20
138.1470205579953
 30
0.0
 11
365.0618570966675
 21
286.8094812740994
 31
0.0
  0
ARC
  5
490
330
1F
100
AcDbEntity
  8
0
100
AcDbCircle
 10
362.0636846156103
 20
286.9141797642068
 30
0.0
 40
3.0
100
AcDbArc
 50
357.9999999999996
 51
90.0
  0
ARC
  5
491
330
1F
100
AcDbEntity
  8
0
100
AcDbCircle
 10
351.8753229577712
 20
138.4262165316154
 30
0.0
 40
8.0
100
AcDbArc
 50
272.0000000000036
 51
357.9999999999996
  0
LINE
  5
492
330
1F
100
AcDbEntity
  8
0
100
AcDbLine
 10
341.6702755569815
 20
294.4141797642071
 30
0.0
 11
333.7716872265673
 21
294.4141797642073
 31
0.0
  0
LINE
  5
493
330
1F
100
AcDbEntity
  8
0
100
AcDbLine
 10
359.1702755569817
 20
289.614179764207
 30
0.0
 11
359.6702755569817
 21
289.6141797642071
 31
0.0
  0
LINE
  5
494
330
1F
100
AcDbEntity
  8
0
100
AcDbLine
 10
342.1702755569815
 20
289.9141797642069
 30
0.0
 11
359.1702755569817
 21
289.9141797642071
 31
0.0
  0
LINE
  5
495
330
1F
100
AcDbEntity
  8
0
100
AcDbLine
 10
359.670275556982
 20
289.9141797642069
 30
0.0
 11
360.1702755569823
 21
289.914179764207
 31
0.0
  0
ARC
  5
496
330
1F
100
AcDbEntity
  8
0
100
AcDbCircle
 10
259.1702755569817
 20
281.1972565396136
 30
0.0
 40
100.0
100
AcDbArc
 50
347.1249984403899
 51
0.0
  0
LINE
  5
497
330
1F
100
AcDbEntity
  8
0
100
AcDbLine
 10
359.670275556982
 20
289.9141797642069
 30
0.0
 11
362.0636846156105
 21
289.9141797642069
 31
0.0
  0
LINE
  5
498
330
1F
100
AcDbEntity
  8
0
100
AcDbLine
 10
353.6844248997949
 20
245.9135831390133
 30
0.0
 11
356.6561262141692
 21
258.9147763894015
 31
0.0
  0
LINE
  5
499
330
1F
100
AcDbEntity
  8
0
100
AcDbLine
 10
358.5587174326544
 20
244.7994591315028
 30
0.0
 11
359.656126214169
 21
249.6006225506296
 31
0.0
  0
ARC
  5
49A
330
1F
100
AcDbEntity
  8
0
100
AcDbCircle
 10
451.1702755569817
 20
223.6311029888005
 30
0.0
 40
100.0
100
AcDbArc
 50
167.1249984403868
 51
180.0
  0
ARC
  5
49B
330
1F
100
AcDbEntity
  8
0
100
AcDbCircle
 10
451.1702755569817
 20
223.6311029888005
 30
0.0
 40
95.0
100
AcDbArc
 50
167.1249984403868
 51
180.0
  0
LINE
  5
49C
330
1F
100
AcDbEntity
  8
0
100
AcDbLine
 10
349.1857534644968
 20
130.4834808027599
 30
0.0
 11
351.1702755569867
 21
130.4141797642067
 31
0.0
  0
ARC
  5
49D
330
1F
100
AcDbEntity
  8
0
100
AcDbCircle
 10
349.5347484315717
 20
140.4773890729491
 30
0.0
 40
10.0
100
AcDbArc
 50
223.9999999998205
 51
267.9999999997097
  0
LINE
  5
49E
330
1F
100
AcDbEntity
  8
0
100
AcDbLine
 10
351.6702755569817
 20
130.414179764207
 30
0.0
 11
352.1545189313915
 21
130.4310899154626
 31
0.0
  0
LINE
  5
49F
330
1F
100
AcDbEntity
  8
0
100
AcDbLine
 10
351.6702755569815
 20
130.714179764207
 30
0.0
 11
351.6702755569817
 21
130.4141797642071
 31
0.0
  0
LINE
  5
4A0
330
1F
100
AcDbEntity
  8
0
100
AcDbLine
 10
351.1702755569815
 20
130.7141797642066
 30
0.0
 11
351.6702755569815
 21
130.714179764207
 31
0.0
  0
LINE
  5
4A2
330
1F
100
AcDbEntity
  8
0
100
AcDbLine
 10
331.2951370561704
 20
294.4141797642064
 30
0.0
 11
333.9347941032758
 21
294.4141797642064
 31
0.0
  0
LINE
  5
4A3
330
1F
100
AcDbEntity
  8
0
100
AcDbLine
 10
335.267034677232
 20
153.4141797642072
 30
0.0
 11
335.7143062491478
 21
153.4141797642073
 31
0.0
  0
ARC
  5
4A4
330
1F
100
AcDbEntity
  8
0
100
AcDbCircle
 10
1931.170275556982
 20
273.9141797642072
 30
0.0
 40
1600.0
100
AcDbArc
 50
179.354400090694
 51
184.3191780187388
  0
ARC
  5
4A5
330
1F
100
AcDbEntity
  8
0
100
AcDbCircle
 10
1931.170275556982
 20
273.9141797642072
 30
0.0
 40
1600.0
100
AcDbArc
 50
184.3191780187388
 51
184.7011625937362
  0
ARC
  5
4A6
330
1F
100
AcDbEntity
  8
0
100
AcDbCircle
 10
346.5194744107657
 20
143.5997967258984
 30
0.0
 40
10.0
100
AcDbArc
 50
184.7011625937329
 51
223.9999999998251
  0
ARC
  5
4A7
330
1F
100
AcDbEntity
  8
0
100
AcDbCircle
 10
333.7716872265673
 20
291.9141797642072
 30
0.0
 40
2.5
100
AcDbArc
 50
90.0
 51
179.354400090694
  0
ARC
  5
4A8
330
1F
100
AcDbEntity
  8
0
100
AcDbCircle
 10
1628.670275556982
 20
273.9141797642071
 30
0.0
 40
1300.0
100
AcDbArc
 50
179.2051197574099
 51
185.2744389583175
  0
ARC
  5
4A9
330
1F
100
AcDbEntity
  8
0
100
AcDbCircle
 10
331.2951370561702
 20
291.9141797642065
 30
0.0
 40
2.5
100
AcDbArc
 50
90.0
 51
179.2051197574067
  0
LINE
  5
4AA
330
1F
100
AcDbEntity
  8
0
100
AcDbLine
 10
334.1747253359339
 20
154.4099101421255
 30
0.0
 11
335.267034677232
 21
153.4141797642072
 31
0.0
  0
LINE
  5
4AB
330
1F
100
AcDbEntity
  8
0
100
AcDbLine
 10
342.3413504281638
 20
133.5308053683815
 30
0.0
 11
339.3260764073578
 21
136.6532130213304
 31
0.0
  0
LINE
  5
4BB
330
1F
100
AcDbEntity
  8
0
100
AcDbLine
 10
272.3424581638993
 20
372.7915868074859
 30
0.0
 11
265.427080629492
 21
375.0053515294224
 31
0.0
  0
ARC
  5
4BC
330
1F
100
AcDbEntity
  8
0
100
AcDbCircle
 10
271.4278147037867
 20
369.9344155944025
 30
0.0
 40
3.0
100
AcDbArc
 50
1.999999999892831
 51
72.24898604608927
  0
ARC
  5
4BD
330
1F
100
AcDbEntity
  8
0
100
AcDbCircle
 10
208.9255729281857
 20
372.1481803163377
 30
0.0
 40
3.0
100
AcDbArc
 50
90.0
 51
107.7510139539092
  0
LINE
  5
4BE
330
1F
100
AcDbEntity
  8
0
100
AcDbLine
 10
201.0955519336657
 20
372.7915868074843
 30
0.0
 11
208.0109294680727
 21
375.005351529421
 31
0.0
  0
ARC
  5
4BF
330
1F
100
AcDbEntity
  8
0
100
AcDbCircle
 10
202.0101953937782
 20
369.9344155944009
 30
0.0
 40
3.0
100
AcDbArc
 50
107.7510139539092
 51
178.0000000001072
  0
HATCH
  5
4C7
330
1F
100
AcDbEntity
  8
0
100
AcDbHatch
 10
0.0
 20
0.0
 30
0.0
210
0.0
220
0.0
230
1.0
  2
SOLID
 70
     1
 71
     1
 91
        3
 92
        7
 72
     0
 73
     1
 93
       16
 10
258.9000068132611
 20
249.7341716917115
 10
258.6532552687963
 20
249.576670705883
 10
258.5220044472726
 20
249.3929195557497
 10
258.4590040529413
 20
249.1094177812584
 10
258.4957542829677
 20
248.8836663682374
 10
258.6532552687963
 20
248.6369148237728
 10
258.8317563860685
 20
248.505664002249
 10
259.1205081934209
 20
248.4426636079176
 10
259.341009573581
 20
248.4794138379442
 10
259.5877611180456
 20
248.6369148237728
 10
259.7190119395693
 20
248.8206659739061
 10
259.7820123339007
 20
249.1094177812584
 10
259.745262103874
 20
249.3299191614183
 10
259.5877611180456
 20
249.576670705883
 10
259.4092600007732
 20
249.7079215274067
 10
259.1205081934209
 20
249.7709219217381
 97
        1
330
4CA
 92
       22
 72
     0
 73
     1
 93
        8
 10
259.5291656760462
 20
249.0981851528117
 10
259.4016412001662
 20
248.8154134889044
 10
259.1094044481429
 20
248.7008108410521
 10
258.8253396792385
 20
248.8257993393702
 10
258.71185672849
 20
249.1208550113161
 10
258.8423795386853
 20
249.4046002508709
 10
259.1318442054703
 20
249.5181158064729
 10
259.4156906630335
 20
249.3875464359939
 97
        1
330
4C9
 92
        7
 72
     0
 73
     1
 93
       59
 10
260.8787567112756
 20
248.7670382763001
 10
260.6418785852402
 20
248.5301601502648
 10
260.4582980375628
 20
248.2399844458715
 10
260.4168443655067
 20
248.1629990549101
 10
260.3102492087908
 20
247.8550574910642
 10
260.2391857709802
 20
247.5234281146148
 10
260.2214199115276
 20
247.1621889724109
 10
260.2214199115276
 20
247.0970474877512
 10
260.245107724131
 20
246.7476522518491
 10
260.3161711619416
 20
246.4160228753997
 10
260.4286882718086
 20
246.1021593584029
 10
260.5767371005807
 20
245.8179056071606
 10
260.7840054608614
 20
245.5514177153709
 10
261.0386494463494
 20
245.3500713082409
 10
261.0860250715564
 20
245.3145395893356
 10
261.3702788227988
 20
245.190178573167
 10
261.7019081992483
 20
245.1131931822056
 10
262.0749912477538
 20
245.0835834164511
 10
262.1934303107717
 20
245.089505369602
 10
262.5369035935225
 20
245.1368809948091
 10
262.8448451573683
 20
245.2493981046758
 10
263.1231769554599
 20
245.4270566992024
 10
263.2297721121761
 20
245.5158859964655
 10
263.431118519306
 20
245.7646080288026
 10
263.5969332075308
 20
246.0607056863468
 10
263.7094503173973
 20
246.4101009222488
 10
263.1883184401197
 20
246.5403838915682
 10
263.0727906490345
 20
246.1244838436621
 10
262.7328147833776
 20
245.734511527173
 10
262.3770108584488
 20
245.5810274811252
 10
262.0215906789062
 20
245.5320040080851
 10
261.672298433494
 20
245.5810274811252
 10
261.3346125140493
 20
245.7303885608796
 10
261.0741811652547
 20
245.9777983422345
 10
260.863144289332
 20
246.3697239689479
 10
260.7780835077106
 20
246.7950278770562
 10
260.757373030669
 20
247.2230444025802
 10
260.7958493671633
 20
247.5885695992745
 10
260.8984002631908
 20
247.9782630041793
 10
261.0682592121039
 20
248.2755161647768
 10
261.3569607604945
 20
248.5501347108071
 10
261.7137521055499
 20
248.6900528853387
 10
262.0893928082404
 20
248.7270011511771
 10
262.4480742962595
 20
248.672287025886
 10
262.7664663656659
 20
248.5130909911827
 10
262.9810500798389
 20
248.2399844458715
 10
263.1290989086108
 20
247.9024331162713
 10
263.6443088327376
 20
248.0208721792889
 10
263.6383868795867
 20
248.0445599918925
 10
263.5021819571164
 20
248.3761893683419
 10
263.3186014094392
 20
248.6485992132824
 10
263.081723283404
 20
248.873633433016
 10
263.0461915644985
 20
248.8973212456195
 10
262.761937813256
 20
249.0512920275425
 10
262.4421523431085
 20
249.1460432779567
 10
262.0868351540555
 20
249.175653043711
 10
261.7611277307572
 20
249.1519652311075
 10
261.4354203074583
 20
249.0749798401461
 10
261.1274787436125
 20
248.9387749176757
 97
        1
330
4C8
 75
     0
 76
     1
 47
0.0168987319652081
 98
        3
 10
259.5947779362798
 20
249.4384444927772
 10
259.5947779362798
 20
249.4384444927772
 10
260.9473132294882
 20
248.5766113033459
  0
LWPOLYLINE
  5
4C8
102
{ACAD_REACTORS
330
4C7
102
}
330
1F
100
AcDbEntity
  8
0
100
AcDbPolyline
 90
       69
 70
     1
 43
0.0
 10
260.7958493671633
 20
247.5885695992745
 10
260.8846786644265
 20
247.9261209288747
 10
260.902444523879
 20
247.9853404603836
 10
261.0682592121039
 20
248.2755161647768
 10
261.3110592912901
 20
248.5064723376613
 10
261.411732494855
 20
248.571613822321
 10
261.7137521055499
 20
248.6900528853387
 10
262.0749912477538
 20
248.725584604244
 10
262.0986790603574
 20
248.725584604244
 10
262.4480742962595
 20
248.672287025886
 10
262.7323280475018
 20
248.5301601502648
 10
262.7856256258599
 20
248.4887064782085
 10
262.9810500798389
 20
248.2399844458715
 10
263.1290989086108
 20
247.9024331162713
 10
263.6443088327376
 20
248.0208721792889
 10
263.6383868795867
 20
248.0445599918925
 10
263.5021819571164
 20
248.3761893683419
 10
263.3186014094392
 20
248.6485992132824
 10
263.081723283404
 20
248.873633433016
 10
263.0461915644985
 20
248.8973212456195
 10
262.761937813256
 20
249.0512920275425
 10
262.4421523431085
 20
249.1460432779567
 10
262.0868351540555
 20
249.175653043711
 10
261.7611277307572
 20
249.1519652311075
 10
261.4354203074583
 20
249.0749798401461
 10
261.1274787436125
 20
248.9387749176757
 10
260.8787567112756
 20
248.7670382763001
 10
260.6418785852402
 20
248.5301601502648
 10
260.4582980375628
 20
248.2399844458715
 10
260.4168443655067
 20
248.1629990549101
 10
260.3102492087908
 20
247.8550574910642
 10
260.2391857709802
 20
247.5234281146148
 10
260.2214199115276
 20
247.1621889724109
 10
260.2214199115276
 20
247.0970474877512
 10
260.245107724131
 20
246.7476522518491
 10
260.3161711619416
 20
246.4160228753997
 10
260.4286882718086
 20
246.1021593584029
 10
260.5767371005807
 20
245.8179056071606
 10
260.7840054608614
 20
245.5514177153709
 10
261.0386494463494
 20
245.3500713082409
 10
261.0860250715564
 20
245.3145395893356
 10
261.3702788227988
 20
245.190178573167
 10
261.7019081992483
 20
245.1131931822056
 10
262.0749912477538
 20
245.0835834164511
 10
262.1934303107717
 20
245.089505369602
 10
262.5369035935225
 20
245.1368809948091
 10
262.8448451573683
 20
245.2493981046758
 10
263.1231769554599
 20
245.4270566992024
 10
263.2297721121761
 20
245.5158859964655
 10
263.431118519306
 20
245.7646080288026
 10
263.5969332075308
 20
246.0607056863468
 10
263.7094503173973
 20
246.4101009222488
 10
263.1883184401197
 20
246.5403838915682
 10
263.1290989086108
 20
246.3271935781364
 10
262.9810500798389
 20
246.0192520142906
 10
262.779703672709
 20
245.7882958414061
 10
262.6790304691438
 20
245.7113104504447
 10
262.3770108584488
 20
245.5810274811252
 10
262.0335375756976
 20
245.5336518559183
 10
262.009849763094
 20
245.5336518559183
 10
261.672298433494
 20
245.5810274811252
 10
261.3643568696478
 20
245.7172324035956
 10
261.3110592912901
 20
245.7527641225008
 10
261.0741811652547
 20
245.9777983422345
 10
260.9083664770299
 20
246.2857399060803
 10
260.8432249923701
 20
246.4693204537576
 10
260.7780835077106
 20
246.7950278770562
 10
260.7603176482578
 20
247.1621889724109
 10
260.7603176482578
 20
247.2510182696742
  0
LWPOLYLINE
  5
4C9
102
{ACAD_REACTORS
330
4C7
102
}
330
1F
100
AcDbEntity
  8
0
100
AcDbPolyline
 90
       16
 70
     1
 43
0.0
 10
259.0995080619771
 20
248.7051652509651
 10
258.8370064189296
 20
248.8206659739061
 10
258.8212563203466
 20
248.8364160724889
 10
258.7162556631276
 20
249.1094177812584
 10
258.7162556631276
 20
249.1304179127021
 10
258.8370064189296
 20
249.3929195557497
 10
258.8527565175125
 20
249.4086696543325
 10
259.1205081934209
 20
249.5136703115516
 10
259.1415083248646
 20
249.5136703115516
 10
259.4040099679121
 20
249.3929195557497
 10
259.419760066495
 20
249.3771694571668
 10
259.5247607237141
 20
249.1094177812584
 10
259.5247607237141
 20
249.0884176498146
 10
259.4040099679121
 20
248.8206659739061
 10
259.3882598693294
 20
248.8101659081841
 10
259.1205081934209
 20
248.7051652509651
  0
LWPOLYLINE
  5
4CA
102
{ACAD_REACTORS
330
4C7
102
}
330
1F
100
AcDbEntity
  8
0
100
AcDbPolyline
 90
       16
 70
     1
 43
0.0
 10
258.6532552687963
 20
249.576670705883
 10
258.5220044472726
 20
249.3929195557497
 10
258.4590040529413
 20
249.1094177812584
 10
258.4957542829677
 20
248.8836663682374
 10
258.6532552687963
 20
248.6369148237728
 10
258.8317563860685
 20
248.505664002249
 10
259.1205081934209
 20
248.4426636079176
 10
259.341009573581
 20
248.4794138379442
 10
259.5877611180456
 20
248.6369148237728
 10
259.7190119395693
 20
248.8206659739061
 10
259.7820123339007
 20
249.1094177812584
 10
259.745262103874
 20
249.3299191614183
 10
259.5877611180456
 20
249.576670705883
 10
259.4092600007732
 20
249.7079215274067
 10
259.1205081934209
 20
249.7709219217381
 10
258.9000068132611
 20
249.7341716917115
  0
HATCH
  5
4CB
330
1F
100
AcDbEntity
  8
0
100
AcDbHatch
 10
0.0
 20
0.0
 30
0.0
210
0.0
220
0.0
230
1.0
  2
SOLID
 70
     1
 71
     0
 91
        3
 92
        7
 72
     0
 73
     1
 93
       20
 10
210.7290614646711
 20
263.5193559469291
 10
210.5526154260579
 20
263.5193559469291
 10
210.5319918631039
 20
263.4804003280156
 10
210.4747041882279
 20
263.3956145691996
 10
210.4013759643903
 20
263.3096830568903
 10
210.3108614380903
 20
263.221460037584
 10
210.2868006146434
 20
263.2008364746265
 10
210.2020148558263
 20
263.1332370182746
 10
210.1115003295261
 20
263.0713663294109
 10
210.0141112822403
 20
263.0140786545374
 10
209.9098477139673
 20
262.9602282401548
 10
209.9098477139671
 20
262.6967049357324
 10
209.9900504587902
 20
262.7299317871595
 10
210.0897310130692
 20
262.7780534340526
 10
210.1985775953349
 20
262.8376326159242
 10
210.2879463681393
 20
262.8937745373006
 10
210.3796066479385
 20
262.9602282401551
 10
210.4563721322693
 20
263.0255361895117
 10
210.4563721322688
 20
261.285136626827
 10
210.7290614646708
 20
261.285136626827
 97
        0
 92
        7
 72
     0
 73
     1
 93
       79
 10
214.4581092591632
 20
262.8009685040033
 10
214.4455059706913
 20
262.8112802854813
 10
214.3584287048809
 20
262.8651306998633
 10
214.2598939040968
 20
262.9029405652806
 10
214.1499015683385
 20
262.9258556352302
 10
214.0295974511023
 20
262.9338759097126
 10
213.960852241253
 20
262.9304386492202
 10
213.8508599054937
 20
262.9143981002552
 10
213.7454505837256
 20
262.8823170023255
 10
213.6457700294445
 20
262.8364868624259
 10
213.5850450940761
 20
262.7975312435116
 10
213.5036965957549
 20
262.7276402801653
 10
213.4360971394039
 20
262.6417087678526
 10
213.3811009715223
 20
262.5420282135693
 10
213.3730806970416
 20
262.5225504041148
 10
213.3387080921171
 20
262.4240156033288
 10
213.3146472686696
 20
262.3186062815593
 10
213.2997524732025
 20
262.2051766853122
 10
213.2951694592125
 20
262.0848725680771
 10
213.295169459212
 20
262.0734150330952
 10
213.3008982266992
 20
261.9473821483788
 10
213.3192302826594
 20
261.8305152916317
 10
213.3467283665996
 20
261.7239602163643
 10
213.3856839855123
 20
261.6277169225774
 10
213.4360971394033
 20
261.5417854102644
 10
213.4968220747703
 20
261.465019925933
 10
213.5289031726986
 20
261.4329388280036
 10
213.6113974245193
 20
261.3664851251487
 10
213.7019119508206
 20
261.314926217762
 10
213.8015925051025
 20
261.2782621058421
 10
213.9104390873636
 20
261.2553470358923
 10
214.0273059441072
 20
261.2484725149075
 10
214.0754275910019
 20
261.2496182684049
 10
214.1877114337551
 20
261.2645130638722
 10
214.2919750020271
 20
261.2954484083043
 10
214.387072542319
 20
261.3424243017018
 10
214.4741498081276
 20
261.4065864975605
 10
214.5142511805407
 20
261.4455421164751
 10
214.580704883394
 20
261.5257448613
 10
214.6334095442787
 20
261.6196966480937
 10
214.6723651631933
 20
261.7239602163656
 10
214.6987174936355
 20
261.8408270731088
 10
214.429465421726
 20
261.8751996780335
 10
214.4283196682279
 20
261.8637421430592
 10
214.3996758307906
 20
261.7445837793193
 10
214.3549914443902
 20
261.647194732034
 10
214.2931207555248
 20
261.5715750011995
 10
214.2358330806503
 20
261.5280363682945
 10
214.1372982798662
 20
261.4867892423849
 10
214.0250144371121
 20
261.4730402004151
 10
213.9791842972134
 20
261.4753317074101
 10
213.8726292219467
 20
261.4982467773598
 10
213.7798231886495
 20
261.5463684242544
 10
213.6996204438255
 20
261.6208424015916
 10
213.6732681133826
 20
261.6563607600135
 10
213.6308752339767
 20
261.7400007653293
 10
213.5999398895435
 20
261.839681319612
 10
213.5816078335847
 20
261.9576939298518
 10
213.5758790660968
 20
262.0928928425586
 10
213.5770248195945
 20
262.1627838059032
 10
213.590773861564
 20
262.2876709371311
 10
213.6159804385091
 20
262.3965175193914
 10
213.6537903039257
 20
262.487032045691
 10
213.7042034578162
 20
262.5615060230288
 10
213.7408675697352
 20
262.5993158884464
 10
213.8279448355445
 20
262.6600408238128
 10
213.9276253898261
 20
262.6967049357326
 10
214.0399092325795
 20
262.7093082242049
 10
214.0754275910019
 20
262.7070167172099
 10
214.1819826662681
 20
262.6829558937626
 10
214.2736429460669
 20
262.626813972386
 10
214.3125985649822
 20
262.5867125999735
 10
214.3687404863586
 20
262.4973438271698
 10
214.4065503517759
 20
262.3827684774208
 10
214.672365163193
 20
262.4228698498328
 10
214.671219409691
 20
262.4274528638277
 10
214.6402840652631
 20
262.5420282135704
 10
214.5944539253648
 20
262.641708767852
 10
214.5337289899978
 20
262.7287860336624
 97
        0
 92
        7
 72
     0
 73
     1
 93
       39
 10
215.4130823480177
 20
262.4767202642155
 10
215.4738072833841
 20
262.5660890370185
 10
215.5608845491931
 20
262.6359800003656
 10
215.5769250981584
 20
262.6440002748483
 10
215.6788971594346
 20
262.6852474007577
 10
215.7888894951941
 20
262.6978506892299
 10
215.853051691053
 20
262.6944134287376
 10
215.9584610128218
 20
262.6646238378029
 10
216.0409552646413
 20
262.6050446559335
 10
216.086785404541
 20
262.5362994460836
 10
216.1177207489729
 20
262.4343273848093
 10
216.1280325304506
 20
262.3060029930846
 10
216.1280325304503
 20
261.285136626827
 10
216.4018676163503
 20
261.285136626827
 10
216.4018676163503
 20
262.3060029930879
 10
216.4007218628531
 20
262.3483958724962
 10
216.3927015883703
 20
262.4755745107168
 10
216.3743695324104
 20
262.5821295859838
 10
216.3457256949726
 20
262.6680610982951
 10
216.3182276110329
 20
262.716182745189
 10
216.2494824011844
 20
262.7986769970089
 10
216.1555306143912
 20
262.8639849463657
 10
216.0695991020787
 20
262.9006490582855
 10
215.9630440268125
 20
262.9247098817327
 10
215.8450314165707
 20
262.9338759097126
 10
215.8393026490833
 20
262.9338759097126
 10
215.7281645598268
 20
262.9235641282352
 10
215.6250467450532
 20
262.897211797793
 10
215.5299492047622
 20
262.8525274113912
 10
215.4417261854549
 20
262.7906567225263
 10
215.3626691941286
 20
262.7115997312
 10
215.3626691941286
 20
263.5101899189492
 10
215.0899798617263
 20
263.5101899189492
 10
215.0899798617258
 20
261.285136626827
 10
215.3626691941283
 20
261.285136626827
 10
215.3626691941283
 20
262.1673668198875
 10
215.3661064546204
 20
262.2613186066864
 10
215.3810012500885
 20
262.3736024494407
 10
215.4084993340284
 20
262.4641169757443
 97
        0
 75
     0
 76
     1
 47
0.0200734496017999
 98
        3
 10
210.5691428017692
 20
263.143257988574
 10
213.7221613412551
 20
262.7618636808519
 10
215.2283878985274
 20
262.4607629115989
  0
LWPOLYLINE
  5
4CC
330
1F
100
AcDbEntity
  8
0
100
AcDbPolyline
 90
       79
 70
     1
 43
0.0
 10
214.0295974511023
 20
262.9338759097126
 10
213.960852241253
 20
262.9304386492202
 10
213.8508599054942
 20
262.9143981002553
 10
213.7454505837252
 20
262.8823170023256
 10
213.6457700294438
 20
262.8364868624261
 10
213.5850450940768
 20
262.7975312435116
 10
213.5036965957552
 20
262.7276402801648
 10
213.4360971394033
 20
262.6417087678531
 10
213.3811009715239
 20
262.5420282135716
 10
213.3730806970413
 20
262.5225504041143
 10
213.3387080921168
 20
262.4240156033303
 10
213.3146472686696
 20
262.3186062815614
 10
213.2997524732023
 20
262.2051766853101
 10
213.2951694592123
 20
262.0848725680738
 10
213.2951694592123
 20
262.0734150330989
 10
213.3008982266997
 20
261.9473821483753
 10
213.3192302826594
 20
261.8305152916314
 10
213.3467283665993
 20
261.7239602163651
 10
213.3856839855139
 20
261.627716922576
 10
213.4360971394033
 20
261.5417854102644
 10
213.4968220747703
 20
261.4650199259326
 10
213.5289031727
 20
261.432938828003
 10
213.6113974245191
 20
261.3664851251487
 10
213.7019119508206
 20
261.3149262177617
 10
213.801592505102
 20
261.2782621058421
 10
213.9104390873633
 20
261.2553470358923
 10
214.0273059441072
 20
261.2484725149075
 10
214.0754275910019
 20
261.2496182684049
 10
214.1877114337556
 20
261.2645130638722
 10
214.2919750020271
 20
261.2954484083044
 10
214.3870725423187
 20
261.3424243017015
 10
214.4741498081278
 20
261.4065864975608
 10
214.51425118054
 20
261.4455421164754
 10
214.5807048833942
 20
261.5257448612996
 10
214.6334095442787
 20
261.6196966480936
 10
214.672365163193
 20
261.7239602163651
 10
214.6987174936355
 20
261.8408270731088
 10
214.4294654217258
 20
261.8751996780335
 10
214.4283196682281
 20
261.8637421430586
 10
214.399675830791
 20
261.7445837793198
 10
214.354991444389
 20
261.6471947320333
 10
214.2931207555246
 20
261.5715750011991
 10
214.2358330806503
 20
261.5280363682946
 10
214.1372982798662
 20
261.4867892423849
 10
214.0250144371123
 20
261.4730402004151
 10
213.9791842972129
 20
261.4753317074101
 10
213.8726292219465
 20
261.49824677736
 10
213.7798231886498
 20
261.5463684242544
 10
213.6996204438258
 20
261.6208424015911
 10
213.6732681133833
 20
261.6563607600132
 10
213.6308752339762
 20
261.7400007653299
 10
213.5999398895442
 20
261.8396813196114
 10
213.5816078335845
 20
261.9576939298527
 10
213.5758790660968
 20
262.0928928425562
 10
213.5770248195945
 20
262.162783805903
 10
213.5907738615642
 20
262.2876709371293
 10
213.6159804385091
 20
262.3965175193906
 10
213.6537903039261
 20
262.4870320456921
 10
213.7042034578156
 20
262.561506023029
 10
213.7408675697352
 20
262.5993158884461
 10
213.8279448355445
 20
262.6600408238129
 10
213.9276253898259
 20
262.6967049357325
 10
214.0399092325797
 20
262.7093082242049
 10
214.0754275910019
 20
262.7070167172099
 10
214.1819826662684
 20
262.6829558937627
 10
214.2736429460672
 20
262.6268139723858
 10
214.3125985649819
 20
262.5867125999737
 10
214.3687404863588
 20
262.4973438271696
 10
214.4065503517759
 20
262.3827684774208
 10
214.672365163193
 20
262.4228698498328
 10
214.6712194096956
 20
262.4274528638228
 10
214.6402840652633
 20
262.5420282135716
 10
214.594453925364
 20
262.6417087678531
 10
214.5337289899969
 20
262.7287860336622
 10
214.4581092591627
 20
262.800968504004
 10
214.4455059706904
 20
262.8112802854813
 10
214.3584287048814
 20
262.8651306998634
 10
214.2598939040975
 20
262.9029405652805
 10
214.1499015683385
 20
262.9258556352302
  0
LWPOLYLINE
  5
4CD
330
1F
100
AcDbEntity
  8
0
100
AcDbPolyline
 90
       39
 70
     1
 43
0.0
 10
216.0409552646413
 20
262.6050446559335
 10
216.0867854045407
 20
262.5362994460842
 10
216.1177207489729
 20
262.4343273848077
 10
216.1280325304503
 20
262.306002993089
 10
216.1280325304503
 20
261.285136626827
 10
216.4018676163503
 20
261.285136626827
 10
216.4018676163503
 20
262.306002993089
 10
216.4007218628526
 20
262.3483958724961
 10
216.3927015883703
 20
262.4755745107174
 10
216.3743695324104
 20
262.5821295859837
 10
216.345725694973
 20
262.6680610982953
 10
216.3182276110335
 20
262.7161827451898
 10
216.249482401184
 20
262.798676997009
 10
216.1555306143903
 20
262.8639849463658
 10
216.0695991020787
 20
262.9006490582855
 10
215.9630440268122
 20
262.9247098817327
 10
215.8450314165709
 20
262.9338759097126
 10
215.8393026490833
 20
262.9338759097126
 10
215.7281645598271
 20
262.9235641282352
 10
215.6250467450529
 20
262.8972117977929
 10
215.5299492047616
 20
262.852527411391
 10
215.4417261854549
 20
262.7906567225266
 10
215.3626691941283
 20
262.7115997311999
 10
215.3626691941283
 20
263.5101899189492
 10
215.0899798617261
 20
263.5101899189492
 10
215.0899798617261
 20
261.285136626827
 10
215.3626691941283
 20
261.285136626827
 10
215.3626691941283
 20
262.167366819893
 10
215.3661064546207
 20
262.2613186066871
 10
215.381001250088
 20
262.3736024494409
 10
215.4084993340277
 20
262.4641169757424
 10
215.4130823480179
 20
262.4767202642148
 10
215.4738072833845
 20
262.5660890370189
 10
215.5608845491936
 20
262.6359800003656
 10
215.5769250981586
 20
262.6440002748481
 10
215.6788971594349
 20
262.6852474007577
 10
215.7888894951941
 20
262.6978506892299
 10
215.8530516910532
 20
262.6944134287376
 10
215.958461012822
 20
262.6646238378029
  0
HATCH
  5
4D2
330
1F
100
AcDbEntity
  8
0
100
AcDbHatch
 10
0.0
 20
0.0
 30
0.0
210
0.0
220
0.0
230
1.0
  2
SOLID
 70
     1
 71
     0
 91
        1
 92
        7
 72
     0
 73
     1
 93
       12
 10
224.3659008115865
 20
263.6905123102555
 10
225.1591300022521
 20
262.5639935436796
 10
225.5490788060672
 20
262.5639935436796
 10
224.5725403486506
 20
263.8871531600423
 10
225.505751161199
 20
264.7870350149994
 10
225.1091365658654
 20
264.7870350149994
 10
224.0026151738446
 20
263.6838465187373
 10
224.0026151738446
 20
264.7870350149994
 10
223.7093203470436
 20
264.7870350149994
 10
223.7093203470438
 20
262.5639935436796
 10
224.0026151738446
 20
262.5639935436796
 10
224.0026151738448
 20
263.3338924640317
 97
        0
 75
     0
 76
     1
 47
0.0376704493035241
 98
        1
 10
223.8282644851372
 20
263.5158909501523
  0
LWPOLYLINE
  5
4D3
330
1F
100
AcDbEntity
  8
0
100
AcDbPolyline
 90
       12
 70
     1
 43
0.0
 10
225.1091365658656
 20
264.7870350149994
 10
224.0026151738446
 20
263.6838465187373
 10
224.0026151738446
 20
264.7870350149994
 10
223.7093203470438
 20
264.7870350149994
 10
223.7093203470438
 20
262.5639935436796
 10
224.0026151738446
 20
262.5639935436796
 10
224.0026151738446
 20
263.3338924640318
 10
224.3659008115865
 20
263.6905123102555
 10
225.1591300022521
 20
262.5639935436796
 10
225.549078806067
 20
262.5639935436796
 10
224.5725403486506
 20
263.8871531600424
 10
225.5057511611988
 20
264.7870350149994
  0
HATCH
  5
4D4
330
1F
100
AcDbEntity
  8
0
100
AcDbHatch
 10
0.0
 20
0.0
 30
0.0
210
0.0
220
0.0
230
1.0
  2
SOLID
 70
     1
 71
     0
 91
        4
 92
        7
 72
     0
 73
     1
 93
       17
 10
217.0841696408333
 20
268.6331797752521
 10
216.7309786327596
 20
268.6331797752521
 10
216.256378215646
 20
267.2535273999435
 10
216.201192120652
 20
267.0879691149145
 10
216.1496850986391
 20
266.9371271219
 10
216.1202525146359
 20
267.0291039469083
 10
216.0577082736224
 20
267.2314529619515
 10
215.5867869295221
 20
268.6331797752521
 10
215.1931261184407
 20
268.6331797752521
 10
215.1931261184409
 20
266.6538385008414
 10
215.4469821554928
 20
266.6538385008414
 10
215.4469821554933
 20
268.3388539351907
 10
216.0172384706118
 20
266.6538385008414
 10
216.2563782156617
 20
266.6538385008414
 10
216.8303136037803
 20
268.3094213511852
 10
216.8303136037807
 20
266.6538385008414
 10
217.0841696408329
 20
266.6538385008414
 97
        0
 92
        7
 72
     0
 73
     1
 93
        8
 10
218.3044021116637
 20
268.6331797752521
 10
218.0211134906044
 20
268.6331797752521
 10
217.2595453794463
 20
266.6538385008414
 10
217.5391549275043
 20
266.6538385008414
 10
217.75622023455
 20
267.2535273999657
 10
218.584011659721
 20
267.2535273999657
 10
218.8157932587694
 20
266.6538385008414
 10
219.1137981718314
 20
266.6538385008414
 97
        0
 92
       22
 72
     0
 73
     1
 93
        9
 10
217.8334807675656
 20
267.46691363401
 10
218.0505460746115
 20
268.0482071681283
 10
218.0579042206109
 20
268.0666025331338
 10
218.1130903156227
 20
268.2468771101704
 10
218.1572391916327
 20
268.4234726142082
 10
218.1719554836377
 20
268.379323738197
 10
218.2234625056456
 20
268.2137654531651
 10
218.2970439656628
 20
268.0150955111215
 10
218.5030720537043
 20
267.46691363401
 97
        0
 92
        7
 72
     0
 73
     1
 93
       18
 10
221.0632578942209
 20
268.6331797752521
 10
220.7762902001614
 20
268.6331797752521
 10
220.378950316067
 20
268.1070723361338
 10
220.3237642210672
 20
268.0334908761306
 10
220.2207501770461
 20
267.8826488830965
 10
220.1802803740361
 20
267.9525512701102
 10
220.0625500380131
 20
268.1254677011484
 10
219.7056799569391
 20
268.6331797752521
 10
219.3929587518742
 20
268.6331797752521
 10
220.0662291110141
 20
267.683978941055
 10
219.3009819268555
 20
266.6538385008414
 10
219.6173822049209
 20
266.6538385008414
 10
220.1140570600248
 20
267.3418251519856
 10
220.2060338850431
 20
267.4926671450153
 10
220.2943316370704
 20
267.3602205169855
 10
220.7910064921644
 20
266.6538385008414
 10
221.1147649162317
 20
266.6538385008414
 10
220.3679130970768
 20
267.6986952330584
 97
        0
 75
     0
 76
     1
 47
0.0159643590126203
 98
        4
 10
216.9729872065602
 20
267.7249845259193
 10
218.0111701302087
 20
267.3578039042149
 10
218.0111701302087
 20
267.3578039042149
 10
220.1673761372206
 20
267.7249845259193
  0
LWPOLYLINE
  5
4D5
330
1F
100
AcDbEntity
  8
0
100
AcDbPolyline
 90
       18
 70
     1
 43
0.0
 10
221.0632578942209
 20
268.6331797752521
 10
220.7762902001614
 20
268.6331797752521
 10
220.378950316079
 20
268.1070723361429
 10
220.3237642210674
 20
268.0334908761275
 10
220.2207501770461
 20
267.8826488830963
 10
220.1802803740377
 20
267.9525512701108
 10
220.0625500380131
 20
268.1254677011467
 10
219.7056799569391
 20
268.6331797752521
 10
219.3929587518744
 20
268.6331797752521
 10
220.0662291110141
 20
267.683978941055
 10
219.3009819268552
 20
266.6538385008414
 10
219.6173822049209
 20
266.6538385008414
 10
220.1140570600239
 20
267.341825151984
 10
220.2060338850431
 20
267.4926671450154
 10
220.2943316370613
 20
267.3602205169879
 10
220.7910064921644
 20
266.6538385008414
 10
221.1147649162315
 20
266.6538385008414
 10
220.3679130970765
 20
267.698695233058
  0
LWPOLYLINE
  5
4D6
330
1F
100
AcDbEntity
  8
0
100
AcDbPolyline
 90
       17
 70
     1
 43
0.0
 10
216.0172384706118
 20
266.6538385008414
 10
216.2563782156615
 20
266.6538385008414
 10
216.8303136037805
 20
268.3094213511848
 10
216.8303136037805
 20
266.6538385008414
 10
217.0841696408331
 20
266.6538385008414
 10
217.0841696408331
 20
268.6331797752521
 10
216.7309786327598
 20
268.6331797752521
 10
216.2563782156615
 20
267.2535273999657
 10
216.2011921206499
 20
267.0879691149314
 10
216.1496850986393
 20
266.9371271219
 10
216.120252514633
 20
267.0291039469191
 10
216.0577082736202
 20
267.2314529619612
 10
215.5867869295224
 20
268.6331797752521
 10
215.1931261184407
 20
268.6331797752521
 10
215.1931261184407
 20
266.6538385008414
 10
215.4469821554933
 20
266.6538385008414
 10
215.4469821554933
 20
268.338853935191
  0
LWPOLYLINE
  5
4D7
330
1F
100
AcDbEntity
  8
0
100
AcDbPolyline
 90
        8
 70
     1
 43
0.0
 10
218.8157932587694
 20
266.6538385008414
 10
219.1137981718314
 20
266.6538385008414
 10
218.3044021116634
 20
268.6331797752521
 10
218.0211134906047
 20
268.6331797752521
 10
217.2595453794465
 20
266.6538385008414
 10
217.5391549275046
 20
266.6538385008414
 10
217.7562202345496
 20
267.2535273999657
 10
218.5840116597212
 20
267.2535273999657
  0
LWPOLYLINE
  5
4D8
330
1F
100
AcDbEntity
  8
0
100
AcDbPolyline
 90
        9
 70
     1
 43
0.0
 10
218.2234625056465
 20
268.213765453165
 10
218.2970439656617
 20
268.0150955111237
 10
218.5030720537045
 20
267.46691363401
 10
217.8334807675656
 20
267.46691363401
 10
218.0505460746106
 20
268.0482071681306
 10
218.0579042206121
 20
268.0666025331344
 10
218.1130903156236
 20
268.2468771101719
 10
218.1572391916327
 20
268.4234726142086
 10
218.1719554836359
 20
268.3793237381993
  0
HATCH
  5
4E9
330
1F
100
AcDbEntity
  8
0
100
AcDbHatch
 10
0.0
 20
0.0
 30
0.0
210
0.0
220
0.0
230
1.0
  2
SOLID
 70
     1
 71
     1
 91
       17
 92
        7
 72
     1
 73
     1
 93
        6
 10
231.73264362007
 20
261.1294428925595
 42
0.1636384980546936
 10
230.3731180715365
 20
260.6722591918174
 42
0.0
 10
231.9739580818216
 20
258.8794428925595
 42
0.0
 10
235.0855046636561
 20
258.8794428925595
 42
0.0
 10
237.0757519477795
 20
260.6565728105019
 42
0.1875900281644794
 10
235.8597230908432
 20
261.1294428925595
 42
0.0
 97
        1
330
4F0
 92
        7
 72
     1
 73
     1
 93
        7
 10
234.8024444724817
 20
254.0044989264256
 42
0.0
 10
235.6867933844283
 20
252.9998077943275
 42
0.0
 10
235.9319386104346
 20
252.9998077943275
 42
0.0
 10
237.066522172199
 20
254.0012492350897
 42
0.0
 10
237.6482395870855
 20
259.1264435263805
 42
0.1875900281645031
 10
237.3155268897931
 20
260.3880435249808
 42
0.0
 10
235.3252796056697
 20
258.6109136070385
 42
0.0
 97
        1
330
4F1
 92
        7
 72
     0
 73
     1
 93
        6
 10
231.4221940139655
 20
253.7631857570938
 10
230.1461802015928
 20
252.6238085853401
 10
231.1378765959912
 20
251.5131857570938
 10
234.2476694586426
 20
251.5131857570938
 10
235.5240764373609
 20
252.6398077943273
 10
234.5352570406949
 20
253.7631857570938
 97
        1
330
4F2
 92
        7
 72
     1
 73
     1
 93
        7
 10
230.8693473104702
 20
251.2734108150803
 42
0.0
 10
229.9721645209268
 20
252.2781857570937
 42
0.0
 10
229.7591095162686
 20
252.2781857570937
 42
0.0
 10
228.6016371036992
 20
251.2446564715727
 42
0.0
 10
228.0304730703631
 20
246.2124422587386
 42
0.1875900281645042
 10
228.3631857676555
 20
244.9508422601383
 42
0.0
 10
230.3534330517789
 20
246.7279721780806
 42
0.0
 97
        1
330
4F3
 92
        7
 72
     1
 73
     1
 93
        6
 10
230.5932079937922
 20
246.4594428925595
 42
0.0
 10
228.6029607096691
 20
244.6823129746172
 42
0.1875900281644986
 10
229.8189895666056
 20
244.2094428925595
 42
0.0
 10
233.9460690373784
 20
244.2094428925595
 42
0.1636384980547209
 10
235.3055945859121
 20
244.6666265933018
 42
0.0
 10
233.704754575627
 20
246.4594428925595
 42
0.0
 97
        1
330
4EF
 92
        7
 72
     1
 73
     1
 93
        6
 10
242.4007028971787
 20
261.1294428925595
 42
0.1636384980546807
 10
241.0411773486451
 20
260.6722591918174
 42
0.0
 10
242.6420173589302
 20
258.8794428925595
 42
0.0
 10
245.7535639407649
 20
258.8794428925595
 42
0.0
 10
247.7438112248883
 20
260.6565728105019
 42
0.1875900281644793
 10
246.527782367952
 20
261.1294428925595
 42
0.0
 97
        1
330
4EC
 92
        7
 72
     1
 73
     1
 93
        7
 10
242.3734880734091
 20
258.639667950546
 42
0.0
 10
240.7726480631243
 20
260.4324842498039
 42
0.1636384980547399
 10
240.1650572768758
 20
259.1331921002829
 42
0.0
 10
239.5827681422897
 20
254.0029606991073
 42
0.0
 10
240.4799509318334
 20
252.9981857570938
 42
0.0
 10
240.6930059364913
 20
252.9981857570938
 42
0.0
 10
241.8504783490607
 20
254.0317150426149
 42
0.0
 97
        1
330
4ED
 92
        7
 72
     0
 73
     1
 93
        6
 10
244.9157287357514
 20
251.5131857570938
 10
246.1921357144697
 20
252.6398077943273
 10
245.2033163178037
 20
253.7631857570938
 10
242.0902532910743
 20
253.7631857570938
 10
240.8142394787017
 20
252.6238085853401
 10
241.8059358731
 20
251.5131857570938
 97
        1
330
4EA
 92
        7
 72
     1
 73
     1
 93
        7
 10
247.4215293504569
 20
251.2431182442544
 42
0.0
 10
246.5090148011159
 20
252.2798077943274
 42
0.0
 10
246.3282878355321
 20
252.2798077943274
 42
0.0
 10
245.1574516507396
 20
251.2463679355903
 42
0.0
 10
244.6413431382568
 20
246.699217834573
 42
0.0
 10
246.2421831485419
 20
244.9064015353152
 42
0.1636384980547149
 10
246.8497739347902
 20
246.2056936848359
 42
0.0
 97
        1
330
4EB
 92
        7
 72
     1
 73
     1
 93
        6
 10
241.261267270901
 20
246.4594428925595
 42
0.0
 10
239.2710199867777
 20
244.6823129746172
 42
0.1875900281644844
 10
240.4870488437143
 20
244.2094428925595
 42
0.0
 10
244.6141283144871
 20
244.2094428925595
 42
0.1636384980547337
 10
245.9736538630207
 20
244.6666265933018
 42
0.0
 10
244.3728138527358
 20
246.4594428925595
 42
0.0
 97
        1
330
4EE
 92
        7
 72
     1
 73
     1
 93
        2
 10
248.7918048485612
 20
244.0588562708938
 42
1.0
 10
246.9364689478843
 20
244.0588562708938
 42
1.0
 97
        1
330
4FF
 92
        7
 72
     1
 73
     1
 93
        6
 10
253.0687621742874
 20
261.1294428925595
 42
0.1636384980546937
 10
251.7092366257539
 20
260.6722591918174
 42
0.0
 10
253.3100766360389
 20
258.8794428925595
 42
0.0
 10
256.4216232178735
 20
258.8794428925595
 42
0.0
 10
258.4118705019971
 20
260.6565728105019
 42
0.187590028164467
 10
257.1958416450607
 20
261.1294428925595
 42
0.0
 97
        1
330
4F8
 92
        7
 72
     1
 73
     1
 93
        7
 10
253.0415473505179
 20
258.639667950546
 42
0.0
 10
251.4407073402328
 20
260.4324842498039
 42
0.1636384980546939
 10
250.8331165539846
 20
259.1331921002833
 42
0.0
 10
250.2508274193985
 20
254.0029606991073
 42
0.0
 10
251.148010208942
 20
252.9981857570938
 42
0.0
 10
251.3610652136001
 20
252.9981857570938
 42
0.0
 10
252.5185376261695
 20
254.0317150426149
 42
0.0
 97
        1
330
4F7
 92
        7
 72
     1
 73
     1
 93
        7
 10
252.2054658646875
 20
251.2734108150803
 42
0.0
 10
251.3082830751441
 20
252.2781857570937
 42
0.0
 10
251.0952280704862
 20
252.2781857570937
 42
0.0
 10
249.9377556579168
 20
251.2446564715727
 42
0.0
 10
249.3665916245807
 20
246.2124422587383
 42
0.1875900281644729
 10
249.6993043218729
 20
244.9508422601383
 42
0.0
 10
251.6895516059965
 20
246.7279721780806
 42
0.0
 97
        1
330
4F6
 92
        7
 72
     1
 73
     1
 93
        6
 10
251.9293265480099
 20
246.4594428925595
 42
0.0
 10
249.9390792638865
 20
244.6823129746172
 42
0.1875900281644987
 10
251.155108120823
 20
244.2094428925595
 42
0.0
 10
255.2821875915958
 20
244.2094428925595
 42
0.163638498054721
 10
256.6417131401295
 20
244.6666265933018
 42
0.0
 10
255.0408731298446
 20
246.4594428925595
 42
0.0
 97
        1
330
4F4
 92
        7
 72
     1
 73
     1
 93
        7
 10
258.0895886275655
 20
251.2431182442544
 42
0.0
 10
257.1770740782247
 20
252.2798077943274
 42
0.0
 10
256.9963471126409
 20
252.2798077943274
 42
0.0
 10
255.8255109278484
 20
251.2463679355903
 42
0.0
 10
255.3094024153654
 20
246.699217834573
 42
0.0
 10
256.9102424256505
 20
244.9064015353152
 42
0.1636384980546922
 10
257.5178332118987
 20
246.2056936848358
 42
0.0
 97
        1
330
4F5
 92
        7
 72
     1
 73
     1
 93
        7
 10
255.964913848627
 20
254.0044989264256
 42
0.0
 10
256.8492627605735
 20
252.9998077943275
 42
0.0
 10
257.0944079865796
 20
252.9998077943275
 42
0.0
 10
258.2289915483443
 20
254.0012492350897
 42
0.0
 10
258.8107089632306
 20
259.1264435263809
 42
0.187590028164441
 10
258.4779962659384
 20
260.3880435249808
 42
0.0
 10
256.4877489818148
 20
258.6109136070385
 42
0.0
 97
        1
330
4F9
 75
     0
 76
     1
 47
0.0699362569566174
 98
       17
 10
233.2205223118419
 20
260.1850565210697
 10
235.9493300079523
 20
257.8072221643487
 10
233.5004010944069
 20
252.9816193581972
 10
229.8619977888559
 20
249.9044252732355
 10
231.7511691372731
 20
245.6383140099114
 10
245.3252274882855
 20
260.0451820685993
 10
241.3369757045296
 20
257.5974136191707
 10
243.1561773573051
 20
252.6319426276058
 10
246.3747729229019
 20
249.9044252732355
 10
243.7159349224332
 20
245.3585713720266
 10
247.8441260974725
 20
243.9598456484881
 10
254.5611960112312
 20
260.1850565210697
 10
251.8323883151227
 20
257.4575391666993
 10
251.202661054351
 20
248.7854484546387
 10
253.0218627071265
 20
245.4285054647333
 10
256.6602764465717
 20
248.5056995496961
 10
256.870185533495
 20
256.4784368005738
  0
LWPOLYLINE
  5
4EA
102
{ACAD_REACTORS
330
4E9
102
}
330
1F
100
AcDbEntity
  8
0
100
AcDbPolyline
 90
        6
 70
     1
 43
0.0
 10
240.8142394787017
 20
252.6238085853401
 10
241.8059358731
 20
251.5131857570938
 10
244.9157287357514
 20
251.5131857570938
 10
246.1921357144697
 20
252.6398077943273
 10
245.2033163178037
 20
253.7631857570938
 10
242.0902532910743
 20
253.7631857570938
  0
LWPOLYLINE
  5
4EB
102
{ACAD_REACTORS
330
4E9
102
}
330
1F
100
AcDbEntity
  8
0
100
AcDbPolyline
 90
        7
 70
     1
 43
0.0
 10
246.5090148011159
 20
252.2798077943274
 10
246.3282878355321
 20
252.2798077943274
 10
245.1574516507396
 20
251.2463679355903
 10
244.6413431382568
 20
246.699217834573
 10
246.2421831485419
 20
244.9064015353152
 42
0.16363849805471
 10
246.8497739347902
 20
246.2056936848359
 10
247.4215293504569
 20
251.2431182442544
  0
LWPOLYLINE
  5
4EC
102
{ACAD_REACTORS
330
4E9
102
}
330
1F
100
AcDbEntity
  8
0
100
AcDbPolyline
 90
        6
 70
     1
 43
0.0
 10
241.0411773486451
 20
260.6722591918174
 10
242.6420173589302
 20
258.8794428925595
 10
245.7535639407649
 20
258.8794428925595
 10
247.7438112248883
 20
260.6565728105019
 42
0.1875900281644911
 10
246.5277823679519
 20
261.1294428925595
 10
242.4007028971789
 20
261.1294428925595
 42
0.1636384980547074
  0
LWPOLYLINE
  5
4ED
102
{ACAD_REACTORS
330
4E9
102
}
330
1F
100
AcDbEntity
  8
0
100
AcDbPolyline
 90
        7
 70
     1
 43
0.0
 10
239.5827681422897
 20
254.0029606991073
 10
240.4799509318334
 20
252.9981857570938
 10
240.6930059364913
 20
252.9981857570938
 10
241.8504783490607
 20
254.0317150426149
 10
242.3734880734091
 20
258.639667950546
 10
240.7726480631243
 20
260.4324842498039
 42
0.1636384980547077
 10
240.1650572768758
 20
259.1331921002832
  0
LWPOLYLINE
  5
4EE
102
{ACAD_REACTORS
330
4E9
102
}
330
1F
100
AcDbEntity
  8
0
100
AcDbPolyline
 90
        6
 70
     1
 43
0.0
 10
244.6141283144873
 20
244.2094428925595
 42
0.1636384980547072
 10
245.9736538630207
 20
244.6666265933018
 10
244.3728138527358
 20
246.4594428925595
 10
241.261267270901
 20
246.4594428925595
 10
239.2710199867777
 20
244.6823129746172
 42
0.1875900281644875
 10
240.4870488437143
 20
244.2094428925595
  0
LWPOLYLINE
  5
4EF
102
{ACAD_REACTORS
330
4E9
102
}
330
1F
100
AcDbEntity
  8
0
100
AcDbPolyline
 90
        6
 70
     1
 43
0.0
 10
233.9460690373785
 20
244.2094428925595
 42
0.1636384980547072
 10
235.3055945859121
 20
244.6666265933018
 10
233.704754575627
 20
246.4594428925595
 10
230.5932079937922
 20
246.4594428925595
 10
228.6029607096691
 20
244.6823129746172
 42
0.1875900281644875
 10
229.8189895666055
 20
244.2094428925595
  0
LWPOLYLINE
  5
4F0
102
{ACAD_REACTORS
330
4E9
102
}
330
1F
100
AcDbEntity
  8
0
100
AcDbPolyline
 90
        6
 70
     1
 43
0.0
 10
230.3731180715365
 20
260.6722591918174
 10
231.9739580818216
 20
258.8794428925595
 10
235.0855046636561
 20
258.8794428925595
 10
237.0757519477795
 20
260.6565728105019
 42
0.1875900281644911
 10
235.8597230908431
 20
261.1294428925595
 10
231.7326436200701
 20
261.1294428925595
 42
0.1636384980547074
  0
LWPOLYLINE
  5
4F1
102
{ACAD_REACTORS
330
4E9
102
}
330
1F
100
AcDbEntity
  8
0
100
AcDbPolyline
 90
        7
 70
     1
 43
0.0
 10
235.6867933844283
 20
252.9998077943275
 10
235.9319386104346
 20
252.9998077943275
 10
237.066522172199
 20
254.0012492350897
 10
237.6482395870855
 20
259.1264435263806
 42
0.1875900281644857
 10
237.3155268897931
 20
260.3880435249808
 10
235.3252796056697
 20
258.6109136070385
 10
234.8024444724817
 20
254.0044989264256
  0
LWPOLYLINE
  5
4F2
102
{ACAD_REACTORS
330
4E9
102
}
330
1F
100
AcDbEntity
  8
0
100
AcDbPolyline
 90
        6
 70
     1
 43
0.0
 10
230.1461802015928
 20
252.6238085853401
 10
231.1378765959912
 20
251.5131857570938
 10
234.2476694586426
 20
251.5131857570938
 10
235.5240764373609
 20
252.6398077943273
 10
234.5352570406949
 20
253.7631857570938
 10
231.4221940139655
 20
253.7631857570938
  0
LWPOLYLINE
  5
4F3
102
{ACAD_REACTORS
330
4E9
102
}
330
1F
100
AcDbEntity
  8
0
100
AcDbPolyline
 90
        7
 70
     1
 43
0.0
 10
228.3631857676555
 20
244.9508422601383
 42
-0.1875900281644814
 10
228.0304730703631
 20
246.2124422587384
 10
228.6016371036992
 20
251.2446564715727
 10
229.7591095162686
 20
252.2781857570937
 10
229.9721645209268
 20
252.2781857570937
 10
230.8693473104702
 20
251.2734108150803
 10
230.3534330517789
 20
246.7279721780806
  0
LWPOLYLINE
  5
4F4
102
{ACAD_REACTORS
330
4E9
102
}
330
1F
100
AcDbEntity
  8
0
100
AcDbPolyline
 90
        6
 70
     1
 43
0.0
 10
255.2821875915959
 20
244.2094428925595
 42
0.1636384980547072
 10
256.6417131401295
 20
244.6666265933018
 10
255.0408731298446
 20
246.4594428925595
 10
251.9293265480099
 20
246.4594428925595
 10
249.9390792638865
 20
244.6823129746172
 42
0.1875900281644875
 10
251.1551081208229
 20
244.2094428925595
  0
LWPOLYLINE
  5
4F5
102
{ACAD_REACTORS
330
4E9
102
}
330
1F
100
AcDbEntity
  8
0
100
AcDbPolyline
 90
        7
 70
     1
 43
0.0
 10
257.1770740782247
 20
252.2798077943274
 10
256.9963471126409
 20
252.2798077943274
 10
255.8255109278484
 20
251.2463679355903
 10
255.3094024153654
 20
246.699217834573
 10
256.9102424256505
 20
244.9064015353152
 42
0.16363849805471
 10
257.5178332118987
 20
246.2056936848359
 10
258.0895886275655
 20
251.2431182442544
  0
LWPOLYLINE
  5
4F6
102
{ACAD_REACTORS
330
4E9
102
}
330
1F
100
AcDbEntity
  8
0
100
AcDbPolyline
 90
        7
 70
     1
 43
0.0
 10
249.6993043218729
 20
244.9508422601383
 42
-0.1875900281644814
 10
249.3665916245807
 20
246.2124422587384
 10
249.9377556579168
 20
251.2446564715727
 10
251.0952280704862
 20
252.2781857570937
 10
251.3082830751441
 20
252.2781857570937
 10
252.2054658646875
 20
251.2734108150803
 10
251.6895516059965
 20
246.7279721780806
  0
LWPOLYLINE
  5
4F7
102
{ACAD_REACTORS
330
4E9
102
}
330
1F
100
AcDbEntity
  8
0
100
AcDbPolyline
 90
        7
 70
     1
 43
0.0
 10
250.2508274193985
 20
254.0029606991073
 10
251.148010208942
 20
252.9981857570938
 10
251.3610652136001
 20
252.9981857570938
 10
252.5185376261695
 20
254.0317150426149
 10
253.0415473505179
 20
258.639667950546
 10
251.4407073402328
 20
260.4324842498039
 42
0.1636384980547077
 10
250.8331165539846
 20
259.1331921002832
  0
LWPOLYLINE
  5
4F8
102
{ACAD_REACTORS
330
4E9
102
}
330
1F
100
AcDbEntity
  8
0
100
AcDbPolyline
 90
        6
 70
     1
 43
0.0
 10
251.7092366257539
 20
260.6722591918174
 10
253.3100766360389
 20
258.8794428925595
 10
256.4216232178735
 20
258.8794428925595
 10
258.4118705019971
 20
260.6565728105019
 42
0.1875900281644911
 10
257.1958416450605
 20
261.1294428925595
 10
253.0687621742875
 20
261.1294428925595
 42
0.1636384980547074
  0
LWPOLYLINE
  5
4F9
102
{ACAD_REACTORS
330
4E9
102
}
330
1F
100
AcDbEntity
  8
0
100
AcDbPolyline
 90
        7
 70
     1
 43
0.0
 10
256.8492627605735
 20
252.9998077943275
 10
257.0944079865796
 20
252.9998077943275
 10
258.2289915483443
 20
254.0012492350897
 10
258.8107089632306
 20
259.1264435263806
 42
0.1875900281644857
 10
258.4779962659384
 20
260.3880435249808
 10
256.4877489818148
 20
258.6109136070385
 10
255.964913848627
 20
254.0044989264256
  0
HATCH
  5
4FA
330
1F
100
AcDbEntity
  8
0
100
AcDbHatch
 10
0.0
 20
0.0
 30
0.0
210
0.0
220
0.0
230
1.0
  2
SOLID
 70
     1
 71
     0
 91
        3
 92
        7
 72
     0
 73
     1
 93
       20
 10
263.6846523359072
 20
268.9532199934689
 10
258.5646523359071
 20
268.9532199934689
 10
258.5646523359073
 20
268.3132199934689
 10
257.8446523359073
 20
268.3132199934689
 10
257.8446523359073
 20
266.5532199934689
 10
258.5646523359073
 20
266.5532199934689
 10
258.5646523359071
 20
265.9132199934689
 10
263.6846523359072
 20
265.9132199934689
 10
263.6846523359072
 20
267.2582199934689
 10
263.4446523359072
 20
267.2582199934689
 10
263.4446523359072
 20
266.1532199934689
 10
258.8046523359076
 20
266.1532199934689
 10
258.8046523359074
 20
266.7932199934689
 10
258.0846523359073
 20
266.7932199934689
 10
258.0846523359073
 20
268.0732199934689
 10
258.8046523359074
 20
268.0732199934689
 10
258.8046523359076
 20
268.7132199934689
 10
263.444652335907
 20
268.7132199934689
 10
263.444652335907
 20
267.6082199934689
 10
263.6846523359072
 20
267.6082199934689
 97
        0
 92
       23
 72
     0
 73
     1
 93
        4
 10
261.4520574683909
 20
268.3544521092839
 10
259.1046523359075
 20
268.3544521092839
 10
259.1046523359073
 20
266.4482194383554
 10
260.8767447540797
 20
266.4482194383554
 97
        0
 92
       23
 72
     0
 73
     1
 93
        4
 10
263.1946523359072
 20
268.3544521092839
 10
261.8698778973721
 20
268.3544521092839
 10
261.2945651830608
 20
266.4482194383554
 10
263.1946523359072
 20
266.4482194383554
 97
        0
 75
     0
 76
     1
 47
0.027340583098599
 98
        3
 10
261.5000905192849
 20
268.8456597170515
 10
260.4880027654528
 20
267.587992919818
 10
262.457462931043
 20
267.3145862768905
  0
LWPOLYLINE
  5
4FB
330
1F
100
AcDbEntity
  8
0
100
AcDbPolyline
 90
        4
 70
     1
 43
0.0
 10
260.8767447540797
 20
266.4482194383554
 10
259.1046523359073
 20
266.4482194383554
 10
259.1046523359073
 20
268.3544521092839
 10
261.4520574683909
 20
268.3544521092839
  0
LWPOLYLINE
  5
4FC
330
1F
100
AcDbEntity
  8
0
100
AcDbPolyline
 90
        4
 70
     1
 43
0.0
 10
261.2945651830608
 20
266.4482194383554
 10
261.8698778973719
 20
268.3544521092839
 10
263.1946523359072
 20
268.3544521092839
 10
263.1946523359072
 20
266.4482194383554
  0
LWPOLYLINE
  5
4FD
330
1F
100
AcDbEntity
  8
0
100
AcDbPolyline
 90
       20
 70
     1
 43
0.0
 10
263.4446523359072
 20
267.2582199934689
 10
263.4446523359072
 20
266.1532199934689
 10
258.8046523359074
 20
266.1532199934689
 10
258.8046523359074
 20
266.7932199934689
 10
258.0846523359073
 20
266.7932199934689
 10
258.0846523359073
 20
268.0732199934689
 10
258.8046523359074
 20
268.0732199934689
 10
258.8046523359074
 20
268.7132199934689
 10
263.4446523359072
 20
268.7132199934689
 10
263.4446523359072
 20
267.6082199934689
 10
263.6846523359072
 20
267.6082199934689
 10
263.6846523359072
 20
268.9532199934689
 10
258.5646523359071
 20
268.9532199934689
 10
258.5646523359071
 20
268.3132199934689
 10
257.8446523359073
 20
268.3132199934689
 10
257.8446523359073
 20
266.5532199934689
 10
258.5646523359071
 20
266.5532199934689
 10
258.5646523359071
 20
265.9132199934689
 10
263.6846523359072
 20
265.9132199934689
 10
263.6846523359072
 20
267.2582199934689
  0
LWPOLYLINE
  5
4FF
102
{ACAD_REACTORS
330
4E9
102
}
330
1F
100
AcDbEntity
  8
0
100
AcDbPolyline
 90
        2
 70
     1
 43
0.0
 10
248.7918048485612
 20
244.0588562708938
 42
1.0
 10
246.9364689478843
 20
244.0588562708938
 42
1.0
  0
LINE
  5
500
330
1F
100
AcDbEntity
  8
0
100
AcDbLine
 10
208.4190050487739
 20
284.1450201787675
 30
0.0
 11
265.0190050487765
 21
284.1450201787678
 31
0.0
  0
LINE
  5
501
330
1F
100
AcDbEntity
  8
0
100
AcDbLine
 10
208.9190050487644
 20
286.1450201787675
 30
0.0
 11
264.5190050487885
 21
286.1450201787678
 31
0.0
  0
ARC
  5
502
330
1F
100
AcDbEntity
  8
0
100
AcDbCircle
 10
208.9190050487644
 20
287.1450201787675
 30
0.0
 40
1.0
100
AcDbArc
 50
180.0000000000195
 51
270.0
  0
LINE
  5
503
330
1F
100
AcDbEntity
  8
0
100
AcDbLine
 10
208.9190050487644
 20
286.6450201787675
 30
0.0
 11
264.5190050487885
 21
286.6450201787678
 31
0.0
  0
ARC
  5
504
330
1F
100
AcDbEntity
  8
0
100
AcDbCircle
 10
208.9190050487644
 20
287.1450201787675
 30
0.0
 40
0.5
100
AcDbArc
 50
180.0000000000195
 51
270.0
  0
LINE
  5
505
330
1F
100
AcDbEntity
  8
0
100
AcDbLine
 10
266.0190050487766
 20
287.1450201787678
 30
0.0
 11
266.0190050487766
 21
285.1450201787678
 31
0.0
  0
ARC
  5
506
330
1F
100
AcDbEntity
  8
0
100
AcDbCircle
 10
265.0190050487765
 20
285.1450201787678
 30
0.0
 40
1.0
100
AcDbArc
 50
270.0
 51
0.0
  0
LINE
  5
507
330
1F
100
AcDbEntity
  8
0
100
AcDbLine
 10
207.4190050487732
 20
287.1450201787675
 30
0.0
 11
207.4190050487739
 21
285.1450201787671
 31
0.0
  0
LINE
  5
508
330
1F
100
AcDbEntity
  8
0
100
AcDbLine
 10
208.4190050487614
 20
294.444494968545
 30
0.0
 11
208.4190050487638
 21
287.1450201787673
 31
0.0
  0
LINE
  5
509
330
1F
100
AcDbEntity
  8
0
100
AcDbLine
 10
207.9190050487614
 20
294.4302141467449
 30
0.0
 11
207.9190050487639
 21
287.1450201787671
 31
0.0
  0
ARC
  5
50A
330
1F
100
AcDbEntity
  8
0
100
AcDbCircle
 10
264.5190050487885
 20
287.1450201787675
 30
0.0
 40
1.0
100
AcDbArc
 50
269.9999999999984
 51
359.9999999999805
  0
ARC
  5
50B
330
1F
100
AcDbEntity
  8
0
100
AcDbCircle
 10
264.5190050487885
 20
287.1450201787675
 30
0.0
 40
0.5
100
AcDbArc
 50
269.9999999999984
 51
359.9999999999805
  0
LINE
  5
50C
330
1F
100
AcDbEntity
  8
0
100
AcDbLine
 10
265.0190050487914
 20
294.444494968545
 30
0.0
 11
265.019005048789
 21
287.1450201787673
 31
0.0
  0
LINE
  5
50D
330
1F
100
AcDbEntity
  8
0
100
AcDbLine
 10
265.5190050487914
 20
294.4302141467449
 30
0.0
 11
265.5190050487889
 21
287.1450201787671
 31
0.0
  0
LINE
  5
50E
330
1F
100
AcDbEntity
  8
0
100
AcDbLine
 10
266.0190050487768
 20
272.1450201787678
 30
0.0
 11
266.0190050487768
 21
270.1450201787678
 31
0.0
  0
ARC
  5
50F
330
1F
100
AcDbEntity
  8
0
100
AcDbCircle
 10
265.0190050487768
 20
272.1450201787678
 30
0.0
 40
1.0
100
AcDbArc
 50
0.0
 51
90.0
  0
LINE
  5
510
330
1F
100
AcDbEntity
  8
0
100
AcDbLine
 10
208.4190050487605
 20
273.1450201787676
 30
0.0
 11
265.0190050487768
 21
273.1450201787678
 31
0.0
  0
ARC
  5
511
330
1F
100
AcDbEntity
  8
0
100
AcDbCircle
 10
208.4190050487739
 20
285.1450201787675
 30
0.0
 40
1.0
100
AcDbArc
 50
180.0000000000195
 51
270.0
  0
LINE
  5
512
330
1F
100
AcDbEntity
  8
0
100
AcDbLine
 10
207.4190050487603
 20
272.1450201787671
 30
0.0
 11
207.4190050487609
 21
270.1450201787676
 31
0.0
  0
ARC
  5
513
330
1F
100
AcDbEntity
  8
0
100
AcDbCircle
 10
208.4190050487605
 20
272.1450201787676
 30
0.0
 40
1.0
100
AcDbArc
 50
90.0
 51
180.0000000000195
  0
LINE
  5
514
330
1F
100
AcDbEntity
  8
0
100
AcDbLine
 10
265.0190050487838
 20
268.6450201787682
 30
0.0
 11
265.0190050487837
 21
229.0450201787681
 31
0.0
  0
LINE
  5
515
330
1F
100
AcDbEntity
  8
0
100
AcDbLine
 10
265.8190050487838
 20
268.6450201787682
 30
0.0
 11
265.8190050487837
 21
229.0450201787681
 31
0.0
  0
ARC
  5
516
330
1F
100
AcDbEntity
  8
0
100
AcDbCircle
 10
263.5190050487837
 20
229.0450201787681
 30
0.0
 40
1.5
100
AcDbArc
 50
270.0
 51
0.0
  0
ARC
  5
517
330
1F
100
AcDbEntity
  8
0
100
AcDbCircle
 10
263.5190050487837
 20
229.0450201787681
 30
0.0
 40
2.299999999999998
100
AcDbArc
 50
270.0
 51
0.0
  0
ARC
  5
518
330
1F
100
AcDbEntity
  8
0
100
AcDbCircle
 10
263.5190050487838
 20
268.6450201787682
 30
0.0
 40
1.5
100
AcDbArc
 50
0.0
 51
90.0
  0
ARC
  5
519
330
1F
100
AcDbEntity
  8
0
100
AcDbCircle
 10
263.5190050487838
 20
268.6450201787682
 30
0.0
 40
2.299999999999998
100
AcDbArc
 50
0.0
 51
90.0
  0
LINE
  5
51A
330
1F
100
AcDbEntity
  8
0
100
AcDbLine
 10
209.9190050487686
 20
270.1450201787681
 30
0.0
 11
263.5190050487838
 21
270.1450201787682
 31
0.0
  0
LINE
  5
51B
330
1F
100
AcDbEntity
  8
0
100
AcDbLine
 10
209.9190050487686
 20
270.9450201787681
 30
0.0
 11
263.5190050487838
 21
270.9450201787682
 31
0.0
  0
ARC
  5
51C
330
1F
100
AcDbEntity
  8
0
100
AcDbCircle
 10
209.9190050487686
 20
268.6450201787681
 30
0.0
 40
1.5
100
AcDbArc
 50
90.0
 51
180.0000000000195
  0
ARC
  5
51D
330
1F
100
AcDbEntity
  8
0
100
AcDbCircle
 10
209.9190050487686
 20
268.6450201787681
 30
0.0
 40
2.299999999999998
100
AcDbArc
 50
90.0
 51
180.0000000000195
  0
LINE
  5
51E
330
1F
100
AcDbEntity
  8
0
100
AcDbLine
 10
263.5190050487837
 20
227.5450201787681
 30
0.0
 11
209.9190050487821
 21
227.5450201787681
 31
0.0
  0
LINE
  5
51F
330
1F
100
AcDbEntity
  8
0
100
AcDbLine
 10
263.5190050487837
 20
226.7450201787681
 30
0.0
 11
209.9190050487821
 21
226.7450201787681
 31
0.0
  0
LINE
  5
520
330
1F
100
AcDbEntity
  8
0
100
AcDbLine
 10
208.4190050487686
 20
268.6450201787675
 30
0.0
 11
208.4190050487821
 21
229.0450201787676
 31
0.0
  0
LINE
  5
521
330
1F
100
AcDbEntity
  8
0
100
AcDbLine
 10
207.6190050487686
 20
268.6450201787672
 30
0.0
 11
207.6190050487821
 21
229.0450201787673
 31
0.0
  0
ARC
  5
522
330
1F
100
AcDbEntity
  8
0
100
AcDbCircle
 10
209.9190050487821
 20
229.0450201787681
 30
0.0
 40
1.5
100
AcDbArc
 50
180.0000000000195
 51
270.0
  0
ARC
  5
523
330
1F
100
AcDbEntity
  8
0
100
AcDbCircle
 10
209.9190050487821
 20
229.0450201787681
 30
0.0
 40
2.299999999999998
100
AcDbArc
 50
180.0000000000195
 51
270.0
  0
HATCH
  5
565
330
1F
100
AcDbEntity
  8
0
100
AcDbHatch
 10
0.0
 20
0.0
 30
0.0
210
0.0
220
0.0
230
1.0
  2
SOLID
 70
     1
 71
     1
 91
        4
 92
        7
 72
     0
 73
     1
 93
        3
 10
236.7209100119559
 20
208.3551929014524
 10
233.7228149751265
 20
205.8551929014523
 10
239.7190050487854
 20
205.8551929014523
 97
        3
330
465
330
442
330
46F
 92
        7
 72
     0
 73
     1
 93
        3
 10
218.7190050487854
 20
184.8590028277933
 10
218.7190050487854
 20
190.8551929014523
 10
216.2190050487854
 20
187.8570978646229
 97
        3
330
468
330
467
330
466
 92
        7
 72
     0
 73
     1
 93
        3
 10
236.7171000856148
 20
167.3551929014523
 10
239.7151951224448
 20
169.8551929014523
 10
233.7190050487854
 20
169.8551929014523
 97
        3
330
469
330
46B
330
46A
 92
        7
 72
     0
 73
     1
 93
        3
 10
254.7190050487854
 20
184.8551929014524
 10
257.2190050487854
 20
187.8532879382819
 10
254.7190050487854
 20
190.8513829751114
 97
        3
330
46D
330
46C
330
46E
 75
     0
 76
     1
 47
0.1130352688647823
 98
        4
 10
237.5924594685456
 20
206.71478788423
 10
217.6888274080756
 20
187.2727214032295
 10
236.4615717410357
 20
168.621901891737
 10
255.5735814879707
 20
187.7248626757878
  0
ELLIPSE
  5
56A
330
1F
100
AcDbEntity
  8
0
100
AcDbEllipse
 10
334.3116142124752
 20
173.9141797642077
 30
0.0
 11
-11.84584156656391
 21
-0.7418215433412815
 31
0.0
210
0.0
220
0.0
230
1.0
 40
0.5487157635424325
 41
1.570796326794896
 42
4.712388980384688
  0
ELLIPSE
  5
56C
330
1F
100
AcDbEntity
  8
0
100
AcDbEllipse
 10
335.3975886115841
 20
156.9141797642051
 30
0.0
 11
-11.84584156656391
 21
-0.7418215433412815
 31
0.0
210
0.0
220
0.0
230
1.0
 40
0.5487157635424325
 41
1.582480768289024
 42
4.712388980384688
  0
MTEXT
  5
57D
330
1F
100
AcDbEntity
  8
0
100
AcDbMText
 10
205.1441285380398
 20
361.595102060627
 30
0.0
 40
2.2
 41
6.729482379036197
 71
     1
 72
     5
  1
CH1
  7
ACISOTS
 73
     1
 44
1.0
1001
ACAD
1000
MTEXTBEGIN
1070
    73
1070
     1
1070
    44
1040
1.0
1070
    74
1070
     0
1000
MTEXTEND
  0
MTEXT
  5
57E
330
1F
100
AcDbEntity
  8
0
100
AcDbMText
 10
227.4982645732817
 20
351.4146485420527
 30
0.0
 40
2.2
 41
6.729482379036197
 71
     1
 72
     5
  1
－
  7
ACISOTS
 73
     1
 44
1.0
1001
ACAD
1000
MTEXTBEGIN
1070
    73
1070
     1
1070
    44
1040
1.0
1070
    74
1070
     0
1000
MTEXTEND
  0
MTEXT
  5
57F
330
1F
100
AcDbEntity
  8
0
100
AcDbMText
 10
219.6310964432415
 20
351.4146485420527
 30
0.0
 40
2.2
 41
6.729482379036197
 71
     1
 72
     5
  1
＋
  7
ACISOTS
 73
     1
 44
1.0
1001
ACAD
1000
MTEXTBEGIN
1070
    73
1070
     1
1070
    44
1040
1.0
1070
    74
1070
     0
1000
MTEXTEND
  0
MTEXT
  5
580
330
1F
100
AcDbEntity
  8
0
100
AcDbMText
 10
211.7310964432415
 20
357.3959059935295
 30
0.0
 40
2.2
 41
6.729482379036197
 71
     1
 72
     5
  1
A
  7
ACISOTS
 73
     1
 44
1.0
1001
ACAD
1000
MTEXTBEGIN
1070
    73
1070
     1
1070
    44
1040
1.0
1070
    74
1070
     0
1000
MTEXTEND
  0
MTEXT
  5
581
330
1F
100
AcDbEntity
  8
0
100
AcDbMText
 10
219.6310964432414
 20
357.3959059935294
 30
0.0
 40
2.2
 41
6.729482379036197
 71
     1
 72
     5
  1
B
  7
ACISOTS
 73
     1
 44
1.0
1001
ACAD
1000
MTEXTBEGIN
1070
    73
1070
     1
1070
    44
1040
1.0
1070
    74
1070
     0
1000
MTEXTEND
  0
MTEXT
  5
582
330
1F
100
AcDbEntity
  8
0
100
AcDbMText
 10
227.5310964432414
 20
357.3959059935291
 30
0.0
 40
2.2
 41
6.729482379036197
 71
     1
 72
     5
  1
B
  7
ACISOTS
 73
     1
 44
1.0
1001
ACAD
1000
MTEXTBEGIN
1070
    73
1070
     1
1070
    44
1040
1.0
1070
    74
1070
     0
1000
MTEXTEND
  0
HATCH
  5
742
330
1F
100
AcDbEntity
  8
0
100
AcDbHatch
 10
0.0
 20
0.0
 30
0.0
210
0.0
220
0.0
230
1.0
  2
SOLID
 70
     1
 71
     0
 91
        6
 92
        7
 72
     0
 73
     1
 93
        8
 10
241.0550738399068
 20
242.0897016010023
 10
241.6435667524026
 20
242.0897016010023
 10
241.6435667524026
 20
242.2985864573148
 10
240.2335939722936
 20
242.2985864573148
 10
240.2335939722936
 20
242.0897016010023
 10
240.8200783765555
 20
242.0897016010023
 10
240.8200783765552
 20
240.5190481621915
 10
241.0550738399069
 20
240.5190481621916
 97
        0
 92
        7
 72
     0
 73
     1
 93
        4
 10
242.2261862965715
 20
242.2985864573148
 10
242.0072588990902
 20
242.2985864573148
 10
242.0072588990902
 20
242.0475229280932
 10
242.2261862965715
 20
242.0475229280932
 97
        0
 92
        7
 72
     0
 73
     1
 93
        4
 10
242.2261862965715
 20
241.8085104482741
 10
242.0072588990902
 20
241.8085104482741
 10
242.0072588990902
 20
240.5190481621915
 10
242.2261862965715
 20
240.5190481621915
 97
        0
 92
        7
 72
     0
 73
     1
 93
       48
 10
242.9463498642224
 20
241.5052257049741
 10
243.0387412429761
 20
241.5996255919615
 10
243.0769028994176
 20
241.6197106742993
 10
243.2074559346129
 20
241.6478297895722
 10
243.2797622310291
 20
241.6418042648708
 10
243.3821961509513
 20
241.5755234931563
 10
243.4183492991591
 20
241.5052257049744
 10
243.4364258732632
 20
241.3565960956758
 10
243.4364258732633
 20
240.5190481621915
 10
243.6553532707446
 20
240.5190481621916
 10
243.6553532707446
 20
241.2682217333879
 10
243.6573617789783
 20
241.3204429474667
 10
243.6834723860174
 20
241.4590300155976
 10
243.7437276330304
 20
241.5594554272861
 10
243.8381275200177
 20
241.6217191825331
 10
243.9718423624432
 20
241.6480569545259
 10
244.1012420986423
 20
241.613685149598
 10
244.1795739197593
 20
241.5212937708447
 10
244.1896164609282
 20
241.4831321144028
 10
244.1996590020971
 20
241.3324939968693
 10
244.1996590020971
 20
240.5190481621915
 10
244.4165778913445
 20
240.5190481621915
 10
244.4165778913446
 20
241.4048002932854
 10
244.4105523666433
 20
241.5012086885069
 10
244.3784162349027
 20
241.6337702319363
 10
244.3141439714219
 20
241.7321871353905
 10
244.2779908232142
 20
241.7643232671312
 10
244.163505853889
 20
241.8205614976767
 10
244.0188932610574
 20
241.8386380717807
 10
243.9385529317066
 20
241.8306040388456
 10
243.81804243768
 20
241.7924423824038
 10
243.7136000095239
 20
241.720136085988
 10
243.6212086307703
 20
241.6116766413643
 10
243.5850554825623
 20
241.6839829377804
 10
243.4926641038087
 20
241.7783828247674
 10
243.4002727250549
 20
241.8205614976767
 10
243.2576686404575
 20
241.8386380717806
 10
243.1512177040674
 20
241.826587022378
 10
243.0266901935735
 20
241.7803913330012
 10
242.9543838971578
 20
241.7301786271569
 10
242.8660095348715
 20
241.6277447072344
 10
242.8660095348715
 20
241.8085104482741
 10
242.6711842361954
 20
241.808510448274
 10
242.6711842361955
 20
240.5190481621915
 10
242.888103125443
 20
240.5190481621915
 10
242.888103125443
 20
241.1878814040382
 10
242.8981456666119
 20
241.3425365380385
 10
242.924256273651
 20
241.4570215073636
 97
        0
 92
        7
 72
     0
 73
     1
 93
       44
 10
245.8466357537913
 20
241.3144174227655
 10
245.8165081302848
 20
241.4469789661945
 10
245.7642869162065
 20
241.563472443754
 10
245.6919806197907
 20
241.6618893472086
 10
245.6417679139462
 20
241.7100935448194
 10
245.5333084693222
 20
241.7803913330014
 10
245.4087809588286
 20
241.8245785141442
 10
245.2701938906985
 20
241.8386380717807
 10
245.1818195284126
 20
241.8326125470794
 10
245.0512664932171
 20
241.8024849235727
 10
244.9367815238923
 20
241.7442381847935
 10
244.8363561122037
 20
241.6578723307413
 10
244.8323390957358
 20
241.6538553142735
 10
244.7600327993198
 20
241.5554384108186
 10
244.7098200934757
 20
241.4389449332597
 10
244.6776839617352
 20
241.3043748815981
 10
244.6676414205664
 20
241.1537367640633
 10
244.6776839617349
 20
241.0131411877009
 10
244.7078115852417
 20
240.8785711360373
 10
244.7600327993199
 20
240.7620776584781
 10
244.8343476039692
 20
240.6656692632571
 10
244.900628375684
 20
240.6054140162435
 10
245.0110963285413
 20
240.541141752763
 10
245.1376323472695
 20
240.5029800963212
 10
245.2822449401007
 20
240.4909290469187
 10
245.4127979752963
 20
240.5009715880876
 10
245.5413425022578
 20
240.5371247362954
 10
245.6518104551153
 20
240.5993884915424
 10
245.7221082432978
 20
240.6656692632572
 10
245.7984315561808
 20
240.7741287078808
 10
245.848644262025
 20
240.9066902513098
 10
245.6236913398424
 20
240.9348093665825
 10
245.5714701257645
 20
240.826349921959
 10
245.4891212881797
 20
240.7319500349715
 10
245.4188234999974
 20
240.6937883785297
 10
245.2842534483348
 20
240.6696862797245
 10
245.2501088083606
 20
240.6716947879582
 10
245.121564281399
 20
240.7038309196985
 10
245.0131048367753
 20
240.7821627408158
 10
244.9689176556325
 20
240.8424179878292
 10
244.916696441554
 20
240.9609199736217
 10
244.8946028509827
 20
241.1075410746872
 10
245.8546697867264
 20
241.1075410746872
 10
245.8566782949603
 20
241.1657878134668
 97
        0
 92
       22
 72
     0
 73
     1
 93
       11
 10
244.9066539003852
 20
241.2883068157267
 10
244.9086624086195
 20
241.3204429474673
 10
244.9468240650608
 20
241.4530044908962
 10
245.0228069528198
 20
241.5627575509925
 10
245.1396408555029
 20
241.6357787401695
 10
245.272202398932
 20
241.657872330741
 10
245.3163895800749
 20
241.6558638225072
 10
245.4409170905691
 20
241.6177021660656
 10
245.5433510104914
 20
241.5313363120134
 10
245.5955722245699
 20
241.4349279167921
 10
245.6256998480761
 20
241.2883068157267
 97
        0
 75
     0
 76
     1
 47
0.0178244879689131
 98
        6
 10
240.9146222031665
 20
241.729781690497
 10
242.1094278822844
 20
242.1575680537694
 10
242.1272618587842
 20
241.4980628460884
 10
242.8049116970621
 20
241.4624152134515
 10
245.5511848987014
 20
241.2128707062716
 10
245.5511848987014
 20
241.2128707062716
  0
LWPOLYLINE
  5
743
330
1F
100
AcDbEntity
  8
0
100
AcDbPolyline
 90
       12
 70
     1
 43
0.0
 10
244.9086624086191
 20
241.3204429474671
 10
244.9468240650608
 20
241.4530044908962
 10
245.0191303614767
 20
241.5574469190524
 10
245.0271643944117
 20
241.5654809519875
 10
245.139640855503
 20
241.6357787401696
 10
245.2722023989321
 20
241.657872330741
 10
245.3163895800751
 20
241.6558638225072
 10
245.4409170905691
 20
241.6177021660656
 10
245.5433510104915
 20
241.5313363120133
 10
245.5955722245697
 20
241.4349279167922
 10
245.6256998480761
 20
241.2883068157267
 10
244.9066539003854
 20
241.2883068157267
  0
LWPOLYLINE
  5
744
330
1F
100
AcDbEntity
  8
0
100
AcDbPolyline
 90
       44
 70
     1
 43
0.0
 10
245.5714701257644
 20
240.8263499219588
 10
245.4891212881797
 20
240.7319500349715
 10
245.4188234999976
 20
240.6937883785298
 10
245.2842534483347
 20
240.6696862797245
 10
245.2501088083606
 20
240.6716947879583
 10
245.1215642813991
 20
240.7038309196987
 10
245.0131048367753
 20
240.7821627408158
 10
244.9689176556323
 20
240.842417987829
 10
244.9166964415542
 20
240.9609199736216
 10
244.8946028509827
 20
241.1075410746871
 10
245.8546697867264
 20
241.1075410746871
 10
245.8566782949602
 20
241.1657878134665
 10
245.8466357537913
 20
241.3144174227658
 10
245.8165081302847
 20
241.4469789661948
 10
245.7642869162065
 20
241.5634724437537
 10
245.6919806197908
 20
241.6618893472086
 10
245.6417679139464
 20
241.7100935448191
 10
245.5333084693226
 20
241.7803913330012
 10
245.4087809588286
 20
241.8245785141442
 10
245.2701938906984
 20
241.8386380717806
 10
245.1818195284122
 20
241.8326125470793
 10
245.051266493217
 20
241.8024849235727
 10
244.9367815238919
 20
241.7442381847933
 10
244.8363561122033
 20
241.657872330741
 10
244.8323390957358
 20
241.6538553142735
 10
244.7600327993199
 20
241.5554384108186
 10
244.7098200934755
 20
241.4389449332598
 10
244.6776839617352
 20
241.3043748815969
 10
244.6676414205663
 20
241.1537367640639
 10
244.6776839617352
 20
241.0131411876998
 10
244.7078115852418
 20
240.8785711360369
 10
244.7600327993199
 20
240.7620776584781
 10
244.8343476039695
 20
240.6656692632569
 10
244.9006283756841
 20
240.6054140162438
 10
245.0110963285415
 20
240.541141752763
 10
245.1376323472693
 20
240.5029800963213
 10
245.282244940101
 20
240.4909290469187
 10
245.4127979752962
 20
240.5009715880875
 10
245.5413425022578
 20
240.5371247362954
 10
245.6518104551153
 20
240.5993884915424
 10
245.7221082432974
 20
240.6656692632569
 10
245.7984315561808
 20
240.7741287078807
 10
245.848644262025
 20
240.9066902513097
 10
245.6236913398424
 20
240.9348093665826
  0
LWPOLYLINE
  5
745
330
1F
100
AcDbEntity
  8
0
100
AcDbPolyline
 90
        4
 70
     1
 43
0.0
 10
242.0072588990902
 20
242.2985864573148
 10
242.0072588990902
 20
242.0475229280931
 10
242.2261862965715
 20
242.0475229280931
 10
242.2261862965715
 20
242.2985864573148
  0
LWPOLYLINE
  5
746
330
1F
100
AcDbEntity
  8
0
100
AcDbPolyline
 90
        4
 70
     1
 43
0.0
 10
242.0072588990902
 20
240.5190481621915
 10
242.2261862965715
 20
240.5190481621915
 10
242.2261862965715
 20
241.8085104482741
 10
242.0072588990902
 20
241.8085104482741
  0
LWPOLYLINE
  5
747
330
1F
100
AcDbEntity
  8
0
100
AcDbPolyline
 90
        8
 70
     1
 43
0.0
 10
240.2335939722936
 20
242.2985864573148
 10
240.2335939722936
 20
242.0897016010023
 10
240.8200783765554
 20
242.0897016010023
 10
240.8200783765554
 20
240.5190481621915
 10
241.0550738399069
 20
240.5190481621915
 10
241.0550738399069
 20
242.0897016010023
 10
241.6435667524026
 20
242.0897016010023
 10
241.6435667524026
 20
242.2985864573148
  0
LWPOLYLINE
  5
748
330
1F
100
AcDbEntity
  8
0
100
AcDbPolyline
 90
       49
 70
     1
 43
0.0
 10
242.8660095348715
 20
241.8085104482741
 10
242.6711842361955
 20
241.8085104482741
 10
242.6711842361955
 20
240.5190481621915
 10
242.888103125443
 20
240.5190481621915
 10
242.888103125443
 20
241.187881404038
 10
242.8981456666119
 20
241.3425365380386
 10
242.924256273651
 20
241.4570215073637
 10
242.9463498642225
 20
241.5052257049743
 10
243.0387412429761
 20
241.5996255919615
 10
243.0769028994177
 20
241.6197106742993
 10
243.207455934613
 20
241.6478297895722
 10
243.2797622310288
 20
241.6418042648708
 10
243.3821961509513
 20
241.5755234931563
 10
243.4183492991593
 20
241.5052257049743
 10
243.4364258732632
 20
241.356596095675
 10
243.4364258732632
 20
240.5190481621915
 10
243.6553532707446
 20
240.5190481621915
 10
243.6553532707446
 20
241.268221733389
 10
243.6573617789783
 20
241.3204429474671
 10
243.6834723860174
 20
241.4590300155974
 10
243.7437276330304
 20
241.5594554272861
 10
243.8381275200178
 20
241.6217191825332
 10
243.9706890634469
 20
241.6478297895722
 10
243.9726975716807
 20
241.6478297895722
 10
244.1012420986422
 20
241.613685149598
 10
244.1795739197593
 20
241.5212937708444
 10
244.1896164609282
 20
241.4831321144028
 10
244.1996590020971
 20
241.3324939968697
 10
244.1996590020971
 20
240.5190481621915
 10
244.4165778913446
 20
240.5190481621915
 10
244.4165778913446
 20
241.4048002932856
 10
244.4105523666433
 20
241.5012086885067
 10
244.3784162349029
 20
241.6337702319357
 10
244.3141439714222
 20
241.7321871353906
 10
244.2779908232143
 20
241.7643232671311
 10
244.1635058538891
 20
241.8205614976767
 10
244.0188932610575
 20
241.8386380717806
 10
243.9385529317065
 20
241.8306040388456
 10
243.8180424376802
 20
241.7924423824039
 10
243.7136000095239
 20
241.720136085988
 10
243.6212086307703
 20
241.6116766413643
 10
243.5850554825623
 20
241.6839829377801
 10
243.4926641038088
 20
241.7783828247675
 10
243.4002727250552
 20
241.8205614976767
 10
243.2576686404573
 20
241.8386380717806
 10
243.1512177040674
 20
241.826587022378
 10
243.0266901935734
 20
241.7803913330012
 10
242.9543838971575
 20
241.7301786271569
 10
242.8660095348715
 20
241.6277447072344
  0
HATCH
  5
749
330
1F
100
AcDbEntity
  8
0
100
AcDbHatch
 10
0.0
 20
0.0
 30
0.0
210
0.0
220
0.0
230
1.0
  2
SOLID
 70
     1
 71
     0
 91
       21
 92
        7
 72
     1
 73
     1
 93
        7
 10
239.4204442876752
 20
238.5243878586433
 42
0.1875900281644857
 10
239.2184068968074
 20
239.2904853779455
 42
0.0
 10
238.0098435575106
 20
238.2113360254376
 42
0.0
 10
237.6923556857734
 20
235.4141238634128
 42
0.0
 10
238.229370197815
 20
234.8040324042978
 42
0.0
 10
238.3782328719753
 20
234.8040324042978
 42
0.0
 10
239.0672005741576
 20
235.4121505117374
 42
0.0
 97
        0
 92
        7
 72
     1
 73
     1
 93
        7
 10
238.8771019401942
 20
233.7372953180673
 42
0.0
 10
238.3229840475555
 20
234.366817586202
 42
0.0
 10
238.2132388984129
 20
234.3668175862021
 42
0.0
 10
237.5022570518102
 20
233.7392686697428
 42
0.0
 10
237.188853872084
 20
230.9780444971449
 42
0.0
 10
238.1609524469412
 20
229.8893697024795
 42
0.1636384980547049
 10
238.5299075790054
 20
230.6783555091544
 42
0.0
 97
        0
 92
        7
 72
     1
 73
     1
 93
        6
 10
242.5136228861408
 20
239.7406948079902
 42
0.1636384980547073
 10
241.6880607814204
 20
239.4630732961064
 42
0.0
 10
242.6601593562776
 20
238.374398501441
 42
0.0
 10
244.5496236240185
 20
238.374398501441
 42
0.0
 10
245.7581869633151
 20
239.4535478539489
 42
0.1875900281644962
 10
245.0197621918086
 20
239.7406948079902
 42
0.0
 97
        0
 92
        7
 72
     1
 73
     1
 93
        7
 10
244.3777373601371
 20
235.4141238634128
 42
0.0
 10
244.9147518721788
 20
234.8040324042978
 42
0.0
 10
245.063614546339
 20
234.8040324042978
 42
0.0
 10
245.7525822485212
 20
235.4121505117374
 42
0.0
 10
246.105825962039
 20
238.5243878586433
 42
0.1875900281644857
 10
245.9037885711711
 20
239.2904853779455
 42
0.0
 10
244.6952252318744
 20
238.2113360254376
 42
0.0
 97
        0
 92
        7
 72
     0
 73
     1
 93
        6
 10
242.3251045971673
 20
235.2675881780884
 10
241.5502543931892
 20
234.5757095907401
 10
242.1524548913603
 20
233.9012918715391
 10
244.0408542257486
 20
233.9012918715391
 10
244.8159431771605
 20
234.5854249952499
 10
244.2154897151565
 20
235.2675881780884
 97
        0
 92
        7
 72
     1
 73
     1
 93
        7
 10
241.9893924153568
 20
233.7556902636831
 42
0.0
 10
241.444584623511
 20
234.3658326157659
 42
0.0
 10
241.3152085053083
 20
234.3658326157659
 42
0.0
 10
240.6123417132077
 20
233.7382293955357
 42
0.0
 10
240.265506464683
 20
230.6824535320867
 42
0.1875900281644814
 10
240.4675438555508
 20
229.9163560127844
 42
0.0
 10
241.6761071948474
 20
230.9955053652924
 42
0.0
 97
        0
 92
        7
 72
     1
 73
     1
 93
        6
 10
243.8577095405812
 20
229.4661465827397
 42
0.1636384980547072
 10
244.6832716453015
 20
229.7437680946235
 42
0.0
 10
243.7111730704442
 20
230.832442889289
 42
0.0
 10
241.8217088027035
 20
230.8324428892889
 42
0.0
 10
240.6131454634068
 20
229.753293536781
 42
0.1875900281644757
 10
241.3515702349133
 20
229.4661465827397
 42
0.0
 97
        0
 92
        7
 72
     1
 73
     1
 93
        2
 10
247.4567006038521
 20
236.5458921387628
 42
1.0
 10
246.1682728950488
 20
236.5458921387628
 42
1.0
 97
        0
 92
        7
 72
     1
 73
     1
 93
        2
 10
246.9387550815013
 20
231.9825571475435
 42
1.0
 10
245.6503273726979
 20
231.9825571475435
 42
1.0
 97
        0
 92
        7
 72
     1
 73
     1
 93
        7
 10
247.8613220711649
 20
235.4131897859445
 42
0.0
 10
248.4061298630106
 20
234.8030474338617
 42
0.0
 10
248.5355059812132
 20
234.8030474338617
 42
0.0
 10
249.2383727733139
 20
235.4306506540919
 42
0.0
 10
249.5559666642768
 20
238.2287968935849
 42
0.0
 10
248.5838680894196
 20
239.3174716882504
 42
0.1636384980547294
 10
248.2149129573553
 20
238.5284858815753
 42
0.0
 97
        0
 92
        7
 72
     1
 73
     1
 93
        7
 10
249.0482621993594
 20
233.7556902636831
 42
0.0
 10
248.5034544075136
 20
234.3658326157659
 42
0.0
 10
248.3740782893109
 20
234.3658326157659
 42
0.0
 10
247.6712114972102
 20
233.7382293955357
 42
0.0
 10
247.3243762486856
 20
230.6824535320867
 42
0.1875900281644814
 10
247.5264136395534
 20
229.9163560127844
 42
0.0
 10
248.73497697885
 20
230.9955053652924
 42
0.0
 97
        0
 92
        7
 72
     1
 73
     1
 93
        6
 10
250.9165793245838
 20
229.4661465827397
 42
0.1636384980547072
 10
251.7421414293041
 20
229.7437680946235
 42
0.0
 10
250.7700428544469
 20
230.832442889289
 42
0.0
 10
248.8805785867061
 20
230.8324428892889
 42
0.0
 10
247.6720152474094
 20
229.753293536781
 42
0.1875900281644757
 10
248.4104400189159
 20
229.4661465827397
 42
0.0
 97
        0
 92
        7
 72
     1
 73
     1
 93
        7
 10
250.9331053304503
 20
230.9780444971449
 42
0.0
 10
251.9052039053076
 20
229.8893697024795
 42
0.1636384980547049
 10
252.2741590373717
 20
230.6783555091544
 42
0.0
 10
252.6213533985605
 20
233.7372953180673
 42
0.0
 10
252.0672355059218
 20
234.3668175862021
 42
0.0
 10
251.9574903567793
 20
234.3668175862021
 42
0.0
 10
251.2465085101765
 20
233.7392686697428
 42
0.0
 97
        0
 92
        7
 72
     1
 73
     1
 93
        7
 10
253.1646957460416
 20
238.5243878586433
 42
0.1875900281644857
 10
252.9626583551737
 20
239.2904853779455
 42
0.0
 10
251.754095015877
 20
238.2113360254376
 42
0.0
 10
251.4366071441397
 20
235.4141238634128
 42
0.0
 10
251.9736216561813
 20
234.8040324042978
 42
0.0
 10
252.1224843303416
 20
234.8040324042978
 42
0.0
 10
252.8114520325238
 20
235.4121505117374
 42
0.0
 97
        0
 92
        7
 72
     1
 73
     1
 93
        6
 10
251.608493408021
 20
238.374398501441
 42
0.0
 10
252.8170567473177
 20
239.4535478539489
 42
0.1875900281644945
 10
252.0786319758112
 20
239.7406948079902
 42
0.0
 10
249.5724926701434
 20
239.7406948079902
 42
0.1636384980547073
 10
248.746930565423
 20
239.4630732961064
 42
0.0
 10
249.7190291402803
 20
238.374398501441
 42
0.0
 97
        0
 92
        7
 72
     1
 73
     1
 93
        6
 10
256.0843645948218
 20
239.7406948079902
 42
0.1636384980547073
 10
255.2588024901014
 20
239.4630732961064
 42
0.0
 10
256.2309010649587
 20
238.374398501441
 42
0.0
 10
258.1203653326995
 20
238.374398501441
 42
0.0
 10
259.3289286719961
 20
239.4535478539489
 42
0.1875900281644945
 10
258.5905039004896
 20
239.7406948079902
 42
0.0
 97
        0
 92
        7
 72
     1
 73
     1
 93
        7
 10
254.3731939958433
 20
235.4131897859445
 42
0.0
 10
254.918001787689
 20
234.8030474338617
 42
0.0
 10
255.0473779058917
 20
234.8030474338617
 42
0.0
 10
255.7502446979923
 20
235.4306506540918
 42
0.0
 10
256.0678385889552
 20
238.2287968935849
 42
0.0
 10
255.095740014098
 20
239.3174716882504
 42
0.1636384980547294
 10
254.7267848820337
 20
238.5284858815753
 42
0.0
 97
        0
 92
        7
 72
     1
 73
     1
 93
        7
 10
253.836248173364
 20
230.6824535320867
 42
0.1875900281644814
 10
254.0382855642318
 20
229.9163560127844
 42
0.0
 10
255.2468489035285
 20
230.9955053652924
 42
0.0
 10
255.5601341240378
 20
233.7556902636831
 42
0.0
 10
255.0153263321921
 20
234.3658326157659
 42
0.0
 10
254.8859502139893
 20
234.3658326157659
 42
0.0
 10
254.1830834218887
 20
233.7382293955357
 42
0.0
 97
        0
 92
        7
 72
     1
 73
     1
 93
        6
 10
257.4284512492622
 20
229.4661465827397
 42
0.1636384980547072
 10
258.2540133539826
 20
229.7437680946235
 42
0.0
 10
257.2819147791253
 20
230.832442889289
 42
0.0
 10
255.3924505113845
 20
230.8324428892889
 42
0.0
 10
254.1838871720878
 20
229.753293536781
 42
0.1875900281644773
 10
254.9223119435943
 20
229.4661465827397
 42
0.0
 97
        0
 92
        7
 72
     1
 73
     1
 93
        7
 10
257.4449772551287
 20
230.978044497145
 42
0.0
 10
258.417075829986
 20
229.8893697024795
 42
0.1636384980547049
 10
258.7860309620501
 20
230.6783555091544
 42
0.0
 10
259.1332253232389
 20
233.7372953180673
 42
0.0
 10
258.5791074306002
 20
234.3668175862021
 42
0.0
 10
258.4693622814576
 20
234.3668175862021
 42
0.0
 10
257.7583804348549
 20
233.7392686697428
 42
0.0
 97
        0
 92
        7
 72
     1
 73
     1
 93
        7
 10
257.9484790688181
 20
235.4141238634129
 42
0.0
 10
258.4854935808597
 20
234.8040324042978
 42
0.0
 10
258.63435625502
 20
234.8040324042978
 42
0.0
 10
259.3233239572023
 20
235.4121505117374
 42
0.0
 10
259.6765676707199
 20
238.5243878586433
 42
0.1875900281644857
 10
259.4745302798521
 20
239.2904853779455
 42
0.0
 10
258.2659669405554
 20
238.2113360254376
 42
0.0
 97
        0
 75
     0
 76
     1
 47
0.0566729724433962
 98
       21
 10
238.639973668646
 20
236.626542232922
 10
238.3564753453617
 20
232.54609033726
 10
243.7996584807958
 20
239.1201556227847
 10
245.2171500972178
 20
237.53330973117
 10
243.5161601575116
 20
234.7563358834327
 10
241.4749627970183
 20
232.4894152913589
 10
242.9491576154138
 20
229.8824591955094
 10
246.8614486260073
 20
236.4565244810342
 10
246.4078465923291
 20
231.8093405908998
 10
248.4490439528223
 20
236.5131995269353
 10
248.4490439528223
 20
231.6959941920054
 10
249.7531409563541
 20
230.1091519932983
 10
251.6809319128985
 20
232.54609033726
 10
252.3046317614414
 20
236.626542232922
 10
250.9438374514654
 20
239.0068092238902
 10
257.691111694901
 20
239.2335020216792
 10
255.6499202299371
 20
237.0799278284998
 10
254.51592104127
 20
232.0360333886888
 10
256.1602195700603
 20
230.0524769473972
 10
258.0880105266048
 20
232.1493797875832
 10
258.5983098667281
 20
236.4565244810342
  0
LWPOLYLINE
  5
74A
330
1F
100
AcDbEntity
  8
0
100
AcDbPolyline
 90
        7
 70
     1
 43
0.0
 10
258.4854935808598
 20
234.8040324042978
 10
258.63435625502
 20
234.8040324042978
 10
259.3233239572023
 20
235.4121505117374
 10
259.6765676707199
 20
238.5243878586433
 42
0.1875900281644857
 10
259.4745302798521
 20
239.2904853779455
 10
258.2659669405554
 20
238.2113360254376
 10
257.9484790688181
 20
235.4141238634128
  0
LWPOLYLINE
  5
74B
330
1F
100
AcDbEntity
  8
0
100
AcDbPolyline
 90
        6
 70
     1
 43
0.0
 10
255.2588024901014
 20
239.4630732961064
 10
256.2309010649587
 20
238.374398501441
 10
258.1203653326995
 20
238.374398501441
 10
259.3289286719961
 20
239.4535478539489
 42
0.1875900281644911
 10
258.5905039004896
 20
239.7406948079902
 10
256.0843645948218
 20
239.7406948079902
 42
0.1636384980547074
  0
LWPOLYLINE
  5
74C
330
1F
100
AcDbEntity
  8
0
100
AcDbPolyline
 90
        7
 70
     1
 43
0.0
 10
254.3731939958433
 20
235.4131897859445
 10
254.918001787689
 20
234.8030474338617
 10
255.0473779058916
 20
234.8030474338617
 10
255.7502446979923
 20
235.4306506540919
 10
256.0678385889552
 20
238.2287968935849
 10
255.095740014098
 20
239.3174716882504
 42
0.1636384980547077
 10
254.7267848820337
 20
238.5284858815754
  0
LWPOLYLINE
  5
74D
330
1F
100
AcDbEntity
  8
0
100
AcDbPolyline
 90
        7
 70
     1
 43
0.0
 10
254.0382855642318
 20
229.9163560127844
 42
-0.1875900281644814
 10
253.836248173364
 20
230.6824535320867
 10
254.1830834218887
 20
233.7382293955357
 10
254.8859502139893
 20
234.3658326157659
 10
255.015326332192
 20
234.3658326157659
 10
255.5601341240378
 20
233.7556902636831
 10
255.2468489035284
 20
230.9955053652924
  0
LWPOLYLINE
  5
74E
330
1F
100
AcDbEntity
  8
0
100
AcDbPolyline
 90
        7
 70
     1
 43
0.0
 10
258.5791074306002
 20
234.3668175862021
 10
258.4693622814577
 20
234.3668175862021
 10
257.7583804348549
 20
233.7392686697428
 10
257.4449772551287
 20
230.9780444971449
 10
258.417075829986
 20
229.8893697024795
 42
0.16363849805471
 10
258.7860309620501
 20
230.6783555091544
 10
259.1332253232389
 20
233.7372953180673
  0
LWPOLYLINE
  5
74F
330
1F
100
AcDbEntity
  8
0
100
AcDbPolyline
 90
        6
 70
     1
 43
0.0
 10
257.4284512492622
 20
229.4661465827397
 42
0.1636384980547072
 10
258.2540133539826
 20
229.7437680946235
 10
257.2819147791253
 20
230.832442889289
 10
255.3924505113845
 20
230.832442889289
 10
254.1838871720878
 20
229.753293536781
 42
0.1875900281644875
 10
254.9223119435943
 20
229.4661465827397
  0
LWPOLYLINE
  5
750
330
1F
100
AcDbEntity
  8
0
100
AcDbPolyline
 90
        6
 70
     1
 43
0.0
 10
250.9165793245838
 20
229.4661465827397
 42
0.1636384980547072
 10
251.7421414293041
 20
229.7437680946235
 10
250.7700428544469
 20
230.832442889289
 10
248.8805785867061
 20
230.832442889289
 10
247.6720152474094
 20
229.753293536781
 42
0.1875900281644875
 10
248.4104400189159
 20
229.4661465827397
  0
LWPOLYLINE
  5
751
330
1F
100
AcDbEntity
  8
0
100
AcDbPolyline
 90
        7
 70
     1
 43
0.0
 10
252.0672355059218
 20
234.3668175862021
 10
251.9574903567793
 20
234.3668175862021
 10
251.2465085101765
 20
233.7392686697428
 10
250.9331053304503
 20
230.9780444971449
 10
251.9052039053076
 20
229.8893697024795
 42
0.16363849805471
 10
252.2741590373717
 20
230.6783555091544
 10
252.6213533985605
 20
233.7372953180673
  0
LWPOLYLINE
  5
752
330
1F
100
AcDbEntity
  8
0
100
AcDbPolyline
 90
        7
 70
     1
 43
0.0
 10
247.5264136395534
 20
229.9163560127844
 42
-0.1875900281644814
 10
247.3243762486856
 20
230.6824535320867
 10
247.6712114972103
 20
233.7382293955357
 10
248.3740782893109
 20
234.3658326157659
 10
248.5034544075136
 20
234.3658326157659
 10
249.0482621993594
 20
233.7556902636831
 10
248.73497697885
 20
230.9955053652924
  0
LWPOLYLINE
  5
753
330
1F
100
AcDbEntity
  8
0
100
AcDbPolyline
 90
        7
 70
     1
 43
0.0
 10
247.8613220711649
 20
235.4131897859445
 10
248.4061298630106
 20
234.8030474338617
 10
248.5355059812132
 20
234.8030474338617
 10
249.2383727733139
 20
235.4306506540919
 10
249.5559666642768
 20
238.2287968935849
 10
248.5838680894196
 20
239.3174716882504
 42
0.1636384980547077
 10
248.2149129573553
 20
238.5284858815754
  0
LWPOLYLINE
  5
754
330
1F
100
AcDbEntity
  8
0
100
AcDbPolyline
 90
        6
 70
     1
 43
0.0
 10
248.746930565423
 20
239.4630732961064
 10
249.7190291402803
 20
238.374398501441
 10
251.608493408021
 20
238.374398501441
 10
252.8170567473177
 20
239.4535478539489
 42
0.1875900281644911
 10
252.0786319758112
 20
239.7406948079902
 10
249.5724926701434
 20
239.7406948079902
 42
0.1636384980547074
  0
LWPOLYLINE
  5
755
330
1F
100
AcDbEntity
  8
0
100
AcDbPolyline
 90
        7
 70
     1
 43
0.0
 10
251.9736216561813
 20
234.8040324042978
 10
252.1224843303416
 20
234.8040324042978
 10
252.8114520325238
 20
235.4121505117374
 10
253.1646957460416
 20
238.5243878586433
 42
0.1875900281644857
 10
252.9626583551737
 20
239.2904853779455
 10
251.754095015877
 20
238.2113360254376
 10
251.4366071441397
 20
235.4141238634128
  0
LWPOLYLINE
  5
756
330
1F
100
AcDbEntity
  8
0
100
AcDbPolyline
 90
        7
 70
     1
 43
0.0
 10
244.9147518721788
 20
234.8040324042978
 10
245.063614546339
 20
234.8040324042978
 10
245.7525822485212
 20
235.4121505117374
 10
246.105825962039
 20
238.5243878586433
 42
0.1875900281644857
 10
245.9037885711711
 20
239.2904853779455
 10
244.6952252318744
 20
238.2113360254376
 10
244.3777373601371
 20
235.4141238634128
  0
LWPOLYLINE
  5
757
330
1F
100
AcDbEntity
  8
0
100
AcDbPolyline
 90
        6
 70
     1
 43
0.0
 10
241.6880607814204
 20
239.4630732961064
 10
242.6601593562776
 20
238.374398501441
 10
244.5496236240185
 20
238.374398501441
 10
245.7581869633151
 20
239.4535478539489
 42
0.1875900281644911
 10
245.0197621918086
 20
239.7406948079902
 10
242.5136228861408
 20
239.7406948079902
 42
0.1636384980547074
  0
LWPOLYLINE
  5
758
330
1F
100
AcDbEntity
  8
0
100
AcDbPolyline
 90
        6
 70
     1
 43
0.0
 10
241.5502543931892
 20
234.57570959074
 10
242.1524548913602
 20
233.9012918715391
 10
244.0408542257487
 20
233.9012918715391
 10
244.8159431771605
 20
234.5854249952499
 10
244.2154897151565
 20
235.2675881780884
 10
242.3251045971673
 20
235.2675881780884
  0
LWPOLYLINE
  5
759
330
1F
100
AcDbEntity
  8
0
100
AcDbPolyline
 90
        7
 70
     1
 43
0.0
 10
240.4675438555508
 20
229.9163560127844
 42
-0.1875900281644814
 10
240.265506464683
 20
230.6824535320867
 10
240.6123417132077
 20
233.7382293955357
 10
241.3152085053083
 20
234.3658326157659
 10
241.444584623511
 20
234.3658326157659
 10
241.9893924153568
 20
233.7556902636831
 10
241.6761071948474
 20
230.9955053652924
  0
LWPOLYLINE
  5
75A
330
1F
100
AcDbEntity
  8
0
100
AcDbPolyline
 90
        6
 70
     1
 43
0.0
 10
243.8577095405812
 20
229.4661465827397
 42
0.1636384980547072
 10
244.6832716453015
 20
229.7437680946235
 10
243.7111730704443
 20
230.832442889289
 10
241.8217088027035
 20
230.832442889289
 10
240.6131454634068
 20
229.753293536781
 42
0.1875900281644875
 10
241.3515702349133
 20
229.4661465827397
  0
LWPOLYLINE
  5
75B
330
1F
100
AcDbEntity
  8
0
100
AcDbPolyline
 90
        7
 70
     1
 43
0.0
 10
238.3229840475555
 20
234.3668175862021
 10
238.2132388984129
 20
234.3668175862021
 10
237.5022570518102
 20
233.7392686697428
 10
237.1888538720841
 20
230.9780444971449
 10
238.1609524469412
 20
229.8893697024795
 42
0.16363849805471
 10
238.5299075790054
 20
230.6783555091544
 10
238.8771019401942
 20
233.7372953180673
  0
LWPOLYLINE
  5
75C
330
1F
100
AcDbEntity
  8
0
100
AcDbPolyline
 90
        7
 70
     1
 43
0.0
 10
238.229370197815
 20
234.8040324042978
 10
238.3782328719753
 20
234.8040324042978
 10
239.0672005741576
 20
235.4121505117374
 10
239.4204442876752
 20
238.5243878586433
 42
0.1875900281644857
 10
239.2184068968074
 20
239.2904853779455
 10
238.0098435575106
 20
238.2113360254376
 10
237.6923556857734
 20
235.4141238634128
  0
LWPOLYLINE
  5
75D
330
1F
100
AcDbEntity
  8
0
100
AcDbPolyline
 90
        2
 70
     1
 43
0.0
 10
246.9387550815013
 20
231.9825571475435
 42
1.0
 10
245.6503273726979
 20
231.9825571475435
 42
1.0
  0
LWPOLYLINE
  5
75E
330
1F
100
AcDbEntity
  8
0
100
AcDbPolyline
 90
        2
 70
     1
 43
0.0
 10
247.4567006038521
 20
236.5458921387628
 42
1.0
 10
246.1682728950488
 20
236.5458921387628
 42
1.0
  0
ENDSEC
  0
SECTION
  2
OBJECTS
  0
DICTIONARY
  5
C
330
0
100
AcDbDictionary
281
     1
  3
ACAD_CIP_PREVIOUS_PRODUCT_INFO
350
638
  3
ACAD_COLOR
350
BE
  3
ACAD_DETAILVIEWSTYLE
350
62F
  3
ACAD_GROUP
350
D
  3
ACAD_LAYOUT
350
1A
  3
ACAD_MATERIAL
350
BD
  3
ACAD_MLEADERSTYLE
350
62B
  3
ACAD_MLINESTYLE
350
17
  3
ACAD_PLOTSETTINGS
350
19
  3
ACAD_PLOTSTYLENAME
350
E
  3
ACAD_SCALELIST
350
619
  3
ACAD_SECTIONVIEWSTYLE
350
62D
  3
ACAD_TABLESTYLE
350
11A
  3
ACAD_VISUALSTYLE
350
600
  3
ACDB_RECOMPOSE_DATA
350
7BC
  3
AcDbVariableDictionary
350
94
  3
AcmDictionary
350
5B
  3
AMG
350
41
  3
AMGSNAPSETTINGS
350
1B8
  3
DWGPROPS
350
7BD
  0
DICTIONARY
  5
278
330
2
100
AcDbDictionary
280
     1
281
     1
  3
ACAD_LAYERFILTERS
360
557
  3
ACAD_LAYERSTATES
360
279
  3
ACLYDICTIONARY
360
556
  0
DICTIONARY
  5
7AC
330
10
100
AcDbDictionary
280
     1
281
     1
  3
ADSK_XREC_LAYER_RECONCILED
360
7AD
  0
DICTIONARY
  5
7AE
330
1B0
100
AcDbDictionary
280
     1
281
     1
  3
ADSK_XREC_LAYER_RECONCILED
360
7AF
  0
DICTIONARY
  5
7B0
330
270
100
AcDbDictionary
280
     1
281
     1
  3
ADSK_XREC_LAYER_RECONCILED
360
7B1
  0
DICTIONARY
  5
7B2
330
272
100
AcDbDictionary
280
     1
281
     1
  3
ADSK_XREC_LAYER_RECONCILED
360
7B3
  0
DICTIONARY
  5
8F
330
1F
100
AcDbDictionary
280
     1
281
     1
  3
ACAD_SORTENTS
360
566
  0
DICTIONARY
  5
1FE
330
1FD
100
AcDbDictionary
280
     1
281
     1
  3
ACAD_SORTENTS
360
1FF
  0
XRECORD
  5
638
102
{ACAD_REACTORS
330
C
102
}
330
C
100
AcDbXrecord
280
     1
300
AMECH_PP
300
2013
300
PDSP_F_S
  0
DICTIONARY
  5
BE
102
{ACAD_REACTORS
330
C
102
}
330
C
100
AcDbDictionary
281
     1
  0
DICTIONARY
  5
62F
102
{ACAD_REACTORS
330
C
102
}
330
C
100
AcDbDictionary
281
     1
  3
Metric50
350
630
  0
DICTIONARY
  5
D
102
{ACAD_REACTORS
330
C
102
}
330
C
100
AcDbDictionary
281
     1
  0
DICTIONARY
  5
1A
102
{ACAD_REACTORS
330
C
102
}
330
C
100
AcDbDictionary
281
     1
  3
Model
350
22
  3
レイアウト1
350
1E
  3
レイアウト2
350
26
  0
DICTIONARY
  5
BD
102
{ACAD_REACTORS
330
C
102
}
330
C
100
AcDbDictionary
281
     1
  3
ByBlock
350
5F0
  3
ByLayer
350
5E8
  3
Global
350
5F8
  0
DICTIONARY
  5
62B
102
{ACAD_REACTORS
330
C
102
}
330
C
100
AcDbDictionary
281
     1
  3
Standard
350
62C
  0
DICTIONARY
  5
17
102
{ACAD_REACTORS
330
C
102
}
330
C
100
AcDbDictionary
281
     1
  3
Standard
350
18
  0
DICTIONARY
  5
19
102
{ACAD_REACTORS
330
C
102
}
330
C
100
AcDbDictionary
281
     1
  0
ACDBDICTIONARYWDFLT
  5
E
102
{ACAD_REACTORS
330
C
102
}
330
C
100
AcDbDictionary
281
     1
  3
Normal
350
F
100
AcDbDictionaryWithDefault
340
F
  0
DICTIONARY
  5
619
102
{ACAD_REACTORS
330
C
102
}
330
C
100
AcDbDictionary
281
     1
  3
A0
350
61A
  3
A1
350
61B
  3
A2
350
61C
  3
A3
350
61D
  3
A4
350
61E
  3
A5
350
61F
  3
A6
350
620
  3
A7
350
621
  3
A8
350
622
  3
A9
350
623
  3
B0
350
624
  3
B1
350
625
  3
B2
350
626
  3
B3
350
627
  3
B4
350
628
  3
B5
350
629
  3
B6
350
62A
  0
DICTIONARY
  5
62D
102
{ACAD_REACTORS
330
C
102
}
330
C
100
AcDbDictionary
281
     1
  3
Metric50
350
62E
  0
DICTIONARY
  5
11A
102
{ACAD_REACTORS
330
C
102
}
330
C
100
AcDbDictionary
281
     1
  3
Standard
350
11B
  0
DICTIONARY
  5
600
102
{ACAD_REACTORS
330
C
102
}
330
C
100
AcDbDictionary
281
     1
  3
2dWireframe
350
606
  3
Basic
350
605
  3
Brighten
350
60C
  3
ColorChange
350
610
  3
Conceptual
350
609
  3
Dim
350
60B
  3
EdgeColorOff
350
618
  3
Facepattern
350
60F
  3
Flat
350
601
  3
FlatWithEdges
350
602
  3
Gouraud
350
603
  3
GouraudWithEdges
350
604
  3
Hidden
350
608
  3
JitterOff
350
616
  3
Linepattern
350
60E
  3
OverhangOff
350
617
  3
Realistic
350
60A
  3
Shaded
350
615
  3
Shaded with edges
350
614
  3
Shades of Gray
350
611
  3
Sketchy
350
612
  3
Thicken
350
60D
  3
Wireframe
350
607
  3
X-Ray
350
613
  0
XRECORD
  5
7BC
102
{ACAD_REACTORS
330
C
102
}
330
C
100
AcDbXrecord
280
     1
 90
        1
330
11B
  0
DICTIONARY
  5
94
102
{ACAD_REACTORS
330
C
102
}
330
C
100
AcDbDictionary
281
     1
  3
CANNOSCALE
350
7B7
  3
CMLEADERSTYLE
350
7B4
  3
CTABLESTYLE
350
138
  3
CVIEWDETAILSTYLE
350
7B5
  3
CVIEWSECTIONSTYLE
350
7B6
  3
DIMASSOC
350
96
  3
INDEXCTL
350
95
  3
PROJECTNAME
350
5DC
  3
SORTENTS
350
7B8
  3
XCLIPFRAME
350
7B9
  0
DICTIONARY
  5
5B
102
{ACAD_REACTORS
330
C
102
}
330
C
100
AcDbDictionary
281
     1
  3
AcmBOM
350
1B5
  3
AcmStdDictionary
350
61
  3
AMDTSECTSYM_ARROWCOLOR
350
123
  0
DICTIONARY
  5
41
102
{ACAD_REACTORS
330
C
102
}
330
C
100
AcDbDictionary
281
     1
  0
DICTIONARY
  5
1B8
102
{ACAD_REACTORS
330
C
102
}
330
C
100
AcDbDictionary
281
     1
  0
XRECORD
  5
7BD
102
{ACAD_REACTORS
330
C
102
}
330
C
100
AcDbXrecord
280
     1
  1
DWGPROPS COOKIE
  2

  3

  4

  6

  7

  8
吉泉  徹
  9

300
AmdtFileType=84
301
=
302
=
303
=
304
=
305
=
306
=
307
=
308
=
309
=
 40
0.0242728240740741
 41
2454118.944882222
 42
2456399.824112303
  1

 90
        1
  0
DICTIONARY
  5
557
102
{ACAD_REACTORS
330
278
102
}
330
278
100
AcDbDictionary
281
     1
  0
DICTIONARY
  5
279
102
{ACAD_REACTORS
330
278
102
}
330
278
100
AcDbDictionary
281
     1
  0
DICTIONARY
  5
556
102
{ACAD_REACTORS
330
278
102
}
330
278
100
AcDbDictionary
281
     1
1001
ACAD
1000
<All
  0
XRECORD
  5
7AD
102
{ACAD_REACTORS
330
7AC
102
}
330
7AC
100
AcDbXrecord
280
     1
290
     1
  0
XRECORD
  5
7AF
102
{ACAD_REACTORS
330
7AE
102
}
330
7AE
100
AcDbXrecord
280
     1
290
     1
  0
XRECORD
  5
7B1
102
{ACAD_REACTORS
330
7B0
102
}
330
7B0
100
AcDbXrecord
280
     1
290
     1
  0
XRECORD
  5
7B3
102
{ACAD_REACTORS
330
7B2
102
}
330
7B2
100
AcDbXrecord
280
     1
290
     1
  0
SORTENTSTABLE
  5
566
102
{ACAD_REACTORS
330
8F
102
}
330
8F
100
AcDbSortentsTable
330
1F
331
43C
  5
43C
331
438
  5
438
331
40E
  5
40E
331
40A
  5
40A
331
565
  5
442
331
406
  5
406
331
48C
  5
48E
331
50E
  5
510
331
402
  5
402
331
488
  5
48A
331
4C7
  5
4C9
331
50A
  5
50C
331
506
  5
508
331
502
  5
504
331
3FE
  5
3FE
331
445
  5
446
331
3FA
  5
3FA
331
441
  5
441
331
3F6
  5
3F6
331
435
  5
435
331
431
  5
431
331
4CB
  5
4CD
331
4F6
  5
4F8
331
3F2
  5
3F2
331
470
  5
471
331
4BF
  5
4C1
331
4F2
  5
4F4
331
46C
  5
46D
331
4BB
  5
4BD
331
4FA
  5
4FC
331
468
  5
469
331
3EE
  5
3EE
331
42D
  5
42D
331
3EA
  5
3EA
331
429
  5
429
331
3E6
  5
3E6
331
425
  5
425
331
421
  5
421
331
4AB
  5
4AD
331
4EE
  5
4F0
331
3E2
  5
3E2
331
460
  5
461
331
4A7
  5
4A9
331
4EA
  5
4EC
331
45C
  5
45D
331
4A3
  5
4A5
331
458
  5
459
331
523
  5
567
331
3DE
  5
3DE
331
41D
  5
41D
331
3DA
  5
3DA
331
419
  5
419
331
3D6
  5
3D6
331
415
  5
415
331
49F
  5
4A1
331
411
  5
411
331
49B
  5
49D
331
51D
  5
51F
331
454
  5
455
331
450
  5
451
331
497
  5
499
331
519
  5
51B
331
515
  5
517
331
44C
  5
44D
331
493
  5
495
331
4D6
  5
4D8
331
511
  5
513
331
448
  5
449
331
4D2
  5
4D4
331
43F
  5
43F
331
43B
  5
43B
331
40D
  5
40D
331
409
  5
409
331
405
  5
405
331
48F
  5
491
331
401
  5
401
331
48B
  5
48D
331
50D
  5
50F
331
487
  5
488
331
509
  5
50B
331
505
  5
507
331
501
  5
503
331
3FD
  5
3FD
331
444
  5
445
331
3F9
  5
3F9
331
440
  5
440
331
434
  5
434
331
3F5
  5
3F5
331
430
  5
430
331
4CA
  5
4CC
331
4F5
  5
4F7
331
3F1
  5
3F1
331
46F
  5
470
331
4BE
  5
4C0
331
4F1
  5
4F3
331
46B
  5
46C
331
4FD
  5
4FF
331
4F9
  5
4FB
331
3ED
  5
3ED
331
42C
  5
42C
331
3E9
  5
3E9
331
428
  5
428
331
3E5
  5
3E5
331
467
  5
468
331
424
  5
424
331
420
  5
420
331
4AA
  5
4AC
331
3E1
  5
3E1
331
4ED
  5
4EF
331
463
  5
465
331
45F
  5
460
331
4A6
  5
4A8
331
4E9
  5
4EB
331
45B
  5
45C
331
4A2
  5
4A4
331
522
  5
558
331
3DD
  5
3DD
331
41C
  5
41C
331
3D9
  5
3D9
331
418
  5
418
331
3D5
  5
3D5
331
414
  5
414
331
49E
  5
4A0
331
410
  5
410
331
49A
  5
49C
331
51C
  5
51E
331
453
  5
454
331
44F
  5
450
331
496
  5
498
331
518
  5
51A
331
514
  5
516
331
44B
  5
44C
331
492
  5
494
331
4D5
  5
4D7
331
510
  5
512
331
43E
  5
43E
331
43A
  5
43A
331
40C
  5
40C
331
408
  5
408
331
404
  5
404
331
48E
  5
490
331
400
  5
400
331
48A
  5
48C
331
50C
  5
50E
331
508
  5
50A
331
504
  5
506
331
500
  5
502
331
447
  5
448
331
3FC
  5
3FC
331
443
  5
444
331
437
  5
437
331
433
  5
433
331
4CD
  5
4CF
331
3F4
  5
3F4
331
3F0
  5
3F0
331
472
  5
487
331
4C9
  5
4CB
331
4F4
  5
4F6
331
46E
  5
46F
331
4BD
  5
4BF
331
4F0
  5
4F2
331
46A
  5
46B
331
4FC
  5
4FE
331
4F8
  5
4FA
331
42F
  5
42F
331
3EC
  5
3EC
331
42B
  5
42B
331
3E8
  5
3E8
331
427
  5
427
331
423
  5
423
331
3E4
  5
3E4
331
466
  5
467
331
462
  5
463
331
4A9
  5
4AB
331
4EC
  5
4EE
331
3E0
  5
3E0
331
4A5
  5
4A7
331
45A
  5
45B
331
521
  5
523
331
3DC
  5
3DC
331
41B
  5
41B
331
3D8
  5
3D8
331
417
  5
417
331
49D
  5
49F
331
3D4
  5
3D4
331
51F
  5
521
331
456
  5
458
331
413
  5
413
331
499
  5
49B
331
51B
  5
51D
331
452
  5
453
331
44E
  5
44F
331
495
  5
497
331
4D8
  5
4DA
331
517
  5
519
331
513
  5
515
331
44A
  5
44B
331
491
  5
493
331
4D4
  5
4D6
331
43D
  5
43D
331
439
  5
439
331
40F
  5
40F
331
40B
  5
40B
331
407
  5
407
331
403
  5
403
331
50F
  5
511
331
48D
  5
48F
331
489
  5
48B
331
50B
  5
50D
331
507
  5
509
331
503
  5
505
331
3FF
  5
3FF
331
446
  5
447
331
3FB
  5
3FB
331
442
  5
443
331
3F7
  5
3F7
331
436
  5
436
331
432
  5
432
331
4CC
  5
4CE
331
4F7
  5
4F9
331
3F3
  5
3F3
331
471
  5
472
331
4C8
  5
4CA
331
4F3
  5
4F5
331
46D
  5
46E
331
4BC
  5
4BE
331
4FF
  5
501
331
4FB
  5
4FD
331
469
  5
46A
331
3EF
  5
3EF
331
42E
  5
42E
331
3EB
  5
3EB
331
42A
  5
42A
331
3E7
  5
3E7
331
426
  5
426
331
422
  5
422
331
3E3
  5
3E3
331
4EF
  5
4F1
331
465
  5
466
331
461
  5
462
331
4A8
  5
4AA
331
4EB
  5
4ED
331
45D
  5
45F
331
4A4
  5
4A6
331
459
  5
45A
331
4A0
  5
4A3
331
3DF
  5
3DF
331
41E
  5
41E
331
520
  5
522
331
3DB
  5
3DB
331
41A
  5
41A
331
3D7
  5
3D7
331
416
  5
416
331
412
  5
412
331
49C
  5
49E
331
51E
  5
520
331
455
  5
456
331
451
  5
452
331
498
  5
49A
331
51A
  5
51C
331
44D
  5
44E
331
494
  5
496
331
4D7
  5
4D9
331
516
  5
518
331
512
  5
514
331
449
  5
44A
331
490
  5
492
331
4D3
  5
4D5
  0
SORTENTSTABLE
  5
1FF
102
{ACAD_REACTORS
330
1FE
102
}
330
1FE
100
AcDbSortentsTable
330
1FD
  0
ACDBDETAILVIEWSTYLE
  5
630
102
{ACAD_REACTORS
330
62F
102
}
330
62F
100
AcDbModelDocViewStyle
 70
     0
  3
Metric50
290
     0
100
AcDbDetailViewStyle
 70
     0
 71
     0
 90
        3
 71
     1
340
11
 40
5.0
340
0
 40
5.0
300

 40
0.0
280
     1
 71
     2
340
16
 90
       25
 71
     3
340
11
 40
5.0
 90
        0
 40
15.0
 90
        1
300
%<\AcVar ViewDetailId>% (%<\AcVar ViewScale \f "%sn">%)
 71
     4
340
16
 90
       25
340
16
 90
       25
280
     0
  0
LAYOUT
  5
22
102
{ACAD_XDICTIONARY
360
7C0
102
}
102
{ACAD_REACTORS
330
1A
102
}
330
1A
100
AcDbPlotSettings
  1

  2

  4

  6

 40
0.0
 41
0.0
 42
0.0
 43
0.0
 44
0.0
 45
0.0
 46
0.0
 47
0.0
 48
0.0
 49
0.0
140
0.0
141
0.0
142
1.0
143
1.0
 70
  1712
 72
     0
 73
     0
 74
     0
  7

 75
     0
147
1.0
148
0.0
149
0.0
100
AcDbLayout
  1
Model
 70
     1
 71
     0
 10
0.0
 20
0.0
 11
12.0
 21
9.0
 12
0.0
 22
0.0
 32
0.0
 14
0.0
 24
0.0
 34
0.0
 15
0.0
 25
0.0
 35
0.0
146
0.0
 13
0.0
 23
0.0
 33
0.0
 16
1.0
 26
0.0
 36
0.0
 17
0.0
 27
1.0
 37
0.0
 76
     0
330
1F
331
5DD
  0
LAYOUT
  5
1E
102
{ACAD_XDICTIONARY
360
7BE
102
}
102
{ACAD_REACTORS
330
1A
102
}
330
1A
100
AcDbPlotSettings
  1

  2

  4

  6

 40
0.0
 41
0.0
 42
0.0
 43
0.0
 44
0.0
 45
0.0
 46
0.0
 47
0.0
 48
0.0
 49
0.0
140
0.0
141
0.0
142
1.0
143
1.0
 70
   688
 72
     0
 73
     0
 74
     5
  7

 75
    16
147
1.0
148
0.0
149
0.0
100
AcDbLayout
  1
レイアウト1
 70
     1
 71
     1
 10
0.0
 20
0.0
 11
420.0
 21
297.0
 12
0.0
 22
0.0
 32
0.0
 14
1.000000000000000E+20
 24
1.000000000000000E+20
 34
1.000000000000000E+20
 15
-1.000000000000000E+20
 25
-1.000000000000000E+20
 35
-1.000000000000000E+20
146
0.0
 13
0.0
 23
0.0
 33
0.0
 16
1.0
 26
0.0
 36
0.0
 17
0.0
 27
1.0
 37
0.0
 76
     0
330
1B
  0
LAYOUT
  5
26
102
{ACAD_XDICTIONARY
360
7C2
102
}
102
{ACAD_REACTORS
330
1A
102
}
330
1A
100
AcDbPlotSettings
  1

  2

  4

  6

 40
0.0
 41
0.0
 42
0.0
 43
0.0
 44
0.0
 45
0.0
 46
0.0
 47
0.0
 48
0.0
 49
0.0
140
0.0
141
0.0
142
1.0
143
1.0
 70
   688
 72
     0
 73
     0
 74
     5
  7

 75
    16
147
1.0
148
0.0
149
0.0
100
AcDbLayout
  1
レイアウト2
 70
     1
 71
     2
 10
0.0
 20
0.0
 11
12.0
 21
9.0
 12
0.0
 22
0.0
 32
0.0
 14
0.0
 24
0.0
 34
0.0
 15
0.0
 25
0.0
 35
0.0
146
0.0
 13
0.0
 23
0.0
 33
0.0
 16
1.0
 26
0.0
 36
0.0
 17
0.0
 27
1.0
 37
0.0
 76
     0
330
23
  0
MATERIAL
  5
5F0
102
{ACAD_XDICTIONARY
360
5F1
102
}
102
{ACAD_REACTORS
330
BD
102
}
330
BD
100
AcDbMaterial
  1
ByBlock
 72
     0
 43
0.0008202099737533
 43
0.0
 43
0.0
 43
0.0
 43
0.0
 43
0.0008202099737533
 43
0.0
 43
0.0
 43
0.0
 43
0.0
 43
1.0
 43
0.0
 43
0.0
 43
0.0
 43
0.0
 43
1.0
 77
     0
 47
0.0008202099737533
 47
0.0
 47
0.0
 47
0.0
 47
0.0
 47
0.0008202099737533
 47
0.0
 47
0.0
 47
0.0
 47
0.0
 47
1.0
 47
0.0
 47
0.0
 47
0.0
 47
0.0
 47
1.0
171
     0
 49
0.0008202099737533
 49
0.0
 49
0.0
 49
0.0
 49
0.0
 49
0.0008202099737533
 49
0.0
 49
0.0
 49
0.0
 49
0.0
 49
1.0
 49
0.0
 49
0.0
 49
0.0
 49
0.0
 49
1.0
175
     0
142
0.0008202099737533
142
0.0
142
0.0
142
0.0
142
0.0
142
0.0008202099737533
142
0.0
142
0.0
142
0.0
142
0.0
142
1.0
142
0.0
142
0.0
142
0.0
142
0.0
142
1.0
179
     0
144
0.0008202099737533
144
0.0
144
0.0
144
0.0
144
0.0
144
0.0008202099737533
144
0.0
144
0.0
144
0.0
144
0.0
144
1.0
144
0.0
144
0.0
144
0.0
144
0.0
144
1.0
147
0.0008202099737533
147
0.0
147
0.0
147
0.0
147
0.0
147
0.0008202099737533
147
0.0
147
0.0
147
0.0
147
0.0
147
1.0
147
0.0
147
0.0
147
0.0
147
0.0
147
1.0
  0
MATERIAL
  5
5E8
102
{ACAD_XDICTIONARY
360
5E9
102
}
102
{ACAD_REACTORS
330
BD
102
}
330
BD
100
AcDbMaterial
  1
ByLayer
 72
     0
 43
0.0008202099737533
 43
0.0
 43
0.0
 43
0.0
 43
0.0
 43
0.0008202099737533
 43
0.0
 43
0.0
 43
0.0
 43
0.0
 43
1.0
 43
0.0
 43
0.0
 43
0.0
 43
0.0
 43
1.0
 77
     0
 47
0.0008202099737533
 47
0.0
 47
0.0
 47
0.0
 47
0.0
 47
0.0008202099737533
 47
0.0
 47
0.0
 47
0.0
 47
0.0
 47
1.0
 47
0.0
 47
0.0
 47
0.0
 47
0.0
 47
1.0
171
     0
 49
0.0008202099737533
 49
0.0
 49
0.0
 49
0.0
 49
0.0
 49
0.0008202099737533
 49
0.0
 49
0.0
 49
0.0
 49
0.0
 49
1.0
 49
0.0
 49
0.0
 49
0.0
 49
0.0
 49
1.0
175
     0
142
0.0008202099737533
142
0.0
142
0.0
142
0.0
142
0.0
142
0.0008202099737533
142
0.0
142
0.0
142
0.0
142
0.0
142
1.0
142
0.0
142
0.0
142
0.0
142
0.0
142
1.0
179
     0
144
0.0008202099737533
144
0.0
144
0.0
144
0.0
144
0.0
144
0.0008202099737533
144
0.0
144
0.0
144
0.0
144
0.0
144
1.0
144
0.0
144
0.0
144
0.0
144
0.0
144
1.0
147
0.0008202099737533
147
0.0
147
0.0
147
0.0
147
0.0
147
0.0008202099737533
147
0.0
147
0.0
147
0.0
147
0.0
147
1.0
147
0.0
147
0.0
147
0.0
147
0.0
147
1.0
  0
MATERIAL
  5
5F8
102
{ACAD_XDICTIONARY
360
5F9
102
}
102
{ACAD_REACTORS
330
BD
102
}
330
BD
100
AcDbMaterial
  1
Global
 72
     0
 43
0.0008202099737533
 43
0.0
 43
0.0
 43
0.0
 43
0.0
 43
0.0008202099737533
 43
0.0
 43
0.0
 43
0.0
 43
0.0
 43
1.0
 43
0.0
 43
0.0
 43
0.0
 43
0.0
 43
1.0
 77
     0
 47
0.0008202099737533
 47
0.0
 47
0.0
 47
0.0
 47
0.0
 47
0.0008202099737533
 47
0.0
 47
0.0
 47
0.0
 47
0.0
 47
1.0
 47
0.0
 47
0.0
 47
0.0
 47
0.0
 47
1.0
171
     0
 49
0.0008202099737533
 49
0.0
 49
0.0
 49
0.0
 49
0.0
 49
0.0008202099737533
 49
0.0
 49
0.0
 49
0.0
 49
0.0
 49
1.0
 49
0.0
 49
0.0
 49
0.0
 49
0.0
 49
1.0
175
     0
142
0.0008202099737533
142
0.0
142
0.0
142
0.0
142
0.0
142
0.0008202099737533
142
0.0
142
0.0
142
0.0
142
0.0
142
1.0
142
0.0
142
0.0
142
0.0
142
0.0
142
1.0
179
     0
144
0.0008202099737533
144
0.0
144
0.0
144
0.0
144
0.0
144
0.0008202099737533
144
0.0
144
0.0
144
0.0
144
0.0
144
1.0
144
0.0
144
0.0
144
0.0
144
0.0
144
1.0
147
0.0008202099737533
147
0.0
147
0.0
147
0.0
147
0.0
147
0.0008202099737533
147
0.0
147
0.0
147
0.0
147
0.0
147
1.0
147
0.0
147
0.0
147
0.0
147
0.0
147
1.0
  0
MLEADERSTYLE
  5
62C
102
{ACAD_REACTORS
330
62B
102
}
330
62B
100
AcDbMLeaderStyle
170
     2
171
     1
172
     0
 90
        2
 40
0.0
 41
0.0
173
     1
 91
-1056964608
340
14
 92
       -2
290
     1
 42
2.0
291
     1
 43
0.36
  3
Standard
 44
4.0
300

342
11
174
     1
178
     6
175
     1
176
     0
 93
-1056964608
 45
4.0
292
     0
297
     0
 46
4.0
 94
-1056964608
 47
1.0
 49
1.0
140
1.0
293
     1
141
0.0
294
     1
177
     0
142
1.0
295
     0
296
     0
143
0.125
1001
ACAD_MLEADERVER
1070
     2
  0
MLINESTYLE
  5
18
102
{ACAD_REACTORS
330
17
102
}
330
17
100
AcDbMlineStyle
  2
STANDARD
 70
     0
  3

 62
   256
 51
90.0
 52
90.0
 71
     2
 49
0.5
 62
   256
  6
BYLAYER
 49
-0.5
 62
   256
  6
BYLAYER
  0
ACDBPLACEHOLDER
  5
F
102
{ACAD_REACTORS
330
E
102
}
330
E
  0
SCALE
  5
61A
102
{ACAD_REACTORS
330
619
102
}
330
619
100
AcDbScale
 70
     0
300
1:1
140
1.0
141
1.0
290
     1
  0
SCALE
  5
61B
102
{ACAD_REACTORS
330
619
102
}
330
619
100
AcDbScale
 70
     0
300
1:2
140
1.0
141
2.0
290
     0
  0
SCALE
  5
61C
102
{ACAD_REACTORS
330
619
102
}
330
619
100
AcDbScale
 70
     0
300
1:4
140
1.0
141
4.0
290
     0
  0
SCALE
  5
61D
102
{ACAD_REACTORS
330
619
102
}
330
619
100
AcDbScale
 70
     0
300
1:5
140
1.0
141
5.0
290
     0
  0
SCALE
  5
61E
102
{ACAD_REACTORS
330
619
102
}
330
619
100
AcDbScale
 70
     0
300
1:8
140
1.0
141
8.0
290
     0
  0
SCALE
  5
61F
102
{ACAD_REACTORS
330
619
102
}
330
619
100
AcDbScale
 70
     0
300
1:10
140
1.0
141
10.0
290
     0
  0
SCALE
  5
620
102
{ACAD_REACTORS
330
619
102
}
330
619
100
AcDbScale
 70
     0
300
1:16
140
1.0
141
16.0
290
     0
  0
SCALE
  5
621
102
{ACAD_REACTORS
330
619
102
}
330
619
100
AcDbScale
 70
     0
300
1:20
140
1.0
141
20.0
290
     0
  0
SCALE
  5
622
102
{ACAD_REACTORS
330
619
102
}
330
619
100
AcDbScale
 70
     0
300
1:30
140
1.0
141
30.0
290
     0
  0
SCALE
  5
623
102
{ACAD_REACTORS
330
619
102
}
330
619
100
AcDbScale
 70
     0
300
1:40
140
1.0
141
40.0
290
     0
  0
SCALE
  5
624
102
{ACAD_REACTORS
330
619
102
}
330
619
100
AcDbScale
 70
     0
300
1:50
140
1.0
141
50.0
290
     0
  0
SCALE
  5
625
102
{ACAD_REACTORS
330
619
102
}
330
619
100
AcDbScale
 70
     0
300
1:100
140
1.0
141
100.0
290
     0
  0
SCALE
  5
626
102
{ACAD_REACTORS
330
619
102
}
330
619
100
AcDbScale
 70
     0
300
2:1
140
2.0
141
1.0
290
     0
  0
SCALE
  5
627
102
{ACAD_REACTORS
330
619
102
}
330
619
100
AcDbScale
 70
     0
300
4:1
140
4.0
141
1.0
290
     0
  0
SCALE
  5
628
102
{ACAD_REACTORS
330
619
102
}
330
619
100
AcDbScale
 70
     0
300
8:1
140
8.0
141
1.0
290
     0
  0
SCALE
  5
629
102
{ACAD_REACTORS
330
619
102
}
330
619
100
AcDbScale
 70
     0
300
10:1
140
10.0
141
1.0
290
     0
  0
SCALE
  5
62A
102
{ACAD_REACTORS
330
619
102
}
330
619
100
AcDbScale
 70
     0
300
100:1
140
100.0
141
1.0
290
     0
  0
ACDBSECTIONVIEWSTYLE
  5
62E
102
{ACAD_REACTORS
330
62D
102
}
330
62D
100
AcDbModelDocViewStyle
 70
     0
  3
Metric50
290
     0
100
AcDbSectionViewStyle
 70
     0
 71
     0
 90
      102
 71
     1
340
11
 40
5.0
340
0
340
0
 40
5.0
300
I, O, Q, S, X, Z
 40
10.0
 90
        0
 40
2.5
 90
        0
 71
     2
340
16
 90
       25
340
16
 90
       50
 40
5.0
 40
2.5
 40
5.0
 71
     3
340
11
 40
5.0
 90
        0
 40
15.0
 90
        1
300
%<\AcVar ViewSectionStartId>%-%<\AcVar ViewSectionEndId>% (%<\AcVar ViewScale \f "%sn">%)
 71
     4
300
ANSI31
 40
1.0
 90
        0
290
     0
290
     0
 90
        6
 40
0.0
 40
1.570796326794896
 40
0.2617993877991494
 40
1.308996938995747
 40
-0.2617993877991494
 40
1.832595714594046
  0
TABLESTYLE
  5
11B
102
{ACAD_XDICTIONARY
360
7BA
102
}
102
{ACAD_REACTORS
330
11A
102
}
330
11A
100
AcDbTableStyle
  3
Standard
 70
     0
 71
     0
 40
1.5
 41
1.5
280
     0
281
     0
  7
STANDARD
140
4.5
170
     2
 62
     0
 63
     7
283
     0
274
    -2
284
     1
 64
     0
275
    -2
285
     1
 65
     0
276
    -2
286
     1
 66
     0
277
    -2
287
     1
 67
     0
278
    -2
288
     1
 68
     0
279
    -2
289
     1
 69
     0
  7
STANDARD
140
6.0
170
     5
 62
     0
 63
     7
283
     0
274
    -2
284
     1
 64
     0
275
    -2
285
     1
 65
     0
276
    -2
286
     1
 66
     0
277
    -2
287
     1
 67
     0
278
    -2
288
     1
 68
     0
279
    -2
289
     1
 69
     0
  7
STANDARD
140
4.5
170
     5
 62
     0
 63
     7
283
     0
274
    -2
284
     1
 64
     0
275
    -2
285
     1
 65
     0
276
    -2
286
     1
 66
     0
277
    -2
287
     1
 67
     0
278
    -2
288
     1
 68
     0
279
    -2
289
     1
 69
     0
  0
VISUALSTYLE
  5
606
102
{ACAD_XDICTIONARY
360
7D2
102
}
102
{ACAD_REACTORS
330
600
102
}
330
600
100
AcDbVisualStyle
  2
2dWireframe
 70
     4
 71
     0
 72
     2
 73
     0
 90
        0
 40
-0.6
 41
-30.0
 62
     5
 63
     7
 74
     1
 91
        4
 64
     7
 65
   257
 75
     1
175
     1
 42
1.0
 92
        0
 66
   257
 43
1.0
 76
     1
 77
     6
 78
     2
 67
     7
 79
     5
170
     0
171
     0
290
     0
174
     0
 93
        1
 44
0.0
173
     0
291
     0
 45
0.0
1001
ACAD
1000
AcDbSavedByObjectVersion
1070
     0
  0
VISUALSTYLE
  5
605
102
{ACAD_XDICTIONARY
360
7D0
102
}
102
{ACAD_REACTORS
330
600
102
}
330
600
100
AcDbVisualStyle
  2
Basic
 70
     7
 71
     1
 72
     0
 73
     1
 90
        0
 40
-0.6
 41
-30.0
 62
     5
 63
     7
 74
     0
 91
        4
 64
     7
 65
   257
 75
     1
175
     1
 42
1.0
 92
        8
 66
     7
 43
1.0
 76
     1
 77
     6
 78
     2
 67
     7
 79
     5
170
     0
171
     0
290
     0
174
     0
 93
        1
 44
0.0
173
     0
291
     1
 45
0.0
1001
ACAD
1000
AcDbSavedByObjectVersion
1070
     0
  0
VISUALSTYLE
  5
60C
102
{ACAD_XDICTIONARY
360
7DE
102
}
102
{ACAD_REACTORS
330
600
102
}
330
600
100
AcDbVisualStyle
  2
Brighten
 70
    12
 71
     2
 72
     2
 73
     0
 90
        0
 40
-0.6
 41
-30.0
 62
     5
 63
     7
 74
     1
 91
        4
 64
     7
 65
   257
 75
     1
175
     1
 42
1.0
 92
        8
 66
     7
 43
1.0
 76
     1
 77
     6
 78
     2
 67
     7
 79
     5
170
     0
171
     0
290
     0
174
     0
 93
        1
 44
50.0
173
     0
291
     1
 45
0.0
1001
ACAD
1000
AcDbSavedByObjectVersion
1070
     0
  0
VISUALSTYLE
  5
610
102
{ACAD_XDICTIONARY
360
7E6
102
}
102
{ACAD_REACTORS
330
600
102
}
330
600
100
AcDbVisualStyle
  2
ColorChange
 70
    16
 71
     2
 72
     2
 73
     3
 90
        0
 40
-0.6
 41
-30.0
 62
     5
 63
     8
 74
     1
 91
        4
 64
     7
 65
   257
 75
     1
175
     1
 42
1.0
 92
        8
 66
     8
 43
1.0
 76
     1
 77
     6
 78
     2
 67
     7
 79
     5
170
     0
171
     0
290
     0
174
     0
 93
        1
 44
0.0
173
     0
291
     1
 45
0.0
1001
ACAD
1000
AcDbSavedByObjectVersion
1070
     0
  0
VISUALSTYLE
  5
609
102
{ACAD_XDICTIONARY
360
7D8
102
}
102
{ACAD_REACTORS
330
600
102
}
330
600
100
AcDbVisualStyle
  2
Conceptual
 70
     9
 71
     3
 72
     2
 73
     0
 90
        0
 40
-0.6
 41
-30.0
 62
     5
 63
     7
 74
     2
 91
        2
 64
     7
 65
   257
 75
     1
175
     1
 42
179.0
 92
        8
 66
     7
 43
1.0
 76
     1
 77
     6
 78
     2
 67
     7
 79
     3
170
     0
171
     0
290
     0
174
     0
 93
        1
 44
0.0
173
     0
291
     0
 45
0.0
1001
ACAD
1000
AcDbSavedByObjectVersion
1070
     0
  0
VISUALSTYLE
  5
60B
102
{ACAD_XDICTIONARY
360
7DC
102
}
102
{ACAD_REACTORS
330
600
102
}
330
600
100
AcDbVisualStyle
  2
Dim
 70
    11
 71
     2
 72
     2
 73
     0
 90
        0
 40
-0.6
 41
-30.0
 62
     5
 63
     7
 74
     1
 91
        4
 64
     7
 65
   257
 75
     1
175
     1
 42
1.0
 92
        8
 66
     7
 43
1.0
 76
     1
 77
     6
 78
     2
 67
     7
 79
     5
170
     0
171
     0
290
     0
174
     0
 93
        1
 44
-50.0
173
     0
291
     1
 45
0.0
1001
ACAD
1000
AcDbSavedByObjectVersion
1070
     0
  0
VISUALSTYLE
  5
618
102
{ACAD_XDICTIONARY
360
7F6
102
}
102
{ACAD_REACTORS
330
600
102
}
330
600
100
AcDbVisualStyle
  2
EdgeColorOff
 70
    22
 71
     2
 72
     2
 73
     0
 90
        0
 40
-0.6
 41
-30.0
 62
     5
 63
     7
 74
     1
 91
        4
 64
     7
 65
   257
 75
     1
175
     1
 42
1.0
 92
        8
 66
     7
 43
1.0
 76
     1
 77
     6
 78
     2
 67
     7
 79
     5
170
     0
171
     0
290
     0
174
     0
 93
        1
 44
0.0
173
     0
291
     1
 45
0.0
1001
ACAD
1000
AcDbSavedByObjectVersion
1070
     0
  0
VISUALSTYLE
  5
60F
102
{ACAD_XDICTIONARY
360
7E4
102
}
102
{ACAD_REACTORS
330
600
102
}
330
600
100
AcDbVisualStyle
  2
Facepattern
 70
    15
 71
     2
 72
     2
 73
     0
 90
        0
 40
-0.6
 41
-30.0
 62
     5
 63
     7
 74
     1
 91
        4
 64
     7
 65
   257
 75
     1
175
     1
 42
1.0
 92
        8
 66
     7
 43
1.0
 76
     1
 77
     6
 78
     2
 67
     7
 79
     5
170
     0
171
     0
290
     0
174
     0
 93
        1
 44
0.0
173
     0
291
     1
 45
0.0
1001
ACAD
1000
AcDbSavedByObjectVersion
1070
     0
  0
VISUALSTYLE
  5
601
102
{ACAD_XDICTIONARY
360
7C8
102
}
102
{ACAD_REACTORS
330
600
102
}
330
600
100
AcDbVisualStyle
  2
Flat
 70
     0
 71
     2
 72
     1
 73
     1
 90
        2
 40
-0.6
 41
30.0
 62
     5
 63
     7
 74
     0
 91
        0
 64
     7
 65
   257
 75
     1
175
     1
 42
1.0
 92
        8
 66
     7
 43
1.0
 76
     1
 77
     6
 78
     2
 67
     7
 79
     5
170
     0
171
     0
290
     0
174
     0
 93
       13
 44
0.0
173
     0
291
     1
 45
0.0
1001
ACAD
1000
AcDbSavedByObjectVersion
1070
     0
  0
VISUALSTYLE
  5
602
102
{ACAD_XDICTIONARY
360
7CA
102
}
102
{ACAD_REACTORS
330
600
102
}
330
600
100
AcDbVisualStyle
  2
FlatWithEdges
 70
     1
 71
     2
 72
     1
 73
     1
 90
        2
 40
-0.6
 41
30.0
 62
     5
 63
     7
 74
     1
 91
        0
 64
     7
 65
   257
 75
     1
175
     1
 42
1.0
 92
        0
 66
   257
 43
1.0
 76
     1
 77
     6
 78
     2
 67
     7
 79
     5
170
     0
171
     0
290
     0
174
     0
 93
       13
 44
0.0
173
     0
291
     1
 45
0.0
1001
ACAD
1000
AcDbSavedByObjectVersion
1070
     0
  0
VISUALSTYLE
  5
603
102
{ACAD_XDICTIONARY
360
7CC
102
}
102
{ACAD_REACTORS
330
600
102
}
330
600
100
AcDbVisualStyle
  2
Gouraud
 70
     2
 71
     2
 72
     2
 73
     1
 90
        2
 40
-0.6
 41
30.0
 62
     5
 63
     7
 74
     0
 91
        0
 64
     7
 65
   257
 75
     1
175
     1
 42
1.0
 92
        0
 66
     7
 43
1.0
 76
     1
 77
     6
 78
     2
 67
     7
 79
     5
170
     0
171
     0
290
     0
174
     0
 93
       13
 44
0.0
173
     0
291
     1
 45
0.0
1001
ACAD
1000
AcDbSavedByObjectVersion
1070
     0
  0
VISUALSTYLE
  5
604
102
{ACAD_XDICTIONARY
360
7CE
102
}
102
{ACAD_REACTORS
330
600
102
}
330
600
100
AcDbVisualStyle
  2
GouraudWithEdges
 70
     3
 71
     2
 72
     2
 73
     1
 90
        2
 40
-0.6
 41
30.0
 62
     5
 63
     7
 74
     1
 91
        0
 64
     7
 65
   257
 75
     1
175
     1
 42
1.0
 92
        0
 66
   257
 43
1.0
 76
     1
 77
     6
 78
     2
 67
     7
 79
     5
170
     0
171
     0
290
     0
174
     0
 93
       13
 44
0.0
173
     0
291
     1
 45
0.0
1001
ACAD
1000
AcDbSavedByObjectVersion
1070
     0
  0
VISUALSTYLE
  5
608
102
{ACAD_XDICTIONARY
360
7D6
102
}
102
{ACAD_REACTORS
330
600
102
}
330
600
100
AcDbVisualStyle
  2
Hidden
 70
     6
 71
     1
 72
     2
 73
     2
 90
        0
 40
-0.6
 41
-30.0
 62
     5
 63
     7
 74
     2
 91
        2
 64
     7
 65
   257
 75
     2
175
     1
 42
40.0
 92
        0
 66
   257
 43
1.0
 76
     1
 77
     6
 78
     2
 67
     7
 79
     3
170
     0
171
     0
290
     0
174
     0
 93
        1
 44
0.0
173
     0
291
     0
 45
0.0
1001
ACAD
1000
AcDbSavedByObjectVersion
1070
     0
  0
VISUALSTYLE
  5
616
102
{ACAD_XDICTIONARY
360
7F2
102
}
102
{ACAD_REACTORS
330
600
102
}
330
600
100
AcDbVisualStyle
  2
JitterOff
 70
    20
 71
     2
 72
     2
 73
     0
 90
        0
 40
-0.6
 41
-30.0
 62
     5
 63
     7
 74
     1
 91
        4
 64
     7
 65
   257
 75
     1
175
     1
 42
1.0
 92
       10
 66
     7
 43
1.0
 76
     1
 77
     6
 78
     2
 67
     7
 79
     5
170
     0
171
     0
290
     0
174
     0
 93
        1
 44
0.0
173
     0
291
     1
 45
0.0
1001
ACAD
1000
AcDbSavedByObjectVersion
1070
     0
  0
VISUALSTYLE
  5
60E
102
{ACAD_XDICTIONARY
360
7E2
102
}
102
{ACAD_REACTORS
330
600
102
}
330
600
100
AcDbVisualStyle
  2
Linepattern
 70
    14
 71
     2
 72
     2
 73
     0
 90
        0
 40
-0.6
 41
-30.0
 62
     5
 63
     7
 74
     1
 91
        4
 64
     7
 65
   257
 75
     7
175
     7
 42
1.0
 92
        8
 66
     7
 43
1.0
 76
     1
 77
     6
 78
     2
 67
     7
 79
     5
170
     0
171
     0
290
     0
174
     0
 93
        1
 44
0.0
173
     0
291
     1
 45
0.0
1001
ACAD
1000
AcDbSavedByObjectVersion
1070
     0
  0
VISUALSTYLE
  5
617
102
{ACAD_XDICTIONARY
360
7F4
102
}
102
{ACAD_REACTORS
330
600
102
}
330
600
100
AcDbVisualStyle
  2
OverhangOff
 70
    21
 71
     2
 72
     2
 73
     0
 90
        0
 40
-0.6
 41
-30.0
 62
     5
 63
     7
 74
     1
 91
        4
 64
     7
 65
   257
 75
     1
175
     1
 42
1.0
 92
        9
 66
     7
 43
1.0
 76
     1
 77
     6
 78
     2
 67
     7
 79
     5
170
     0
171
     0
290
     0
174
     0
 93
        1
 44
0.0
173
     0
291
     1
 45
0.0
1001
ACAD
1000
AcDbSavedByObjectVersion
1070
     0
  0
VISUALSTYLE
  5
60A
102
{ACAD_XDICTIONARY
360
7DA
102
}
102
{ACAD_REACTORS
330
600
102
}
330
600
100
AcDbVisualStyle
  2
Realistic
 70
     8
 71
     2
 72
     3
 73
     0
 90
        2
 40
-0.6
 41
30.0
 62
     5
 63
     7
 74
     0
 91
        0
 64
     7
 65
   257
 75
     1
175
     1
 42
1.0
 92
        8
 66
   257
 43
1.0
 76
     1
 77
     6
 78
     2
 67
     7
 79
     3
170
     0
171
     0
290
     0
174
     0
 93
       13
 44
0.0
173
     0
291
     0
 45
0.0
1001
ACAD
1000
AcDbSavedByObjectVersion
1070
     0
  0
VISUALSTYLE
  5
615
102
{ACAD_XDICTIONARY
360
7F0
102
}
102
{ACAD_REACTORS
330
600
102
}
330
600
100
AcDbVisualStyle
  2
Shaded
 70
    27
 71
     2
 72
     2
 73
     1
 90
        2
 40
-0.6
 41
30.0
 62
     5
 63
     7
 74
     0
 91
        4
 64
     7
 65
   257
 75
     1
175
     1
 42
1.0
 92
        8
 66
   257
 43
1.0
 76
     1
 77
     6
 78
     2
 67
     8
 79
     3
170
     0
171
     0
290
     0
174
     0
 93
        5
 44
0.0
173
     0
291
     0
 45
0.0
1001
ACAD
1000
AcDbSavedByObjectVersion
1070
     0
  0
VISUALSTYLE
  5
614
102
{ACAD_XDICTIONARY
360
7EE
102
}
102
{ACAD_REACTORS
330
600
102
}
330
600
100
AcDbVisualStyle
  2
Shaded with edges
 70
    26
 71
     2
 72
     2
 73
     1
 90
        2
 40
-0.6
 41
30.0
 62
     5
 63
     7
 74
     1
 91
       10
 64
     7
 65
   257
 75
     2
175
     1
 42
1.0
 92
        8
 66
   257
 43
1.0
 76
     1
 77
     6
 78
     2
 67
     7
 79
     3
170
     0
171
     0
290
     0
174
     0
 93
        5
 44
0.0
173
     0
291
     0
 45
0.0
1001
ACAD
1000
AcDbSavedByObjectVersion
1070
     0
  0
VISUALSTYLE
  5
611
102
{ACAD_XDICTIONARY
360
7E8
102
}
102
{ACAD_REACTORS
330
600
102
}
330
600
100
AcDbVisualStyle
  2
Shades of Gray
 70
    23
 71
     2
 72
     2
 73
     3
 90
        0
 40
-0.6
 41
-30.0
 62
     5
 63
     7
 74
     2
 91
        2
 64
     7
 65
     7
 75
     1
175
     1
 42
40.0
 92
        8
 66
     7
 43
1.0
 76
     1
 77
     6
 78
     2
 67
     7
 79
     3
170
     0
171
     0
290
     0
174
     0
 93
        1
 44
0.0
173
     0
291
     0
 45
0.0
1001
ACAD
1000
AcDbSavedByObjectVersion
1070
     0
  0
VISUALSTYLE
  5
612
102
{ACAD_XDICTIONARY
360
7EA
102
}
102
{ACAD_REACTORS
330
600
102
}
330
600
100
AcDbVisualStyle
  2
Sketchy
 70
    24
 71
     1
 72
     2
 73
     2
 90
        0
 40
-0.6
 41
-30.0
 62
     5
 63
     7
 74
     2
 91
        2
 64
     7
 65
     7
 75
     1
175
     1
 42
40.0
 92
       11
 66
     7
 43
1.0
 76
     1
 77
     6
 78
     2
 67
     7
 79
     6
170
     0
171
     0
290
     0
174
     0
 93
        1
 44
0.0
173
     0
291
     0
 45
0.0
1001
ACAD
1000
AcDbSavedByObjectVersion
1070
     0
  0
VISUALSTYLE
  5
60D
102
{ACAD_XDICTIONARY
360
7E0
102
}
102
{ACAD_REACTORS
330
600
102
}
330
600
100
AcDbVisualStyle
  2
Thicken
 70
    13
 71
     2
 72
     2
 73
     0
 90
        0
 40
-0.6
 41
-30.0
 62
     5
 63
     7
 74
     1
 91
        4
 64
     7
 65
   257
 75
     1
175
     1
 42
1.0
 92
       12
 66
     7
 43
1.0
 76
     1
 77
     6
 78
     2
 67
     7
 79
     5
170
     0
171
     0
290
     0
174
     0
 93
        1
 44
0.0
173
     0
291
     1
 45
0.0
1001
ACAD
1000
AcDbSavedByObjectVersion
1070
     0
  0
VISUALSTYLE
  5
607
102
{ACAD_XDICTIONARY
360
7D4
102
}
102
{ACAD_REACTORS
330
600
102
}
330
600
100
AcDbVisualStyle
  2
Wireframe
 70
     5
 71
     0
 72
     2
 73
     0
 90
        0
 40
-0.6
 41
-30.0
 62
     5
 63
     7
 74
     1
 91
        4
 64
     7
 65
   257
 75
     1
175
     1
 42
1.0
 92
        0
 66
   257
 43
1.0
 76
     1
 77
     6
 78
     2
 67
     7
 79
     3
170
     0
171
     0
290
     0
174
     0
 93
        1
 44
0.0
173
     0
291
     0
 45
0.0
1001
ACAD
1000
AcDbSavedByObjectVersion
1070
     0
  0
VISUALSTYLE
  5
613
102
{ACAD_XDICTIONARY
360
7EC
102
}
102
{ACAD_REACTORS
330
600
102
}
330
600
100
AcDbVisualStyle
  2
X-Ray
 70
    25
 71
     2
 72
     2
 73
     1
 90
        1
 40
0.5
 41
-30.0
 62
     5
 63
     7
 74
     1
 91
        0
 64
     7
 65
   257
 75
     1
175
     1
 42
1.0
 92
        8
 66
     7
 43
1.0
 76
     1
 77
     6
 78
     2
 67
     7
 79
     3
170
     0
171
     0
290
     0
174
     0
 93
       13
 44
0.0
173
     0
291
     0
 45
0.0
1001
ACAD
1000
AcDbSavedByObjectVersion
1070
     0
  0
DICTIONARYVAR
  5
7B7
102
{ACAD_REACTORS
330
94
102
}
330
94
100
DictionaryVariables
280
     0
  1
1:1
  0
DICTIONARYVAR
  5
7B4
102
{ACAD_REACTORS
330
94
102
}
330
94
100
DictionaryVariables
280
     0
  1
STANDARD
  0
DICTIONARYVAR
  5
138
102
{ACAD_REACTORS
330
94
102
}
330
94
100
DictionaryVariables
280
     0
  1
STANDARD
  0
DICTIONARYVAR
  5
7B5
102
{ACAD_REACTORS
330
94
102
}
330
94
100
DictionaryVariables
280
     0
  1
Metric50
  0
DICTIONARYVAR
  5
7B6
102
{ACAD_REACTORS
330
94
102
}
330
94
100
DictionaryVariables
280
     0
  1
Metric50
  0
DICTIONARYVAR
  5
96
102
{ACAD_REACTORS
330
94
102
}
330
94
100
DictionaryVariables
280
     0
  1
2
  0
DICTIONARYVAR
  5
95
102
{ACAD_REACTORS
330
94
102
}
330
94
100
DictionaryVariables
280
     0
  1
0
  0
DICTIONARYVAR
  5
5DC
102
{ACAD_REACTORS
330
94
102
}
330
94
100
DictionaryVariables
280
     0
  1

  0
DICTIONARYVAR
  5
7B8
102
{ACAD_REACTORS
330
94
102
}
330
94
100
DictionaryVariables
280
     0
  1
127
  0
DICTIONARYVAR
  5
7B9
102
{ACAD_REACTORS
330
94
102
}
330
94
100
DictionaryVariables
280
     0
  1
2
  0
DICTIONARY
  5
1B5
102
{ACAD_REACTORS
330
5B
102
}
330
5B
100
AcDbDictionary
281
     1
  0
DICTIONARY
  5
61
102
{ACAD_REACTORS
330
5B
102
}
330
5B
100
AcDbDictionary
281
     1
  0
XRECORD
  5
123
102
{ACAD_REACTORS
330
5B
102
}
330
5B
100
AcDbXrecord
280
     1
 90
-1023410169
  0
DICTIONARY
  5
7C0
330
22
100
AcDbDictionary
280
     1
281
     1
  3
ACAD_XREC_ROUNDTRIP
360
7C1
  0
DICTIONARY
  5
7BE
330
1E
100
AcDbDictionary
280
     1
281
     1
  3
ACAD_XREC_ROUNDTRIP
360
7BF
  0
DICTIONARY
  5
7C2
330
26
100
AcDbDictionary
280
     1
281
     1
  3
ACAD_XREC_ROUNDTRIP
360
7C3
  0
DICTIONARY
  5
5F1
330
5F0
100
AcDbDictionary
280
     1
281
     1
  3
ACAD_XREC_ROUNDTRIP
360
7C6
  3
BUMPTILE
360
5F3
  3
DIFFUSETILE
360
5F2
  3
OPACITYTILE
360
5F6
  3
REFLECTIONTILE
360
5F5
  3
REFRACTIONTILE
360
5F7
  3
SPECULARTILE
360
5F4
  0
DICTIONARY
  5
5E9
330
5E8
100
AcDbDictionary
280
     1
281
     1
  3
ACAD_XREC_ROUNDTRIP
360
7C5
  3
BUMPTILE
360
5EB
  3
DIFFUSETILE
360
5EA
  3
OPACITYTILE
360
5EE
  3
REFLECTIONTILE
360
5ED
  3
REFRACTIONTILE
360
5EF
  3
SPECULARTILE
360
5EC
  0
DICTIONARY
  5
5F9
330
5F8
100
AcDbDictionary
280
     1
281
     1
  3
ACAD_XREC_ROUNDTRIP
360
7C7
  3
BUMPTILE
360
5FB
  3
DIFFUSETILE
360
5FA
  3
OPACITYTILE
360
5FE
  3
REFLECTIONTILE
360
5FD
  3
REFRACTIONTILE
360
5FF
  3
SPECULARTILE
360
5FC
  0
DICTIONARY
  5
7BA
330
11B
100
AcDbDictionary
280
     1
281
     1
  3
ACAD_ROUNDTRIP_2008_TABLESTYLE_CELLSTYLEMAP
360
7BB
  3
ACAD_XREC_ROUNDTRIP
360
7C4
  0
DICTIONARY
  5
7D2
330
606
100
AcDbDictionary
280
     1
281
     1
  3
ACAD_XREC_ROUNDTRIP
360
7D3
  0
DICTIONARY
  5
7D0
330
605
100
AcDbDictionary
280
     1
281
     1
  3
ACAD_XREC_ROUNDTRIP
360
7D1
  0
DICTIONARY
  5
7DE
330
60C
100
AcDbDictionary
280
     1
281
     1
  3
ACAD_XREC_ROUNDTRIP
360
7DF
  0
DICTIONARY
  5
7E6
330
610
100
AcDbDictionary
280
     1
281
     1
  3
ACAD_XREC_ROUNDTRIP
360
7E7
  0
DICTIONARY
  5
7D8
330
609
100
AcDbDictionary
280
     1
281
     1
  3
ACAD_XREC_ROUNDTRIP
360
7D9
  0
DICTIONARY
  5
7DC
330
60B
100
AcDbDictionary
280
     1
281
     1
  3
ACAD_XREC_ROUNDTRIP
360
7DD
  0
DICTIONARY
  5
7F6
330
618
100
AcDbDictionary
280
     1
281
     1
  3
ACAD_XREC_ROUNDTRIP
360
7F7
  0
DICTIONARY
  5
7E4
330
60F
100
AcDbDictionary
280
     1
281
     1
  3
ACAD_XREC_ROUNDTRIP
360
7E5
  0
DICTIONARY
  5
7C8
330
601
100
AcDbDictionary
280
     1
281
     1
  3
ACAD_XREC_ROUNDTRIP
360
7C9
  0
DICTIONARY
  5
7CA
330
602
100
AcDbDictionary
280
     1
281
     1
  3
ACAD_XREC_ROUNDTRIP
360
7CB
  0
DICTIONARY
  5
7CC
330
603
100
AcDbDictionary
280
     1
281
     1
  3
ACAD_XREC_ROUNDTRIP
360
7CD
  0
DICTIONARY
  5
7CE
330
604
100
AcDbDictionary
280
     1
281
     1
  3
ACAD_XREC_ROUNDTRIP
360
7CF
  0
DICTIONARY
  5
7D6
330
608
100
AcDbDictionary
280
     1
281
     1
  3
ACAD_XREC_ROUNDTRIP
360
7D7
  0
DICTIONARY
  5
7F2
330
616
100
AcDbDictionary
280
     1
281
     1
  3
ACAD_XREC_ROUNDTRIP
360
7F3
  0
DICTIONARY
  5
7E2
330
60E
100
AcDbDictionary
280
     1
281
     1
  3
ACAD_XREC_ROUNDTRIP
360
7E3
  0
DICTIONARY
  5
7F4
330
617
100
AcDbDictionary
280
     1
281
     1
  3
ACAD_XREC_ROUNDTRIP
360
7F5
  0
DICTIONARY
  5
7DA
330
60A
100
AcDbDictionary
280
     1
281
     1
  3
ACAD_XREC_ROUNDTRIP
360
7DB
  0
DICTIONARY
  5
7F0
330
615
100
AcDbDictionary
280
     1
281
     1
  3
ACAD_XREC_ROUNDTRIP
360
7F1
  0
DICTIONARY
  5
7EE
330
614
100
AcDbDictionary
280
     1
281
     1
  3
ACAD_XREC_ROUNDTRIP
360
7EF
  0
DICTIONARY
  5
7E8
330
611
100
AcDbDictionary
280
     1
281
     1
  3
ACAD_XREC_ROUNDTRIP
360
7E9
  0
DICTIONARY
  5
7EA
330
612
100
AcDbDictionary
280
     1
281
     1
  3
ACAD_XREC_ROUNDTRIP
360
7EB
  0
DICTIONARY
  5
7E0
330
60D
100
AcDbDictionary
280
     1
281
     1
  3
ACAD_XREC_ROUNDTRIP
360
7E1
  0
DICTIONARY
  5
7D4
330
607
100
AcDbDictionary
280
     1
281
     1
  3
ACAD_XREC_ROUNDTRIP
360
7D5
  0
DICTIONARY
  5
7EC
330
613
100
AcDbDictionary
280
     1
281
     1
  3
ACAD_XREC_ROUNDTRIP
360
7ED
  0
XRECORD
  5
7C1
102
{ACAD_REACTORS
330
7C0
102
}
330
7C0
100
AcDbXrecord
280
     1
102
SHADEPLOT
 70
     0
102
SHADEPLOTRESLEVEL
 70
     2
102
SHADEPLOTCUSTOMDPI
 70
   300
  0
XRECORD
  5
7BF
102
{ACAD_REACTORS
330
7BE
102
}
330
7BE
100
AcDbXrecord
280
     1
102
SHADEPLOT
 70
     0
102
SHADEPLOTRESLEVEL
 70
     2
102
SHADEPLOTCUSTOMDPI
 70
   300
  0
XRECORD
  5
7C3
102
{ACAD_REACTORS
330
7C2
102
}
330
7C2
100
AcDbXrecord
280
     1
102
SHADEPLOT
 70
     0
102
SHADEPLOTRESLEVEL
 70
     2
102
SHADEPLOTCUSTOMDPI
 70
   300
  0
XRECORD
  5
7C6
102
{ACAD_REACTORS
330
5F1
102
}
330
5F1
100
AcDbXrecord
280
     1
102
MATERIAL
148
0.0
149
0.0
149
0.0
 93
        0
 94
      127
282
     0
 72
     0
 77
     0
171
     0
175
     0
179
     0
273
     0
  0
XRECORD
  5
5F3
102
{ACAD_REACTORS
330
5F1
102
}
330
5F1
100
AcDbXrecord
280
     1
270
     1
271
     1
  0
XRECORD
  5
5F2
102
{ACAD_REACTORS
330
5F1
102
}
330
5F1
100
AcDbXrecord
280
     1
270
     1
271
     1
  0
XRECORD
  5
5F6
102
{ACAD_REACTORS
330
5F1
102
}
330
5F1
100
AcDbXrecord
280
     1
270
     1
271
     1
  0
XRECORD
  5
5F5
102
{ACAD_REACTORS
330
5F1
102
}
330
5F1
100
AcDbXrecord
280
     1
270
     1
271
     1
  0
XRECORD
  5
5F7
102
{ACAD_REACTORS
330
5F1
102
}
330
5F1
100
AcDbXrecord
280
     1
270
     1
271
     1
  0
XRECORD
  5
5F4
102
{ACAD_REACTORS
330
5F1
102
}
330
5F1
100
AcDbXrecord
280
     1
270
     1
271
     1
  0
XRECORD
  5
7C5
102
{ACAD_REACTORS
330
5E9
102
}
330
5E9
100
AcDbXrecord
280
     1
102
MATERIAL
148
0.0
149
0.0
149
0.0
 93
        0
 94
      127
282
     0
 72
     0
 77
     0
171
     0
175
     0
179
     0
273
     0
  0
XRECORD
  5
5EB
102
{ACAD_REACTORS
330
5E9
102
}
330
5E9
100
AcDbXrecord
280
     1
270
     1
271
     1
  0
XRECORD
  5
5EA
102
{ACAD_REACTORS
330
5E9
102
}
330
5E9
100
AcDbXrecord
280
     1
270
     1
271
     1
  0
XRECORD
  5
5EE
102
{ACAD_REACTORS
330
5E9
102
}
330
5E9
100
AcDbXrecord
280
     1
270
     1
271
     1
  0
XRECORD
  5
5ED
102
{ACAD_REACTORS
330
5E9
102
}
330
5E9
100
AcDbXrecord
280
     1
270
     1
271
     1
  0
XRECORD
  5
5EF
102
{ACAD_REACTORS
330
5E9
102
}
330
5E9
100
AcDbXrecord
280
     1
270
     1
271
     1
  0
XRECORD
  5
5EC
102
{ACAD_REACTORS
330
5E9
102
}
330
5E9
100
AcDbXrecord
280
     1
270
     1
271
     1
  0
XRECORD
  5
7C7
102
{ACAD_REACTORS
330
5F9
102
}
330
5F9
100
AcDbXrecord
280
     1
102
MATERIAL
148
0.0
149
0.0
149
0.0
 93
        0
 94
      127
282
     0
 72
     0
 77
     0
171
     0
175
     0
179
     0
273
     0
  0
XRECORD
  5
5FB
102
{ACAD_REACTORS
330
5F9
102
}
330
5F9
100
AcDbXrecord
280
     1
270
     1
271
     1
  0
XRECORD
  5
5FA
102
{ACAD_REACTORS
330
5F9
102
}
330
5F9
100
AcDbXrecord
280
     1
270
     1
271
     1
  0
XRECORD
  5
5FE
102
{ACAD_REACTORS
330
5F9
102
}
330
5F9
100
AcDbXrecord
280
     1
270
     1
271
     1
  0
XRECORD
  5
5FD
102
{ACAD_REACTORS
330
5F9
102
}
330
5F9
100
AcDbXrecord
280
     1
270
     1
271
     1
  0
XRECORD
  5
5FF
102
{ACAD_REACTORS
330
5F9
102
}
330
5F9
100
AcDbXrecord
280
     1
270
     1
271
     1
  0
XRECORD
  5
5FC
102
{ACAD_REACTORS
330
5F9
102
}
330
5F9
100
AcDbXrecord
280
     1
270
     1
271
     1
  0
CELLSTYLEMAP
  5
7BB
102
{ACAD_REACTORS
330
7BA
102
}
330
7BA
100
AcDbCellStyleMap
 90
        3
300
CELLSTYLE
  1
TABLEFORMAT_BEGIN
 90
        5
170
     1
 91
        0
 92
    32768
 62
   257
 93
        1
300
CONTENTFORMAT
  1
CONTENTFORMAT_BEGIN
 90
        0
 91
        0
 92
        4
 93
        0
300

 40
0.0
140
1.0
 94
        5
 62
     0
340
11
144
6.0
309
CONTENTFORMAT_END
171
     1
301
MARGIN
  1
CELLMARGIN_BEGIN
 40
1.5
 40
1.5
 40
1.5
 40
1.5
 40
0.18
 40
0.18
309
CELLMARGIN_END
 94
        6
 95
        1
302
GRIDFORMAT
  1
GRIDFORMAT_BEGIN
 90
        0
 91
        1
 62
     0
 92
       -2
340
0
 93
        0
 40
0.045
309
GRIDFORMAT_END
 95
        2
302
GRIDFORMAT
  1
GRIDFORMAT_BEGIN
 90
        0
 91
        1
 62
     0
 92
       -2
340
0
 93
        0
 40
0.045
309
GRIDFORMAT_END
 95
        4
302
GRIDFORMAT
  1
GRIDFORMAT_BEGIN
 90
        0
 91
        1
 62
     0
 92
       -2
340
0
 93
        0
 40
0.045
309
GRIDFORMAT_END
 95
        8
302
GRIDFORMAT
  1
GRIDFORMAT_BEGIN
 90
        0
 91
        1
 62
     0
 92
       -2
340
0
 93
        0
 40
0.045
309
GRIDFORMAT_END
 95
       16
302
GRIDFORMAT
  1
GRIDFORMAT_BEGIN
 90
        0
 91
        1
 62
     0
 92
       -2
340
0
 93
        0
 40
0.045
309
GRIDFORMAT_END
 95
       32
302
GRIDFORMAT
  1
GRIDFORMAT_BEGIN
 90
        0
 91
        1
 62
     0
 92
       -2
340
0
 93
        0
 40
0.045
309
GRIDFORMAT_END
309
TABLEFORMAT_END
  1
CELLSTYLE_BEGIN
 90
        1
 91
        1
300
_TITLE
309
CELLSTYLE_END
300
CELLSTYLE
  1
TABLEFORMAT_BEGIN
 90
        5
170
     1
 91
        0
 92
        0
 62
   257
 93
        1
300
CONTENTFORMAT
  1
CONTENTFORMAT_BEGIN
 90
        0
 91
        0
 92
        4
 93
        0
300

 40
0.0
140
1.0
 94
        5
 62
     0
340
11
144
4.5
309
CONTENTFORMAT_END
171
     1
301
MARGIN
  1
CELLMARGIN_BEGIN
 40
1.5
 40
1.5
 40
1.5
 40
1.5
 40
0.18
 40
0.18
309
CELLMARGIN_END
 94
        6
 95
        1
302
GRIDFORMAT
  1
GRIDFORMAT_BEGIN
 90
        0
 91
        1
 62
     0
 92
       -2
340
0
 93
        0
 40
0.045
309
GRIDFORMAT_END
 95
        2
302
GRIDFORMAT
  1
GRIDFORMAT_BEGIN
 90
        0
 91
        1
 62
     0
 92
       -2
340
0
 93
        0
 40
0.045
309
GRIDFORMAT_END
 95
        4
302
GRIDFORMAT
  1
GRIDFORMAT_BEGIN
 90
        0
 91
        1
 62
     0
 92
       -2
340
0
 93
        0
 40
0.045
309
GRIDFORMAT_END
 95
        8
302
GRIDFORMAT
  1
GRIDFORMAT_BEGIN
 90
        0
 91
        1
 62
     0
 92
       -2
340
0
 93
        0
 40
0.045
309
GRIDFORMAT_END
 95
       16
302
GRIDFORMAT
  1
GRIDFORMAT_BEGIN
 90
        0
 91
        1
 62
     0
 92
       -2
340
0
 93
        0
 40
0.045
309
GRIDFORMAT_END
 95
       32
302
GRIDFORMAT
  1
GRIDFORMAT_BEGIN
 90
        0
 91
        1
 62
     0
 92
       -2
340
0
 93
        0
 40
0.045
309
GRIDFORMAT_END
309
TABLEFORMAT_END
  1
CELLSTYLE_BEGIN
 90
        2
 91
        1
300
_HEADER
309
CELLSTYLE_END
300
CELLSTYLE
  1
TABLEFORMAT_BEGIN
 90
        5
170
     1
 91
        0
 92
        0
 62
   257
 93
        1
300
CONTENTFORMAT
  1
CONTENTFORMAT_BEGIN
 90
        0
 91
        0
 92
        4
 93
        0
300

 40
0.0
140
1.0
 94
        2
 62
     0
340
11
144
4.5
309
CONTENTFORMAT_END
171
     1
301
MARGIN
  1
CELLMARGIN_BEGIN
 40
1.5
 40
1.5
 40
1.5
 40
1.5
 40
0.18
 40
0.18
309
CELLMARGIN_END
 94
        6
 95
        1
302
GRIDFORMAT
  1
GRIDFORMAT_BEGIN
 90
        0
 91
        1
 62
     0
 92
       -2
340
0
 93
        0
 40
0.045
309
GRIDFORMAT_END
 95
        2
302
GRIDFORMAT
  1
GRIDFORMAT_BEGIN
 90
        0
 91
        1
 62
     0
 92
       -2
340
0
 93
        0
 40
0.045
309
GRIDFORMAT_END
 95
        4
302
GRIDFORMAT
  1
GRIDFORMAT_BEGIN
 90
        0
 91
        1
 62
     0
 92
       -2
340
0
 93
        0
 40
0.045
309
GRIDFORMAT_END
 95
        8
302
GRIDFORMAT
  1
GRIDFORMAT_BEGIN
 90
        0
 91
        1
 62
     0
 92
       -2
340
0
 93
        0
 40
0.045
309
GRIDFORMAT_END
 95
       16
302
GRIDFORMAT
  1
GRIDFORMAT_BEGIN
 90
        0
 91
        1
 62
     0
 92
       -2
340
0
 93
        0
 40
0.045
309
GRIDFORMAT_END
 95
       32
302
GRIDFORMAT
  1
GRIDFORMAT_BEGIN
 90
        0
 91
        1
 62
     0
 92
       -2
340
0
 93
        0
 40
0.045
309
GRIDFORMAT_END
309
TABLEFORMAT_END
  1
CELLSTYLE_BEGIN
 90
        3
 91
        2
300
_DATA
309
CELLSTYLE_END
  0
XRECORD
  5
7C4
102
{ACAD_REACTORS
330
7BA
102
}
330
7BA
100
AcDbXrecord
280
     1
102
ACAD_ROUNDTRIP_PRE2007_TABLESTYLE
 90
        4
 91
        0
  1

 92
        4
 93
        0
  2

 94
        4
 95
        0
  3

  0
XRECORD
  5
7D3
102
{ACAD_REACTORS
330
7D2
102
}
330
7D2
100
AcDbXrecord
280
     1
102
RTVSPost2010Prop28
280
     1
102
RTVSPost2010PropOp28
 70
     1
102
RTVSPost2010Prop29
280
     1
102
RTVSPost2010PropOp29
 70
     1
102
RTVSPost2010Prop30
280
     0
102
RTVSPost2010PropOp30
 70
     1
102
RTVSPost2010Prop31
280
     0
102
RTVSPost2010PropOp31
 70
     1
102
RTVSPost2010Prop32
280
     0
102
RTVSPost2010PropOp32
 70
     1
102
RTVSPost2010Prop33
280
     0
102
RTVSPost2010PropOp33
 70
     1
102
RTVSPost2010Prop34
280
     0
102
RTVSPost2010PropOp34
 70
     1
102
RTVSPost2010Prop35
280
     0
102
RTVSPost2010PropOp35
 70
     1
102
RTVSPost2010Prop36
280
     0
102
RTVSPost2010PropOp36
 70
     1
102
RTVSPost2010Prop37
 90
       50
102
RTVSPost2010PropOp37
 70
     1
102
RTVSPost2010Prop38
140
0.0
102
RTVSPost2010PropOp38
 70
     1
102
RTVSPost2010Prop39
140
1.0
102
RTVSPost2010PropOp39
 70
     1
102
RTVSPost2010Prop40
 90
        0
102
RTVSPost2010PropOp40
 70
     1
102
RTVSPost2010Prop41ColorIndex
 90
       18
102
RTVSPost2010Prop41ColorRGB
 90
        0
102
RTVSPost2010PropOp41
 70
     1
102
RTVSPost2010Prop42
 90
       50
102
RTVSPost2010PropOp42
 70
     1
102
RTVSPost2010Prop43
 90
        3
102
RTVSPost2010PropOp43
 70
     1
102
RTVSPost2010Prop44ColorIndex
 90
        5
102
RTVSPost2010Prop44ColorRGB
 90
      255
102
RTVSPost2010PropOp44
 70
     1
102
RTVSPost2010Prop45
280
     0
102
RTVSPost2010PropOp45
 70
     1
102
RTVSPost2010Prop46
 90
       50
102
RTVSPost2010PropOp46
 70
     1
102
RTVSPost2010Prop47
 90
       50
102
RTVSPost2010PropOp47
 70
     1
102
RTVSPost2010Prop48
 90
       50
102
RTVSPost2010PropOp48
 70
     1
102
RTVSPost2010Prop49
280
     0
102
RTVSPost2010PropOp49
 70
     1
102
RTVSPost2010Prop50
 90
       50
102
RTVSPost2010PropOp50
 70
     1
102
RTVSPost2010Prop51ColorIndex
 90
      256
102
RTVSPost2010Prop51ColorRGB
 90
-16777216
102
RTVSPost2010PropOp51
 70
     0
102
RTVSPost2010Prop52
140
1.0
102
RTVSPost2010PropOp52
 70
     0
102
RTVSPost2010Prop53
 90
        2
102
RTVSPost2010PropOp53
 70
     1
102
RTVSPost2010Prop54
  1
strokes_ogs.tif
102
RTVSPost2010PropOp54
 70
     1
102
RTVSPost2010Prop55
280
     0
102
RTVSPost2010PropOp55
 70
     1
102
RTVSPost2010Prop56
140
1.0
102
RTVSPost2010PropOp56
 70
     1
102
RTVSPost2010Prop57
140
1.0
102
RTVSPost2010PropOp57
 70
     1
102
RTVSPropertyOp0
 70
     1
102
RTVSPropertyOp1
 70
     1
102
RTVSPropertyOp2
 70
     1
102
RTVSPropertyOp3
 70
     1
102
RTVSPropertyOp4
 70
     1
102
RTVSPropertyOp5
 70
     1
102
RTVSPropertyOp6
 70
     1
102
RTVSPropertyOp7
 70
     1
102
RTVSPropertyOp8
 70
     1
102
RTVSPropertyOp9
 70
     1
102
RTVSPropertyOp10
 70
     1
102
RTVSPropertyOp11
 70
     1
102
RTVSPropertyOp12
 70
     1
102
RTVSPropertyOp13
 70
     1
102
RTVSPropertyOp14
 70
     1
102
RTVSPropertyOp15
 70
     1
102
RTVSPropertyOp16
 70
     1
102
RTVSPropertyOp17
 70
     1
102
RTVSPropertyOp18
 70
     1
102
RTVSPropertyOp19
 70
     1
102
RTVSPropertyOp20
 70
     1
102
RTVSPropertyOp21
 70
     1
102
RTVSPropertyOp22
 70
     1
102
RTVSPropertyOp23
 70
     1
102
RTVSPropertyOp24
 70
     1
102
RTVSPropertyOp25
 70
     1
102
RTVSPropertyOp26
 70
     1
102
RTVSPropertyOp27
 70
     1
102
RTVSPropertyOp28
 70
     1
102
RTVSPropertyOp29
 70
     1
102
RTVSPropertyOp30
 70
     1
102
RTVSPropertyOp31
 70
     1
102
RTVSPropertyOp32
 70
     1
102
RTVSPropertyOp33
 70
     1
102
RTVSPropertyOp34
 70
     1
102
RTVSPropertyOp35
 70
     1
102
RTVSPropertyOp36
 70
     1
102
RTVSPropertyOp37
 70
     1
102
RTVSPropertyOp38
 70
     1
102
RTVSPropertyOp39
 70
     1
102
RTVSPropertyOp40
 70
     1
102
RTVSPropertyOp41
 70
     1
102
RTVSPropertyOp42
 70
     1
102
RTVSPropertyOp43
 70
     1
102
RTVSPropertyOp44
 70
     1
102
RTVSPropertyOp45
 70
     1
102
RTVSPropertyOp46
 70
     1
102
RTVSPropertyOp47
 70
     1
102
RTVSPropertyOp48
 70
     1
102
RTVSPropertyOp49
 70
     1
102
RTVSPropertyOp50
 70
     1
102
RTVSPropertyOp51
 70
     0
102
RTVSPropertyOp52
 70
     0
102
RTVSPropertyOp53
 70
     1
102
RTVSPropertyOp54
 70
     1
102
RTVSPropertyOp55
 70
     1
102
RTVSPropertyOp56
 70
     1
102
RTVSPropertyOp57
 70
     1
102
RTVSPropertyOp58
 70
     1
102
RTVSPropertyOp59
 70
     1
102
RTVSPropertyOp60
 70
     1
102
RTVSPropertyOp61
 70
     1
102
RTVSPropertyOp62
 70
     1
  0
XRECORD
  5
7D1
102
{ACAD_REACTORS
330
7D0
102
}
330
7D0
100
AcDbXrecord
280
     1
102
RTVSPost2010Prop28
280
     0
102
RTVSPost2010PropOp28
 70
     1
102
RTVSPost2010Prop29
280
     1
102
RTVSPost2010PropOp29
 70
     1
102
RTVSPost2010Prop30
280
     1
102
RTVSPost2010PropOp30
 70
     1
102
RTVSPost2010Prop31
280
     0
102
RTVSPost2010PropOp31
 70
     1
102
RTVSPost2010Prop32
280
     0
102
RTVSPost2010PropOp32
 70
     1
102
RTVSPost2010Prop33
280
     0
102
RTVSPost2010PropOp33
 70
     1
102
RTVSPost2010Prop34
280
     0
102
RTVSPost2010PropOp34
 70
     1
102
RTVSPost2010Prop35
280
     0
102
RTVSPost2010PropOp35
 70
     1
102
RTVSPost2010Prop36
280
     0
102
RTVSPost2010PropOp36
 70
     1
102
RTVSPost2010Prop37
 90
       50
102
RTVSPost2010PropOp37
 70
     1
102
RTVSPost2010Prop38
140
0.0
102
RTVSPost2010PropOp38
 70
     1
102
RTVSPost2010Prop39
140
1.0
102
RTVSPost2010PropOp39
 70
     1
102
RTVSPost2010Prop40
 90
        0
102
RTVSPost2010PropOp40
 70
     1
102
RTVSPost2010Prop41ColorIndex
 90
       18
102
RTVSPost2010Prop41ColorRGB
 90
        0
102
RTVSPost2010PropOp41
 70
     1
102
RTVSPost2010Prop42
 90
       50
102
RTVSPost2010PropOp42
 70
     1
102
RTVSPost2010Prop43
 90
        3
102
RTVSPost2010PropOp43
 70
     1
102
RTVSPost2010Prop44ColorIndex
 90
        5
102
RTVSPost2010Prop44ColorRGB
 90
      255
102
RTVSPost2010PropOp44
 70
     1
102
RTVSPost2010Prop45
280
     0
102
RTVSPost2010PropOp45
 70
     1
102
RTVSPost2010Prop46
 90
       50
102
RTVSPost2010PropOp46
 70
     1
102
RTVSPost2010Prop47
 90
       50
102
RTVSPost2010PropOp47
 70
     1
102
RTVSPost2010Prop48
 90
       50
102
RTVSPost2010PropOp48
 70
     1
102
RTVSPost2010Prop49
280
     0
102
RTVSPost2010PropOp49
 70
     1
102
RTVSPost2010Prop50
 90
       50
102
RTVSPost2010PropOp50
 70
     1
102
RTVSPost2010Prop51ColorIndex
 90
      256
102
RTVSPost2010Prop51ColorRGB
 90
-16777216
102
RTVSPost2010PropOp51
 70
     0
102
RTVSPost2010Prop52
140
1.0
102
RTVSPost2010PropOp52
 70
     0
102
RTVSPost2010Prop53
 90
        2
102
RTVSPost2010PropOp53
 70
     1
102
RTVSPost2010Prop54
  1
strokes_ogs.tif
102
RTVSPost2010PropOp54
 70
     1
102
RTVSPost2010Prop55
280
     0
102
RTVSPost2010PropOp55
 70
     1
102
RTVSPost2010Prop56
140
1.0
102
RTVSPost2010PropOp56
 70
     1
102
RTVSPost2010Prop57
140
1.0
102
RTVSPost2010PropOp57
 70
     1
102
RTVSPropertyOp0
 70
     1
102
RTVSPropertyOp1
 70
     1
102
RTVSPropertyOp2
 70
     1
102
RTVSPropertyOp3
 70
     1
102
RTVSPropertyOp4
 70
     1
102
RTVSPropertyOp5
 70
     1
102
RTVSPropertyOp6
 70
     1
102
RTVSPropertyOp7
 70
     1
102
RTVSPropertyOp8
 70
     1
102
RTVSPropertyOp9
 70
     1
102
RTVSPropertyOp10
 70
     1
102
RTVSPropertyOp11
 70
     1
102
RTVSPropertyOp12
 70
     1
102
RTVSPropertyOp13
 70
     1
102
RTVSPropertyOp14
 70
     1
102
RTVSPropertyOp15
 70
     1
102
RTVSPropertyOp16
 70
     1
102
RTVSPropertyOp17
 70
     1
102
RTVSPropertyOp18
 70
     1
102
RTVSPropertyOp19
 70
     1
102
RTVSPropertyOp20
 70
     1
102
RTVSPropertyOp21
 70
     1
102
RTVSPropertyOp22
 70
     1
102
RTVSPropertyOp23
 70
     1
102
RTVSPropertyOp24
 70
     1
102
RTVSPropertyOp25
 70
     1
102
RTVSPropertyOp26
 70
     1
102
RTVSPropertyOp27
 70
     1
102
RTVSPropertyOp28
 70
     1
102
RTVSPropertyOp29
 70
     1
102
RTVSPropertyOp30
 70
     1
102
RTVSPropertyOp31
 70
     1
102
RTVSPropertyOp32
 70
     1
102
RTVSPropertyOp33
 70
     1
102
RTVSPropertyOp34
 70
     1
102
RTVSPropertyOp35
 70
     1
102
RTVSPropertyOp36
 70
     1
102
RTVSPropertyOp37
 70
     1
102
RTVSPropertyOp38
 70
     1
102
RTVSPropertyOp39
 70
     1
102
RTVSPropertyOp40
 70
     1
102
RTVSPropertyOp41
 70
     1
102
RTVSPropertyOp42
 70
     1
102
RTVSPropertyOp43
 70
     1
102
RTVSPropertyOp44
 70
     1
102
RTVSPropertyOp45
 70
     1
102
RTVSPropertyOp46
 70
     1
102
RTVSPropertyOp47
 70
     1
102
RTVSPropertyOp48
 70
     1
102
RTVSPropertyOp49
 70
     1
102
RTVSPropertyOp50
 70
     1
102
RTVSPropertyOp51
 70
     0
102
RTVSPropertyOp52
 70
     0
102
RTVSPropertyOp53
 70
     1
102
RTVSPropertyOp54
 70
     1
102
RTVSPropertyOp55
 70
     1
102
RTVSPropertyOp56
 70
     1
102
RTVSPropertyOp57
 70
     1
102
RTVSPropertyOp58
 70
     1
102
RTVSPropertyOp59
 70
     1
102
RTVSPropertyOp60
 70
     1
102
RTVSPropertyOp61
 70
     1
102
RTVSPropertyOp62
 70
     1
  0
XRECORD
  5
7DF
102
{ACAD_REACTORS
330
7DE
102
}
330
7DE
100
AcDbXrecord
280
     1
102
RTVSPost2010Prop28
280
     0
102
RTVSPost2010PropOp28
 70
     1
102
RTVSPost2010Prop29
280
     1
102
RTVSPost2010PropOp29
 70
     1
102
RTVSPost2010Prop30
280
     1
102
RTVSPost2010PropOp30
 70
     1
102
RTVSPost2010Prop31
280
     0
102
RTVSPost2010PropOp31
 70
     1
102
RTVSPost2010Prop32
280
     0
102
RTVSPost2010PropOp32
 70
     1
102
RTVSPost2010Prop33
280
     0
102
RTVSPost2010PropOp33
 70
     1
102
RTVSPost2010Prop34
280
     0
102
RTVSPost2010PropOp34
 70
     1
102
RTVSPost2010Prop35
280
     0
102
RTVSPost2010PropOp35
 70
     1
102
RTVSPost2010Prop36
280
     0
102
RTVSPost2010PropOp36
 70
     1
102
RTVSPost2010Prop37
 90
       50
102
RTVSPost2010PropOp37
 70
     1
102
RTVSPost2010Prop38
140
0.0
102
RTVSPost2010PropOp38
 70
     1
102
RTVSPost2010Prop39
140
1.0
102
RTVSPost2010PropOp39
 70
     1
102
RTVSPost2010Prop40
 90
        0
102
RTVSPost2010PropOp40
 70
     1
102
RTVSPost2010Prop41ColorIndex
 90
       18
102
RTVSPost2010Prop41ColorRGB
 90
        0
102
RTVSPost2010PropOp41
 70
     1
102
RTVSPost2010Prop42
 90
       50
102
RTVSPost2010PropOp42
 70
     1
102
RTVSPost2010Prop43
 90
        3
102
RTVSPost2010PropOp43
 70
     1
102
RTVSPost2010Prop44ColorIndex
 90
        5
102
RTVSPost2010Prop44ColorRGB
 90
      255
102
RTVSPost2010PropOp44
 70
     1
102
RTVSPost2010Prop45
280
     0
102
RTVSPost2010PropOp45
 70
     1
102
RTVSPost2010Prop46
 90
       50
102
RTVSPost2010PropOp46
 70
     1
102
RTVSPost2010Prop47
 90
       50
102
RTVSPost2010PropOp47
 70
     1
102
RTVSPost2010Prop48
 90
       50
102
RTVSPost2010PropOp48
 70
     1
102
RTVSPost2010Prop49
280
     0
102
RTVSPost2010PropOp49
 70
     1
102
RTVSPost2010Prop50
 90
       50
102
RTVSPost2010PropOp50
 70
     1
102
RTVSPost2010Prop51ColorIndex
 90
      256
102
RTVSPost2010Prop51ColorRGB
 90
-16777216
102
RTVSPost2010PropOp51
 70
     0
102
RTVSPost2010Prop52
140
1.0
102
RTVSPost2010PropOp52
 70
     0
102
RTVSPost2010Prop53
 90
        2
102
RTVSPost2010PropOp53
 70
     1
102
RTVSPost2010Prop54
  1
strokes_ogs.tif
102
RTVSPost2010PropOp54
 70
     1
102
RTVSPost2010Prop55
280
     0
102
RTVSPost2010PropOp55
 70
     1
102
RTVSPost2010Prop56
140
1.0
102
RTVSPost2010PropOp56
 70
     1
102
RTVSPost2010Prop57
140
1.0
102
RTVSPost2010PropOp57
 70
     1
102
RTVSPropertyOp0
 70
     1
102
RTVSPropertyOp1
 70
     1
102
RTVSPropertyOp2
 70
     1
102
RTVSPropertyOp3
 70
     1
102
RTVSPropertyOp4
 70
     1
102
RTVSPropertyOp5
 70
     1
102
RTVSPropertyOp6
 70
     1
102
RTVSPropertyOp7
 70
     1
102
RTVSPropertyOp8
 70
     1
102
RTVSPropertyOp9
 70
     1
102
RTVSPropertyOp10
 70
     1
102
RTVSPropertyOp11
 70
     1
102
RTVSPropertyOp12
 70
     1
102
RTVSPropertyOp13
 70
     1
102
RTVSPropertyOp14
 70
     1
102
RTVSPropertyOp15
 70
     1
102
RTVSPropertyOp16
 70
     1
102
RTVSPropertyOp17
 70
     1
102
RTVSPropertyOp18
 70
     1
102
RTVSPropertyOp19
 70
     1
102
RTVSPropertyOp20
 70
     1
102
RTVSPropertyOp21
 70
     1
102
RTVSPropertyOp22
 70
     1
102
RTVSPropertyOp23
 70
     1
102
RTVSPropertyOp24
 70
     1
102
RTVSPropertyOp25
 70
     1
102
RTVSPropertyOp26
 70
     1
102
RTVSPropertyOp27
 70
     1
102
RTVSPropertyOp28
 70
     1
102
RTVSPropertyOp29
 70
     1
102
RTVSPropertyOp30
 70
     1
102
RTVSPropertyOp31
 70
     1
102
RTVSPropertyOp32
 70
     1
102
RTVSPropertyOp33
 70
     1
102
RTVSPropertyOp34
 70
     1
102
RTVSPropertyOp35
 70
     1
102
RTVSPropertyOp36
 70
     1
102
RTVSPropertyOp37
 70
     1
102
RTVSPropertyOp38
 70
     1
102
RTVSPropertyOp39
 70
     1
102
RTVSPropertyOp40
 70
     1
102
RTVSPropertyOp41
 70
     1
102
RTVSPropertyOp42
 70
     1
102
RTVSPropertyOp43
 70
     1
102
RTVSPropertyOp44
 70
     1
102
RTVSPropertyOp45
 70
     1
102
RTVSPropertyOp46
 70
     1
102
RTVSPropertyOp47
 70
     1
102
RTVSPropertyOp48
 70
     1
102
RTVSPropertyOp49
 70
     1
102
RTVSPropertyOp50
 70
     1
102
RTVSPropertyOp51
 70
     0
102
RTVSPropertyOp52
 70
     0
102
RTVSPropertyOp53
 70
     1
102
RTVSPropertyOp54
 70
     1
102
RTVSPropertyOp55
 70
     1
102
RTVSPropertyOp56
 70
     1
102
RTVSPropertyOp57
 70
     1
102
RTVSPropertyOp58
 70
     1
102
RTVSPropertyOp59
 70
     1
102
RTVSPropertyOp60
 70
     1
102
RTVSPropertyOp61
 70
     1
102
RTVSPropertyOp62
 70
     1
  0
XRECORD
  5
7E7
102
{ACAD_REACTORS
330
7E6
102
}
330
7E6
100
AcDbXrecord
280
     1
102
RTVSPost2010Prop28
280
     0
102
RTVSPost2010PropOp28
 70
     1
102
RTVSPost2010Prop29
280
     1
102
RTVSPost2010PropOp29
 70
     1
102
RTVSPost2010Prop30
280
     1
102
RTVSPost2010PropOp30
 70
     1
102
RTVSPost2010Prop31
280
     0
102
RTVSPost2010PropOp31
 70
     1
102
RTVSPost2010Prop32
280
     0
102
RTVSPost2010PropOp32
 70
     1
102
RTVSPost2010Prop33
280
     0
102
RTVSPost2010PropOp33
 70
     1
102
RTVSPost2010Prop34
280
     0
102
RTVSPost2010PropOp34
 70
     1
102
RTVSPost2010Prop35
280
     0
102
RTVSPost2010PropOp35
 70
     1
102
RTVSPost2010Prop36
280
     0
102
RTVSPost2010PropOp36
 70
     1
102
RTVSPost2010Prop37
 90
       50
102
RTVSPost2010PropOp37
 70
     1
102
RTVSPost2010Prop38
140
0.0
102
RTVSPost2010PropOp38
 70
     1
102
RTVSPost2010Prop39
140
1.0
102
RTVSPost2010PropOp39
 70
     1
102
RTVSPost2010Prop40
 90
        0
102
RTVSPost2010PropOp40
 70
     1
102
RTVSPost2010Prop41ColorIndex
 90
       18
102
RTVSPost2010Prop41ColorRGB
 90
        0
102
RTVSPost2010PropOp41
 70
     1
102
RTVSPost2010Prop42
 90
       50
102
RTVSPost2010PropOp42
 70
     1
102
RTVSPost2010Prop43
 90
        3
102
RTVSPost2010PropOp43
 70
     1
102
RTVSPost2010Prop44ColorIndex
 90
        5
102
RTVSPost2010Prop44ColorRGB
 90
      255
102
RTVSPost2010PropOp44
 70
     1
102
RTVSPost2010Prop45
280
     0
102
RTVSPost2010PropOp45
 70
     1
102
RTVSPost2010Prop46
 90
       50
102
RTVSPost2010PropOp46
 70
     1
102
RTVSPost2010Prop47
 90
       50
102
RTVSPost2010PropOp47
 70
     1
102
RTVSPost2010Prop48
 90
       50
102
RTVSPost2010PropOp48
 70
     1
102
RTVSPost2010Prop49
280
     0
102
RTVSPost2010PropOp49
 70
     1
102
RTVSPost2010Prop50
 90
       50
102
RTVSPost2010PropOp50
 70
     1
102
RTVSPost2010Prop51ColorIndex
 90
      256
102
RTVSPost2010Prop51ColorRGB
 90
-16777216
102
RTVSPost2010PropOp51
 70
     0
102
RTVSPost2010Prop52
140
1.0
102
RTVSPost2010PropOp52
 70
     0
102
RTVSPost2010Prop53
 90
        2
102
RTVSPost2010PropOp53
 70
     1
102
RTVSPost2010Prop54
  1
strokes_ogs.tif
102
RTVSPost2010PropOp54
 70
     1
102
RTVSPost2010Prop55
280
     0
102
RTVSPost2010PropOp55
 70
     1
102
RTVSPost2010Prop56
140
1.0
102
RTVSPost2010PropOp56
 70
     1
102
RTVSPost2010Prop57
140
1.0
102
RTVSPost2010PropOp57
 70
     1
102
RTVSPropertyOp0
 70
     1
102
RTVSPropertyOp1
 70
     1
102
RTVSPropertyOp2
 70
     1
102
RTVSPropertyOp3
 70
     1
102
RTVSPropertyOp4
 70
     1
102
RTVSPropertyOp5
 70
     1
102
RTVSPropertyOp6
 70
     1
102
RTVSPropertyOp7
 70
     1
102
RTVSPropertyOp8
 70
     1
102
RTVSPropertyOp9
 70
     1
102
RTVSPropertyOp10
 70
     1
102
RTVSPropertyOp11
 70
     1
102
RTVSPropertyOp12
 70
     1
102
RTVSPropertyOp13
 70
     1
102
RTVSPropertyOp14
 70
     1
102
RTVSPropertyOp15
 70
     1
102
RTVSPropertyOp16
 70
     1
102
RTVSPropertyOp17
 70
     1
102
RTVSPropertyOp18
 70
     1
102
RTVSPropertyOp19
 70
     1
102
RTVSPropertyOp20
 70
     1
102
RTVSPropertyOp21
 70
     1
102
RTVSPropertyOp22
 70
     1
102
RTVSPropertyOp23
 70
     1
102
RTVSPropertyOp24
 70
     1
102
RTVSPropertyOp25
 70
     1
102
RTVSPropertyOp26
 70
     1
102
RTVSPropertyOp27
 70
     1
102
RTVSPropertyOp28
 70
     1
102
RTVSPropertyOp29
 70
     1
102
RTVSPropertyOp30
 70
     1
102
RTVSPropertyOp31
 70
     1
102
RTVSPropertyOp32
 70
     1
102
RTVSPropertyOp33
 70
     1
102
RTVSPropertyOp34
 70
     1
102
RTVSPropertyOp35
 70
     1
102
RTVSPropertyOp36
 70
     1
102
RTVSPropertyOp37
 70
     1
102
RTVSPropertyOp38
 70
     1
102
RTVSPropertyOp39
 70
     1
102
RTVSPropertyOp40
 70
     1
102
RTVSPropertyOp41
 70
     1
102
RTVSPropertyOp42
 70
     1
102
RTVSPropertyOp43
 70
     1
102
RTVSPropertyOp44
 70
     1
102
RTVSPropertyOp45
 70
     1
102
RTVSPropertyOp46
 70
     1
102
RTVSPropertyOp47
 70
     1
102
RTVSPropertyOp48
 70
     1
102
RTVSPropertyOp49
 70
     1
102
RTVSPropertyOp50
 70
     1
102
RTVSPropertyOp51
 70
     0
102
RTVSPropertyOp52
 70
     0
102
RTVSPropertyOp53
 70
     1
102
RTVSPropertyOp54
 70
     1
102
RTVSPropertyOp55
 70
     1
102
RTVSPropertyOp56
 70
     1
102
RTVSPropertyOp57
 70
     1
102
RTVSPropertyOp58
 70
     1
102
RTVSPropertyOp59
 70
     1
102
RTVSPropertyOp60
 70
     1
102
RTVSPropertyOp61
 70
     1
102
RTVSPropertyOp62
 70
     1
  0
XRECORD
  5
7D9
102
{ACAD_REACTORS
330
7D8
102
}
330
7D8
100
AcDbXrecord
280
     1
102
RTVSPost2010Prop28
280
     0
102
RTVSPost2010PropOp28
 70
     1
102
RTVSPost2010Prop29
280
     1
102
RTVSPost2010PropOp29
 70
     1
102
RTVSPost2010Prop30
280
     1
102
RTVSPost2010PropOp30
 70
     1
102
RTVSPost2010Prop31
280
     0
102
RTVSPost2010PropOp31
 70
     1
102
RTVSPost2010Prop32
280
     0
102
RTVSPost2010PropOp32
 70
     1
102
RTVSPost2010Prop33
280
     0
102
RTVSPost2010PropOp33
 70
     1
102
RTVSPost2010Prop34
280
     0
102
RTVSPost2010PropOp34
 70
     1
102
RTVSPost2010Prop35
280
     0
102
RTVSPost2010PropOp35
 70
     1
102
RTVSPost2010Prop36
280
     0
102
RTVSPost2010PropOp36
 70
     1
102
RTVSPost2010Prop37
 90
       50
102
RTVSPost2010PropOp37
 70
     1
102
RTVSPost2010Prop38
140
0.0
102
RTVSPost2010PropOp38
 70
     1
102
RTVSPost2010Prop39
140
1.0
102
RTVSPost2010PropOp39
 70
     1
102
RTVSPost2010Prop40
 90
        0
102
RTVSPost2010PropOp40
 70
     1
102
RTVSPost2010Prop41ColorIndex
 90
       18
102
RTVSPost2010Prop41ColorRGB
 90
        0
102
RTVSPost2010PropOp41
 70
     1
102
RTVSPost2010Prop42
 90
       50
102
RTVSPost2010PropOp42
 70
     1
102
RTVSPost2010Prop43
 90
        3
102
RTVSPost2010PropOp43
 70
     1
102
RTVSPost2010Prop44ColorIndex
 90
        5
102
RTVSPost2010Prop44ColorRGB
 90
      255
102
RTVSPost2010PropOp44
 70
     1
102
RTVSPost2010Prop45
280
     0
102
RTVSPost2010PropOp45
 70
     1
102
RTVSPost2010Prop46
 90
       50
102
RTVSPost2010PropOp46
 70
     1
102
RTVSPost2010Prop47
 90
       50
102
RTVSPost2010PropOp47
 70
     1
102
RTVSPost2010Prop48
 90
       50
102
RTVSPost2010PropOp48
 70
     1
102
RTVSPost2010Prop49
280
     0
102
RTVSPost2010PropOp49
 70
     1
102
RTVSPost2010Prop50
 90
       50
102
RTVSPost2010PropOp50
 70
     1
102
RTVSPost2010Prop51ColorIndex
 90
      256
102
RTVSPost2010Prop51ColorRGB
 90
-16777216
102
RTVSPost2010PropOp51
 70
     0
102
RTVSPost2010Prop52
140
1.0
102
RTVSPost2010PropOp52
 70
     0
102
RTVSPost2010Prop53
 90
        2
102
RTVSPost2010PropOp53
 70
     1
102
RTVSPost2010Prop54
  1
strokes_ogs.tif
102
RTVSPost2010PropOp54
 70
     1
102
RTVSPost2010Prop55
280
     0
102
RTVSPost2010PropOp55
 70
     1
102
RTVSPost2010Prop56
140
1.0
102
RTVSPost2010PropOp56
 70
     1
102
RTVSPost2010Prop57
140
1.0
102
RTVSPost2010PropOp57
 70
     1
102
RTVSPropertyOp0
 70
     1
102
RTVSPropertyOp1
 70
     1
102
RTVSPropertyOp2
 70
     1
102
RTVSPropertyOp3
 70
     1
102
RTVSPropertyOp4
 70
     1
102
RTVSPropertyOp5
 70
     1
102
RTVSPropertyOp6
 70
     1
102
RTVSPropertyOp7
 70
     1
102
RTVSPropertyOp8
 70
     1
102
RTVSPropertyOp9
 70
     1
102
RTVSPropertyOp10
 70
     1
102
RTVSPropertyOp11
 70
     1
102
RTVSPropertyOp12
 70
     1
102
RTVSPropertyOp13
 70
     1
102
RTVSPropertyOp14
 70
     1
102
RTVSPropertyOp15
 70
     1
102
RTVSPropertyOp16
 70
     1
102
RTVSPropertyOp17
 70
     1
102
RTVSPropertyOp18
 70
     1
102
RTVSPropertyOp19
 70
     1
102
RTVSPropertyOp20
 70
     1
102
RTVSPropertyOp21
 70
     1
102
RTVSPropertyOp22
 70
     1
102
RTVSPropertyOp23
 70
     1
102
RTVSPropertyOp24
 70
     1
102
RTVSPropertyOp25
 70
     1
102
RTVSPropertyOp26
 70
     1
102
RTVSPropertyOp27
 70
     1
102
RTVSPropertyOp28
 70
     1
102
RTVSPropertyOp29
 70
     1
102
RTVSPropertyOp30
 70
     1
102
RTVSPropertyOp31
 70
     1
102
RTVSPropertyOp32
 70
     1
102
RTVSPropertyOp33
 70
     1
102
RTVSPropertyOp34
 70
     1
102
RTVSPropertyOp35
 70
     1
102
RTVSPropertyOp36
 70
     1
102
RTVSPropertyOp37
 70
     1
102
RTVSPropertyOp38
 70
     1
102
RTVSPropertyOp39
 70
     1
102
RTVSPropertyOp40
 70
     1
102
RTVSPropertyOp41
 70
     1
102
RTVSPropertyOp42
 70
     1
102
RTVSPropertyOp43
 70
     1
102
RTVSPropertyOp44
 70
     1
102
RTVSPropertyOp45
 70
     1
102
RTVSPropertyOp46
 70
     1
102
RTVSPropertyOp47
 70
     1
102
RTVSPropertyOp48
 70
     1
102
RTVSPropertyOp49
 70
     1
102
RTVSPropertyOp50
 70
     1
102
RTVSPropertyOp51
 70
     0
102
RTVSPropertyOp52
 70
     0
102
RTVSPropertyOp53
 70
     1
102
RTVSPropertyOp54
 70
     1
102
RTVSPropertyOp55
 70
     1
102
RTVSPropertyOp56
 70
     1
102
RTVSPropertyOp57
 70
     1
102
RTVSPropertyOp58
 70
     1
102
RTVSPropertyOp59
 70
     1
102
RTVSPropertyOp60
 70
     1
102
RTVSPropertyOp61
 70
     1
102
RTVSPropertyOp62
 70
     1
  0
XRECORD
  5
7DD
102
{ACAD_REACTORS
330
7DC
102
}
330
7DC
100
AcDbXrecord
280
     1
102
RTVSPost2010Prop28
280
     0
102
RTVSPost2010PropOp28
 70
     1
102
RTVSPost2010Prop29
280
     1
102
RTVSPost2010PropOp29
 70
     1
102
RTVSPost2010Prop30
280
     1
102
RTVSPost2010PropOp30
 70
     1
102
RTVSPost2010Prop31
280
     0
102
RTVSPost2010PropOp31
 70
     1
102
RTVSPost2010Prop32
280
     0
102
RTVSPost2010PropOp32
 70
     1
102
RTVSPost2010Prop33
280
     0
102
RTVSPost2010PropOp33
 70
     1
102
RTVSPost2010Prop34
280
     0
102
RTVSPost2010PropOp34
 70
     1
102
RTVSPost2010Prop35
280
     0
102
RTVSPost2010PropOp35
 70
     1
102
RTVSPost2010Prop36
280
     0
102
RTVSPost2010PropOp36
 70
     1
102
RTVSPost2010Prop37
 90
       50
102
RTVSPost2010PropOp37
 70
     1
102
RTVSPost2010Prop38
140
0.0
102
RTVSPost2010PropOp38
 70
     1
102
RTVSPost2010Prop39
140
1.0
102
RTVSPost2010PropOp39
 70
     1
102
RTVSPost2010Prop40
 90
        0
102
RTVSPost2010PropOp40
 70
     1
102
RTVSPost2010Prop41ColorIndex
 90
       18
102
RTVSPost2010Prop41ColorRGB
 90
        0
102
RTVSPost2010PropOp41
 70
     1
102
RTVSPost2010Prop42
 90
       50
102
RTVSPost2010PropOp42
 70
     1
102
RTVSPost2010Prop43
 90
        3
102
RTVSPost2010PropOp43
 70
     1
102
RTVSPost2010Prop44ColorIndex
 90
        5
102
RTVSPost2010Prop44ColorRGB
 90
      255
102
RTVSPost2010PropOp44
 70
     1
102
RTVSPost2010Prop45
280
     0
102
RTVSPost2010PropOp45
 70
     1
102
RTVSPost2010Prop46
 90
       50
102
RTVSPost2010PropOp46
 70
     1
102
RTVSPost2010Prop47
 90
       50
102
RTVSPost2010PropOp47
 70
     1
102
RTVSPost2010Prop48
 90
       50
102
RTVSPost2010PropOp48
 70
     1
102
RTVSPost2010Prop49
280
     0
102
RTVSPost2010PropOp49
 70
     1
102
RTVSPost2010Prop50
 90
       50
102
RTVSPost2010PropOp50
 70
     1
102
RTVSPost2010Prop51ColorIndex
 90
      256
102
RTVSPost2010Prop51ColorRGB
 90
-16777216
102
RTVSPost2010PropOp51
 70
     0
102
RTVSPost2010Prop52
140
1.0
102
RTVSPost2010PropOp52
 70
     0
102
RTVSPost2010Prop53
 90
        2
102
RTVSPost2010PropOp53
 70
     1
102
RTVSPost2010Prop54
  1
strokes_ogs.tif
102
RTVSPost2010PropOp54
 70
     1
102
RTVSPost2010Prop55
280
     0
102
RTVSPost2010PropOp55
 70
     1
102
RTVSPost2010Prop56
140
1.0
102
RTVSPost2010PropOp56
 70
     1
102
RTVSPost2010Prop57
140
1.0
102
RTVSPost2010PropOp57
 70
     1
102
RTVSPropertyOp0
 70
     1
102
RTVSPropertyOp1
 70
     1
102
RTVSPropertyOp2
 70
     1
102
RTVSPropertyOp3
 70
     1
102
RTVSPropertyOp4
 70
     1
102
RTVSPropertyOp5
 70
     1
102
RTVSPropertyOp6
 70
     1
102
RTVSPropertyOp7
 70
     1
102
RTVSPropertyOp8
 70
     1
102
RTVSPropertyOp9
 70
     1
102
RTVSPropertyOp10
 70
     1
102
RTVSPropertyOp11
 70
     1
102
RTVSPropertyOp12
 70
     1
102
RTVSPropertyOp13
 70
     1
102
RTVSPropertyOp14
 70
     1
102
RTVSPropertyOp15
 70
     1
102
RTVSPropertyOp16
 70
     1
102
RTVSPropertyOp17
 70
     1
102
RTVSPropertyOp18
 70
     1
102
RTVSPropertyOp19
 70
     1
102
RTVSPropertyOp20
 70
     1
102
RTVSPropertyOp21
 70
     1
102
RTVSPropertyOp22
 70
     1
102
RTVSPropertyOp23
 70
     1
102
RTVSPropertyOp24
 70
     1
102
RTVSPropertyOp25
 70
     1
102
RTVSPropertyOp26
 70
     1
102
RTVSPropertyOp27
 70
     1
102
RTVSPropertyOp28
 70
     1
102
RTVSPropertyOp29
 70
     1
102
RTVSPropertyOp30
 70
     1
102
RTVSPropertyOp31
 70
     1
102
RTVSPropertyOp32
 70
     1
102
RTVSPropertyOp33
 70
     1
102
RTVSPropertyOp34
 70
     1
102
RTVSPropertyOp35
 70
     1
102
RTVSPropertyOp36
 70
     1
102
RTVSPropertyOp37
 70
     1
102
RTVSPropertyOp38
 70
     1
102
RTVSPropertyOp39
 70
     1
102
RTVSPropertyOp40
 70
     1
102
RTVSPropertyOp41
 70
     1
102
RTVSPropertyOp42
 70
     1
102
RTVSPropertyOp43
 70
     1
102
RTVSPropertyOp44
 70
     1
102
RTVSPropertyOp45
 70
     1
102
RTVSPropertyOp46
 70
     1
102
RTVSPropertyOp47
 70
     1
102
RTVSPropertyOp48
 70
     1
102
RTVSPropertyOp49
 70
     1
102
RTVSPropertyOp50
 70
     1
102
RTVSPropertyOp51
 70
     0
102
RTVSPropertyOp52
 70
     0
102
RTVSPropertyOp53
 70
     1
102
RTVSPropertyOp54
 70
     1
102
RTVSPropertyOp55
 70
     1
102
RTVSPropertyOp56
 70
     1
102
RTVSPropertyOp57
 70
     1
102
RTVSPropertyOp58
 70
     1
102
RTVSPropertyOp59
 70
     1
102
RTVSPropertyOp60
 70
     1
102
RTVSPropertyOp61
 70
     1
102
RTVSPropertyOp62
 70
     1
  0
XRECORD
  5
7F7
102
{ACAD_REACTORS
330
7F6
102
}
330
7F6
100
AcDbXrecord
280
     1
102
RTVSPost2010Prop28
280
     0
102
RTVSPost2010PropOp28
 70
     1
102
RTVSPost2010Prop29
280
     1
102
RTVSPost2010PropOp29
 70
     1
102
RTVSPost2010Prop30
280
     1
102
RTVSPost2010PropOp30
 70
     1
102
RTVSPost2010Prop31
280
     0
102
RTVSPost2010PropOp31
 70
     1
102
RTVSPost2010Prop32
280
     0
102
RTVSPost2010PropOp32
 70
     1
102
RTVSPost2010Prop33
280
     0
102
RTVSPost2010PropOp33
 70
     1
102
RTVSPost2010Prop34
280
     0
102
RTVSPost2010PropOp34
 70
     1
102
RTVSPost2010Prop35
280
     0
102
RTVSPost2010PropOp35
 70
     1
102
RTVSPost2010Prop36
280
     0
102
RTVSPost2010PropOp36
 70
     1
102
RTVSPost2010Prop37
 90
       50
102
RTVSPost2010PropOp37
 70
     0
102
RTVSPost2010Prop38
140
0.0
102
RTVSPost2010PropOp38
 70
     0
102
RTVSPost2010Prop39
140
1.0
102
RTVSPost2010PropOp39
 70
     0
102
RTVSPost2010Prop40
 90
        0
102
RTVSPost2010PropOp40
 70
     0
102
RTVSPost2010Prop41ColorIndex
 90
       18
102
RTVSPost2010Prop41ColorRGB
 90
        0
102
RTVSPost2010PropOp41
 70
     0
102
RTVSPost2010Prop42
 90
       50
102
RTVSPost2010PropOp42
 70
     0
102
RTVSPost2010Prop43
 90
        3
102
RTVSPost2010PropOp43
 70
     0
102
RTVSPost2010Prop44ColorIndex
 90
        5
102
RTVSPost2010Prop44ColorRGB
 90
      255
102
RTVSPost2010PropOp44
 70
     0
102
RTVSPost2010Prop45
280
     0
102
RTVSPost2010PropOp45
 70
     1
102
RTVSPost2010Prop46
 90
       50
102
RTVSPost2010PropOp46
 70
     0
102
RTVSPost2010Prop47
 90
       50
102
RTVSPost2010PropOp47
 70
     0
102
RTVSPost2010Prop48
 90
       50
102
RTVSPost2010PropOp48
 70
     0
102
RTVSPost2010Prop49
280
     0
102
RTVSPost2010PropOp49
 70
     1
102
RTVSPost2010Prop50
 90
       50
102
RTVSPost2010PropOp50
 70
     0
102
RTVSPost2010Prop51ColorIndex
 90
      256
102
RTVSPost2010Prop51ColorRGB
 90
-16777216
102
RTVSPost2010PropOp51
 70
     0
102
RTVSPost2010Prop52
140
1.0
102
RTVSPost2010PropOp52
 70
     0
102
RTVSPost2010Prop53
 90
        2
102
RTVSPost2010PropOp53
 70
     0
102
RTVSPost2010Prop54
  1
strokes_ogs.tif
102
RTVSPost2010PropOp54
 70
     0
102
RTVSPost2010Prop55
280
     0
102
RTVSPost2010PropOp55
 70
     1
102
RTVSPost2010Prop56
140
1.0
102
RTVSPost2010PropOp56
 70
     0
102
RTVSPost2010Prop57
140
1.0
102
RTVSPost2010PropOp57
 70
     0
102
RTVSPropertyOp0
 70
     0
102
RTVSPropertyOp1
 70
     0
102
RTVSPropertyOp2
 70
     0
102
RTVSPropertyOp3
 70
     0
102
RTVSPropertyOp4
 70
     0
102
RTVSPropertyOp5
 70
     0
102
RTVSPropertyOp6
 70
     0
102
RTVSPropertyOp7
 70
     0
102
RTVSPropertyOp8
 70
     0
102
RTVSPropertyOp9
 70
     0
102
RTVSPropertyOp10
 70
     0
102
RTVSPropertyOp11
 70
     0
102
RTVSPropertyOp12
 70
     0
102
RTVSPropertyOp13
 70
     0
102
RTVSPropertyOp14
 70
     2
102
RTVSPropertyOp15
 70
     0
102
RTVSPropertyOp16
 70
     0
102
RTVSPropertyOp17
 70
     0
102
RTVSPropertyOp18
 70
     0
102
RTVSPropertyOp19
 70
     0
102
RTVSPropertyOp20
 70
     0
102
RTVSPropertyOp21
 70
     0
102
RTVSPropertyOp22
 70
     0
102
RTVSPropertyOp23
 70
     0
102
RTVSPropertyOp24
 70
     0
102
RTVSPropertyOp25
 70
     0
102
RTVSPropertyOp26
 70
     0
102
RTVSPropertyOp27
 70
     0
102
RTVSPropertyOp28
 70
     1
102
RTVSPropertyOp29
 70
     1
102
RTVSPropertyOp30
 70
     1
102
RTVSPropertyOp31
 70
     1
102
RTVSPropertyOp32
 70
     1
102
RTVSPropertyOp33
 70
     1
102
RTVSPropertyOp34
 70
     1
102
RTVSPropertyOp35
 70
     1
102
RTVSPropertyOp36
 70
     1
102
RTVSPropertyOp37
 70
     0
102
RTVSPropertyOp38
 70
     0
102
RTVSPropertyOp39
 70
     0
102
RTVSPropertyOp40
 70
     0
102
RTVSPropertyOp41
 70
     0
102
RTVSPropertyOp42
 70
     0
102
RTVSPropertyOp43
 70
     0
102
RTVSPropertyOp44
 70
     0
102
RTVSPropertyOp45
 70
     1
102
RTVSPropertyOp46
 70
     0
102
RTVSPropertyOp47
 70
     0
102
RTVSPropertyOp48
 70
     0
102
RTVSPropertyOp49
 70
     1
102
RTVSPropertyOp50
 70
     0
102
RTVSPropertyOp51
 70
     0
102
RTVSPropertyOp52
 70
     0
102
RTVSPropertyOp53
 70
     0
102
RTVSPropertyOp54
 70
     0
102
RTVSPropertyOp55
 70
     1
102
RTVSPropertyOp56
 70
     0
102
RTVSPropertyOp57
 70
     0
102
RTVSPropertyOp58
 70
     0
102
RTVSPropertyOp59
 70
     0
102
RTVSPropertyOp60
 70
     0
102
RTVSPropertyOp61
 70
     0
102
RTVSPropertyOp62
 70
     0
  0
XRECORD
  5
7E5
102
{ACAD_REACTORS
330
7E4
102
}
330
7E4
100
AcDbXrecord
280
     1
102
RTVSPost2010Prop28
280
     0
102
RTVSPost2010PropOp28
 70
     1
102
RTVSPost2010Prop29
280
     1
102
RTVSPost2010PropOp29
 70
     1
102
RTVSPost2010Prop30
280
     1
102
RTVSPost2010PropOp30
 70
     1
102
RTVSPost2010Prop31
280
     0
102
RTVSPost2010PropOp31
 70
     1
102
RTVSPost2010Prop32
280
     0
102
RTVSPost2010PropOp32
 70
     1
102
RTVSPost2010Prop33
280
     0
102
RTVSPost2010PropOp33
 70
     1
102
RTVSPost2010Prop34
280
     0
102
RTVSPost2010PropOp34
 70
     1
102
RTVSPost2010Prop35
280
     0
102
RTVSPost2010PropOp35
 70
     1
102
RTVSPost2010Prop36
280
     0
102
RTVSPost2010PropOp36
 70
     1
102
RTVSPost2010Prop37
 90
       50
102
RTVSPost2010PropOp37
 70
     1
102
RTVSPost2010Prop38
140
0.0
102
RTVSPost2010PropOp38
 70
     1
102
RTVSPost2010Prop39
140
1.0
102
RTVSPost2010PropOp39
 70
     1
102
RTVSPost2010Prop40
 90
        0
102
RTVSPost2010PropOp40
 70
     1
102
RTVSPost2010Prop41ColorIndex
 90
       18
102
RTVSPost2010Prop41ColorRGB
 90
        0
102
RTVSPost2010PropOp41
 70
     1
102
RTVSPost2010Prop42
 90
       50
102
RTVSPost2010PropOp42
 70
     1
102
RTVSPost2010Prop43
 90
        3
102
RTVSPost2010PropOp43
 70
     1
102
RTVSPost2010Prop44ColorIndex
 90
        5
102
RTVSPost2010Prop44ColorRGB
 90
      255
102
RTVSPost2010PropOp44
 70
     1
102
RTVSPost2010Prop45
280
     0
102
RTVSPost2010PropOp45
 70
     1
102
RTVSPost2010Prop46
 90
       50
102
RTVSPost2010PropOp46
 70
     1
102
RTVSPost2010Prop47
 90
       50
102
RTVSPost2010PropOp47
 70
     1
102
RTVSPost2010Prop48
 90
       50
102
RTVSPost2010PropOp48
 70
     1
102
RTVSPost2010Prop49
280
     0
102
RTVSPost2010PropOp49
 70
     1
102
RTVSPost2010Prop50
 90
       50
102
RTVSPost2010PropOp50
 70
     1
102
RTVSPost2010Prop51ColorIndex
 90
      256
102
RTVSPost2010Prop51ColorRGB
 90
-16777216
102
RTVSPost2010PropOp51
 70
     0
102
RTVSPost2010Prop52
140
1.0
102
RTVSPost2010PropOp52
 70
     0
102
RTVSPost2010Prop53
 90
        2
102
RTVSPost2010PropOp53
 70
     1
102
RTVSPost2010Prop54
  1
strokes_ogs.tif
102
RTVSPost2010PropOp54
 70
     1
102
RTVSPost2010Prop55
280
     0
102
RTVSPost2010PropOp55
 70
     1
102
RTVSPost2010Prop56
140
1.0
102
RTVSPost2010PropOp56
 70
     1
102
RTVSPost2010Prop57
140
1.0
102
RTVSPost2010PropOp57
 70
     1
102
RTVSPropertyOp0
 70
     1
102
RTVSPropertyOp1
 70
     1
102
RTVSPropertyOp2
 70
     1
102
RTVSPropertyOp3
 70
     1
102
RTVSPropertyOp4
 70
     1
102
RTVSPropertyOp5
 70
     1
102
RTVSPropertyOp6
 70
     1
102
RTVSPropertyOp7
 70
     1
102
RTVSPropertyOp8
 70
     1
102
RTVSPropertyOp9
 70
     1
102
RTVSPropertyOp10
 70
     1
102
RTVSPropertyOp11
 70
     1
102
RTVSPropertyOp12
 70
     1
102
RTVSPropertyOp13
 70
     1
102
RTVSPropertyOp14
 70
     1
102
RTVSPropertyOp15
 70
     1
102
RTVSPropertyOp16
 70
     1
102
RTVSPropertyOp17
 70
     1
102
RTVSPropertyOp18
 70
     1
102
RTVSPropertyOp19
 70
     1
102
RTVSPropertyOp20
 70
     1
102
RTVSPropertyOp21
 70
     1
102
RTVSPropertyOp22
 70
     1
102
RTVSPropertyOp23
 70
     1
102
RTVSPropertyOp24
 70
     1
102
RTVSPropertyOp25
 70
     1
102
RTVSPropertyOp26
 70
     1
102
RTVSPropertyOp27
 70
     1
102
RTVSPropertyOp28
 70
     1
102
RTVSPropertyOp29
 70
     1
102
RTVSPropertyOp30
 70
     1
102
RTVSPropertyOp31
 70
     1
102
RTVSPropertyOp32
 70
     1
102
RTVSPropertyOp33
 70
     1
102
RTVSPropertyOp34
 70
     1
102
RTVSPropertyOp35
 70
     1
102
RTVSPropertyOp36
 70
     1
102
RTVSPropertyOp37
 70
     1
102
RTVSPropertyOp38
 70
     1
102
RTVSPropertyOp39
 70
     1
102
RTVSPropertyOp40
 70
     1
102
RTVSPropertyOp41
 70
     1
102
RTVSPropertyOp42
 70
     1
102
RTVSPropertyOp43
 70
     1
102
RTVSPropertyOp44
 70
     1
102
RTVSPropertyOp45
 70
     1
102
RTVSPropertyOp46
 70
     1
102
RTVSPropertyOp47
 70
     1
102
RTVSPropertyOp48
 70
     1
102
RTVSPropertyOp49
 70
     1
102
RTVSPropertyOp50
 70
     1
102
RTVSPropertyOp51
 70
     0
102
RTVSPropertyOp52
 70
     0
102
RTVSPropertyOp53
 70
     1
102
RTVSPropertyOp54
 70
     1
102
RTVSPropertyOp55
 70
     1
102
RTVSPropertyOp56
 70
     1
102
RTVSPropertyOp57
 70
     1
102
RTVSPropertyOp58
 70
     1
102
RTVSPropertyOp59
 70
     1
102
RTVSPropertyOp60
 70
     1
102
RTVSPropertyOp61
 70
     1
102
RTVSPropertyOp62
 70
     1
  0
XRECORD
  5
7C9
102
{ACAD_REACTORS
330
7C8
102
}
330
7C8
100
AcDbXrecord
280
     1
102
RTVSPost2010Prop28
280
     0
102
RTVSPost2010PropOp28
 70
     1
102
RTVSPost2010Prop29
280
     1
102
RTVSPost2010PropOp29
 70
     1
102
RTVSPost2010Prop30
280
     1
102
RTVSPost2010PropOp30
 70
     1
102
RTVSPost2010Prop31
280
     0
102
RTVSPost2010PropOp31
 70
     1
102
RTVSPost2010Prop32
280
     0
102
RTVSPost2010PropOp32
 70
     1
102
RTVSPost2010Prop33
280
     0
102
RTVSPost2010PropOp33
 70
     1
102
RTVSPost2010Prop34
280
     0
102
RTVSPost2010PropOp34
 70
     1
102
RTVSPost2010Prop35
280
     0
102
RTVSPost2010PropOp35
 70
     1
102
RTVSPost2010Prop36
280
     0
102
RTVSPost2010PropOp36
 70
     1
102
RTVSPost2010Prop37
 90
       50
102
RTVSPost2010PropOp37
 70
     1
102
RTVSPost2010Prop38
140
0.0
102
RTVSPost2010PropOp38
 70
     1
102
RTVSPost2010Prop39
140
1.0
102
RTVSPost2010PropOp39
 70
     1
102
RTVSPost2010Prop40
 90
        0
102
RTVSPost2010PropOp40
 70
     1
102
RTVSPost2010Prop41ColorIndex
 90
       18
102
RTVSPost2010Prop41ColorRGB
 90
        0
102
RTVSPost2010PropOp41
 70
     1
102
RTVSPost2010Prop42
 90
       50
102
RTVSPost2010PropOp42
 70
     1
102
RTVSPost2010Prop43
 90
        3
102
RTVSPost2010PropOp43
 70
     1
102
RTVSPost2010Prop44ColorIndex
 90
        5
102
RTVSPost2010Prop44ColorRGB
 90
      255
102
RTVSPost2010PropOp44
 70
     1
102
RTVSPost2010Prop45
280
     0
102
RTVSPost2010PropOp45
 70
     1
102
RTVSPost2010Prop46
 90
       50
102
RTVSPost2010PropOp46
 70
     1
102
RTVSPost2010Prop47
 90
       50
102
RTVSPost2010PropOp47
 70
     1
102
RTVSPost2010Prop48
 90
       50
102
RTVSPost2010PropOp48
 70
     1
102
RTVSPost2010Prop49
280
     0
102
RTVSPost2010PropOp49
 70
     1
102
RTVSPost2010Prop50
 90
       50
102
RTVSPost2010PropOp50
 70
     1
102
RTVSPost2010Prop51ColorIndex
 90
      256
102
RTVSPost2010Prop51ColorRGB
 90
-16777216
102
RTVSPost2010PropOp51
 70
     0
102
RTVSPost2010Prop52
140
1.0
102
RTVSPost2010PropOp52
 70
     0
102
RTVSPost2010Prop53
 90
        2
102
RTVSPost2010PropOp53
 70
     1
102
RTVSPost2010Prop54
  1
strokes_ogs.tif
102
RTVSPost2010PropOp54
 70
     1
102
RTVSPost2010Prop55
280
     0
102
RTVSPost2010PropOp55
 70
     1
102
RTVSPost2010Prop56
140
1.0
102
RTVSPost2010PropOp56
 70
     1
102
RTVSPost2010Prop57
140
1.0
102
RTVSPost2010PropOp57
 70
     1
102
RTVSPropertyOp0
 70
     1
102
RTVSPropertyOp1
 70
     1
102
RTVSPropertyOp2
 70
     1
102
RTVSPropertyOp3
 70
     1
102
RTVSPropertyOp4
 70
     1
102
RTVSPropertyOp5
 70
     1
102
RTVSPropertyOp6
 70
     1
102
RTVSPropertyOp7
 70
     1
102
RTVSPropertyOp8
 70
     1
102
RTVSPropertyOp9
 70
     1
102
RTVSPropertyOp10
 70
     1
102
RTVSPropertyOp11
 70
     1
102
RTVSPropertyOp12
 70
     1
102
RTVSPropertyOp13
 70
     1
102
RTVSPropertyOp14
 70
     1
102
RTVSPropertyOp15
 70
     1
102
RTVSPropertyOp16
 70
     1
102
RTVSPropertyOp17
 70
     1
102
RTVSPropertyOp18
 70
     1
102
RTVSPropertyOp19
 70
     1
102
RTVSPropertyOp20
 70
     1
102
RTVSPropertyOp21
 70
     1
102
RTVSPropertyOp22
 70
     1
102
RTVSPropertyOp23
 70
     1
102
RTVSPropertyOp24
 70
     1
102
RTVSPropertyOp25
 70
     1
102
RTVSPropertyOp26
 70
     1
102
RTVSPropertyOp27
 70
     1
102
RTVSPropertyOp28
 70
     1
102
RTVSPropertyOp29
 70
     1
102
RTVSPropertyOp30
 70
     1
102
RTVSPropertyOp31
 70
     1
102
RTVSPropertyOp32
 70
     1
102
RTVSPropertyOp33
 70
     1
102
RTVSPropertyOp34
 70
     1
102
RTVSPropertyOp35
 70
     1
102
RTVSPropertyOp36
 70
     1
102
RTVSPropertyOp37
 70
     1
102
RTVSPropertyOp38
 70
     1
102
RTVSPropertyOp39
 70
     1
102
RTVSPropertyOp40
 70
     1
102
RTVSPropertyOp41
 70
     1
102
RTVSPropertyOp42
 70
     1
102
RTVSPropertyOp43
 70
     1
102
RTVSPropertyOp44
 70
     1
102
RTVSPropertyOp45
 70
     1
102
RTVSPropertyOp46
 70
     1
102
RTVSPropertyOp47
 70
     1
102
RTVSPropertyOp48
 70
     1
102
RTVSPropertyOp49
 70
     1
102
RTVSPropertyOp50
 70
     1
102
RTVSPropertyOp51
 70
     0
102
RTVSPropertyOp52
 70
     0
102
RTVSPropertyOp53
 70
     1
102
RTVSPropertyOp54
 70
     1
102
RTVSPropertyOp55
 70
     1
102
RTVSPropertyOp56
 70
     1
102
RTVSPropertyOp57
 70
     1
102
RTVSPropertyOp58
 70
     1
102
RTVSPropertyOp59
 70
     1
102
RTVSPropertyOp60
 70
     1
102
RTVSPropertyOp61
 70
     1
102
RTVSPropertyOp62
 70
     1
  0
XRECORD
  5
7CB
102
{ACAD_REACTORS
330
7CA
102
}
330
7CA
100
AcDbXrecord
280
     1
102
RTVSPost2010Prop28
280
     0
102
RTVSPost2010PropOp28
 70
     1
102
RTVSPost2010Prop29
280
     1
102
RTVSPost2010PropOp29
 70
     1
102
RTVSPost2010Prop30
280
     1
102
RTVSPost2010PropOp30
 70
     1
102
RTVSPost2010Prop31
280
     0
102
RTVSPost2010PropOp31
 70
     1
102
RTVSPost2010Prop32
280
     0
102
RTVSPost2010PropOp32
 70
     1
102
RTVSPost2010Prop33
280
     0
102
RTVSPost2010PropOp33
 70
     1
102
RTVSPost2010Prop34
280
     0
102
RTVSPost2010PropOp34
 70
     1
102
RTVSPost2010Prop35
280
     0
102
RTVSPost2010PropOp35
 70
     1
102
RTVSPost2010Prop36
280
     0
102
RTVSPost2010PropOp36
 70
     1
102
RTVSPost2010Prop37
 90
       50
102
RTVSPost2010PropOp37
 70
     1
102
RTVSPost2010Prop38
140
0.0
102
RTVSPost2010PropOp38
 70
     1
102
RTVSPost2010Prop39
140
1.0
102
RTVSPost2010PropOp39
 70
     1
102
RTVSPost2010Prop40
 90
        0
102
RTVSPost2010PropOp40
 70
     1
102
RTVSPost2010Prop41ColorIndex
 90
       18
102
RTVSPost2010Prop41ColorRGB
 90
        0
102
RTVSPost2010PropOp41
 70
     1
102
RTVSPost2010Prop42
 90
       50
102
RTVSPost2010PropOp42
 70
     1
102
RTVSPost2010Prop43
 90
        3
102
RTVSPost2010PropOp43
 70
     1
102
RTVSPost2010Prop44ColorIndex
 90
        5
102
RTVSPost2010Prop44ColorRGB
 90
      255
102
RTVSPost2010PropOp44
 70
     1
102
RTVSPost2010Prop45
280
     0
102
RTVSPost2010PropOp45
 70
     1
102
RTVSPost2010Prop46
 90
       50
102
RTVSPost2010PropOp46
 70
     1
102
RTVSPost2010Prop47
 90
       50
102
RTVSPost2010PropOp47
 70
     1
102
RTVSPost2010Prop48
 90
       50
102
RTVSPost2010PropOp48
 70
     1
102
RTVSPost2010Prop49
280
     0
102
RTVSPost2010PropOp49
 70
     1
102
RTVSPost2010Prop50
 90
       50
102
RTVSPost2010PropOp50
 70
     1
102
RTVSPost2010Prop51ColorIndex
 90
      256
102
RTVSPost2010Prop51ColorRGB
 90
-16777216
102
RTVSPost2010PropOp51
 70
     0
102
RTVSPost2010Prop52
140
1.0
102
RTVSPost2010PropOp52
 70
     0
102
RTVSPost2010Prop53
 90
        2
102
RTVSPost2010PropOp53
 70
     1
102
RTVSPost2010Prop54
  1
strokes_ogs.tif
102
RTVSPost2010PropOp54
 70
     1
102
RTVSPost2010Prop55
280
     0
102
RTVSPost2010PropOp55
 70
     1
102
RTVSPost2010Prop56
140
1.0
102
RTVSPost2010PropOp56
 70
     1
102
RTVSPost2010Prop57
140
1.0
102
RTVSPost2010PropOp57
 70
     1
102
RTVSPropertyOp0
 70
     1
102
RTVSPropertyOp1
 70
     1
102
RTVSPropertyOp2
 70
     1
102
RTVSPropertyOp3
 70
     1
102
RTVSPropertyOp4
 70
     1
102
RTVSPropertyOp5
 70
     1
102
RTVSPropertyOp6
 70
     1
102
RTVSPropertyOp7
 70
     1
102
RTVSPropertyOp8
 70
     1
102
RTVSPropertyOp9
 70
     1
102
RTVSPropertyOp10
 70
     1
102
RTVSPropertyOp11
 70
     1
102
RTVSPropertyOp12
 70
     1
102
RTVSPropertyOp13
 70
     1
102
RTVSPropertyOp14
 70
     1
102
RTVSPropertyOp15
 70
     1
102
RTVSPropertyOp16
 70
     1
102
RTVSPropertyOp17
 70
     1
102
RTVSPropertyOp18
 70
     1
102
RTVSPropertyOp19
 70
     1
102
RTVSPropertyOp20
 70
     1
102
RTVSPropertyOp21
 70
     1
102
RTVSPropertyOp22
 70
     1
102
RTVSPropertyOp23
 70
     1
102
RTVSPropertyOp24
 70
     1
102
RTVSPropertyOp25
 70
     1
102
RTVSPropertyOp26
 70
     1
102
RTVSPropertyOp27
 70
     1
102
RTVSPropertyOp28
 70
     1
102
RTVSPropertyOp29
 70
     1
102
RTVSPropertyOp30
 70
     1
102
RTVSPropertyOp31
 70
     1
102
RTVSPropertyOp32
 70
     1
102
RTVSPropertyOp33
 70
     1
102
RTVSPropertyOp34
 70
     1
102
RTVSPropertyOp35
 70
     1
102
RTVSPropertyOp36
 70
     1
102
RTVSPropertyOp37
 70
     1
102
RTVSPropertyOp38
 70
     1
102
RTVSPropertyOp39
 70
     1
102
RTVSPropertyOp40
 70
     1
102
RTVSPropertyOp41
 70
     1
102
RTVSPropertyOp42
 70
     1
102
RTVSPropertyOp43
 70
     1
102
RTVSPropertyOp44
 70
     1
102
RTVSPropertyOp45
 70
     1
102
RTVSPropertyOp46
 70
     1
102
RTVSPropertyOp47
 70
     1
102
RTVSPropertyOp48
 70
     1
102
RTVSPropertyOp49
 70
     1
102
RTVSPropertyOp50
 70
     1
102
RTVSPropertyOp51
 70
     0
102
RTVSPropertyOp52
 70
     0
102
RTVSPropertyOp53
 70
     1
102
RTVSPropertyOp54
 70
     1
102
RTVSPropertyOp55
 70
     1
102
RTVSPropertyOp56
 70
     1
102
RTVSPropertyOp57
 70
     1
102
RTVSPropertyOp58
 70
     1
102
RTVSPropertyOp59
 70
     1
102
RTVSPropertyOp60
 70
     1
102
RTVSPropertyOp61
 70
     1
102
RTVSPropertyOp62
 70
     1
  0
XRECORD
  5
7CD
102
{ACAD_REACTORS
330
7CC
102
}
330
7CC
100
AcDbXrecord
280
     1
102
RTVSPost2010Prop28
280
     0
102
RTVSPost2010PropOp28
 70
     1
102
RTVSPost2010Prop29
280
     1
102
RTVSPost2010PropOp29
 70
     1
102
RTVSPost2010Prop30
280
     1
102
RTVSPost2010PropOp30
 70
     1
102
RTVSPost2010Prop31
280
     0
102
RTVSPost2010PropOp31
 70
     1
102
RTVSPost2010Prop32
280
     0
102
RTVSPost2010PropOp32
 70
     1
102
RTVSPost2010Prop33
280
     0
102
RTVSPost2010PropOp33
 70
     1
102
RTVSPost2010Prop34
280
     0
102
RTVSPost2010PropOp34
 70
     1
102
RTVSPost2010Prop35
280
     0
102
RTVSPost2010PropOp35
 70
     1
102
RTVSPost2010Prop36
280
     0
102
RTVSPost2010PropOp36
 70
     1
102
RTVSPost2010Prop37
 90
       50
102
RTVSPost2010PropOp37
 70
     1
102
RTVSPost2010Prop38
140
0.0
102
RTVSPost2010PropOp38
 70
     1
102
RTVSPost2010Prop39
140
1.0
102
RTVSPost2010PropOp39
 70
     1
102
RTVSPost2010Prop40
 90
        0
102
RTVSPost2010PropOp40
 70
     1
102
RTVSPost2010Prop41ColorIndex
 90
       18
102
RTVSPost2010Prop41ColorRGB
 90
        0
102
RTVSPost2010PropOp41
 70
     1
102
RTVSPost2010Prop42
 90
       50
102
RTVSPost2010PropOp42
 70
     1
102
RTVSPost2010Prop43
 90
        3
102
RTVSPost2010PropOp43
 70
     1
102
RTVSPost2010Prop44ColorIndex
 90
        5
102
RTVSPost2010Prop44ColorRGB
 90
      255
102
RTVSPost2010PropOp44
 70
     1
102
RTVSPost2010Prop45
280
     0
102
RTVSPost2010PropOp45
 70
     1
102
RTVSPost2010Prop46
 90
       50
102
RTVSPost2010PropOp46
 70
     1
102
RTVSPost2010Prop47
 90
       50
102
RTVSPost2010PropOp47
 70
     1
102
RTVSPost2010Prop48
 90
       50
102
RTVSPost2010PropOp48
 70
     1
102
RTVSPost2010Prop49
280
     0
102
RTVSPost2010PropOp49
 70
     1
102
RTVSPost2010Prop50
 90
       50
102
RTVSPost2010PropOp50
 70
     1
102
RTVSPost2010Prop51ColorIndex
 90
      256
102
RTVSPost2010Prop51ColorRGB
 90
-16777216
102
RTVSPost2010PropOp51
 70
     0
102
RTVSPost2010Prop52
140
1.0
102
RTVSPost2010PropOp52
 70
     0
102
RTVSPost2010Prop53
 90
        2
102
RTVSPost2010PropOp53
 70
     1
102
RTVSPost2010Prop54
  1
strokes_ogs.tif
102
RTVSPost2010PropOp54
 70
     1
102
RTVSPost2010Prop55
280
     0
102
RTVSPost2010PropOp55
 70
     1
102
RTVSPost2010Prop56
140
1.0
102
RTVSPost2010PropOp56
 70
     1
102
RTVSPost2010Prop57
140
1.0
102
RTVSPost2010PropOp57
 70
     1
102
RTVSPropertyOp0
 70
     1
102
RTVSPropertyOp1
 70
     1
102
RTVSPropertyOp2
 70
     1
102
RTVSPropertyOp3
 70
     1
102
RTVSPropertyOp4
 70
     1
102
RTVSPropertyOp5
 70
     1
102
RTVSPropertyOp6
 70
     1
102
RTVSPropertyOp7
 70
     1
102
RTVSPropertyOp8
 70
     1
102
RTVSPropertyOp9
 70
     1
102
RTVSPropertyOp10
 70
     1
102
RTVSPropertyOp11
 70
     1
102
RTVSPropertyOp12
 70
     1
102
RTVSPropertyOp13
 70
     1
102
RTVSPropertyOp14
 70
     1
102
RTVSPropertyOp15
 70
     1
102
RTVSPropertyOp16
 70
     1
102
RTVSPropertyOp17
 70
     1
102
RTVSPropertyOp18
 70
     1
102
RTVSPropertyOp19
 70
     1
102
RTVSPropertyOp20
 70
     1
102
RTVSPropertyOp21
 70
     1
102
RTVSPropertyOp22
 70
     1
102
RTVSPropertyOp23
 70
     1
102
RTVSPropertyOp24
 70
     1
102
RTVSPropertyOp25
 70
     1
102
RTVSPropertyOp26
 70
     1
102
RTVSPropertyOp27
 70
     1
102
RTVSPropertyOp28
 70
     1
102
RTVSPropertyOp29
 70
     1
102
RTVSPropertyOp30
 70
     1
102
RTVSPropertyOp31
 70
     1
102
RTVSPropertyOp32
 70
     1
102
RTVSPropertyOp33
 70
     1
102
RTVSPropertyOp34
 70
     1
102
RTVSPropertyOp35
 70
     1
102
RTVSPropertyOp36
 70
     1
102
RTVSPropertyOp37
 70
     1
102
RTVSPropertyOp38
 70
     1
102
RTVSPropertyOp39
 70
     1
102
RTVSPropertyOp40
 70
     1
102
RTVSPropertyOp41
 70
     1
102
RTVSPropertyOp42
 70
     1
102
RTVSPropertyOp43
 70
     1
102
RTVSPropertyOp44
 70
     1
102
RTVSPropertyOp45
 70
     1
102
RTVSPropertyOp46
 70
     1
102
RTVSPropertyOp47
 70
     1
102
RTVSPropertyOp48
 70
     1
102
RTVSPropertyOp49
 70
     1
102
RTVSPropertyOp50
 70
     1
102
RTVSPropertyOp51
 70
     0
102
RTVSPropertyOp52
 70
     0
102
RTVSPropertyOp53
 70
     1
102
RTVSPropertyOp54
 70
     1
102
RTVSPropertyOp55
 70
     1
102
RTVSPropertyOp56
 70
     1
102
RTVSPropertyOp57
 70
     1
102
RTVSPropertyOp58
 70
     1
102
RTVSPropertyOp59
 70
     1
102
RTVSPropertyOp60
 70
     1
102
RTVSPropertyOp61
 70
     1
102
RTVSPropertyOp62
 70
     1
  0
XRECORD
  5
7CF
102
{ACAD_REACTORS
330
7CE
102
}
330
7CE
100
AcDbXrecord
280
     1
102
RTVSPost2010Prop28
280
     0
102
RTVSPost2010PropOp28
 70
     1
102
RTVSPost2010Prop29
280
     1
102
RTVSPost2010PropOp29
 70
     1
102
RTVSPost2010Prop30
280
     1
102
RTVSPost2010PropOp30
 70
     1
102
RTVSPost2010Prop31
280
     0
102
RTVSPost2010PropOp31
 70
     1
102
RTVSPost2010Prop32
280
     0
102
RTVSPost2010PropOp32
 70
     1
102
RTVSPost2010Prop33
280
     0
102
RTVSPost2010PropOp33
 70
     1
102
RTVSPost2010Prop34
280
     0
102
RTVSPost2010PropOp34
 70
     1
102
RTVSPost2010Prop35
280
     0
102
RTVSPost2010PropOp35
 70
     1
102
RTVSPost2010Prop36
280
     0
102
RTVSPost2010PropOp36
 70
     1
102
RTVSPost2010Prop37
 90
       50
102
RTVSPost2010PropOp37
 70
     1
102
RTVSPost2010Prop38
140
0.0
102
RTVSPost2010PropOp38
 70
     1
102
RTVSPost2010Prop39
140
1.0
102
RTVSPost2010PropOp39
 70
     1
102
RTVSPost2010Prop40
 90
        0
102
RTVSPost2010PropOp40
 70
     1
102
RTVSPost2010Prop41ColorIndex
 90
       18
102
RTVSPost2010Prop41ColorRGB
 90
        0
102
RTVSPost2010PropOp41
 70
     1
102
RTVSPost2010Prop42
 90
       50
102
RTVSPost2010PropOp42
 70
     1
102
RTVSPost2010Prop43
 90
        3
102
RTVSPost2010PropOp43
 70
     1
102
RTVSPost2010Prop44ColorIndex
 90
        5
102
RTVSPost2010Prop44ColorRGB
 90
      255
102
RTVSPost2010PropOp44
 70
     1
102
RTVSPost2010Prop45
280
     0
102
RTVSPost2010PropOp45
 70
     1
102
RTVSPost2010Prop46
 90
       50
102
RTVSPost2010PropOp46
 70
     1
102
RTVSPost2010Prop47
 90
       50
102
RTVSPost2010PropOp47
 70
     1
102
RTVSPost2010Prop48
 90
       50
102
RTVSPost2010PropOp48
 70
     1
102
RTVSPost2010Prop49
280
     0
102
RTVSPost2010PropOp49
 70
     1
102
RTVSPost2010Prop50
 90
       50
102
RTVSPost2010PropOp50
 70
     1
102
RTVSPost2010Prop51ColorIndex
 90
      256
102
RTVSPost2010Prop51ColorRGB
 90
-16777216
102
RTVSPost2010PropOp51
 70
     0
102
RTVSPost2010Prop52
140
1.0
102
RTVSPost2010PropOp52
 70
     0
102
RTVSPost2010Prop53
 90
        2
102
RTVSPost2010PropOp53
 70
     1
102
RTVSPost2010Prop54
  1
strokes_ogs.tif
102
RTVSPost2010PropOp54
 70
     1
102
RTVSPost2010Prop55
280
     0
102
RTVSPost2010PropOp55
 70
     1
102
RTVSPost2010Prop56
140
1.0
102
RTVSPost2010PropOp56
 70
     1
102
RTVSPost2010Prop57
140
1.0
102
RTVSPost2010PropOp57
 70
     1
102
RTVSPropertyOp0
 70
     1
102
RTVSPropertyOp1
 70
     1
102
RTVSPropertyOp2
 70
     1
102
RTVSPropertyOp3
 70
     1
102
RTVSPropertyOp4
 70
     1
102
RTVSPropertyOp5
 70
     1
102
RTVSPropertyOp6
 70
     1
102
RTVSPropertyOp7
 70
     1
102
RTVSPropertyOp8
 70
     1
102
RTVSPropertyOp9
 70
     1
102
RTVSPropertyOp10
 70
     1
102
RTVSPropertyOp11
 70
     1
102
RTVSPropertyOp12
 70
     1
102
RTVSPropertyOp13
 70
     1
102
RTVSPropertyOp14
 70
     1
102
RTVSPropertyOp15
 70
     1
102
RTVSPropertyOp16
 70
     1
102
RTVSPropertyOp17
 70
     1
102
RTVSPropertyOp18
 70
     1
102
RTVSPropertyOp19
 70
     1
102
RTVSPropertyOp20
 70
     1
102
RTVSPropertyOp21
 70
     1
102
RTVSPropertyOp22
 70
     1
102
RTVSPropertyOp23
 70
     1
102
RTVSPropertyOp24
 70
     1
102
RTVSPropertyOp25
 70
     1
102
RTVSPropertyOp26
 70
     1
102
RTVSPropertyOp27
 70
     1
102
RTVSPropertyOp28
 70
     1
102
RTVSPropertyOp29
 70
     1
102
RTVSPropertyOp30
 70
     1
102
RTVSPropertyOp31
 70
     1
102
RTVSPropertyOp32
 70
     1
102
RTVSPropertyOp33
 70
     1
102
RTVSPropertyOp34
 70
     1
102
RTVSPropertyOp35
 70
     1
102
RTVSPropertyOp36
 70
     1
102
RTVSPropertyOp37
 70
     1
102
RTVSPropertyOp38
 70
     1
102
RTVSPropertyOp39
 70
     1
102
RTVSPropertyOp40
 70
     1
102
RTVSPropertyOp41
 70
     1
102
RTVSPropertyOp42
 70
     1
102
RTVSPropertyOp43
 70
     1
102
RTVSPropertyOp44
 70
     1
102
RTVSPropertyOp45
 70
     1
102
RTVSPropertyOp46
 70
     1
102
RTVSPropertyOp47
 70
     1
102
RTVSPropertyOp48
 70
     1
102
RTVSPropertyOp49
 70
     1
102
RTVSPropertyOp50
 70
     1
102
RTVSPropertyOp51
 70
     0
102
RTVSPropertyOp52
 70
     0
102
RTVSPropertyOp53
 70
     1
102
RTVSPropertyOp54
 70
     1
102
RTVSPropertyOp55
 70
     1
102
RTVSPropertyOp56
 70
     1
102
RTVSPropertyOp57
 70
     1
102
RTVSPropertyOp58
 70
     1
102
RTVSPropertyOp59
 70
     1
102
RTVSPropertyOp60
 70
     1
102
RTVSPropertyOp61
 70
     1
102
RTVSPropertyOp62
 70
     1
  0
XRECORD
  5
7D7
102
{ACAD_REACTORS
330
7D6
102
}
330
7D6
100
AcDbXrecord
280
     1
102
RTVSPost2010Prop28
280
     0
102
RTVSPost2010PropOp28
 70
     1
102
RTVSPost2010Prop29
280
     1
102
RTVSPost2010PropOp29
 70
     1
102
RTVSPost2010Prop30
280
     1
102
RTVSPost2010PropOp30
 70
     1
102
RTVSPost2010Prop31
280
     0
102
RTVSPost2010PropOp31
 70
     1
102
RTVSPost2010Prop32
280
     0
102
RTVSPost2010PropOp32
 70
     1
102
RTVSPost2010Prop33
280
     0
102
RTVSPost2010PropOp33
 70
     1
102
RTVSPost2010Prop34
280
     0
102
RTVSPost2010PropOp34
 70
     1
102
RTVSPost2010Prop35
280
     0
102
RTVSPost2010PropOp35
 70
     1
102
RTVSPost2010Prop36
280
     0
102
RTVSPost2010PropOp36
 70
     1
102
RTVSPost2010Prop37
 90
       50
102
RTVSPost2010PropOp37
 70
     1
102
RTVSPost2010Prop38
140
0.0
102
RTVSPost2010PropOp38
 70
     1
102
RTVSPost2010Prop39
140
1.0
102
RTVSPost2010PropOp39
 70
     1
102
RTVSPost2010Prop40
 90
        0
102
RTVSPost2010PropOp40
 70
     1
102
RTVSPost2010Prop41ColorIndex
 90
       18
102
RTVSPost2010Prop41ColorRGB
 90
        0
102
RTVSPost2010PropOp41
 70
     1
102
RTVSPost2010Prop42
 90
       50
102
RTVSPost2010PropOp42
 70
     1
102
RTVSPost2010Prop43
 90
        3
102
RTVSPost2010PropOp43
 70
     1
102
RTVSPost2010Prop44ColorIndex
 90
        5
102
RTVSPost2010Prop44ColorRGB
 90
      255
102
RTVSPost2010PropOp44
 70
     1
102
RTVSPost2010Prop45
280
     0
102
RTVSPost2010PropOp45
 70
     1
102
RTVSPost2010Prop46
 90
       50
102
RTVSPost2010PropOp46
 70
     1
102
RTVSPost2010Prop47
 90
       50
102
RTVSPost2010PropOp47
 70
     1
102
RTVSPost2010Prop48
 90
       50
102
RTVSPost2010PropOp48
 70
     1
102
RTVSPost2010Prop49
280
     0
102
RTVSPost2010PropOp49
 70
     1
102
RTVSPost2010Prop50
 90
       50
102
RTVSPost2010PropOp50
 70
     1
102
RTVSPost2010Prop51ColorIndex
 90
      256
102
RTVSPost2010Prop51ColorRGB
 90
-16777216
102
RTVSPost2010PropOp51
 70
     0
102
RTVSPost2010Prop52
140
1.0
102
RTVSPost2010PropOp52
 70
     0
102
RTVSPost2010Prop53
 90
        2
102
RTVSPost2010PropOp53
 70
     1
102
RTVSPost2010Prop54
  1
strokes_ogs.tif
102
RTVSPost2010PropOp54
 70
     1
102
RTVSPost2010Prop55
280
     0
102
RTVSPost2010PropOp55
 70
     1
102
RTVSPost2010Prop56
140
1.0
102
RTVSPost2010PropOp56
 70
     1
102
RTVSPost2010Prop57
140
1.0
102
RTVSPost2010PropOp57
 70
     1
102
RTVSPropertyOp0
 70
     1
102
RTVSPropertyOp1
 70
     1
102
RTVSPropertyOp2
 70
     1
102
RTVSPropertyOp3
 70
     1
102
RTVSPropertyOp4
 70
     1
102
RTVSPropertyOp5
 70
     1
102
RTVSPropertyOp6
 70
     1
102
RTVSPropertyOp7
 70
     1
102
RTVSPropertyOp8
 70
     1
102
RTVSPropertyOp9
 70
     1
102
RTVSPropertyOp10
 70
     1
102
RTVSPropertyOp11
 70
     1
102
RTVSPropertyOp12
 70
     1
102
RTVSPropertyOp13
 70
     1
102
RTVSPropertyOp14
 70
     1
102
RTVSPropertyOp15
 70
     1
102
RTVSPropertyOp16
 70
     1
102
RTVSPropertyOp17
 70
     1
102
RTVSPropertyOp18
 70
     1
102
RTVSPropertyOp19
 70
     1
102
RTVSPropertyOp20
 70
     1
102
RTVSPropertyOp21
 70
     1
102
RTVSPropertyOp22
 70
     1
102
RTVSPropertyOp23
 70
     1
102
RTVSPropertyOp24
 70
     1
102
RTVSPropertyOp25
 70
     1
102
RTVSPropertyOp26
 70
     1
102
RTVSPropertyOp27
 70
     1
102
RTVSPropertyOp28
 70
     1
102
RTVSPropertyOp29
 70
     1
102
RTVSPropertyOp30
 70
     1
102
RTVSPropertyOp31
 70
     1
102
RTVSPropertyOp32
 70
     1
102
RTVSPropertyOp33
 70
     1
102
RTVSPropertyOp34
 70
     1
102
RTVSPropertyOp35
 70
     1
102
RTVSPropertyOp36
 70
     1
102
RTVSPropertyOp37
 70
     1
102
RTVSPropertyOp38
 70
     1
102
RTVSPropertyOp39
 70
     1
102
RTVSPropertyOp40
 70
     1
102
RTVSPropertyOp41
 70
     1
102
RTVSPropertyOp42
 70
     1
102
RTVSPropertyOp43
 70
     1
102
RTVSPropertyOp44
 70
     1
102
RTVSPropertyOp45
 70
     1
102
RTVSPropertyOp46
 70
     1
102
RTVSPropertyOp47
 70
     1
102
RTVSPropertyOp48
 70
     1
102
RTVSPropertyOp49
 70
     1
102
RTVSPropertyOp50
 70
     1
102
RTVSPropertyOp51
 70
     0
102
RTVSPropertyOp52
 70
     0
102
RTVSPropertyOp53
 70
     1
102
RTVSPropertyOp54
 70
     1
102
RTVSPropertyOp55
 70
     1
102
RTVSPropertyOp56
 70
     1
102
RTVSPropertyOp57
 70
     1
102
RTVSPropertyOp58
 70
     1
102
RTVSPropertyOp59
 70
     1
102
RTVSPropertyOp60
 70
     1
102
RTVSPropertyOp61
 70
     1
102
RTVSPropertyOp62
 70
     1
  0
XRECORD
  5
7F3
102
{ACAD_REACTORS
330
7F2
102
}
330
7F2
100
AcDbXrecord
280
     1
102
RTVSPost2010Prop28
280
     0
102
RTVSPost2010PropOp28
 70
     1
102
RTVSPost2010Prop29
280
     1
102
RTVSPost2010PropOp29
 70
     1
102
RTVSPost2010Prop30
280
     1
102
RTVSPost2010PropOp30
 70
     1
102
RTVSPost2010Prop31
280
     0
102
RTVSPost2010PropOp31
 70
     1
102
RTVSPost2010Prop32
280
     0
102
RTVSPost2010PropOp32
 70
     1
102
RTVSPost2010Prop33
280
     0
102
RTVSPost2010PropOp33
 70
     1
102
RTVSPost2010Prop34
280
     0
102
RTVSPost2010PropOp34
 70
     1
102
RTVSPost2010Prop35
280
     0
102
RTVSPost2010PropOp35
 70
     1
102
RTVSPost2010Prop36
280
     0
102
RTVSPost2010PropOp36
 70
     1
102
RTVSPost2010Prop37
 90
       50
102
RTVSPost2010PropOp37
 70
     0
102
RTVSPost2010Prop38
140
0.0
102
RTVSPost2010PropOp38
 70
     0
102
RTVSPost2010Prop39
140
1.0
102
RTVSPost2010PropOp39
 70
     0
102
RTVSPost2010Prop40
 90
        0
102
RTVSPost2010PropOp40
 70
     0
102
RTVSPost2010Prop41ColorIndex
 90
       18
102
RTVSPost2010Prop41ColorRGB
 90
        0
102
RTVSPost2010PropOp41
 70
     0
102
RTVSPost2010Prop42
 90
       50
102
RTVSPost2010PropOp42
 70
     0
102
RTVSPost2010Prop43
 90
        3
102
RTVSPost2010PropOp43
 70
     0
102
RTVSPost2010Prop44ColorIndex
 90
        5
102
RTVSPost2010Prop44ColorRGB
 90
      255
102
RTVSPost2010PropOp44
 70
     0
102
RTVSPost2010Prop45
280
     0
102
RTVSPost2010PropOp45
 70
     1
102
RTVSPost2010Prop46
 90
       50
102
RTVSPost2010PropOp46
 70
     0
102
RTVSPost2010Prop47
 90
       50
102
RTVSPost2010PropOp47
 70
     0
102
RTVSPost2010Prop48
 90
       50
102
RTVSPost2010PropOp48
 70
     0
102
RTVSPost2010Prop49
280
     0
102
RTVSPost2010PropOp49
 70
     1
102
RTVSPost2010Prop50
 90
       50
102
RTVSPost2010PropOp50
 70
     0
102
RTVSPost2010Prop51ColorIndex
 90
      256
102
RTVSPost2010Prop51ColorRGB
 90
-16777216
102
RTVSPost2010PropOp51
 70
     0
102
RTVSPost2010Prop52
140
1.0
102
RTVSPost2010PropOp52
 70
     0
102
RTVSPost2010Prop53
 90
        2
102
RTVSPost2010PropOp53
 70
     0
102
RTVSPost2010Prop54
  1
strokes_ogs.tif
102
RTVSPost2010PropOp54
 70
     0
102
RTVSPost2010Prop55
280
     0
102
RTVSPost2010PropOp55
 70
     1
102
RTVSPost2010Prop56
140
1.0
102
RTVSPost2010PropOp56
 70
     0
102
RTVSPost2010Prop57
140
1.0
102
RTVSPost2010PropOp57
 70
     0
102
RTVSPropertyOp0
 70
     0
102
RTVSPropertyOp1
 70
     0
102
RTVSPropertyOp2
 70
     0
102
RTVSPropertyOp3
 70
     0
102
RTVSPropertyOp4
 70
     0
102
RTVSPropertyOp5
 70
     0
102
RTVSPropertyOp6
 70
     0
102
RTVSPropertyOp7
 70
     0
102
RTVSPropertyOp8
 70
     0
102
RTVSPropertyOp9
 70
     0
102
RTVSPropertyOp10
 70
     0
102
RTVSPropertyOp11
 70
     0
102
RTVSPropertyOp12
 70
     0
102
RTVSPropertyOp13
 70
     0
102
RTVSPropertyOp14
 70
     2
102
RTVSPropertyOp15
 70
     0
102
RTVSPropertyOp16
 70
     0
102
RTVSPropertyOp17
 70
     0
102
RTVSPropertyOp18
 70
     0
102
RTVSPropertyOp19
 70
     0
102
RTVSPropertyOp20
 70
     0
102
RTVSPropertyOp21
 70
     0
102
RTVSPropertyOp22
 70
     0
102
RTVSPropertyOp23
 70
     0
102
RTVSPropertyOp24
 70
     0
102
RTVSPropertyOp25
 70
     0
102
RTVSPropertyOp26
 70
     0
102
RTVSPropertyOp27
 70
     0
102
RTVSPropertyOp28
 70
     1
102
RTVSPropertyOp29
 70
     1
102
RTVSPropertyOp30
 70
     1
102
RTVSPropertyOp31
 70
     1
102
RTVSPropertyOp32
 70
     1
102
RTVSPropertyOp33
 70
     1
102
RTVSPropertyOp34
 70
     1
102
RTVSPropertyOp35
 70
     1
102
RTVSPropertyOp36
 70
     1
102
RTVSPropertyOp37
 70
     0
102
RTVSPropertyOp38
 70
     0
102
RTVSPropertyOp39
 70
     0
102
RTVSPropertyOp40
 70
     0
102
RTVSPropertyOp41
 70
     0
102
RTVSPropertyOp42
 70
     0
102
RTVSPropertyOp43
 70
     0
102
RTVSPropertyOp44
 70
     0
102
RTVSPropertyOp45
 70
     1
102
RTVSPropertyOp46
 70
     0
102
RTVSPropertyOp47
 70
     0
102
RTVSPropertyOp48
 70
     0
102
RTVSPropertyOp49
 70
     1
102
RTVSPropertyOp50
 70
     0
102
RTVSPropertyOp51
 70
     0
102
RTVSPropertyOp52
 70
     0
102
RTVSPropertyOp53
 70
     0
102
RTVSPropertyOp54
 70
     0
102
RTVSPropertyOp55
 70
     1
102
RTVSPropertyOp56
 70
     0
102
RTVSPropertyOp57
 70
     0
102
RTVSPropertyOp58
 70
     0
102
RTVSPropertyOp59
 70
     0
102
RTVSPropertyOp60
 70
     0
102
RTVSPropertyOp61
 70
     0
102
RTVSPropertyOp62
 70
     0
  0
XRECORD
  5
7E3
102
{ACAD_REACTORS
330
7E2
102
}
330
7E2
100
AcDbXrecord
280
     1
102
RTVSPost2010Prop28
280
     0
102
RTVSPost2010PropOp28
 70
     1
102
RTVSPost2010Prop29
280
     1
102
RTVSPost2010PropOp29
 70
     1
102
RTVSPost2010Prop30
280
     1
102
RTVSPost2010PropOp30
 70
     1
102
RTVSPost2010Prop31
280
     0
102
RTVSPost2010PropOp31
 70
     1
102
RTVSPost2010Prop32
280
     0
102
RTVSPost2010PropOp32
 70
     1
102
RTVSPost2010Prop33
280
     0
102
RTVSPost2010PropOp33
 70
     1
102
RTVSPost2010Prop34
280
     0
102
RTVSPost2010PropOp34
 70
     1
102
RTVSPost2010Prop35
280
     0
102
RTVSPost2010PropOp35
 70
     1
102
RTVSPost2010Prop36
280
     0
102
RTVSPost2010PropOp36
 70
     1
102
RTVSPost2010Prop37
 90
       50
102
RTVSPost2010PropOp37
 70
     1
102
RTVSPost2010Prop38
140
0.0
102
RTVSPost2010PropOp38
 70
     1
102
RTVSPost2010Prop39
140
1.0
102
RTVSPost2010PropOp39
 70
     1
102
RTVSPost2010Prop40
 90
        0
102
RTVSPost2010PropOp40
 70
     1
102
RTVSPost2010Prop41ColorIndex
 90
       18
102
RTVSPost2010Prop41ColorRGB
 90
        0
102
RTVSPost2010PropOp41
 70
     1
102
RTVSPost2010Prop42
 90
       50
102
RTVSPost2010PropOp42
 70
     1
102
RTVSPost2010Prop43
 90
        3
102
RTVSPost2010PropOp43
 70
     1
102
RTVSPost2010Prop44ColorIndex
 90
        5
102
RTVSPost2010Prop44ColorRGB
 90
      255
102
RTVSPost2010PropOp44
 70
     1
102
RTVSPost2010Prop45
280
     0
102
RTVSPost2010PropOp45
 70
     1
102
RTVSPost2010Prop46
 90
       50
102
RTVSPost2010PropOp46
 70
     1
102
RTVSPost2010Prop47
 90
       50
102
RTVSPost2010PropOp47
 70
     1
102
RTVSPost2010Prop48
 90
       50
102
RTVSPost2010PropOp48
 70
     1
102
RTVSPost2010Prop49
280
     0
102
RTVSPost2010PropOp49
 70
     1
102
RTVSPost2010Prop50
 90
       50
102
RTVSPost2010PropOp50
 70
     1
102
RTVSPost2010Prop51ColorIndex
 90
      256
102
RTVSPost2010Prop51ColorRGB
 90
-16777216
102
RTVSPost2010PropOp51
 70
     0
102
RTVSPost2010Prop52
140
1.0
102
RTVSPost2010PropOp52
 70
     0
102
RTVSPost2010Prop53
 90
        2
102
RTVSPost2010PropOp53
 70
     1
102
RTVSPost2010Prop54
  1
strokes_ogs.tif
102
RTVSPost2010PropOp54
 70
     1
102
RTVSPost2010Prop55
280
     0
102
RTVSPost2010PropOp55
 70
     1
102
RTVSPost2010Prop56
140
1.0
102
RTVSPost2010PropOp56
 70
     1
102
RTVSPost2010Prop57
140
1.0
102
RTVSPost2010PropOp57
 70
     1
102
RTVSPropertyOp0
 70
     1
102
RTVSPropertyOp1
 70
     1
102
RTVSPropertyOp2
 70
     1
102
RTVSPropertyOp3
 70
     1
102
RTVSPropertyOp4
 70
     1
102
RTVSPropertyOp5
 70
     1
102
RTVSPropertyOp6
 70
     1
102
RTVSPropertyOp7
 70
     1
102
RTVSPropertyOp8
 70
     1
102
RTVSPropertyOp9
 70
     1
102
RTVSPropertyOp10
 70
     1
102
RTVSPropertyOp11
 70
     1
102
RTVSPropertyOp12
 70
     1
102
RTVSPropertyOp13
 70
     1
102
RTVSPropertyOp14
 70
     1
102
RTVSPropertyOp15
 70
     1
102
RTVSPropertyOp16
 70
     1
102
RTVSPropertyOp17
 70
     1
102
RTVSPropertyOp18
 70
     1
102
RTVSPropertyOp19
 70
     1
102
RTVSPropertyOp20
 70
     1
102
RTVSPropertyOp21
 70
     1
102
RTVSPropertyOp22
 70
     1
102
RTVSPropertyOp23
 70
     1
102
RTVSPropertyOp24
 70
     1
102
RTVSPropertyOp25
 70
     1
102
RTVSPropertyOp26
 70
     1
102
RTVSPropertyOp27
 70
     1
102
RTVSPropertyOp28
 70
     1
102
RTVSPropertyOp29
 70
     1
102
RTVSPropertyOp30
 70
     1
102
RTVSPropertyOp31
 70
     1
102
RTVSPropertyOp32
 70
     1
102
RTVSPropertyOp33
 70
     1
102
RTVSPropertyOp34
 70
     1
102
RTVSPropertyOp35
 70
     1
102
RTVSPropertyOp36
 70
     1
102
RTVSPropertyOp37
 70
     1
102
RTVSPropertyOp38
 70
     1
102
RTVSPropertyOp39
 70
     1
102
RTVSPropertyOp40
 70
     1
102
RTVSPropertyOp41
 70
     1
102
RTVSPropertyOp42
 70
     1
102
RTVSPropertyOp43
 70
     1
102
RTVSPropertyOp44
 70
     1
102
RTVSPropertyOp45
 70
     1
102
RTVSPropertyOp46
 70
     1
102
RTVSPropertyOp47
 70
     1
102
RTVSPropertyOp48
 70
     1
102
RTVSPropertyOp49
 70
     1
102
RTVSPropertyOp50
 70
     1
102
RTVSPropertyOp51
 70
     0
102
RTVSPropertyOp52
 70
     0
102
RTVSPropertyOp53
 70
     1
102
RTVSPropertyOp54
 70
     1
102
RTVSPropertyOp55
 70
     1
102
RTVSPropertyOp56
 70
     1
102
RTVSPropertyOp57
 70
     1
102
RTVSPropertyOp58
 70
     1
102
RTVSPropertyOp59
 70
     1
102
RTVSPropertyOp60
 70
     1
102
RTVSPropertyOp61
 70
     1
102
RTVSPropertyOp62
 70
     1
  0
XRECORD
  5
7F5
102
{ACAD_REACTORS
330
7F4
102
}
330
7F4
100
AcDbXrecord
280
     1
102
RTVSPost2010Prop28
280
     0
102
RTVSPost2010PropOp28
 70
     1
102
RTVSPost2010Prop29
280
     1
102
RTVSPost2010PropOp29
 70
     1
102
RTVSPost2010Prop30
280
     1
102
RTVSPost2010PropOp30
 70
     1
102
RTVSPost2010Prop31
280
     0
102
RTVSPost2010PropOp31
 70
     1
102
RTVSPost2010Prop32
280
     0
102
RTVSPost2010PropOp32
 70
     1
102
RTVSPost2010Prop33
280
     0
102
RTVSPost2010PropOp33
 70
     1
102
RTVSPost2010Prop34
280
     0
102
RTVSPost2010PropOp34
 70
     1
102
RTVSPost2010Prop35
280
     0
102
RTVSPost2010PropOp35
 70
     1
102
RTVSPost2010Prop36
280
     0
102
RTVSPost2010PropOp36
 70
     1
102
RTVSPost2010Prop37
 90
       50
102
RTVSPost2010PropOp37
 70
     0
102
RTVSPost2010Prop38
140
0.0
102
RTVSPost2010PropOp38
 70
     0
102
RTVSPost2010Prop39
140
1.0
102
RTVSPost2010PropOp39
 70
     0
102
RTVSPost2010Prop40
 90
        0
102
RTVSPost2010PropOp40
 70
     0
102
RTVSPost2010Prop41ColorIndex
 90
       18
102
RTVSPost2010Prop41ColorRGB
 90
        0
102
RTVSPost2010PropOp41
 70
     0
102
RTVSPost2010Prop42
 90
       50
102
RTVSPost2010PropOp42
 70
     0
102
RTVSPost2010Prop43
 90
        3
102
RTVSPost2010PropOp43
 70
     0
102
RTVSPost2010Prop44ColorIndex
 90
        5
102
RTVSPost2010Prop44ColorRGB
 90
      255
102
RTVSPost2010PropOp44
 70
     0
102
RTVSPost2010Prop45
280
     0
102
RTVSPost2010PropOp45
 70
     1
102
RTVSPost2010Prop46
 90
       50
102
RTVSPost2010PropOp46
 70
     0
102
RTVSPost2010Prop47
 90
       50
102
RTVSPost2010PropOp47
 70
     0
102
RTVSPost2010Prop48
 90
       50
102
RTVSPost2010PropOp48
 70
     0
102
RTVSPost2010Prop49
280
     0
102
RTVSPost2010PropOp49
 70
     1
102
RTVSPost2010Prop50
 90
       50
102
RTVSPost2010PropOp50
 70
     0
102
RTVSPost2010Prop51ColorIndex
 90
      256
102
RTVSPost2010Prop51ColorRGB
 90
-16777216
102
RTVSPost2010PropOp51
 70
     0
102
RTVSPost2010Prop52
140
1.0
102
RTVSPost2010PropOp52
 70
     0
102
RTVSPost2010Prop53
 90
        2
102
RTVSPost2010PropOp53
 70
     0
102
RTVSPost2010Prop54
  1
strokes_ogs.tif
102
RTVSPost2010PropOp54
 70
     0
102
RTVSPost2010Prop55
280
     0
102
RTVSPost2010PropOp55
 70
     1
102
RTVSPost2010Prop56
140
1.0
102
RTVSPost2010PropOp56
 70
     0
102
RTVSPost2010Prop57
140
1.0
102
RTVSPost2010PropOp57
 70
     0
102
RTVSPropertyOp0
 70
     0
102
RTVSPropertyOp1
 70
     0
102
RTVSPropertyOp2
 70
     0
102
RTVSPropertyOp3
 70
     0
102
RTVSPropertyOp4
 70
     0
102
RTVSPropertyOp5
 70
     0
102
RTVSPropertyOp6
 70
     0
102
RTVSPropertyOp7
 70
     0
102
RTVSPropertyOp8
 70
     0
102
RTVSPropertyOp9
 70
     0
102
RTVSPropertyOp10
 70
     0
102
RTVSPropertyOp11
 70
     0
102
RTVSPropertyOp12
 70
     0
102
RTVSPropertyOp13
 70
     0
102
RTVSPropertyOp14
 70
     2
102
RTVSPropertyOp15
 70
     0
102
RTVSPropertyOp16
 70
     0
102
RTVSPropertyOp17
 70
     0
102
RTVSPropertyOp18
 70
     0
102
RTVSPropertyOp19
 70
     0
102
RTVSPropertyOp20
 70
     0
102
RTVSPropertyOp21
 70
     0
102
RTVSPropertyOp22
 70
     0
102
RTVSPropertyOp23
 70
     0
102
RTVSPropertyOp24
 70
     0
102
RTVSPropertyOp25
 70
     0
102
RTVSPropertyOp26
 70
     0
102
RTVSPropertyOp27
 70
     0
102
RTVSPropertyOp28
 70
     1
102
RTVSPropertyOp29
 70
     1
102
RTVSPropertyOp30
 70
     1
102
RTVSPropertyOp31
 70
     1
102
RTVSPropertyOp32
 70
     1
102
RTVSPropertyOp33
 70
     1
102
RTVSPropertyOp34
 70
     1
102
RTVSPropertyOp35
 70
     1
102
RTVSPropertyOp36
 70
     1
102
RTVSPropertyOp37
 70
     0
102
RTVSPropertyOp38
 70
     0
102
RTVSPropertyOp39
 70
     0
102
RTVSPropertyOp40
 70
     0
102
RTVSPropertyOp41
 70
     0
102
RTVSPropertyOp42
 70
     0
102
RTVSPropertyOp43
 70
     0
102
RTVSPropertyOp44
 70
     0
102
RTVSPropertyOp45
 70
     1
102
RTVSPropertyOp46
 70
     0
102
RTVSPropertyOp47
 70
     0
102
RTVSPropertyOp48
 70
     0
102
RTVSPropertyOp49
 70
     1
102
RTVSPropertyOp50
 70
     0
102
RTVSPropertyOp51
 70
     0
102
RTVSPropertyOp52
 70
     0
102
RTVSPropertyOp53
 70
     0
102
RTVSPropertyOp54
 70
     0
102
RTVSPropertyOp55
 70
     1
102
RTVSPropertyOp56
 70
     0
102
RTVSPropertyOp57
 70
     0
102
RTVSPropertyOp58
 70
     0
102
RTVSPropertyOp59
 70
     0
102
RTVSPropertyOp60
 70
     0
102
RTVSPropertyOp61
 70
     0
102
RTVSPropertyOp62
 70
     0
  0
XRECORD
  5
7DB
102
{ACAD_REACTORS
330
7DA
102
}
330
7DA
100
AcDbXrecord
280
     1
102
RTVSPost2010Prop28
280
     0
102
RTVSPost2010PropOp28
 70
     1
102
RTVSPost2010Prop29
280
     1
102
RTVSPost2010PropOp29
 70
     1
102
RTVSPost2010Prop30
280
     1
102
RTVSPost2010PropOp30
 70
     1
102
RTVSPost2010Prop31
280
     0
102
RTVSPost2010PropOp31
 70
     1
102
RTVSPost2010Prop32
280
     0
102
RTVSPost2010PropOp32
 70
     1
102
RTVSPost2010Prop33
280
     0
102
RTVSPost2010PropOp33
 70
     1
102
RTVSPost2010Prop34
280
     0
102
RTVSPost2010PropOp34
 70
     1
102
RTVSPost2010Prop35
280
     0
102
RTVSPost2010PropOp35
 70
     1
102
RTVSPost2010Prop36
280
     0
102
RTVSPost2010PropOp36
 70
     1
102
RTVSPost2010Prop37
 90
       50
102
RTVSPost2010PropOp37
 70
     1
102
RTVSPost2010Prop38
140
0.0
102
RTVSPost2010PropOp38
 70
     1
102
RTVSPost2010Prop39
140
1.0
102
RTVSPost2010PropOp39
 70
     1
102
RTVSPost2010Prop40
 90
        0
102
RTVSPost2010PropOp40
 70
     1
102
RTVSPost2010Prop41ColorIndex
 90
       18
102
RTVSPost2010Prop41ColorRGB
 90
        0
102
RTVSPost2010PropOp41
 70
     1
102
RTVSPost2010Prop42
 90
       50
102
RTVSPost2010PropOp42
 70
     1
102
RTVSPost2010Prop43
 90
        3
102
RTVSPost2010PropOp43
 70
     1
102
RTVSPost2010Prop44ColorIndex
 90
        5
102
RTVSPost2010Prop44ColorRGB
 90
      255
102
RTVSPost2010PropOp44
 70
     1
102
RTVSPost2010Prop45
280
     0
102
RTVSPost2010PropOp45
 70
     1
102
RTVSPost2010Prop46
 90
       50
102
RTVSPost2010PropOp46
 70
     1
102
RTVSPost2010Prop47
 90
       50
102
RTVSPost2010PropOp47
 70
     1
102
RTVSPost2010Prop48
 90
       50
102
RTVSPost2010PropOp48
 70
     1
102
RTVSPost2010Prop49
280
     0
102
RTVSPost2010PropOp49
 70
     1
102
RTVSPost2010Prop50
 90
       50
102
RTVSPost2010PropOp50
 70
     1
102
RTVSPost2010Prop51ColorIndex
 90
      256
102
RTVSPost2010Prop51ColorRGB
 90
-16777216
102
RTVSPost2010PropOp51
 70
     0
102
RTVSPost2010Prop52
140
1.0
102
RTVSPost2010PropOp52
 70
     0
102
RTVSPost2010Prop53
 90
        2
102
RTVSPost2010PropOp53
 70
     1
102
RTVSPost2010Prop54
  1
strokes_ogs.tif
102
RTVSPost2010PropOp54
 70
     1
102
RTVSPost2010Prop55
280
     0
102
RTVSPost2010PropOp55
 70
     1
102
RTVSPost2010Prop56
140
1.0
102
RTVSPost2010PropOp56
 70
     1
102
RTVSPost2010Prop57
140
1.0
102
RTVSPost2010PropOp57
 70
     1
102
RTVSPropertyOp0
 70
     1
102
RTVSPropertyOp1
 70
     1
102
RTVSPropertyOp2
 70
     1
102
RTVSPropertyOp3
 70
     1
102
RTVSPropertyOp4
 70
     1
102
RTVSPropertyOp5
 70
     1
102
RTVSPropertyOp6
 70
     1
102
RTVSPropertyOp7
 70
     1
102
RTVSPropertyOp8
 70
     1
102
RTVSPropertyOp9
 70
     1
102
RTVSPropertyOp10
 70
     1
102
RTVSPropertyOp11
 70
     1
102
RTVSPropertyOp12
 70
     1
102
RTVSPropertyOp13
 70
     1
102
RTVSPropertyOp14
 70
     1
102
RTVSPropertyOp15
 70
     1
102
RTVSPropertyOp16
 70
     1
102
RTVSPropertyOp17
 70
     1
102
RTVSPropertyOp18
 70
     1
102
RTVSPropertyOp19
 70
     1
102
RTVSPropertyOp20
 70
     1
102
RTVSPropertyOp21
 70
     1
102
RTVSPropertyOp22
 70
     1
102
RTVSPropertyOp23
 70
     1
102
RTVSPropertyOp24
 70
     1
102
RTVSPropertyOp25
 70
     1
102
RTVSPropertyOp26
 70
     1
102
RTVSPropertyOp27
 70
     1
102
RTVSPropertyOp28
 70
     1
102
RTVSPropertyOp29
 70
     1
102
RTVSPropertyOp30
 70
     1
102
RTVSPropertyOp31
 70
     1
102
RTVSPropertyOp32
 70
     1
102
RTVSPropertyOp33
 70
     1
102
RTVSPropertyOp34
 70
     1
102
RTVSPropertyOp35
 70
     1
102
RTVSPropertyOp36
 70
     1
102
RTVSPropertyOp37
 70
     1
102
RTVSPropertyOp38
 70
     1
102
RTVSPropertyOp39
 70
     1
102
RTVSPropertyOp40
 70
     1
102
RTVSPropertyOp41
 70
     1
102
RTVSPropertyOp42
 70
     1
102
RTVSPropertyOp43
 70
     1
102
RTVSPropertyOp44
 70
     1
102
RTVSPropertyOp45
 70
     1
102
RTVSPropertyOp46
 70
     1
102
RTVSPropertyOp47
 70
     1
102
RTVSPropertyOp48
 70
     1
102
RTVSPropertyOp49
 70
     1
102
RTVSPropertyOp50
 70
     1
102
RTVSPropertyOp51
 70
     0
102
RTVSPropertyOp52
 70
     0
102
RTVSPropertyOp53
 70
     1
102
RTVSPropertyOp54
 70
     1
102
RTVSPropertyOp55
 70
     1
102
RTVSPropertyOp56
 70
     1
102
RTVSPropertyOp57
 70
     1
102
RTVSPropertyOp58
 70
     1
102
RTVSPropertyOp59
 70
     1
102
RTVSPropertyOp60
 70
     1
102
RTVSPropertyOp61
 70
     1
102
RTVSPropertyOp62
 70
     1
  0
XRECORD
  5
7F1
102
{ACAD_REACTORS
330
7F0
102
}
330
7F0
100
AcDbXrecord
280
     1
102
RTVSPost2010Prop28
280
     0
102
RTVSPost2010PropOp28
 70
     1
102
RTVSPost2010Prop29
280
     1
102
RTVSPost2010PropOp29
 70
     1
102
RTVSPost2010Prop30
280
     1
102
RTVSPost2010PropOp30
 70
     1
102
RTVSPost2010Prop31
280
     0
102
RTVSPost2010PropOp31
 70
     1
102
RTVSPost2010Prop32
280
     0
102
RTVSPost2010PropOp32
 70
     1
102
RTVSPost2010Prop33
280
     0
102
RTVSPost2010PropOp33
 70
     1
102
RTVSPost2010Prop34
280
     0
102
RTVSPost2010PropOp34
 70
     1
102
RTVSPost2010Prop35
280
     0
102
RTVSPost2010PropOp35
 70
     1
102
RTVSPost2010Prop36
280
     0
102
RTVSPost2010PropOp36
 70
     1
102
RTVSPost2010Prop37
 90
       50
102
RTVSPost2010PropOp37
 70
     1
102
RTVSPost2010Prop38
140
0.0
102
RTVSPost2010PropOp38
 70
     1
102
RTVSPost2010Prop39
140
1.0
102
RTVSPost2010PropOp39
 70
     1
102
RTVSPost2010Prop40
 90
        0
102
RTVSPost2010PropOp40
 70
     1
102
RTVSPost2010Prop41ColorIndex
 90
       18
102
RTVSPost2010Prop41ColorRGB
 90
        0
102
RTVSPost2010PropOp41
 70
     1
102
RTVSPost2010Prop42
 90
       50
102
RTVSPost2010PropOp42
 70
     1
102
RTVSPost2010Prop43
 90
        3
102
RTVSPost2010PropOp43
 70
     1
102
RTVSPost2010Prop44ColorIndex
 90
        5
102
RTVSPost2010Prop44ColorRGB
 90
      255
102
RTVSPost2010PropOp44
 70
     1
102
RTVSPost2010Prop45
280
     0
102
RTVSPost2010PropOp45
 70
     1
102
RTVSPost2010Prop46
 90
       50
102
RTVSPost2010PropOp46
 70
     1
102
RTVSPost2010Prop47
 90
       50
102
RTVSPost2010PropOp47
 70
     1
102
RTVSPost2010Prop48
 90
       50
102
RTVSPost2010PropOp48
 70
     1
102
RTVSPost2010Prop49
280
     0
102
RTVSPost2010PropOp49
 70
     1
102
RTVSPost2010Prop50
 90
       50
102
RTVSPost2010PropOp50
 70
     1
102
RTVSPost2010Prop51ColorIndex
 90
      256
102
RTVSPost2010Prop51ColorRGB
 90
-16777216
102
RTVSPost2010PropOp51
 70
     0
102
RTVSPost2010Prop52
140
1.0
102
RTVSPost2010PropOp52
 70
     0
102
RTVSPost2010Prop53
 90
        2
102
RTVSPost2010PropOp53
 70
     1
102
RTVSPost2010Prop54
  1
strokes_ogs.tif
102
RTVSPost2010PropOp54
 70
     1
102
RTVSPost2010Prop55
280
     0
102
RTVSPost2010PropOp55
 70
     1
102
RTVSPost2010Prop56
140
1.0
102
RTVSPost2010PropOp56
 70
     1
102
RTVSPost2010Prop57
140
1.0
102
RTVSPost2010PropOp57
 70
     1
102
RTVSPropertyOp0
 70
     1
102
RTVSPropertyOp1
 70
     1
102
RTVSPropertyOp2
 70
     1
102
RTVSPropertyOp3
 70
     1
102
RTVSPropertyOp4
 70
     1
102
RTVSPropertyOp5
 70
     1
102
RTVSPropertyOp6
 70
     1
102
RTVSPropertyOp7
 70
     1
102
RTVSPropertyOp8
 70
     1
102
RTVSPropertyOp9
 70
     1
102
RTVSPropertyOp10
 70
     1
102
RTVSPropertyOp11
 70
     1
102
RTVSPropertyOp12
 70
     1
102
RTVSPropertyOp13
 70
     1
102
RTVSPropertyOp14
 70
     1
102
RTVSPropertyOp15
 70
     1
102
RTVSPropertyOp16
 70
     1
102
RTVSPropertyOp17
 70
     1
102
RTVSPropertyOp18
 70
     1
102
RTVSPropertyOp19
 70
     1
102
RTVSPropertyOp20
 70
     1
102
RTVSPropertyOp21
 70
     1
102
RTVSPropertyOp22
 70
     1
102
RTVSPropertyOp23
 70
     1
102
RTVSPropertyOp24
 70
     1
102
RTVSPropertyOp25
 70
     1
102
RTVSPropertyOp26
 70
     1
102
RTVSPropertyOp27
 70
     1
102
RTVSPropertyOp28
 70
     1
102
RTVSPropertyOp29
 70
     1
102
RTVSPropertyOp30
 70
     1
102
RTVSPropertyOp31
 70
     1
102
RTVSPropertyOp32
 70
     1
102
RTVSPropertyOp33
 70
     1
102
RTVSPropertyOp34
 70
     1
102
RTVSPropertyOp35
 70
     1
102
RTVSPropertyOp36
 70
     1
102
RTVSPropertyOp37
 70
     1
102
RTVSPropertyOp38
 70
     1
102
RTVSPropertyOp39
 70
     1
102
RTVSPropertyOp40
 70
     1
102
RTVSPropertyOp41
 70
     1
102
RTVSPropertyOp42
 70
     1
102
RTVSPropertyOp43
 70
     1
102
RTVSPropertyOp44
 70
     1
102
RTVSPropertyOp45
 70
     1
102
RTVSPropertyOp46
 70
     1
102
RTVSPropertyOp47
 70
     1
102
RTVSPropertyOp48
 70
     1
102
RTVSPropertyOp49
 70
     1
102
RTVSPropertyOp50
 70
     1
102
RTVSPropertyOp51
 70
     0
102
RTVSPropertyOp52
 70
     0
102
RTVSPropertyOp53
 70
     1
102
RTVSPropertyOp54
 70
     1
102
RTVSPropertyOp55
 70
     1
102
RTVSPropertyOp56
 70
     1
102
RTVSPropertyOp57
 70
     1
102
RTVSPropertyOp58
 70
     1
102
RTVSPropertyOp59
 70
     1
102
RTVSPropertyOp60
 70
     1
102
RTVSPropertyOp61
 70
     1
102
RTVSPropertyOp62
 70
     1
  0
XRECORD
  5
7EF
102
{ACAD_REACTORS
330
7EE
102
}
330
7EE
100
AcDbXrecord
280
     1
102
RTVSPost2010Prop28
280
     0
102
RTVSPost2010PropOp28
 70
     1
102
RTVSPost2010Prop29
280
     1
102
RTVSPost2010PropOp29
 70
     1
102
RTVSPost2010Prop30
280
     1
102
RTVSPost2010PropOp30
 70
     1
102
RTVSPost2010Prop31
280
     0
102
RTVSPost2010PropOp31
 70
     1
102
RTVSPost2010Prop32
280
     0
102
RTVSPost2010PropOp32
 70
     1
102
RTVSPost2010Prop33
280
     0
102
RTVSPost2010PropOp33
 70
     1
102
RTVSPost2010Prop34
280
     0
102
RTVSPost2010PropOp34
 70
     1
102
RTVSPost2010Prop35
280
     0
102
RTVSPost2010PropOp35
 70
     1
102
RTVSPost2010Prop36
280
     0
102
RTVSPost2010PropOp36
 70
     1
102
RTVSPost2010Prop37
 90
       50
102
RTVSPost2010PropOp37
 70
     1
102
RTVSPost2010Prop38
140
0.0
102
RTVSPost2010PropOp38
 70
     1
102
RTVSPost2010Prop39
140
1.0
102
RTVSPost2010PropOp39
 70
     1
102
RTVSPost2010Prop40
 90
        0
102
RTVSPost2010PropOp40
 70
     1
102
RTVSPost2010Prop41ColorIndex
 90
       18
102
RTVSPost2010Prop41ColorRGB
 90
        0
102
RTVSPost2010PropOp41
 70
     1
102
RTVSPost2010Prop42
 90
       50
102
RTVSPost2010PropOp42
 70
     1
102
RTVSPost2010Prop43
 90
        3
102
RTVSPost2010PropOp43
 70
     1
102
RTVSPost2010Prop44ColorIndex
 90
        5
102
RTVSPost2010Prop44ColorRGB
 90
      255
102
RTVSPost2010PropOp44
 70
     1
102
RTVSPost2010Prop45
280
     0
102
RTVSPost2010PropOp45
 70
     1
102
RTVSPost2010Prop46
 90
       50
102
RTVSPost2010PropOp46
 70
     1
102
RTVSPost2010Prop47
 90
       50
102
RTVSPost2010PropOp47
 70
     1
102
RTVSPost2010Prop48
 90
       50
102
RTVSPost2010PropOp48
 70
     1
102
RTVSPost2010Prop49
280
     0
102
RTVSPost2010PropOp49
 70
     1
102
RTVSPost2010Prop50
 90
       50
102
RTVSPost2010PropOp50
 70
     1
102
RTVSPost2010Prop51ColorIndex
 90
      256
102
RTVSPost2010Prop51ColorRGB
 90
-16777216
102
RTVSPost2010PropOp51
 70
     0
102
RTVSPost2010Prop52
140
1.0
102
RTVSPost2010PropOp52
 70
     0
102
RTVSPost2010Prop53
 90
        2
102
RTVSPost2010PropOp53
 70
     1
102
RTVSPost2010Prop54
  1
strokes_ogs.tif
102
RTVSPost2010PropOp54
 70
     1
102
RTVSPost2010Prop55
280
     0
102
RTVSPost2010PropOp55
 70
     1
102
RTVSPost2010Prop56
140
1.0
102
RTVSPost2010PropOp56
 70
     1
102
RTVSPost2010Prop57
140
1.0
102
RTVSPost2010PropOp57
 70
     1
102
RTVSPropertyOp0
 70
     1
102
RTVSPropertyOp1
 70
     1
102
RTVSPropertyOp2
 70
     1
102
RTVSPropertyOp3
 70
     1
102
RTVSPropertyOp4
 70
     1
102
RTVSPropertyOp5
 70
     1
102
RTVSPropertyOp6
 70
     1
102
RTVSPropertyOp7
 70
     1
102
RTVSPropertyOp8
 70
     1
102
RTVSPropertyOp9
 70
     1
102
RTVSPropertyOp10
 70
     1
102
RTVSPropertyOp11
 70
     1
102
RTVSPropertyOp12
 70
     1
102
RTVSPropertyOp13
 70
     1
102
RTVSPropertyOp14
 70
     1
102
RTVSPropertyOp15
 70
     1
102
RTVSPropertyOp16
 70
     1
102
RTVSPropertyOp17
 70
     1
102
RTVSPropertyOp18
 70
     1
102
RTVSPropertyOp19
 70
     1
102
RTVSPropertyOp20
 70
     1
102
RTVSPropertyOp21
 70
     1
102
RTVSPropertyOp22
 70
     1
102
RTVSPropertyOp23
 70
     1
102
RTVSPropertyOp24
 70
     1
102
RTVSPropertyOp25
 70
     1
102
RTVSPropertyOp26
 70
     1
102
RTVSPropertyOp27
 70
     1
102
RTVSPropertyOp28
 70
     1
102
RTVSPropertyOp29
 70
     1
102
RTVSPropertyOp30
 70
     1
102
RTVSPropertyOp31
 70
     1
102
RTVSPropertyOp32
 70
     1
102
RTVSPropertyOp33
 70
     1
102
RTVSPropertyOp34
 70
     1
102
RTVSPropertyOp35
 70
     1
102
RTVSPropertyOp36
 70
     1
102
RTVSPropertyOp37
 70
     1
102
RTVSPropertyOp38
 70
     1
102
RTVSPropertyOp39
 70
     1
102
RTVSPropertyOp40
 70
     1
102
RTVSPropertyOp41
 70
     1
102
RTVSPropertyOp42
 70
     1
102
RTVSPropertyOp43
 70
     1
102
RTVSPropertyOp44
 70
     1
102
RTVSPropertyOp45
 70
     1
102
RTVSPropertyOp46
 70
     1
102
RTVSPropertyOp47
 70
     1
102
RTVSPropertyOp48
 70
     1
102
RTVSPropertyOp49
 70
     1
102
RTVSPropertyOp50
 70
     1
102
RTVSPropertyOp51
 70
     0
102
RTVSPropertyOp52
 70
     0
102
RTVSPropertyOp53
 70
     1
102
RTVSPropertyOp54
 70
     1
102
RTVSPropertyOp55
 70
     1
102
RTVSPropertyOp56
 70
     1
102
RTVSPropertyOp57
 70
     1
102
RTVSPropertyOp58
 70
     1
102
RTVSPropertyOp59
 70
     1
102
RTVSPropertyOp60
 70
     1
102
RTVSPropertyOp61
 70
     1
102
RTVSPropertyOp62
 70
     1
  0
XRECORD
  5
7E9
102
{ACAD_REACTORS
330
7E8
102
}
330
7E8
100
AcDbXrecord
280
     1
102
RTVSPost2010Prop28
280
     0
102
RTVSPost2010PropOp28
 70
     1
102
RTVSPost2010Prop29
280
     1
102
RTVSPost2010PropOp29
 70
     1
102
RTVSPost2010Prop30
280
     1
102
RTVSPost2010PropOp30
 70
     1
102
RTVSPost2010Prop31
280
     0
102
RTVSPost2010PropOp31
 70
     1
102
RTVSPost2010Prop32
280
     0
102
RTVSPost2010PropOp32
 70
     1
102
RTVSPost2010Prop33
280
     0
102
RTVSPost2010PropOp33
 70
     1
102
RTVSPost2010Prop34
280
     0
102
RTVSPost2010PropOp34
 70
     1
102
RTVSPost2010Prop35
280
     0
102
RTVSPost2010PropOp35
 70
     1
102
RTVSPost2010Prop36
280
     0
102
RTVSPost2010PropOp36
 70
     1
102
RTVSPost2010Prop37
 90
       50
102
RTVSPost2010PropOp37
 70
     1
102
RTVSPost2010Prop38
140
0.0
102
RTVSPost2010PropOp38
 70
     1
102
RTVSPost2010Prop39
140
1.0
102
RTVSPost2010PropOp39
 70
     1
102
RTVSPost2010Prop40
 90
        0
102
RTVSPost2010PropOp40
 70
     1
102
RTVSPost2010Prop41ColorIndex
 90
       18
102
RTVSPost2010Prop41ColorRGB
 90
        0
102
RTVSPost2010PropOp41
 70
     1
102
RTVSPost2010Prop42
 90
       50
102
RTVSPost2010PropOp42
 70
     1
102
RTVSPost2010Prop43
 90
        3
102
RTVSPost2010PropOp43
 70
     1
102
RTVSPost2010Prop44ColorIndex
 90
        5
102
RTVSPost2010Prop44ColorRGB
 90
      255
102
RTVSPost2010PropOp44
 70
     1
102
RTVSPost2010Prop45
280
     0
102
RTVSPost2010PropOp45
 70
     1
102
RTVSPost2010Prop46
 90
       50
102
RTVSPost2010PropOp46
 70
     1
102
RTVSPost2010Prop47
 90
       50
102
RTVSPost2010PropOp47
 70
     1
102
RTVSPost2010Prop48
 90
       50
102
RTVSPost2010PropOp48
 70
     1
102
RTVSPost2010Prop49
280
     0
102
RTVSPost2010PropOp49
 70
     1
102
RTVSPost2010Prop50
 90
       50
102
RTVSPost2010PropOp50
 70
     1
102
RTVSPost2010Prop51ColorIndex
 90
      256
102
RTVSPost2010Prop51ColorRGB
 90
-16777216
102
RTVSPost2010PropOp51
 70
     0
102
RTVSPost2010Prop52
140
1.0
102
RTVSPost2010PropOp52
 70
     0
102
RTVSPost2010Prop53
 90
        2
102
RTVSPost2010PropOp53
 70
     1
102
RTVSPost2010Prop54
  1
strokes_ogs.tif
102
RTVSPost2010PropOp54
 70
     1
102
RTVSPost2010Prop55
280
     0
102
RTVSPost2010PropOp55
 70
     1
102
RTVSPost2010Prop56
140
1.0
102
RTVSPost2010PropOp56
 70
     1
102
RTVSPost2010Prop57
140
1.0
102
RTVSPost2010PropOp57
 70
     1
102
RTVSPropertyOp0
 70
     1
102
RTVSPropertyOp1
 70
     1
102
RTVSPropertyOp2
 70
     1
102
RTVSPropertyOp3
 70
     1
102
RTVSPropertyOp4
 70
     1
102
RTVSPropertyOp5
 70
     1
102
RTVSPropertyOp6
 70
     1
102
RTVSPropertyOp7
 70
     1
102
RTVSPropertyOp8
 70
     1
102
RTVSPropertyOp9
 70
     1
102
RTVSPropertyOp10
 70
     1
102
RTVSPropertyOp11
 70
     1
102
RTVSPropertyOp12
 70
     1
102
RTVSPropertyOp13
 70
     1
102
RTVSPropertyOp14
 70
     1
102
RTVSPropertyOp15
 70
     1
102
RTVSPropertyOp16
 70
     1
102
RTVSPropertyOp17
 70
     1
102
RTVSPropertyOp18
 70
     1
102
RTVSPropertyOp19
 70
     1
102
RTVSPropertyOp20
 70
     1
102
RTVSPropertyOp21
 70
     1
102
RTVSPropertyOp22
 70
     1
102
RTVSPropertyOp23
 70
     1
102
RTVSPropertyOp24
 70
     1
102
RTVSPropertyOp25
 70
     1
102
RTVSPropertyOp26
 70
     1
102
RTVSPropertyOp27
 70
     1
102
RTVSPropertyOp28
 70
     1
102
RTVSPropertyOp29
 70
     1
102
RTVSPropertyOp30
 70
     1
102
RTVSPropertyOp31
 70
     1
102
RTVSPropertyOp32
 70
     1
102
RTVSPropertyOp33
 70
     1
102
RTVSPropertyOp34
 70
     1
102
RTVSPropertyOp35
 70
     1
102
RTVSPropertyOp36
 70
     1
102
RTVSPropertyOp37
 70
     1
102
RTVSPropertyOp38
 70
     1
102
RTVSPropertyOp39
 70
     1
102
RTVSPropertyOp40
 70
     1
102
RTVSPropertyOp41
 70
     1
102
RTVSPropertyOp42
 70
     1
102
RTVSPropertyOp43
 70
     1
102
RTVSPropertyOp44
 70
     1
102
RTVSPropertyOp45
 70
     1
102
RTVSPropertyOp46
 70
     1
102
RTVSPropertyOp47
 70
     1
102
RTVSPropertyOp48
 70
     1
102
RTVSPropertyOp49
 70
     1
102
RTVSPropertyOp50
 70
     1
102
RTVSPropertyOp51
 70
     0
102
RTVSPropertyOp52
 70
     0
102
RTVSPropertyOp53
 70
     1
102
RTVSPropertyOp54
 70
     1
102
RTVSPropertyOp55
 70
     1
102
RTVSPropertyOp56
 70
     1
102
RTVSPropertyOp57
 70
     1
102
RTVSPropertyOp58
 70
     1
102
RTVSPropertyOp59
 70
     1
102
RTVSPropertyOp60
 70
     1
102
RTVSPropertyOp61
 70
     1
102
RTVSPropertyOp62
 70
     1
  0
XRECORD
  5
7EB
102
{ACAD_REACTORS
330
7EA
102
}
330
7EA
100
AcDbXrecord
280
     1
102
RTVSPost2010Prop28
280
     0
102
RTVSPost2010PropOp28
 70
     1
102
RTVSPost2010Prop29
280
     1
102
RTVSPost2010PropOp29
 70
     1
102
RTVSPost2010Prop30
280
     1
102
RTVSPost2010PropOp30
 70
     1
102
RTVSPost2010Prop31
280
     0
102
RTVSPost2010PropOp31
 70
     1
102
RTVSPost2010Prop32
280
     0
102
RTVSPost2010PropOp32
 70
     1
102
RTVSPost2010Prop33
280
     0
102
RTVSPost2010PropOp33
 70
     1
102
RTVSPost2010Prop34
280
     0
102
RTVSPost2010PropOp34
 70
     1
102
RTVSPost2010Prop35
280
     0
102
RTVSPost2010PropOp35
 70
     1
102
RTVSPost2010Prop36
280
     0
102
RTVSPost2010PropOp36
 70
     1
102
RTVSPost2010Prop37
 90
       50
102
RTVSPost2010PropOp37
 70
     1
102
RTVSPost2010Prop38
140
0.0
102
RTVSPost2010PropOp38
 70
     1
102
RTVSPost2010Prop39
140
1.0
102
RTVSPost2010PropOp39
 70
     1
102
RTVSPost2010Prop40
 90
        0
102
RTVSPost2010PropOp40
 70
     1
102
RTVSPost2010Prop41ColorIndex
 90
       18
102
RTVSPost2010Prop41ColorRGB
 90
        0
102
RTVSPost2010PropOp41
 70
     1
102
RTVSPost2010Prop42
 90
       50
102
RTVSPost2010PropOp42
 70
     1
102
RTVSPost2010Prop43
 90
        3
102
RTVSPost2010PropOp43
 70
     1
102
RTVSPost2010Prop44ColorIndex
 90
        5
102
RTVSPost2010Prop44ColorRGB
 90
      255
102
RTVSPost2010PropOp44
 70
     1
102
RTVSPost2010Prop45
280
     0
102
RTVSPost2010PropOp45
 70
     1
102
RTVSPost2010Prop46
 90
       50
102
RTVSPost2010PropOp46
 70
     1
102
RTVSPost2010Prop47
 90
       50
102
RTVSPost2010PropOp47
 70
     1
102
RTVSPost2010Prop48
 90
       50
102
RTVSPost2010PropOp48
 70
     1
102
RTVSPost2010Prop49
280
     0
102
RTVSPost2010PropOp49
 70
     1
102
RTVSPost2010Prop50
 90
       50
102
RTVSPost2010PropOp50
 70
     1
102
RTVSPost2010Prop51ColorIndex
 90
      256
102
RTVSPost2010Prop51ColorRGB
 90
-16777216
102
RTVSPost2010PropOp51
 70
     0
102
RTVSPost2010Prop52
140
1.0
102
RTVSPost2010PropOp52
 70
     0
102
RTVSPost2010Prop53
 90
        2
102
RTVSPost2010PropOp53
 70
     1
102
RTVSPost2010Prop54
  1
strokes_ogs.tif
102
RTVSPost2010PropOp54
 70
     1
102
RTVSPost2010Prop55
280
     0
102
RTVSPost2010PropOp55
 70
     1
102
RTVSPost2010Prop56
140
1.0
102
RTVSPost2010PropOp56
 70
     1
102
RTVSPost2010Prop57
140
1.0
102
RTVSPost2010PropOp57
 70
     1
102
RTVSPropertyOp0
 70
     1
102
RTVSPropertyOp1
 70
     1
102
RTVSPropertyOp2
 70
     1
102
RTVSPropertyOp3
 70
     1
102
RTVSPropertyOp4
 70
     1
102
RTVSPropertyOp5
 70
     1
102
RTVSPropertyOp6
 70
     1
102
RTVSPropertyOp7
 70
     1
102
RTVSPropertyOp8
 70
     1
102
RTVSPropertyOp9
 70
     1
102
RTVSPropertyOp10
 70
     1
102
RTVSPropertyOp11
 70
     1
102
RTVSPropertyOp12
 70
     1
102
RTVSPropertyOp13
 70
     1
102
RTVSPropertyOp14
 70
     1
102
RTVSPropertyOp15
 70
     1
102
RTVSPropertyOp16
 70
     1
102
RTVSPropertyOp17
 70
     1
102
RTVSPropertyOp18
 70
     1
102
RTVSPropertyOp19
 70
     1
102
RTVSPropertyOp20
 70
     1
102
RTVSPropertyOp21
 70
     1
102
RTVSPropertyOp22
 70
     1
102
RTVSPropertyOp23
 70
     1
102
RTVSPropertyOp24
 70
     1
102
RTVSPropertyOp25
 70
     1
102
RTVSPropertyOp26
 70
     1
102
RTVSPropertyOp27
 70
     1
102
RTVSPropertyOp28
 70
     1
102
RTVSPropertyOp29
 70
     1
102
RTVSPropertyOp30
 70
     1
102
RTVSPropertyOp31
 70
     1
102
RTVSPropertyOp32
 70
     1
102
RTVSPropertyOp33
 70
     1
102
RTVSPropertyOp34
 70
     1
102
RTVSPropertyOp35
 70
     1
102
RTVSPropertyOp36
 70
     1
102
RTVSPropertyOp37
 70
     1
102
RTVSPropertyOp38
 70
     1
102
RTVSPropertyOp39
 70
     1
102
RTVSPropertyOp40
 70
     1
102
RTVSPropertyOp41
 70
     1
102
RTVSPropertyOp42
 70
     1
102
RTVSPropertyOp43
 70
     1
102
RTVSPropertyOp44
 70
     1
102
RTVSPropertyOp45
 70
     1
102
RTVSPropertyOp46
 70
     1
102
RTVSPropertyOp47
 70
     1
102
RTVSPropertyOp48
 70
     1
102
RTVSPropertyOp49
 70
     1
102
RTVSPropertyOp50
 70
     1
102
RTVSPropertyOp51
 70
     0
102
RTVSPropertyOp52
 70
     0
102
RTVSPropertyOp53
 70
     1
102
RTVSPropertyOp54
 70
     1
102
RTVSPropertyOp55
 70
     1
102
RTVSPropertyOp56
 70
     1
102
RTVSPropertyOp57
 70
     1
102
RTVSPropertyOp58
 70
     1
102
RTVSPropertyOp59
 70
     1
102
RTVSPropertyOp60
 70
     1
102
RTVSPropertyOp61
 70
     1
102
RTVSPropertyOp62
 70
     1
  0
XRECORD
  5
7E1
102
{ACAD_REACTORS
330
7E0
102
}
330
7E0
100
AcDbXrecord
280
     1
102
RTVSPost2010Prop28
280
     0
102
RTVSPost2010PropOp28
 70
     1
102
RTVSPost2010Prop29
280
     1
102
RTVSPost2010PropOp29
 70
     1
102
RTVSPost2010Prop30
280
     1
102
RTVSPost2010PropOp30
 70
     1
102
RTVSPost2010Prop31
280
     0
102
RTVSPost2010PropOp31
 70
     1
102
RTVSPost2010Prop32
280
     0
102
RTVSPost2010PropOp32
 70
     1
102
RTVSPost2010Prop33
280
     0
102
RTVSPost2010PropOp33
 70
     1
102
RTVSPost2010Prop34
280
     0
102
RTVSPost2010PropOp34
 70
     1
102
RTVSPost2010Prop35
280
     0
102
RTVSPost2010PropOp35
 70
     1
102
RTVSPost2010Prop36
280
     0
102
RTVSPost2010PropOp36
 70
     1
102
RTVSPost2010Prop37
 90
       50
102
RTVSPost2010PropOp37
 70
     1
102
RTVSPost2010Prop38
140
0.0
102
RTVSPost2010PropOp38
 70
     1
102
RTVSPost2010Prop39
140
1.0
102
RTVSPost2010PropOp39
 70
     1
102
RTVSPost2010Prop40
 90
        0
102
RTVSPost2010PropOp40
 70
     1
102
RTVSPost2010Prop41ColorIndex
 90
       18
102
RTVSPost2010Prop41ColorRGB
 90
        0
102
RTVSPost2010PropOp41
 70
     1
102
RTVSPost2010Prop42
 90
       50
102
RTVSPost2010PropOp42
 70
     1
102
RTVSPost2010Prop43
 90
        3
102
RTVSPost2010PropOp43
 70
     1
102
RTVSPost2010Prop44ColorIndex
 90
        5
102
RTVSPost2010Prop44ColorRGB
 90
      255
102
RTVSPost2010PropOp44
 70
     1
102
RTVSPost2010Prop45
280
     0
102
RTVSPost2010PropOp45
 70
     1
102
RTVSPost2010Prop46
 90
       50
102
RTVSPost2010PropOp46
 70
     1
102
RTVSPost2010Prop47
 90
       50
102
RTVSPost2010PropOp47
 70
     1
102
RTVSPost2010Prop48
 90
       50
102
RTVSPost2010PropOp48
 70
     1
102
RTVSPost2010Prop49
280
     0
102
RTVSPost2010PropOp49
 70
     1
102
RTVSPost2010Prop50
 90
       50
102
RTVSPost2010PropOp50
 70
     1
102
RTVSPost2010Prop51ColorIndex
 90
      256
102
RTVSPost2010Prop51ColorRGB
 90
-16777216
102
RTVSPost2010PropOp51
 70
     0
102
RTVSPost2010Prop52
140
1.0
102
RTVSPost2010PropOp52
 70
     0
102
RTVSPost2010Prop53
 90
        2
102
RTVSPost2010PropOp53
 70
     1
102
RTVSPost2010Prop54
  1
strokes_ogs.tif
102
RTVSPost2010PropOp54
 70
     1
102
RTVSPost2010Prop55
280
     0
102
RTVSPost2010PropOp55
 70
     1
102
RTVSPost2010Prop56
140
1.0
102
RTVSPost2010PropOp56
 70
     1
102
RTVSPost2010Prop57
140
1.0
102
RTVSPost2010PropOp57
 70
     1
102
RTVSPropertyOp0
 70
     1
102
RTVSPropertyOp1
 70
     1
102
RTVSPropertyOp2
 70
     1
102
RTVSPropertyOp3
 70
     1
102
RTVSPropertyOp4
 70
     1
102
RTVSPropertyOp5
 70
     1
102
RTVSPropertyOp6
 70
     1
102
RTVSPropertyOp7
 70
     1
102
RTVSPropertyOp8
 70
     1
102
RTVSPropertyOp9
 70
     1
102
RTVSPropertyOp10
 70
     1
102
RTVSPropertyOp11
 70
     1
102
RTVSPropertyOp12
 70
     1
102
RTVSPropertyOp13
 70
     1
102
RTVSPropertyOp14
 70
     1
102
RTVSPropertyOp15
 70
     1
102
RTVSPropertyOp16
 70
     1
102
RTVSPropertyOp17
 70
     1
102
RTVSPropertyOp18
 70
     1
102
RTVSPropertyOp19
 70
     1
102
RTVSPropertyOp20
 70
     1
102
RTVSPropertyOp21
 70
     1
102
RTVSPropertyOp22
 70
     1
102
RTVSPropertyOp23
 70
     1
102
RTVSPropertyOp24
 70
     1
102
RTVSPropertyOp25
 70
     1
102
RTVSPropertyOp26
 70
     1
102
RTVSPropertyOp27
 70
     1
102
RTVSPropertyOp28
 70
     1
102
RTVSPropertyOp29
 70
     1
102
RTVSPropertyOp30
 70
     1
102
RTVSPropertyOp31
 70
     1
102
RTVSPropertyOp32
 70
     1
102
RTVSPropertyOp33
 70
     1
102
RTVSPropertyOp34
 70
     1
102
RTVSPropertyOp35
 70
     1
102
RTVSPropertyOp36
 70
     1
102
RTVSPropertyOp37
 70
     1
102
RTVSPropertyOp38
 70
     1
102
RTVSPropertyOp39
 70
     1
102
RTVSPropertyOp40
 70
     1
102
RTVSPropertyOp41
 70
     1
102
RTVSPropertyOp42
 70
     1
102
RTVSPropertyOp43
 70
     1
102
RTVSPropertyOp44
 70
     1
102
RTVSPropertyOp45
 70
     1
102
RTVSPropertyOp46
 70
     1
102
RTVSPropertyOp47
 70
     1
102
RTVSPropertyOp48
 70
     1
102
RTVSPropertyOp49
 70
     1
102
RTVSPropertyOp50
 70
     1
102
RTVSPropertyOp51
 70
     0
102
RTVSPropertyOp52
 70
     0
102
RTVSPropertyOp53
 70
     1
102
RTVSPropertyOp54
 70
     1
102
RTVSPropertyOp55
 70
     1
102
RTVSPropertyOp56
 70
     1
102
RTVSPropertyOp57
 70
     1
102
RTVSPropertyOp58
 70
     1
102
RTVSPropertyOp59
 70
     1
102
RTVSPropertyOp60
 70
     1
102
RTVSPropertyOp61
 70
     1
102
RTVSPropertyOp62
 70
     1
  0
XRECORD
  5
7D5
102
{ACAD_REACTORS
330
7D4
102
}
330
7D4
100
AcDbXrecord
280
     1
102
RTVSPost2010Prop28
280
     0
102
RTVSPost2010PropOp28
 70
     1
102
RTVSPost2010Prop29
280
     1
102
RTVSPost2010PropOp29
 70
     1
102
RTVSPost2010Prop30
280
     1
102
RTVSPost2010PropOp30
 70
     1
102
RTVSPost2010Prop31
280
     0
102
RTVSPost2010PropOp31
 70
     1
102
RTVSPost2010Prop32
280
     0
102
RTVSPost2010PropOp32
 70
     1
102
RTVSPost2010Prop33
280
     0
102
RTVSPost2010PropOp33
 70
     1
102
RTVSPost2010Prop34
280
     0
102
RTVSPost2010PropOp34
 70
     1
102
RTVSPost2010Prop35
280
     0
102
RTVSPost2010PropOp35
 70
     1
102
RTVSPost2010Prop36
280
     0
102
RTVSPost2010PropOp36
 70
     1
102
RTVSPost2010Prop37
 90
       50
102
RTVSPost2010PropOp37
 70
     1
102
RTVSPost2010Prop38
140
0.0
102
RTVSPost2010PropOp38
 70
     1
102
RTVSPost2010Prop39
140
1.0
102
RTVSPost2010PropOp39
 70
     1
102
RTVSPost2010Prop40
 90
        0
102
RTVSPost2010PropOp40
 70
     1
102
RTVSPost2010Prop41ColorIndex
 90
       18
102
RTVSPost2010Prop41ColorRGB
 90
        0
102
RTVSPost2010PropOp41
 70
     1
102
RTVSPost2010Prop42
 90
       50
102
RTVSPost2010PropOp42
 70
     1
102
RTVSPost2010Prop43
 90
        3
102
RTVSPost2010PropOp43
 70
     1
102
RTVSPost2010Prop44ColorIndex
 90
        5
102
RTVSPost2010Prop44ColorRGB
 90
      255
102
RTVSPost2010PropOp44
 70
     1
102
RTVSPost2010Prop45
280
     0
102
RTVSPost2010PropOp45
 70
     1
102
RTVSPost2010Prop46
 90
       50
102
RTVSPost2010PropOp46
 70
     1
102
RTVSPost2010Prop47
 90
       50
102
RTVSPost2010PropOp47
 70
     1
102
RTVSPost2010Prop48
 90
       50
102
RTVSPost2010PropOp48
 70
     1
102
RTVSPost2010Prop49
280
     0
102
RTVSPost2010PropOp49
 70
     1
102
RTVSPost2010Prop50
 90
       50
102
RTVSPost2010PropOp50
 70
     1
102
RTVSPost2010Prop51ColorIndex
 90
      256
102
RTVSPost2010Prop51ColorRGB
 90
-16777216
102
RTVSPost2010PropOp51
 70
     0
102
RTVSPost2010Prop52
140
1.0
102
RTVSPost2010PropOp52
 70
     0
102
RTVSPost2010Prop53
 90
        2
102
RTVSPost2010PropOp53
 70
     1
102
RTVSPost2010Prop54
  1
strokes_ogs.tif
102
RTVSPost2010PropOp54
 70
     1
102
RTVSPost2010Prop55
280
     0
102
RTVSPost2010PropOp55
 70
     1
102
RTVSPost2010Prop56
140
1.0
102
RTVSPost2010PropOp56
 70
     1
102
RTVSPost2010Prop57
140
1.0
102
RTVSPost2010PropOp57
 70
     1
102
RTVSPropertyOp0
 70
     1
102
RTVSPropertyOp1
 70
     1
102
RTVSPropertyOp2
 70
     1
102
RTVSPropertyOp3
 70
     1
102
RTVSPropertyOp4
 70
     1
102
RTVSPropertyOp5
 70
     1
102
RTVSPropertyOp6
 70
     1
102
RTVSPropertyOp7
 70
     1
102
RTVSPropertyOp8
 70
     1
102
RTVSPropertyOp9
 70
     1
102
RTVSPropertyOp10
 70
     1
102
RTVSPropertyOp11
 70
     1
102
RTVSPropertyOp12
 70
     1
102
RTVSPropertyOp13
 70
     1
102
RTVSPropertyOp14
 70
     1
102
RTVSPropertyOp15
 70
     1
102
RTVSPropertyOp16
 70
     1
102
RTVSPropertyOp17
 70
     1
102
RTVSPropertyOp18
 70
     1
102
RTVSPropertyOp19
 70
     1
102
RTVSPropertyOp20
 70
     1
102
RTVSPropertyOp21
 70
     1
102
RTVSPropertyOp22
 70
     1
102
RTVSPropertyOp23
 70
     1
102
RTVSPropertyOp24
 70
     1
102
RTVSPropertyOp25
 70
     1
102
RTVSPropertyOp26
 70
     1
102
RTVSPropertyOp27
 70
     1
102
RTVSPropertyOp28
 70
     1
102
RTVSPropertyOp29
 70
     1
102
RTVSPropertyOp30
 70
     1
102
RTVSPropertyOp31
 70
     1
102
RTVSPropertyOp32
 70
     1
102
RTVSPropertyOp33
 70
     1
102
RTVSPropertyOp34
 70
     1
102
RTVSPropertyOp35
 70
     1
102
RTVSPropertyOp36
 70
     1
102
RTVSPropertyOp37
 70
     1
102
RTVSPropertyOp38
 70
     1
102
RTVSPropertyOp39
 70
     1
102
RTVSPropertyOp40
 70
     1
102
RTVSPropertyOp41
 70
     1
102
RTVSPropertyOp42
 70
     1
102
RTVSPropertyOp43
 70
     1
102
RTVSPropertyOp44
 70
     1
102
RTVSPropertyOp45
 70
     1
102
RTVSPropertyOp46
 70
     1
102
RTVSPropertyOp47
 70
     1
102
RTVSPropertyOp48
 70
     1
102
RTVSPropertyOp49
 70
     1
102
RTVSPropertyOp50
 70
     1
102
RTVSPropertyOp51
 70
     0
102
RTVSPropertyOp52
 70
     0
102
RTVSPropertyOp53
 70
     1
102
RTVSPropertyOp54
 70
     1
102
RTVSPropertyOp55
 70
     1
102
RTVSPropertyOp56
 70
     1
102
RTVSPropertyOp57
 70
     1
102
RTVSPropertyOp58
 70
     1
102
RTVSPropertyOp59
 70
     1
102
RTVSPropertyOp60
 70
     1
102
RTVSPropertyOp61
 70
     1
102
RTVSPropertyOp62
 70
     1
  0
XRECORD
  5
7ED
102
{ACAD_REACTORS
330
7EC
102
}
330
7EC
100
AcDbXrecord
280
     1
102
RTVSPost2010Prop28
280
     0
102
RTVSPost2010PropOp28
 70
     1
102
RTVSPost2010Prop29
280
     1
102
RTVSPost2010PropOp29
 70
     1
102
RTVSPost2010Prop30
280
     1
102
RTVSPost2010PropOp30
 70
     1
102
RTVSPost2010Prop31
280
     0
102
RTVSPost2010PropOp31
 70
     1
102
RTVSPost2010Prop32
280
     0
102
RTVSPost2010PropOp32
 70
     1
102
RTVSPost2010Prop33
280
     0
102
RTVSPost2010PropOp33
 70
     1
102
RTVSPost2010Prop34
280
     0
102
RTVSPost2010PropOp34
 70
     1
102
RTVSPost2010Prop35
280
     0
102
RTVSPost2010PropOp35
 70
     1
102
RTVSPost2010Prop36
280
     0
102
RTVSPost2010PropOp36
 70
     1
102
RTVSPost2010Prop37
 90
       50
102
RTVSPost2010PropOp37
 70
     1
102
RTVSPost2010Prop38
140
0.0
102
RTVSPost2010PropOp38
 70
     1
102
RTVSPost2010Prop39
140
1.0
102
RTVSPost2010PropOp39
 70
     1
102
RTVSPost2010Prop40
 90
        0
102
RTVSPost2010PropOp40
 70
     1
102
RTVSPost2010Prop41ColorIndex
 90
       18
102
RTVSPost2010Prop41ColorRGB
 90
        0
102
RTVSPost2010PropOp41
 70
     1
102
RTVSPost2010Prop42
 90
       50
102
RTVSPost2010PropOp42
 70
     1
102
RTVSPost2010Prop43
 90
        3
102
RTVSPost2010PropOp43
 70
     1
102
RTVSPost2010Prop44ColorIndex
 90
        5
102
RTVSPost2010Prop44ColorRGB
 90
      255
102
RTVSPost2010PropOp44
 70
     1
102
RTVSPost2010Prop45
280
     0
102
RTVSPost2010PropOp45
 70
     1
102
RTVSPost2010Prop46
 90
       50
102
RTVSPost2010PropOp46
 70
     1
102
RTVSPost2010Prop47
 90
       50
102
RTVSPost2010PropOp47
 70
     1
102
RTVSPost2010Prop48
 90
       50
102
RTVSPost2010PropOp48
 70
     1
102
RTVSPost2010Prop49
280
     0
102
RTVSPost2010PropOp49
 70
     1
102
RTVSPost2010Prop50
 90
       50
102
RTVSPost2010PropOp50
 70
     1
102
RTVSPost2010Prop51ColorIndex
 90
      256
102
RTVSPost2010Prop51ColorRGB
 90
-16777216
102
RTVSPost2010PropOp51
 70
     0
102
RTVSPost2010Prop52
140
1.0
102
RTVSPost2010PropOp52
 70
     0
102
RTVSPost2010Prop53
 90
        2
102
RTVSPost2010PropOp53
 70
     1
102
RTVSPost2010Prop54
  1
strokes_ogs.tif
102
RTVSPost2010PropOp54
 70
     1
102
RTVSPost2010Prop55
280
     0
102
RTVSPost2010PropOp55
 70
     1
102
RTVSPost2010Prop56
140
1.0
102
RTVSPost2010PropOp56
 70
     1
102
RTVSPost2010Prop57
140
1.0
102
RTVSPost2010PropOp57
 70
     1
102
RTVSPropertyOp0
 70
     1
102
RTVSPropertyOp1
 70
     1
102
RTVSPropertyOp2
 70
     1
102
RTVSPropertyOp3
 70
     1
102
RTVSPropertyOp4
 70
     1
102
RTVSPropertyOp5
 70
     1
102
RTVSPropertyOp6
 70
     1
102
RTVSPropertyOp7
 70
     1
102
RTVSPropertyOp8
 70
     1
102
RTVSPropertyOp9
 70
     1
102
RTVSPropertyOp10
 70
     1
102
RTVSPropertyOp11
 70
     1
102
RTVSPropertyOp12
 70
     1
102
RTVSPropertyOp13
 70
     1
102
RTVSPropertyOp14
 70
     1
102
RTVSPropertyOp15
 70
     1
102
RTVSPropertyOp16
 70
     1
102
RTVSPropertyOp17
 70
     1
102
RTVSPropertyOp18
 70
     1
102
RTVSPropertyOp19
 70
     1
102
RTVSPropertyOp20
 70
     1
102
RTVSPropertyOp21
 70
     1
102
RTVSPropertyOp22
 70
     1
102
RTVSPropertyOp23
 70
     1
102
RTVSPropertyOp24
 70
     1
102
RTVSPropertyOp25
 70
     1
102
RTVSPropertyOp26
 70
     1
102
RTVSPropertyOp27
 70
     1
102
RTVSPropertyOp28
 70
     1
102
RTVSPropertyOp29
 70
     1
102
RTVSPropertyOp30
 70
     1
102
RTVSPropertyOp31
 70
     1
102
RTVSPropertyOp32
 70
     1
102
RTVSPropertyOp33
 70
     1
102
RTVSPropertyOp34
 70
     1
102
RTVSPropertyOp35
 70
     1
102
RTVSPropertyOp36
 70
     1
102
RTVSPropertyOp37
 70
     1
102
RTVSPropertyOp38
 70
     1
102
RTVSPropertyOp39
 70
     1
102
RTVSPropertyOp40
 70
     1
102
RTVSPropertyOp41
 70
     1
102
RTVSPropertyOp42
 70
     1
102
RTVSPropertyOp43
 70
     1
102
RTVSPropertyOp44
 70
     1
102
RTVSPropertyOp45
 70
     1
102
RTVSPropertyOp46
 70
     1
102
RTVSPropertyOp47
 70
     1
102
RTVSPropertyOp48
 70
     1
102
RTVSPropertyOp49
 70
     1
102
RTVSPropertyOp50
 70
     1
102
RTVSPropertyOp51
 70
     0
102
RTVSPropertyOp52
 70
     0
102
RTVSPropertyOp53
 70
     1
102
RTVSPropertyOp54
 70
     1
102
RTVSPropertyOp55
 70
     1
102
RTVSPropertyOp56
 70
     1
102
RTVSPropertyOp57
 70
     1
102
RTVSPropertyOp58
 70
     1
102
RTVSPropertyOp59
 70
     1
102
RTVSPropertyOp60
 70
     1
102
RTVSPropertyOp61
 70
     1
102
RTVSPropertyOp62
 70
     1
  0
ENDSEC
  0
EOF
