  0
SECTION
  2
HEADER
  9
$ACADVER
  1
AC1015
  9
$ACADMAINTVER
 70
    20
  9
$DWGCODEPAGE
  3
ANSI_932
  9
$INSBASE
 10
0.0
 20
0.0
 30
0.0
  9
$EXTMIN
 10
-3.032923457890092
 20
-50.33185683325439
 30
-0.0000000349181948
  9
$EXTMAX
 10
323.417229832208
 20
208.3200902119466
 30
0.0000000814935747
  9
$LIMMIN
 10
0.0
 20
0.0
  9
$LIMMAX
 10
420.0
 20
297.0
  9
$ORTHOMODE
 70
     1
  9
$REGENMODE
 70
     1
  9
$FILLMODE
 70
     1
  9
$QTEXTMODE
 70
     0
  9
$MIRRTEXT
 70
     1
  9
$LTSCALE
 40
1.0
  9
$ATTMODE
 70
     1
  9
$TEXTSIZE
 40
1.0
  9
$TRACEWID
 40
1.0
  9
$TEXTSTYLE
  7
ACISOTS
  9
$CLAYER
  8
AM_0
  9
$CELTYPE
  6
ByLayer
  9
$CECOLOR
 62
   256
  9
$CELTSCALE
 40
1.0
  9
$DISPSILH
 70
     0
  9
$DIMSCALE
 40
1.0
  9
$DIMASZ
 40
2.5
  9
$DIMEXO
 40
1.0
  9
$DIMDLI
 40
10.0
  9
$DIMRND
 40
0.0
  9
$DIMDLE
 40
0.0
  9
$DIMEXE
 40
1.0
  9
$DIMTP
 40
0.1
  9
$DIMTM
 40
0.1
  9
$DIMTXT
 40
3.5
  9
$DIMCEN
 40
0.0
  9
$DIMTSZ
 40
0.0
  9
$DIMTOL
 70
     0
  9
$DIMLIM
 70
     0
  9
$DIMTIH
 70
     0
  9
$DIMTOH
 70
     0
  9
$DIMSE1
 70
     0
  9
$DIMSE2
 70
     0
  9
$DIMTAD
 70
     1
  9
$DIMZIN
 70
     8
  9
$DIMBLK
  1

  9
$DIMASO
 70
     1
  9
$DIMSHO
 70
     1
  9
$DIMPOST
  1

  9
$DIMAPOST
  1
"
  9
$DIMALT
 70
     0
  9
$DIMALTD
 70
     2
  9
$DIMALTF
 40
0.0393701
  9
$DIMLFAC
 40
1.0
  9
$DIMTOFL
 70
     1
  9
$DIMTVP
 40
0.0
  9
$DIMTIX
 70
     0
  9
$DIMSOXD
 70
     0
  9
$DIMSAH
 70
     0
  9
$DIMBLK1
  1

  9
$DIMBLK2
  1

  9
$DIMSTYLE
  2
AM_ISO
  9
$DIMCLRD
 70
   256
  9
$DIMCLRE
 70
   256
  9
$DIMCLRT
 70
     2
  9
$DIMTFAC
 40
0.71
  9
$DIMGAP
 40
1.5
  9
$DIMJUST
 70
     0
  9
$DIMSD1
 70
     0
  9
$DIMSD2
 70
     0
  9
$DIMTOLJ
 70
     0
  9
$DIMTZIN
 70
     8
  9
$DIMALTZ
 70
     0
  9
$DIMALTTZ
 70
     0
  9
$DIMUPT
 70
     0
  9
$DIMDEC
 70
     2
  9
$DIMTDEC
 70
     3
  9
$DIMALTU
 70
     2
  9
$DIMALTTD
 70
     4
  9
$DIMTXSTY
  7
STANDARD
  9
$DIMAUNIT
 70
     0
  9
$DIMADEC
 70
     0
  9
$DIMALTRND
 40
0.0
  9
$DIMAZIN
 70
     2
  9
$DIMDSEP
 70
    46
  9
$DIMATFIT
 70
     3
  9
$DIMFRAC
 70
     0
  9
$DIMLDRBLK
  1

  9
$DIMLUNIT
 70
     2
  9
$DIMLWD
 70
    -1
  9
$DIMLWE
 70
    -1
  9
$DIMTMOVE
 70
     0
  9
$LUNITS
 70
     2
  9
$LUPREC
 70
     2
  9
$SKETCHINC
 40
1.0
  9
$FILLETRAD
 40
0.0
  9
$AUNITS
 70
     0
  9
$AUPREC
 70
     0
  9
$MENU
  1
.
  9
$ELEVATION
 40
0.0
  9
$PELEVATION
 40
0.0
  9
$THICKNESS
 40
0.0
  9
$LIMCHECK
 70
     0
  9
$CHAMFERA
 40
2.5
  9
$CHAMFERB
 40
2.5
  9
$CHAMFERC
 40
20.0
  9
$CHAMFERD
 40
0.0
  9
$SKPOLY
 70
     0
  9
$TDCREATE
 40
2456406.576683461
  9
$TDUCREATE
 40
2456406.201683461
  9
$TDUPDATE
 40
2456406.677000208
  9
$TDUUPDATE
 40
2456406.302000208
  9
$TDINDWG
 40
0.0169623958
  9
$TDUSRTIMER
 40
0.0169573264
  9
$USRTIMER
 70
     1
  9
$ANGBASE
 50
0.0
  9
$ANGDIR
 70
     0
  9
$PDMODE
 70
     0
  9
$PDSIZE
 40
0.0
  9
$PLINEWID
 40
0.0
  9
$SPLFRAME
 70
     0
  9
$SPLINETYPE
 70
     6
  9
$SPLINESEGS
 70
     8
  9
$HANDSEED
  5
17BD
  9
$SURFTAB1
 70
     6
  9
$SURFTAB2
 70
     6
  9
$SURFTYPE
 70
     6
  9
$SURFU
 70
     6
  9
$SURFV
 70
     6
  9
$UCSBASE
  2

  9
$UCSNAME
  2

  9
$UCSORG
 10
0.0
 20
0.0
 30
0.0
  9
$UCSXDIR
 10
1.0
 20
0.0
 30
0.0
  9
$UCSYDIR
 10
0.0
 20
1.0
 30
0.0
  9
$UCSORTHOREF
  2

  9
$UCSORTHOVIEW
 70
     0
  9
$UCSORGTOP
 10
0.0
 20
0.0
 30
0.0
  9
$UCSORGBOTTOM
 10
0.0
 20
0.0
 30
0.0
  9
$UCSORGLEFT
 10
0.0
 20
0.0
 30
0.0
  9
$UCSORGRIGHT
 10
0.0
 20
0.0
 30
0.0
  9
$UCSORGFRONT
 10
0.0
 20
0.0
 30
0.0
  9
$UCSORGBACK
 10
0.0
 20
0.0
 30
0.0
  9
$PUCSBASE
  2

  9
$PUCSNAME
  2

  9
$PUCSORG
 10
0.0
 20
0.0
 30
0.0
  9
$PUCSXDIR
 10
1.0
 20
0.0
 30
0.0
  9
$PUCSYDIR
 10
0.0
 20
1.0
 30
0.0
  9
$PUCSORTHOREF
  2

  9
$PUCSORTHOVIEW
 70
     0
  9
$PUCSORGTOP
 10
0.0
 20
0.0
 30
0.0
  9
$PUCSORGBOTTOM
 10
0.0
 20
0.0
 30
0.0
  9
$PUCSORGLEFT
 10
0.0
 20
0.0
 30
0.0
  9
$PUCSORGRIGHT
 10
0.0
 20
0.0
 30
0.0
  9
$PUCSORGFRONT
 10
0.0
 20
0.0
 30
0.0
  9
$PUCSORGBACK
 10
0.0
 20
0.0
 30
0.0
  9
$USERI1
 70
     0
  9
$USERI2
 70
     0
  9
$USERI3
 70
     0
  9
$USERI4
 70
     0
  9
$USERI5
 70
     0
  9
$USERR1
 40
0.0
  9
$USERR2
 40
0.0
  9
$USERR3
 40
0.0
  9
$USERR4
 40
0.0
  9
$USERR5
 40
0.0
  9
$WORLDVIEW
 70
     1
  9
$SHADEDGE
 70
     3
  9
$SHADEDIF
 70
    70
  9
$TILEMODE
 70
     1
  9
$MAXACTVP
 70
    64
  9
$PINSBASE
 10
0.0
 20
0.0
 30
0.0
  9
$PLIMCHECK
 70
     0
  9
$PEXTMIN
 10
1.000000000000000E+20
 20
1.000000000000000E+20
 30
1.000000000000000E+20
  9
$PEXTMAX
 10
-1.000000000000000E+20
 20
-1.000000000000000E+20
 30
-1.000000000000000E+20
  9
$PLIMMIN
 10
0.0
 20
0.0
  9
$PLIMMAX
 10
420.0
 20
297.0
  9
$UNITMODE
 70
     0
  9
$VISRETAIN
 70
     1
  9
$PLINEGEN
 70
     0
  9
$PSLTSCALE
 70
     1
  9
$TREEDEPTH
 70
  3020
  9
$CMLSTYLE
  2
Standard
  9
$CMLJUST
 70
     0
  9
$CMLSCALE
 40
20.0
  9
$PROXYGRAPHICS
 70
     1
  9
$MEASUREMENT
 70
     1
  9
$CELWEIGHT
370
    -1
  9
$ENDCAPS
280
     0
  9
$JOINSTYLE
280
     0
  9
$LWDISPLAY
290
     0
  9
$INSUNITS
 70
     4
  9
$HYPERLINKBASE
  1

  9
$STYLESHEET
  1

  9
$XEDIT
290
     1
  9
$CEPSNTYPE
380
     0
  9
$PSTYLEMODE
290
     1
  9
$FINGERPRINTGUID
  2
{A328EDCF-1531-4C95-8B98-251DC3D07E67}
  9
$VERSIONGUID
  2
{FA6AC639-01C9-4688-9141-9865F4E541C2}
  9
$EXTNAMES
290
     1
  9
$PSVPSCALE
 40
0.0
  9
$OLESTARTUP
290
     0
  0
ENDSEC
  0
SECTION
  2
CLASSES
  0
CLASS
  1
ACDBDICTIONARYWDFLT
  2
AcDbDictionaryWithDefault
  3
ObjectDBX Classes
 90
        0
280
     0
281
     0
  0
CLASS
  1
ACDBPLACEHOLDER
  2
AcDbPlaceHolder
  3
ObjectDBX Classes
 90
        0
280
     0
281
     0
  0
CLASS
  1
LAYOUT
  2
AcDbLayout
  3
ObjectDBX Classes
 90
        0
280
     0
281
     0
  0
CLASS
  1
ACME_DOCUMENT
  2
AcMeDbDoc
  3
AcMeServices
 90
        0
280
     0
281
     0
  0
CLASS
  1
AMGSETTINGSOBJ
  2
AmgSettingsObj
  3
"AcadM|Product Description: AutoCAD Mechanical 2000|Company: Autodesk"
 90
        0
280
     0
281
     0
  0
CLASS
  1
ACMESCOPE
  2
AcMeScope
  3
AcMeServices
 90
        0
280
     0
281
     0
  0
CLASS
  1
ACMECOMMANDHISTORY
  2
AcMeCommandHistory
  3
AcMeServices
 90
        0
280
     0
281
     0
  0
CLASS
  1
ACIMSYSVARMAN
  2
AcImSysVarManager
  3
AcMeServices
 90
        0
280
     0
281
     0
  0
CLASS
  1
ACIMREALSYSVAR
  2
AcImRealSysVar
  3
AcMeServices
 90
        0
280
     0
281
     0
  0
CLASS
  1
ACIMINTSYSVAR
  2
AcImIntSysVar
  3
AcMeServices
 90
        0
280
     0
281
     0
  0
CLASS
  1
ACMEDRAWINGMAN
  2
AcMeDrawingMan
  3
AcMeServices
 90
        0
280
     0
281
     0
  0
CLASS
  1
ACMEVIEW
  2
AcMeView
  3
AcMeServices
 90
        0
280
     0
281
     0
  0
CLASS
  1
ACDBENTITYCACHE
  2
AcMeEntityCache
  3
AcMeServices
 90
        0
280
     0
281
     0
  0
CLASS
  1
GSMANAGER
  2
AcMeGSManager
  3
AcMeServices
 90
        0
280
     0
281
     0
  0
CLASS
  1
AMDTINTERNALREACTOR
  2
AmdtInternalReactor
  3
AcMeServices
 90
        0
280
     0
281
     0
  0
CLASS
  1
ACMESTATEMGR
  2
AcMeStateMgr
  3
AcMeServices
 90
        0
280
     0
281
     0
  0
CLASS
  1
ACGREFMASTER
  2
AcGrefMaster
  3
AcAttribServices
 90
        0
280
     0
281
     0
  0
CLASS
  1
ACME_DATABASE
  2
AcMeDbDatabase
  3
AcMeServices
 90
        0
280
     0
281
     0
  0
CLASS
  1
ACRFINSADJUSTERMGR
  2
AcRfInsAdjusterMgr
  3
AcMeServices
 90
        0
280
     0
281
     0
  0
CLASS
  1
ACGREFACADMASTER
  2
AcGrefacadMaster
  3
AcGrefServices
 90
        0
280
     0
281
     0
  0
CLASS
  1
AMIMASTER
  2
AmiMaster
  3
AmiServices
 90
        0
280
     0
281
     0
  0
CLASS
  1
ACMDATADICTIONARY
  2
AcmDataDictionary
  3
"AcmSymBB|Product Description: AutoCAD Mechanical 2004 DX|Company: Autodesk"
 90
        0
280
     0
281
     0
  0
CLASS
  1
ACMDATAENTRYBLOCK
  2
AcmDataEntryBlock
  3
"AcmSymBB|Product Description: AutoCAD Mechanical 2004 DX|Company: Autodesk"
 90
    32768
280
     0
281
     0
  0
CLASS
  1
ACIMSTRSYSVAR
  2
AcImStrSysVar
  3
AcMeServices
 90
        0
280
     0
281
     0
  0
CLASS
  1
ACMSTANDARDISO
  2
AcmStandardISO
  3
"Amdt_StdImp|Product Description: AutoCAD Mechanical 2004 DX|Company: Autodesk"
 90
    32768
280
     0
281
     0
  0
CLASS
  1
AMGOBJPROPCFG
  2
AmgObjPropCfg
  3
"AmgLay|Product Description: AutoCAD Mechanical 2000|Company: Autodesk"
 90
        1
280
     0
281
     0
  0
CLASS
  1
AMDTEDGESTANDARDISO
  2
AmdtEdgeStdISO
  3
"Amdt_StdImp|Product Description: AutoCAD Mechanical 2004 DX|Company: Autodesk"
 90
    32768
280
     0
281
     0
  0
CLASS
  1
ACMSURFSTANDARDISO
  2
AcmSurfTextStdISO
  3
"Amdt_StdImp|Product Description: AutoCAD Mechanical 2004 DX|Company: Autodesk"
 90
    32768
280
     0
281
     0
  0
CLASS
  1
ACMFCFSTANDARDISO
  2
AcmFCFStdISO
  3
"Amdt_StdImp|Product Description: AutoCAD Mechanical 2004 DX|Company: Autodesk"
 90
    32768
280
     0
281
     0
  0
CLASS
  1
ACMWELDSTANDARDISO
  2
AcmWeldingStdISO
  3
"Amdt_StdImp|Product Description: AutoCAD Mechanical 2004 DX|Company: Autodesk"
 90
    32768
280
     0
281
     0
  0
CLASS
  1
ACMIDSTANDARDISO
  2
AcmIdStdISO
  3
"Amdt_StdImp|Product Description: AutoCAD Mechanical 2004 DX|Company: Autodesk"
 90
    32768
280
     0
281
     0
  0
CLASS
  1
ACMDATUMSTANDARDISO
  2
AcmDatumStdISO
  3
"Amdt_StdImp|Product Description: AutoCAD Mechanical 2004 DX|Company: Autodesk"
 90
    32768
280
     0
281
     0
  0
CLASS
  1
ACMBOMSTANDARDISO
  2
AcmBOMStdISO
  3
"Amdt_StdImp|Product Description: AutoCAD Mechanical 2004 DX|Company: Autodesk"
 90
    32768
280
     0
281
     0
  0
CLASS
  1
ACMDETAILSTANDARDISO
  2
AmdtDetailSymStdISO
  3
"Amdt_StdImp|Product Description: AutoCAD Mechanical 2004 DX|Company: Autodesk"
 90
    32768
280
     0
281
     0
  0
CLASS
  1
ACMSECTIONSTANDARDISO
  2
AmdtSectionSymStdISO
  3
"Amdt_StdImp|Product Description: AutoCAD Mechanical 2004 DX|Company: Autodesk"
 90
    32768
280
     0
281
     0
  0
CLASS
  1
ACMCENTERLINESTANDARDISO
  2
AmdtCenterLineStdISO
  3
"Amdt_StdImp|Product Description: AutoCAD Mechanical 2004 DX|Company: Autodesk"
 90
    32768
280
     0
281
     0
  0
CLASS
  1
ACMNOTESTANDARDISO
  2
AmdtNoteStdISO
  3
"Amdt_StdImp|Product Description: AutoCAD Mechanical 2004 DX|Company: Autodesk"
 90
    32768
280
     0
281
     0
  0
CLASS
  1
ACAMGLAYSTD
  2
AcAmgLayStd
  3
"AcAmgLayStd|Product Description: AutoCAD Mechanical 2000|Company: Autodesk"
 90
        0
280
     0
281
     0
  0
CLASS
  1
ACAMGDIMSTD
  2
AcAmgDimStd
  3
"AcAmgDimStd|Product Description: AutoCAD Mechanical 2000|Company: Autodesk"
 90
        0
280
     0
281
     0
  0
CLASS
  1
ACAMGHOLECHARTSTDISO
  2
AcAmgHoleChartStdISO
  3
ACMSYMBB_MODULE_NAME
 90
    32768
280
     0
281
     0
  0
CLASS
  1
ACAMGTITLESTD
  2
AcAmgTitleStd
  3
"TITLEAPP"
 90
        0
280
     0
281
     0
  0
CLASS
  1
LAYER_INDEX
  2
AcDbLayerIndex
  3
ObjectDBX Classes
 90
    32768
280
     0
281
     0
  0
CLASS
  1
IDBUFFER
  2
AcDbIdBuffer
  3
ObjectDBX Classes
 90
    32768
280
     0
281
     0
  0
CLASS
  1
DICTIONARYVAR
  2
AcDbDictionaryVar
  3
ObjectDBX Classes
 90
        0
280
     0
281
     0
  0
CLASS
  1
AM_DRAWING_MGR
  2
AcDmDwgMgr
  3
AcMechDwgViewMgmt
 90
        0
280
     0
281
     0
  0
CLASS
  1
AM_DWG_DOCUMENT
  2
AcDmDwgDocument
  3
AcMechDwgViewMgmt
 90
        0
280
     0
281
     0
  0
CLASS
  1
AM_DWG_SHEET
  2
AcDmSheet
  3
AcMechDwgViewMgmt
 90
        0
280
     0
281
     0
  0
CLASS
  1
AM_VIEWDIMPARMAP
  2
AcDmViewDimParMap
  3
AcMechDwgViewMgmt
 90
        0
280
     0
281
     0
  0
CLASS
  1
AM_DWGMGR_NAME
  2
AcDmDwgMgrName
  3
AcMechDwgViewMgmt
 90
        0
280
     0
281
     0
  0
CLASS
  1
AMDTMENUSTATEMGR
  2
AmdtMenuStateMgr
  3
McadcomServices
 90
        0
280
     0
281
     0
  0
CLASS
  1
AMDTMCOMMENUSTATE
  2
AmdtMcomMenuState
  3
McadcomServices
 90
        0
280
     0
281
     0
  0
CLASS
  1
MAPIAMMOUDLE
  2
MApiAmModule
  3
MApiAmServices
 90
        0
280
     0
281
     0
  0
CLASS
  1
AMDTADMENUSTATE
  2
AmdtAdMenuState
  3
DesignerServices
 90
        0
280
     0
281
     0
  0
CLASS
  1
ADAPPL
  2
AcAdAppl
  3
DesignerServices
 90
        0
280
     0
281
     0
  0
CLASS
  1
DEPMGR
  2
AcAdDepMgr
  3
DesignerServices
 90
        0
280
     0
281
     0
  0
CLASS
  1
PARAMMGR
  2
AcAdParamMgr
  3
DesignerServices
 90
        0
280
     0
281
     0
  0
CLASS
  1
PARAMSCOPE
  2
AcAdParamScope
  3
DesignerServices
 90
        0
280
     0
281
     0
  0
CLASS
  1
NAMEDAPPL
  2
AcAdNamedAppl
  3
DesignerServices
 90
        0
280
     0
281
     0
  0
CLASS
  1
AMDTDMMENUSTATE
  2
AmdtDmMenuState
  3
AcMechDwgViewMgmt
 90
        0
280
     0
281
     0
  0
CLASS
  1
AMDTAMMENUSTATE
  2
AmdtAmMenuState
  3
DesignerAssemblies
 90
        0
280
     0
281
     0
  0
CLASS
  1
ACAMPROJECT
  2
AcAmProject
  3
DesignerAssemblies
 90
        0
280
     0
281
     0
  0
CLASS
  1
ACAMGRCOMPDEF
  2
AcAmGrCompDef
  3
DesignerAssemblies
 90
        0
280
     0
281
     0
  0
CLASS
  1
ACCMCONTEXT
  2
AcCmContext
  3
DesignerAssemblies
 90
        0
280
     0
281
     0
  0
CLASS
  1
ACAMCOMPDEF
  2
AcAmCompDef
  3
DesignerAssemblies
 90
        0
280
     0
281
     0
  0
CLASS
  1
ACAMCOMPDEFMGR
  2
AcAmCompDefMgr
  3
DesignerAssemblies
 90
        0
280
     0
281
     0
  0
CLASS
  1
AMCONTEXTMGR
  2
AcAmContextMgr
  3
DesignerAssemblies
 90
        0
280
     0
281
     0
  0
CLASS
  1
ACAMCONTEXTMODELER
  2
AcAmContextModeler
  3
DesignerAssemblies
 90
        0
280
     0
281
     0
  0
CLASS
  1
ACMTHREADLINESTANDARDISO
  2
AmdtThreadLineStdISO
  3
"Amdt_StdImp|Product Description: AutoCAD Mechanical 2004 DX|Company: Autodesk"
 90
    32768
280
     0
281
     0
  0
CLASS
  1
CATALOGSTATE
  2
AcAmCatalogState
  3
DesignerAssemblies
 90
        0
280
     0
281
     0
  0
CLASS
  1
ACAMGRCOMPDEFSET
  2
AcAmGrCompDefSet
  3
DesignerAssemblies
 90
        0
280
     0
281
     0
  0
CLASS
  1
AMDTBROWSERDBTAB
  2
AmdtBrowserDbTab
  3
McadcomServices
 90
        0
280
     0
281
     0
  0
CLASS
  1
CBROWSERAPPOBJECT
  2
CBrowserAppObject
  3
McadcomServices
 90
        0
280
     0
281
     0
  0
CLASS
  1
DM_PLACEHOLDER
  2
AcDmSelsetPlaceholder
  3
AcMechDwgViewMgmt
 90
        0
280
     0
281
     0
  0
CLASS
  1
TABLESTYLE
  2
AcDbTableStyle
  3
ObjectDBX Classes
 90
     2047
280
     0
281
     0
  0
CLASS
  1
VAACXREFPANELOBJECT
  2
VaAcXREFPanelObject
  3
VAAC_ADDIN
 90
    32768
280
     0
281
     0
  0
CLASS
  1
VAACIMAGEINVENTORY
  2
VaAcImageInventory
  3
VAAC_ADDIN
 90
    32768
280
     0
281
     0
  0
CLASS
  1
AMDTNOTETEMPLATEDB
  2
AmdtNoteTemplateDB
  3
AMDT_STDIMP_MODULE_NAME
 90
        0
280
     0
281
     0
  0
CLASS
  1
ACMBOM
  2
AcmBom
  3
"AcmSymBB|Product Description: AutoCAD Mechanical 2004 DX|Company: Autodesk"
 90
    32768
280
     0
281
     0
  0
CLASS
  1
AMDTFORMULAUPDATEDISPATCHER
  2
AmdtFormulaUpdateDispatcher
  3
AcMeServices
 90
    32768
280
     0
281
     0
  0
CLASS
  1
ACMPARTLIST
  2
AcmPartList
  3
"AcmSymBB|Product Description: AutoCAD Mechanical 2004 DX|Company: Autodesk"
 90
    33791
280
     0
281
     1
  0
CLASS
  1
ACAMGFILTERDAT
  2
AcAmgFilterDat
  3
"AcadM|Product Description: AutoCAD Mechanical 2000|Company: Autodesk"
 90
    32768
280
     0
281
     0
  0
CLASS
  1
SORTENTSTABLE
  2
AcDbSortentsTable
  3
ObjectDBX Classes
 90
        0
280
     0
281
     0
  0
CLASS
  1
ACMSTANDARDJIS
  2
AcmStandardJIS
  3
"Amdt_StdImp|Product Description: AutoCAD Mechanical 2004 DX|Company: Autodesk"
 90
        0
280
     0
281
     0
  0
CLASS
  1
ACMSURFSTANDARDJIS
  2
AcmSurfTextStdJIS
  3
"Amdt_StdImp|Product Description: AutoCAD Mechanical 2004 DX|Company: Autodesk"
 90
        0
280
     0
281
     0
  0
CLASS
  1
ACMFCFSTANDARDJIS
  2
AcmFCFStdJIS
  3
"Amdt_StdImp|Product Description: AutoCAD Mechanical 2004 DX|Company: Autodesk"
 90
        0
280
     0
281
     0
  0
CLASS
  1
ACMWELDSTANDARDJIS
  2
AcmWeldingStdJIS
  3
"Amdt_StdImp|Product Description: AutoCAD Mechanical 2004 DX|Company: Autodesk"
 90
        0
280
     0
281
     0
  0
CLASS
  1
ACMIDSTANDARDJIS
  2
AcmIdStdJIS
  3
"Amdt_StdImp|Product Description: AutoCAD Mechanical 2004 DX|Company: Autodesk"
 90
        0
280
     0
281
     0
  0
CLASS
  1
ACMDATUMSTANDARDJIS
  2
AcmDatumStdJIS
  3
"Amdt_StdImp|Product Description: AutoCAD Mechanical 2004 DX|Company: Autodesk"
 90
        0
280
     0
281
     0
  0
CLASS
  1
ACMBOMSTANDARDJIS
  2
AcmBOMStdJIS
  3
"Amdt_StdImp|Product Description: AutoCAD Mechanical 2004 DX|Company: Autodesk"
 90
        0
280
     0
281
     0
  0
CLASS
  1
ACMDETAILSTANDARDJIS
  2
AmdtDetailSymStdJIS
  3
"Amdt_StdImp|Product Description: AutoCAD Mechanical 2004 DX|Company: Autodesk"
 90
        0
280
     0
281
     0
  0
CLASS
  1
ACMSECTIONSTANDARDJIS
  2
AmdtSectionSymStdJIS
  3
"Amdt_StdImp|Product Description: AutoCAD Mechanical 2004 DX|Company: Autodesk"
 90
        0
280
     0
281
     0
  0
CLASS
  1
ACMCENTERLINESTANDARDJIS
  2
AmdtCenterLineStdJIS
  3
"Amdt_StdImp|Product Description: AutoCAD Mechanical 2004 DX|Company: Autodesk"
 90
        0
280
     0
281
     0
  0
CLASS
  1
ACMTHREADLINESTANDARDJIS
  2
AmdtThreadLineStdJIS
  3
"Amdt_StdImp|Product Description: AutoCAD Mechanical 2004 DX|Company: Autodesk"
 90
        0
280
     0
281
     0
  0
CLASS
  1
ACMNOTESTANDARDJIS
  2
AmdtNoteStdJIS
  3
"Amdt_StdImp|Product Description: AutoCAD Mechanical 2004 DX|Company: Autodesk"
 90
        0
280
     0
281
     0
  0
CLASS
  1
ACAMGHOLECHARTSTDJIS
  2
AcAmgHoleChartStdJIS
  3
ACMSYMBB_MODULE_NAME
 90
        0
280
     0
281
     0
  0
CLASS
  1
ACRFATTGENMGR
  2
AcRfAttGeneralMgr
  3
AcAttribServices
 90
    32768
280
     0
281
     0
  0
CLASS
  1
DBCOLOR
  2
AcDbColor
  3
ObjectDBX Classes
 90
        0
280
     0
281
     0
  0
ENDSEC
  0
SECTION
  2
TABLES
  0
TABLE
  2
VPORT
  5
8
330
0
100
AcDbSymbolTable
 70
     8
  0
VPORT
  5
17B4
330
8
100
AcDbSymbolTableRecord
100
AcDbViewportTableRecord
  2
*Active
 70
     0
 10
0.0
 20
0.0
 11
1.0
 21
1.0
 12
160.192153187159
 22
78.99411668934613
 13
0.0
 23
0.0
 14
2.5
 24
2.5
 15
10.0
 25
10.0
 16
0.0
 26
0.0
 36
1.0
 17
0.0
 27
0.0
 37
0.0
 40
520.5404148042106
 41
1.954070981210855
 42
50.0
 43
0.0
 44
0.0
 50
0.0
 51
0.0
 71
     0
 72
   100
 73
     1
 74
     3
 75
     0
 76
     0
 77
     0
 78
     0
281
     0
 65
     1
110
0.0
120
0.0
130
0.0
111
1.0
121
0.0
131
0.0
112
0.0
122
1.0
132
0.0
 79
     0
146
0.0
  0
ENDTAB
  0
TABLE
  2
LTYPE
  5
5
330
0
100
AcDbSymbolTable
 70
    17
  0
LTYPE
  5
14
330
5
100
AcDbSymbolTableRecord
100
AcDbLinetypeTableRecord
  2
ByBlock
 70
     0
  3

 72
    65
 73
     0
 40
0.0
  0
LTYPE
  5
15
330
5
100
AcDbSymbolTableRecord
100
AcDbLinetypeTableRecord
  2
ByLayer
 70
     0
  3

 72
    65
 73
     0
 40
0.0
  0
LTYPE
  5
16
330
5
100
AcDbSymbolTableRecord
100
AcDbLinetypeTableRecord
  2
Continuous
 70
     0
  3
Solid line
 72
    65
 73
     0
 40
0.0
  0
LTYPE
  5
64
330
5
100
AcDbSymbolTableRecord
100
AcDbLinetypeTableRecord
  2
AM_ISO02W050
 70
     0
  3
__ __ __ __ __ __ __ __ __ __ __ __ __ __ __
 72
    65
 73
     2
 40
7.5
 49
6.0
 74
     0
 49
-1.5
 74
     0
  0
LTYPE
  5
65
330
5
100
AcDbSymbolTableRecord
100
AcDbLinetypeTableRecord
  2
AM_ISO08W050
 70
     0
  3
____ . ____ . ____ . ____ . ____ . ____ . ____
 72
    65
 73
     4
 40
18.0
 49
12.0
 74
     0
 49
-1.5
 74
     0
 49
3.0
 74
     0
 49
-1.5
 74
     0
  0
LTYPE
  5
66
330
5
100
AcDbSymbolTableRecord
100
AcDbLinetypeTableRecord
  2
AM_ISO09W050
 70
     0
  3
_____ . . _____ . . _____ . . ____ .. ____
 72
    65
 73
     6
 40
22.5
 49
12.0
 74
     0
 49
-1.5
 74
     0
 49
3.0
 74
     0
 49
-1.5
 74
     0
 49
3.0
 74
     0
 49
-1.5
 74
     0
  0
LTYPE
  5
67
330
5
100
AcDbSymbolTableRecord
100
AcDbLinetypeTableRecord
  2
Amconstr
 70
     0
  3
_______________________
 72
    65
 73
     2
 40
9999.0
 49
9999.0
 74
     0
 49
0.0
 74
     0
  0
LTYPE
  5
68
330
5
100
AcDbSymbolTableRecord
100
AcDbLinetypeTableRecord
  2
AM_ISO08W050x2
 70
     0
  3
__ . __ . __ . __ . __ . __
 72
    65
 73
     4
 40
9.0
 49
6.0
 74
     0
 49
-0.75
 74
     0
 49
1.5
 74
     0
 49
-0.75
 74
     0
  0
LTYPE
  5
69
330
5
100
AcDbSymbolTableRecord
100
AcDbLinetypeTableRecord
  2
AM_ISO02W050x2
 70
     0
  3
 _ _ _ _ _ _ _ _ _ _ _ _
 72
    65
 73
     2
 40
3.75
 49
3.0
 74
     0
 49
-0.75
 74
     0
  0
LTYPE
  5
6C
330
5
100
AcDbSymbolTableRecord
100
AcDbLinetypeTableRecord
  2
Amzigzag
 70
     0
  3
/\/-/\/-/\/-/\/-/\/-/\/
 72
    65
 73
     2
 40
11.0001
 49
0.0001
 74
     4
 75
   135
340
6B
 46
0.04
 50
0.0
 44
0.0
 45
0.0
 49
-11.0
 74
     0
  0
LTYPE
  5
7A
330
5
100
AcDbSymbolTableRecord
100
AcDbLinetypeTableRecord
  2
ACISOWELD
 70
     0
  3
_ _ _ _ _
 72
    65
 73
     2
 40
2.0
 49
2.0
 74
     0
 49
-1.0
 74
     0
  0
LTYPE
  5
7B
330
5
100
AcDbSymbolTableRecord
100
AcDbLinetypeTableRecord
  2
ACISOTGB
 70
     0
  3
__ . . __ . .
 72
    65
 73
     6
 40
9.0
 49
4.0
 74
     0
 49
-1.0
 74
     0
 49
1.0
 74
     0
 49
-1.0
 74
     0
 49
1.0
 74
     0
 49
-1.0
 74
     0
  0
LTYPE
  5
7C
330
5
100
AcDbSymbolTableRecord
100
AcDbLinetypeTableRecord
  2
ACISOTGL
 70
     0
  3
_ _ _ _ _
 72
    65
 73
     2
 40
3.0
 49
2.0
 74
     0
 49
-1.0
 74
     0
  0
LTYPE
  5
7E
330
5
100
AcDbSymbolTableRecord
100
AcDbLinetypeTableRecord
  2
CENTER
 70
     0
  3
__ . __
 72
    65
 73
     4
 40
7.0
 49
4.0
 74
     0
 49
-1.0
 74
     0
 49
1.0
 74
     0
 49
-1.0
 74
     0
  0
LTYPE
  5
D8
330
5
100
AcDbSymbolTableRecord
100
AcDbLinetypeTableRecord
  2
HIDDEN
 70
     0
  3
Hidden __ __ __ __ __ __ __ __ __ __ __ __ __ _
 72
    65
 73
     2
 40
9.524999999999996
 49
6.349999999999997
 74
     0
 49
-3.174999999999998
 74
     0
  0
LTYPE
  5
D9
330
5
100
AcDbSymbolTableRecord
100
AcDbLinetypeTableRecord
  2
PHANTOM2
 70
     0
  3
Phantom (.5x) ___ _ _ ___ _ _ ___ _ _ ___ _ _
 72
    65
 73
     6
 40
31.75
 49
15.875
 74
     0
 49
-3.174999999999998
 74
     0
 49
3.174999999999998
 74
     0
 49
-3.174999999999998
 74
     0
 49
3.174999999999998
 74
     0
 49
-3.174999999999998
 74
     0
  0
LTYPE
  5
207
330
5
100
AcDbSymbolTableRecord
100
AcDbLinetypeTableRecord
  2
ACJISTGB
 70
     0
  3
__ . . __ . .
 72
    65
 73
     6
 40
9.0
 49
4.0
 74
     0
 49
-1.0
 74
     0
 49
1.0
 74
     0
 49
-1.0
 74
     0
 49
1.0
 74
     0
 49
-1.0
 74
     0
  0
LTYPE
  5
208
330
5
100
AcDbSymbolTableRecord
100
AcDbLinetypeTableRecord
  2
ACJISTGL
 70
     0
  3
_ _ _ _ _
 72
    65
 73
     2
 40
3.0
 49
2.0
 74
     0
 49
-1.0
 74
     0
  0
LTYPE
  5
74C
330
5
100
AcDbSymbolTableRecord
100
AcDbLinetypeTableRecord
  2
ACJISWELD
 70
     0
  3
_ _ _ _ _
 72
    65
 73
     2
 40
2.0
 49
2.0
 74
     0
 49
-1.0
 74
     0
  0
ENDTAB
  0
TABLE
  2
LAYER
  5
2
102
{ACAD_XDICTIONARY
360
21A
102
}
330
0
100
AcDbSymbolTable
 70
     3
  0
LAYER
  5
10
330
2
100
AcDbSymbolTableRecord
100
AcDbLayerTableRecord
  2
0
 70
     0
 62
     7
  6
Continuous
370
    -3
390
F
  0
LAYER
  5
1B0
330
2
100
AcDbSymbolTableRecord
100
AcDbLayerTableRecord
  2
AM_5
 70
     0
 62
     3
  6
Continuous
370
    25
390
F
  0
LAYER
  5
1FD
330
2
100
AcDbSymbolTableRecord
100
AcDbLayerTableRecord
  2
AM_0
 70
     0
 62
     7
  6
Continuous
370
    50
390
F
  0
ENDTAB
  0
TABLE
  2
STYLE
  5
3
330
0
100
AcDbSymbolTable
 70
     9
  0
STYLE
  5
11
330
3
100
AcDbSymbolTableRecord
100
AcDbTextStyleTableRecord
  2
STANDARD
 70
     0
 40
0.0
 41
1.0
 50
0.0
 71
     0
 42
2.5
  3
ISOCP.SHX
  4
extfont.shx
  0
STYLE
  5
6B
330
3
100
AcDbSymbolTableRecord
100
AcDbTextStyleTableRecord
  2

 70
     1
 40
0.0
 41
1.0
 50
0.0
 71
     0
 42
2.5
  3
ltypeshp.shx
  4

  0
STYLE
  5
6D
330
3
100
AcDbSymbolTableRecord
100
AcDbTextStyleTableRecord
  2
ACISOTS
 70
     0
 40
1.0
 41
1.0
 50
0.0
 71
     0
 42
1.0
  3
isocp.shx
  4
extfont.shx
  0
STYLE
  5
79
330
3
100
AcDbSymbolTableRecord
100
AcDbTextStyleTableRecord
  2
ACISOGDT
 70
     0
 40
0.0
 41
1.0
 50
0.0
 71
     0
 42
2.5
  3
amgdt.shx
  4
extfont.shx
  0
STYLE
  5
1F8
330
3
100
AcDbSymbolTableRecord
100
AcDbTextStyleTableRecord
  2
USER1
 70
     0
 40
0.0
 41
1.0
 50
0.0
 71
     0
 42
1.0
  3
TXT.SHX
  4

  0
STYLE
  5
1F9
330
3
100
AcDbSymbolTableRecord
100
AcDbTextStyleTableRecord
  2
USER2
 70
     0
 40
0.0
 41
1.0
 50
0.0
 71
     0
 42
1.0
  3
SIMPLEX.SHX
  4

  0
STYLE
  5
1FA
330
3
100
AcDbSymbolTableRecord
100
AcDbTextStyleTableRecord
  2
USER3
 70
     0
 40
0.0
 41
1.0
 50
0.0
 71
     0
 42
1.0
  3
ITALIC.SHX
  4

  0
STYLE
  5
1FB
330
3
100
AcDbSymbolTableRecord
100
AcDbTextStyleTableRecord
  2
ACJISTS
 70
     0
 40
1.0
 41
1.0
 50
0.0
 71
     0
 42
2.5
  3
isocp.shx
  4
extfont.shx
  0
STYLE
  5
1FC
330
3
100
AcDbSymbolTableRecord
100
AcDbTextStyleTableRecord
  2
ACJISGDT
 70
     0
 40
0.0
 41
1.0
 50
0.0
 71
     0
 42
2.5
  3
amgdt.shx
  4
extfont.shx
  0
ENDTAB
  0
TABLE
  2
VIEW
  5
6
330
0
100
AcDbSymbolTable
 70
     0
  0
ENDTAB
  0
TABLE
  2
UCS
  5
7
330
0
100
AcDbSymbolTable
 70
     0
  0
ENDTAB
  0
TABLE
  2
APPID
  5
9
330
0
100
AcDbSymbolTable
 70
    18
  0
APPID
  5
12
330
9
100
AcDbSymbolTableRecord
100
AcDbRegAppTableRecord
  2
ACAD
 70
     0
  0
APPID
  5
46
330
9
100
AcDbSymbolTableRecord
100
AcDbRegAppTableRecord
  2
MCAD_NO_VIS
 70
     0
  0
APPID
  5
47
330
9
100
AcDbSymbolTableRecord
100
AcDbRegAppTableRecord
  2
ACAD_TEMP_GRAPHIC
 70
     0
  0
APPID
  5
58
330
9
100
AcDbSymbolTableRecord
100
AcDbRegAppTableRecord
  2
ACATTRIBSERVICES
 70
     0
  0
APPID
  5
EE
330
9
100
AcDbSymbolTableRecord
100
AcDbRegAppTableRecord
  2
AD_DRAW
 70
     0
  0
APPID
  5
10C
330
9
100
AcDbSymbolTableRecord
100
AcDbRegAppTableRecord
  2
DESIGNERASSEMBLIES
 70
     0
  0
APPID
  5
111
330
9
100
AcDbSymbolTableRecord
100
AcDbRegAppTableRecord
  2
ACADM_DIM_EDIT
 70
     0
  0
APPID
  5
112
330
9
100
AcDbSymbolTableRecord
100
AcDbRegAppTableRecord
  2
AMDT_DM_ADJ
 70
     0
  0
APPID
  5
210
330
9
100
AcDbSymbolTableRecord
100
AcDbRegAppTableRecord
  2
GENIUS_GENREC_14
 70
     0
  0
APPID
  5
211
330
9
100
AcDbSymbolTableRecord
100
AcDbRegAppTableRecord
  2
GENIUS_GENODEF_13
 70
     0
  0
APPID
  5
212
330
9
100
AcDbSymbolTableRecord
100
AcDbRegAppTableRecord
  2
GENIUS_GENOBJ-N-REC_13
 70
     0
  0
APPID
  5
213
330
9
100
AcDbSymbolTableRecord
100
AcDbRegAppTableRecord
  2
GENIUS_GENOBJ-N-FIL_13
 70
     0
  0
APPID
  5
214
330
9
100
AcDbSymbolTableRecord
100
AcDbRegAppTableRecord
  2
GENIUS_GENOREF_13
 70
     0
  0
APPID
  5
215
330
9
100
AcDbSymbolTableRecord
100
AcDbRegAppTableRecord
  2
GENIUS_GENOBJ-N-CEN_13
 70
     0
  0
APPID
  5
216
330
9
100
AcDbSymbolTableRecord
100
AcDbRegAppTableRecord
  2
GENIUS_GENCEN_19
 70
     0
  0
APPID
  5
217
330
9
100
AcDbSymbolTableRecord
100
AcDbRegAppTableRecord
  2
GENIUS_GENFIL_13
 70
     0
  0
APPID
  5
218
330
9
100
AcDbSymbolTableRecord
100
AcDbRegAppTableRecord
  2
GENIUS_GENOBJ-N-CHA_13
 70
     0
  0
APPID
  5
219
330
9
100
AcDbSymbolTableRecord
100
AcDbRegAppTableRecord
  2
ACAD_PSEXT
 70
     0
  0
ENDTAB
  0
TABLE
  2
DIMSTYLE
  5
A
330
0
100
AcDbSymbolTable
 70
    16
100
AcDbDimStyleTable
 71
     2
340
81
340
1FE
  0
DIMSTYLE
105
27
330
A
100
AcDbSymbolTableRecord
100
AcDbDimStyleTableRecord
  2
ISO-25
 70
     0
 41
2.5
 42
0.625
 43
3.75
 44
1.25
 73
     0
 74
     0
 77
     1
 78
     8
140
2.5
141
2.5
143
0.03937007874016
147
0.625
171
     3
172
     1
271
     2
272
     2
274
     3
278
    44
283
     0
284
     8
340
11
  0
DIMSTYLE
105
81
330
A
100
AcDbSymbolTableRecord
100
AcDbDimStyleTableRecord
  2
AM_ISO
 70
     0
  4
"
 41
2.5
 42
1.0
 43
10.0
 44
1.0
 47
0.1
 48
0.1
 73
     0
 74
     0
 77
     1
 78
     8
 79
     2
140
3.5
141
0.0
143
0.0393701
146
0.71
147
1.5
172
     1
176
   256
177
   256
178
     2
271
     2
272
     3
274
     4
283
     0
284
     8
340
11
371
    -1
372
    -1
  0
DIMSTYLE
105
82
330
A
100
AcDbSymbolTableRecord
100
AcDbDimStyleTableRecord
  2
AM_ISO$3
 70
     0
  4
"
 41
2.5
 42
1.0
 43
10.0
 44
1.0
 47
0.1
 48
0.1
 73
     0
 77
     1
 78
     8
 79
     2
140
3.5
141
0.0
143
0.0393701
146
0.71
147
1.5
176
   256
177
   256
178
     2
271
     2
272
     3
274
     4
283
     0
284
     8
288
     1
289
     0
340
11
371
    -1
372
    -1
  0
DIMSTYLE
105
83
330
A
100
AcDbSymbolTableRecord
100
AcDbDimStyleTableRecord
  2
AM_ISO$4
 70
     0
  4
"
 41
2.5
 42
1.0
 43
10.0
 44
1.0
 47
0.1
 48
0.1
 73
     0
 77
     1
 78
     8
 79
     2
140
3.5
141
0.0
143
0.0393701
146
0.71
147
1.5
176
   256
177
   256
178
     2
271
     2
272
     3
274
     4
283
     0
284
     8
288
     1
289
     0
340
11
371
    -1
372
    -1
  0
DIMSTYLE
105
84
330
A
100
AcDbSymbolTableRecord
100
AcDbDimStyleTableRecord
  2
AM_ISO$6
 70
     0
  4
"
 41
2.5
 42
1.0
 43
10.0
 44
1.0
 47
0.1
 48
0.1
 73
     0
 74
     0
 78
     8
 79
     2
140
3.5
141
0.0
143
0.0393701
146
0.71
147
1.5
172
     1
176
   256
177
   256
178
     2
271
     2
272
     3
274
     4
283
     0
284
     8
340
11
371
    -1
372
    -1
  0
DIMSTYLE
105
85
330
A
100
AcDbSymbolTableRecord
100
AcDbDimStyleTableRecord
  2
AM_ISO$7
 70
     0
  4
"
 41
2.5
 42
1.0
 43
10.0
 44
1.0
 47
0.1
 48
0.1
 73
     0
 74
     0
 77
     1
 78
     8
 79
     2
140
5.0
141
0.0
143
0.0393701
146
0.71
147
1.5
172
     1
176
   256
177
   256
178
     2
271
     2
272
     3
274
     4
283
     0
284
     8
340
11
371
    -1
372
    -1
  0
DIMSTYLE
105
86
330
A
100
AcDbSymbolTableRecord
100
AcDbDimStyleTableRecord
  2
AM_ISO$SF
 70
     0
  4
"
 41
2.5
 42
1.0
 43
10.0
 44
1.0
 47
0.1
 48
0.1
 73
     0
 74
     0
 75
     1
 76
     1
 77
     1
 78
     8
 79
     2
140
3.5
141
0.0
143
0.0393701
146
0.71
147
1.5
172
     1
176
   256
177
   256
178
     2
271
     2
272
     3
274
     4
283
     0
284
     8
340
11
371
    -1
372
    -1
  0
DIMSTYLE
105
8B
330
A
100
AcDbSymbolTableRecord
100
AcDbDimStyleTableRecord
  2
AM_ISO$SH
 70
     0
  4
"
 41
2.5
 42
1.0
 43
10.0
 44
1.0
 47
0.1
 48
0.1
 73
     0
 74
     0
 75
     1
 76
     1
 77
     1
 78
     8
 79
     2
140
3.5
141
0.0
143
0.0393701
144
2.0
146
0.71
147
1.5
172
     1
173
     1
176
   256
177
   256
178
     2
271
     2
272
     3
274
     4
283
     0
284
     8
340
11
343
87
371
    -1
372
    -1
  0
DIMSTYLE
105
1FE
330
A
100
AcDbSymbolTableRecord
100
AcDbDimStyleTableRecord
  2
AM_JIS
 70
     0
  4
"
 41
2.5
 42
1.0
 43
10.0
 44
1.0
 47
0.1
 48
0.1
 73
     0
 74
     0
 77
     3
 78
     8
 79
     2
140
3.5
141
0.0
143
0.0393701
146
0.71
147
1.5
172
     1
176
   256
177
   256
178
     2
271
     2
272
     3
274
     4
283
     0
284
     8
340
11
341
1FF
342
1FF
343
1FF
344
1FF
371
    -1
372
    -1
  0
DIMSTYLE
105
209
330
A
100
AcDbSymbolTableRecord
100
AcDbDimStyleTableRecord
  2
AM_JIS$3
 70
     0
  4
"
 41
2.5
 42
1.0
 43
10.0
 44
1.0
 47
0.1
 48
0.1
 73
     0
 77
     3
 78
     8
 79
     2
140
3.5
141
0.0
143
0.0393701
146
0.71
147
1.5
176
   256
177
   256
178
     2
271
     2
272
     3
274
     4
283
     0
284
     8
288
     1
289
     0
340
11
341
1FF
342
1FF
343
1FF
344
1FF
371
    -1
372
    -1
  0
DIMSTYLE
105
20A
330
A
100
AcDbSymbolTableRecord
100
AcDbDimStyleTableRecord
  2
AM_JIS$4
 70
     0
  4
"
 41
2.5
 42
1.0
 43
10.0
 44
1.0
 47
0.1
 48
0.1
 73
     0
 77
     3
 78
     8
 79
     2
140
3.5
141
0.0
143
0.0393701
146
0.71
147
1.5
176
   256
177
   256
178
     2
271
     2
272
     3
274
     4
283
     0
284
     8
288
     1
289
     0
340
11
341
1FF
342
1FF
343
1FF
344
1FF
371
    -1
372
    -1
  0
DIMSTYLE
105
20B
330
A
100
AcDbSymbolTableRecord
100
AcDbDimStyleTableRecord
  2
AM_JIS$6
 70
     0
  4
"
 41
2.5
 42
1.0
 43
10.0
 44
1.0
 47
0.1
 48
0.1
 73
     0
 74
     0
 78
     8
 79
     2
140
3.5
141
0.0
143
0.0393701
146
0.71
147
1.5
172
     1
176
   256
177
   256
178
     2
271
     2
272
     3
274
     4
283
     0
284
     8
340
11
341
1FF
342
1FF
343
1FF
344
1FF
371
    -1
372
    -1
  0
DIMSTYLE
105
20C
330
A
100
AcDbSymbolTableRecord
100
AcDbDimStyleTableRecord
  2
AM_JIS$7
 70
     0
  4
"
 41
2.5
 42
1.0
 43
10.0
 44
1.0
 47
0.1
 48
0.1
 73
     0
 74
     0
 77
     3
 78
     8
 79
     2
140
3.5
141
0.0
143
0.0393701
146
0.71
147
1.5
172
     1
176
   256
177
   256
178
     2
271
     2
272
     3
274
     4
283
     0
284
     8
340
11
341
1FF
342
1FF
343
1FF
344
1FF
371
    -1
372
    -1
  0
DIMSTYLE
105
20D
330
A
100
AcDbSymbolTableRecord
100
AcDbDimStyleTableRecord
  2
AM_JIS$SF
 70
     0
  4
"
 41
2.5
 42
1.0
 43
10.0
 44
1.0
 47
0.1
 48
0.1
 73
     0
 74
     0
 75
     1
 76
     1
 77
     3
 78
     8
 79
     2
140
3.5
141
0.0
143
0.0393701
146
0.71
147
1.5
172
     1
176
   256
177
   256
178
     2
271
     2
272
     3
274
     4
283
     0
284
     8
340
11
341
1FF
342
1FF
343
1FF
344
1FF
371
    -1
372
    -1
  0
DIMSTYLE
105
20E
330
A
100
AcDbSymbolTableRecord
100
AcDbDimStyleTableRecord
  2
AM_JIS$SH
 70
     0
  4
"
 41
2.5
 42
1.0
 43
10.0
 44
1.0
 47
0.1
 48
0.1
 73
     0
 74
     0
 75
     1
 76
     1
 77
     3
 78
     8
 79
     2
140
3.5
141
0.0
143
0.0393701
144
2.0
146
0.71
147
1.5
172
     1
173
     1
176
   256
177
   256
178
     2
271
     2
272
     3
274
     4
283
     0
284
     8
340
11
341
1FF
342
1FF
343
87
344
1FF
371
    -1
372
    -1
  0
DIMSTYLE
105
20F
330
A
100
AcDbSymbolTableRecord
100
AcDbDimStyleTableRecord
  2
AM_JIS$0
 70
     0
  4
"
 40
1.25
 41
2.5
 42
1.0
 43
10.0
 44
1.0
 47
0.1
 48
0.1
 73
     0
 74
     0
 77
     3
 78
     8
 79
     2
140
2.799999999999998
141
0.0
143
0.0393701
146
0.71
147
1.0
172
     1
176
   256
177
   256
178
     2
271
     2
272
     2
283
     0
284
     8
289
     1
340
11
341
1FF
342
1FF
371
    -1
372
    -1
  0
ENDTAB
  0
TABLE
  2
BLOCK_RECORD
  5
1
330
0
100
AcDbSymbolTable
 70
     4
  0
BLOCK_RECORD
  5
1F
102
{ACAD_XDICTIONARY
360
8F
102
}
330
1
100
AcDbSymbolTableRecord
100
AcDbBlockTableRecord
  2
*Model_Space
340
22
  0
BLOCK_RECORD
  5
1B
330
1
100
AcDbSymbolTableRecord
100
AcDbBlockTableRecord
  2
*Paper_Space
340
1E
  0
BLOCK_RECORD
  5
23
330
1
100
AcDbSymbolTableRecord
100
AcDbBlockTableRecord
  2
*Paper_Space0
340
26
  0
BLOCK_RECORD
  5
87
330
1
100
AcDbSymbolTableRecord
100
AcDbBlockTableRecord
  2
GENAXEH
340
0
  0
BLOCK_RECORD
  5
1FF
330
1
100
AcDbSymbolTableRecord
100
AcDbBlockTableRecord
  2
_Open30
340
0
  0
ENDTAB
  0
ENDSEC
  0
SECTION
  2
BLOCKS
  0
BLOCK
  5
20
330
1F
100
AcDbEntity
  8
0
100
AcDbBlockBegin
  2
*Model_Space
 70
     0
 10
0.0
 20
0.0
 30
0.0
  3
*Model_Space
  1

  0
ENDBLK
  5
21
330
1F
100
AcDbEntity
  8
0
100
AcDbBlockEnd
  0
BLOCK
  5
1C
330
1B
100
AcDbEntity
 67
     1
  8
0
100
AcDbBlockBegin
  2
*Paper_Space
 70
     0
 10
0.0
 20
0.0
 30
0.0
  3
*Paper_Space
  1

  0
ENDBLK
  5
1D
330
1B
100
AcDbEntity
 67
     1
  8
0
100
AcDbBlockEnd
  0
BLOCK
  5
24
330
23
100
AcDbEntity
  8
0
100
AcDbBlockBegin
  2
*Paper_Space0
 70
     0
 10
0.0
 20
0.0
 30
0.0
  3
*Paper_Space0
  1

  0
ENDBLK
  5
25
330
23
100
AcDbEntity
  8
0
100
AcDbBlockEnd
  0
BLOCK
  5
17A3
330
87
100
AcDbEntity
  8
0
100
AcDbBlockBegin
  2
GENAXEH
 70
     0
 10
0.0
 20
0.0
 30
0.0
  3
GENAXEH
  1

  0
LINE
  5
17A4
330
87
100
AcDbEntity
  8
0
100
AcDbLine
 10
-1.0
 20
0.0
 30
0.0
 11
1.0
 21
0.0
 31
0.0
  0
ENDBLK
  5
17A5
330
87
100
AcDbEntity
  8
0
100
AcDbBlockEnd
  0
BLOCK
  5
1797
330
1FF
100
AcDbEntity
  8
0
100
AcDbBlockBegin
  2
_Open30
 70
     0
 10
0.0
 20
0.0
 30
0.0
  3
_Open30
  1

  0
LINE
  5
1798
330
1FF
100
AcDbEntity
  8
0
  6
ByBlock
 62
     0
370
    -2
100
AcDbLine
 10
-1.0
 20
0.26794919
 30
0.0
 11
0.0
 21
0.0
 31
0.0
  0
LINE
  5
1799
330
1FF
100
AcDbEntity
  8
0
  6
ByBlock
 62
     0
370
    -2
100
AcDbLine
 10
0.0
 20
0.0
 30
0.0
 11
-1.0
 21
-0.26794919
 31
0.0
  0
LINE
  5
179A
330
1FF
100
AcDbEntity
  8
0
  6
ByBlock
 62
     0
370
    -2
100
AcDbLine
 10
0.0
 20
0.0
 30
0.0
 11
-1.0
 21
0.0
 31
0.0
  0
ENDBLK
  5
179B
330
1FF
100
AcDbEntity
  8
0
100
AcDbBlockEnd
  0
ENDSEC
  0
SECTION
  2
ENTITIES
  0
LINE
  5
470
330
1F
100
AcDbEntity
  8
0
100
AcDbLine
 10
303.7000000522966
 20
164.300000205066
 30
0.0
 11
216.7000000522969
 21
164.300000205066
 31
0.0
  0
LINE
  5
471
330
1F
100
AcDbEntity
  8
0
100
AcDbLine
 10
303.7000000522966
 20
164.6000002050661
 30
0.0
 11
216.7000000522969
 21
164.6000002050661
 31
0.0
  0
LINE
  5
472
330
1F
100
AcDbEntity
  8
0
100
AcDbLine
 10
295.4500000522965
 20
161.3000002050661
 30
0.0
 11
224.9500000522971
 21
161.3000002050661
 31
0.0
  0
LINE
  5
473
330
1F
100
AcDbEntity
  8
0
100
AcDbLine
 10
213.2000000522968
 20
160.8000002050661
 30
0.0
 11
213.2000000522968
 21
103.8000002050661
 31
0.0
  0
LINE
  5
474
330
1F
100
AcDbEntity
  8
0
100
AcDbLine
 10
212.9000000522967
 20
160.8000002050661
 30
0.0
 11
212.9000000522967
 21
145.3000002050661
 31
0.0
  0
LINE
  5
475
330
1F
100
AcDbEntity
  8
0
100
AcDbLine
 10
212.9000000522967
 20
135.3000002050661
 30
0.0
 11
212.9000000522967
 21
103.8000002050661
 31
0.0
  0
ARC
  5
476
330
1F
100
AcDbEntity
  8
0
100
AcDbCircle
 10
216.7000000522969
 20
160.8000002050661
 30
0.0
 40
3.5
100
AcDbArc
 50
90.0
 51
180.0
1001
GENIUS_GENOBJ-N-FIL_13
1002
{
1000
OWNER
1000
GEN
1002
}
1001
GENIUS_GENODEF_13
1002
{
1000
HIER
1070
     0
1002
}
1002
{
1000
MANEDIT
1070
     0
1002
}
1002
{
1000
NOSEL
1070
     0
1002
}
1002
{
1000
BEHIND
1070
     0
1002
}
1002
{
1000
OTHER
1070
     0
1002
}
1002
{
1000
REACTOR
1002
}
  0
ARC
  5
477
330
1F
100
AcDbEntity
  8
0
100
AcDbCircle
 10
216.7000000522969
 20
160.8000002050661
 30
0.0
 40
3.799999999999998
100
AcDbArc
 50
90.0
 51
180.0
1001
GENIUS_GENOBJ-N-FIL_13
1002
{
1000
OWNER
1000
GEN
1002
}
1001
GENIUS_GENODEF_13
1002
{
1000
HIER
1070
     0
1002
}
1002
{
1000
MANEDIT
1070
     0
1002
}
1002
{
1000
NOSEL
1070
     0
1002
}
1002
{
1000
BEHIND
1070
     0
1002
}
1002
{
1000
OTHER
1070
     0
1002
}
1002
{
1000
REACTOR
1002
}
  0
LINE
  5
478
330
1F
100
AcDbEntity
  8
0
100
AcDbLine
 10
307.2000000522966
 20
160.8000002050661
 30
0.0
 11
307.200000052297
 21
103.8000002050661
 31
0.0
  0
LINE
  5
479
330
1F
100
AcDbEntity
  8
0
100
AcDbLine
 10
307.5000000522966
 20
160.8000002050661
 30
0.0
 11
307.5000000522968
 21
145.3000002050661
 31
0.0
  0
LINE
  5
47A
330
1F
100
AcDbEntity
  8
0
100
AcDbLine
 10
307.5000000522968
 20
135.3000002050661
 30
0.0
 11
307.5000000522968
 21
103.8000002050661
 31
0.0
  0
ARC
  5
47B
330
1F
100
AcDbEntity
  8
0
100
AcDbCircle
 10
303.700000052297
 20
103.8000002050661
 30
0.0
 40
3.5
100
AcDbArc
 50
270.0
 51
0.0
1001
GENIUS_GENODEF_13
1002
{
1000
HIER
1070
     0
1002
}
1002
{
1000
MANEDIT
1070
     0
1002
}
1002
{
1000
NOSEL
1070
     0
1002
}
1002
{
1000
BEHIND
1070
     0
1002
}
1002
{
1000
OTHER
1070
     0
1002
}
1002
{
1000
REACTOR
1002
}
1001
GENIUS_GENOBJ-N-FIL_13
1002
{
1000
OWNER
1000
GEN
1002
}
  0
ARC
  5
47C
330
1F
100
AcDbEntity
  8
0
100
AcDbCircle
 10
303.700000052297
 20
103.8000002050661
 30
0.0
 40
3.799999999999998
100
AcDbArc
 50
270.0
 51
0.0
1001
GENIUS_GENODEF_13
1002
{
1000
HIER
1070
     0
1002
}
1002
{
1000
MANEDIT
1070
     0
1002
}
1002
{
1000
NOSEL
1070
     0
1002
}
1002
{
1000
BEHIND
1070
     0
1002
}
1002
{
1000
OTHER
1070
     0
1002
}
1002
{
1000
REACTOR
1002
}
1001
GENIUS_GENOBJ-N-FIL_13
1002
{
1000
OWNER
1000
GEN
1002
}
  0
ARC
  5
47D
330
1F
100
AcDbEntity
  8
0
100
AcDbCircle
 10
303.7000000522966
 20
160.8000002050661
 30
0.0
 40
3.5
100
AcDbArc
 50
0.0
 51
90.0
1001
GENIUS_GENODEF_13
1002
{
1000
HIER
1070
     0
1002
}
1002
{
1000
MANEDIT
1070
     0
1002
}
1002
{
1000
NOSEL
1070
     0
1002
}
1002
{
1000
BEHIND
1070
     0
1002
}
1002
{
1000
OTHER
1070
     0
1002
}
1002
{
1000
REACTOR
1002
}
1001
GENIUS_GENOBJ-N-FIL_13
1002
{
1000
OWNER
1000
GEN
1002
}
  0
ARC
  5
47E
330
1F
100
AcDbEntity
  8
0
100
AcDbCircle
 10
303.7000000522966
 20
160.8000002050661
 30
0.0
 40
3.799999999999998
100
AcDbArc
 50
0.0
 51
90.0
1001
GENIUS_GENODEF_13
1002
{
1000
HIER
1070
     0
1002
}
1002
{
1000
MANEDIT
1070
     0
1002
}
1002
{
1000
NOSEL
1070
     0
1002
}
1002
{
1000
BEHIND
1070
     0
1002
}
1002
{
1000
OTHER
1070
     0
1002
}
1002
{
1000
REACTOR
1002
}
1001
GENIUS_GENOBJ-N-FIL_13
1002
{
1000
OWNER
1000
GEN
1002
}
  0
LINE
  5
47F
330
1F
100
AcDbEntity
  8
0
100
AcDbLine
 10
227.7000000522969
 20
148.3000002050661
 30
0.0
 11
292.7000000522965
 21
148.3000002050661
 31
0.0
  0
LINE
  5
480
330
1F
100
AcDbEntity
  8
0
100
AcDbLine
 10
227.7000000522968
 20
103.3000002050661
 30
0.0
 11
227.7000000522969
 21
148.3000002050661
 31
0.0
  0
LINE
  5
481
330
1F
100
AcDbEntity
  8
0
100
AcDbLine
 10
223.4500000522968
 20
104.8000002050661
 30
0.0
 11
223.4500000522971
 21
159.8000002050661
 31
0.0
  0
ARC
  5
482
330
1F
100
AcDbEntity
  8
0
100
AcDbCircle
 10
224.9500000522971
 20
159.8000002050661
 30
0.0
 40
1.5
100
AcDbArc
 50
90.0
 51
180.0
1001
GENIUS_GENODEF_13
1002
{
1000
HIER
1070
     0
1002
}
1002
{
1000
MANEDIT
1070
     0
1002
}
1002
{
1000
NOSEL
1070
     0
1002
}
1002
{
1000
BEHIND
1070
     0
1002
}
1002
{
1000
OTHER
1070
     0
1002
}
1002
{
1000
REACTOR
1002
}
1001
GENIUS_GENOBJ-N-FIL_13
1002
{
1000
OWNER
1000
GEN
1002
}
  0
ARC
  5
483
330
1F
100
AcDbEntity
  8
0
100
AcDbCircle
 10
224.9500000522969
 20
104.8000002050661
 30
0.0
 40
1.5
100
AcDbArc
 50
180.0
 51
270.0
1001
GENIUS_GENODEF_13
1002
{
1000
HIER
1070
     0
1002
}
1002
{
1000
MANEDIT
1070
     0
1002
}
1002
{
1000
NOSEL
1070
     0
1002
}
1002
{
1000
BEHIND
1070
     0
1002
}
1002
{
1000
OTHER
1070
     0
1002
}
1002
{
1000
REACTOR
1002
}
1001
GENIUS_GENOBJ-N-FIL_13
1002
{
1000
OWNER
1000
GEN
1002
}
  0
CIRCLE
  5
484
330
1F
100
AcDbEntity
  8
0
100
AcDbCircle
 10
300.2000000522966
 20
157.3000002050664
 30
0.0
 40
2.5
  0
CIRCLE
  5
485
330
1F
100
AcDbEntity
  8
0
100
AcDbCircle
 10
220.2000000522968
 20
157.3000002050665
 30
0.0
 40
2.5
  0
CIRCLE
  5
486
330
1F
100
AcDbEntity
  8
0
100
AcDbCircle
 10
220.2000000522967
 20
107.3000002050657
 30
0.0
 40
2.5
  0
LINE
  5
487
330
1F
100
AcDbEntity
  8
0
100
AcDbLine
 10
236.9500000522967
 20
156.8000002050661
 30
0.0
 11
236.9500000522967
 21
155.5386129925921
 31
0.0
  0
LINE
  5
488
330
1F
100
AcDbEntity
  8
0
100
AcDbLine
 10
233.4500000522967
 20
156.8000002050661
 30
0.0
 11
233.4500000522967
 21
155.5386129925921
 31
0.0
  0
ARC
  5
489
330
1F
100
AcDbEntity
  8
0
100
AcDbCircle
 10
235.2000000522967
 20
152.800000205066
 30
0.0
 40
3.25
100
AcDbArc
 50
122.578970392805
 51
57.42102960719503
  0
ARC
  5
48A
330
1F
100
AcDbEntity
  8
0
100
AcDbCircle
 10
235.2000000522967
 20
156.8000002050661
 30
0.0
 40
1.75
100
AcDbArc
 50
0.0000000000032569
 51
180.0
1001
GENIUS_GENODEF_13
1002
{
1000
HIER
1070
     0
1002
}
1002
{
1000
MANEDIT
1070
     0
1002
}
1002
{
1000
NOSEL
1070
     0
1002
}
1002
{
1000
BEHIND
1070
     0
1002
}
1002
{
1000
OTHER
1070
     0
1002
}
1002
{
1000
REACTOR
1002
}
1001
GENIUS_GENOBJ-N-FIL_13
1002
{
1000
OWNER
1000
GEN
1002
}
  0
CIRCLE
  5
48B
330
1F
100
AcDbEntity
  8
0
100
AcDbCircle
 10
300.2000000522966
 20
107.300000205066
 30
0.0
 40
2.5
  0
LINE
  5
48C
330
1F
100
AcDbEntity
  8
0
100
AcDbLine
 10
303.700000052297
 20
100.3000002050661
 30
0.0
 11
283.3367926259615
 21
100.3000002050661
 31
0.0
  0
LINE
  5
48D
330
1F
100
AcDbEntity
  8
0
100
AcDbLine
 10
277.0632074786322
 20
100.3000002050661
 30
0.0
 11
243.3367926259614
 21
100.3000002050661
 31
0.0
  0
LINE
  5
48E
330
1F
100
AcDbEntity
  8
0
100
AcDbLine
 10
237.0632074786321
 20
100.3000002050661
 30
0.0
 11
216.7000000522968
 21
100.3000002050661
 31
0.0
  0
LINE
  5
48F
330
1F
100
AcDbEntity
  8
0
100
AcDbLine
 10
303.700000052297
 20
100.0000002050661
 30
0.0
 11
216.7000000522968
 21
100.0000002050661
 31
0.0
  0
LINE
  5
490
330
1F
100
AcDbEntity
  8
0
100
AcDbLine
 10
275.2947441639713
 20
103.3000002050661
 30
0.0
 11
245.1052559406224
 21
103.3000002050661
 31
0.0
  0
ARC
  5
491
330
1F
100
AcDbEntity
  8
0
100
AcDbCircle
 10
295.4500000522965
 20
104.8000002050661
 30
0.0
 40
1.5
100
AcDbArc
 50
270.0
 51
0.0
1001
GENIUS_GENODEF_13
1002
{
1000
HIER
1070
     0
1002
}
1002
{
1000
MANEDIT
1070
     0
1002
}
1002
{
1000
NOSEL
1070
     0
1002
}
1002
{
1000
BEHIND
1070
     0
1002
}
1002
{
1000
OTHER
1070
     0
1002
}
1002
{
1000
REACTOR
1002
}
1001
GENIUS_GENOBJ-N-FIL_13
1002
{
1000
OWNER
1000
GEN
1002
}
  0
ARC
  5
492
330
1F
100
AcDbEntity
  8
0
100
AcDbCircle
 10
216.7000000522968
 20
103.8000002050661
 30
0.0
 40
3.5
100
AcDbArc
 50
180.0
 51
270.0
1001
GENIUS_GENOBJ-N-FIL_13
1002
{
1000
OWNER
1000
GEN
1002
}
1001
GENIUS_GENODEF_13
1002
{
1000
HIER
1070
     0
1002
}
1002
{
1000
MANEDIT
1070
     0
1002
}
1002
{
1000
NOSEL
1070
     0
1002
}
1002
{
1000
BEHIND
1070
     0
1002
}
1002
{
1000
OTHER
1070
     0
1002
}
1002
{
1000
REACTOR
1002
}
  0
ARC
  5
493
330
1F
100
AcDbEntity
  8
0
100
AcDbCircle
 10
216.7000000522968
 20
103.8000002050661
 30
0.0
 40
3.799999999999998
100
AcDbArc
 50
180.0
 51
270.0
1001
GENIUS_GENOBJ-N-FIL_13
1002
{
1000
OWNER
1000
GEN
1002
}
1001
GENIUS_GENODEF_13
1002
{
1000
HIER
1070
     0
1002
}
1002
{
1000
MANEDIT
1070
     0
1002
}
1002
{
1000
NOSEL
1070
     0
1002
}
1002
{
1000
BEHIND
1070
     0
1002
}
1002
{
1000
OTHER
1070
     0
1002
}
1002
{
1000
REACTOR
1002
}
  0
LINE
  5
494
330
1F
100
AcDbEntity
  8
0
100
AcDbLine
 10
292.7000000522966
 20
103.3000002050661
 30
0.0
 11
292.7000000522965
 21
148.3000002050661
 31
0.0
  0
LINE
  5
495
330
1F
100
AcDbEntity
  8
0
100
AcDbLine
 10
296.9500000522965
 20
104.8000002050661
 30
0.0
 11
296.9500000522965
 21
159.8000002050661
 31
0.0
  0
ARC
  5
496
330
1F
100
AcDbEntity
  8
0
100
AcDbCircle
 10
295.4500000522965
 20
159.8000002050661
 30
0.0
 40
1.5
100
AcDbArc
 50
0.0
 51
90.0
1001
GENIUS_GENOBJ-N-FIL_13
1002
{
1000
OWNER
1000
GEN
1002
}
1001
GENIUS_GENODEF_13
1002
{
1000
HIER
1070
     0
1002
}
1002
{
1000
MANEDIT
1070
     0
1002
}
1002
{
1000
NOSEL
1070
     0
1002
}
1002
{
1000
BEHIND
1070
     0
1002
}
1002
{
1000
OTHER
1070
     0
1002
}
1002
{
1000
REACTOR
1002
}
  0
LINE
  5
497
330
1F
100
AcDbEntity
  8
0
100
AcDbLine
 10
283.4500000522966
 20
156.8000002050661
 30
0.0
 11
283.4500000522966
 21
155.5386129925921
 31
0.0
  0
LINE
  5
498
330
1F
100
AcDbEntity
  8
0
100
AcDbLine
 10
286.9500000522966
 20
156.8000002050661
 30
0.0
 11
286.9500000522966
 21
155.5386129925921
 31
0.0
  0
ARC
  5
499
330
1F
100
AcDbEntity
  8
0
100
AcDbCircle
 10
285.200000052297
 20
152.800000205066
 30
0.0
 40
3.25
100
AcDbArc
 50
122.578970392805
 51
57.42102960719503
  0
ARC
  5
49A
330
1F
100
AcDbEntity
  8
0
100
AcDbCircle
 10
285.2000000522966
 20
156.8000002050661
 30
0.0
 40
1.75
100
AcDbArc
 50
0.0
 51
179.9999999999966
1001
GENIUS_GENODEF_13
1002
{
1000
HIER
1070
     0
1002
}
1002
{
1000
MANEDIT
1070
     0
1002
}
1002
{
1000
NOSEL
1070
     0
1002
}
1002
{
1000
BEHIND
1070
     0
1002
}
1002
{
1000
OTHER
1070
     0
1002
}
1002
{
1000
REACTOR
1002
}
1001
GENIUS_GENOBJ-N-FIL_13
1002
{
1000
OWNER
1000
GEN
1002
}
  0
ARC
  5
49B
330
1F
100
AcDbEntity
  8
0
100
AcDbCircle
 10
306.7000000522966
 20
140.300000205066
 30
0.0
 40
6.0
100
AcDbArc
 50
90.0
 51
104.4775121859298
  0
ARC
  5
49C
330
1F
100
AcDbEntity
  8
0
100
AcDbCircle
 10
306.7000000522966
 20
140.300000205066
 30
0.0
 40
6.0
100
AcDbArc
 50
255.5224878140701
 51
270.0
  0
LINE
  5
49D
330
1F
100
AcDbEntity
  8
0
100
AcDbLine
 10
296.9500000522966
 20
146.1094752243772
 30
0.0
 11
305.2000000522968
 21
146.1094752243772
 31
0.0
  0
LINE
  5
49E
330
1F
100
AcDbEntity
  8
0
100
AcDbLine
 10
307.2000000522966
 20
146.3000002050661
 30
0.0
 11
306.7000000522966
 21
146.3000002050661
 31
0.0
  0
LINE
  5
49F
330
1F
100
AcDbEntity
  8
0
100
AcDbLine
 10
307.2000000522966
 20
134.3000002050661
 30
0.0
 11
306.7000000522966
 21
134.3000002050661
 31
0.0
  0
LINE
  5
4A0
330
1F
100
AcDbEntity
  8
0
100
AcDbLine
 10
305.2000000522968
 20
134.4905251857551
 30
0.0
 11
296.9500000522966
 21
134.4905251857551
 31
0.0
  0
LINE
  5
4A1
330
1F
100
AcDbEntity
  8
0
100
AcDbLine
 10
223.4500000522968
 20
134.4905251857557
 30
0.0
 11
215.2000000522968
 21
134.4905251857557
 31
0.0
  0
ARC
  5
4A2
330
1F
100
AcDbEntity
  8
0
100
AcDbCircle
 10
213.7000000522967
 20
140.3000002050668
 30
0.0
 40
6.0
100
AcDbArc
 50
270.0
 51
284.4775121859299
  0
LINE
  5
4A3
330
1F
100
AcDbEntity
  8
0
100
AcDbLine
 10
213.2000000522969
 20
134.3000002050668
 30
0.0
 11
213.7000000522967
 21
134.3000002050668
 31
0.0
  0
LINE
  5
4A4
330
1F
100
AcDbEntity
  8
0
100
AcDbLine
 10
213.2000000522969
 20
146.3000002050668
 30
0.0
 11
213.7000000522967
 21
146.3000002050668
 31
0.0
  0
ARC
  5
4A5
330
1F
100
AcDbEntity
  8
0
100
AcDbCircle
 10
213.7000000522967
 20
140.3000002050668
 30
0.0
 40
6.0
100
AcDbArc
 50
75.52248781407017
 51
90.0
  0
LINE
  5
4A6
330
1F
100
AcDbEntity
  8
0
100
AcDbLine
 10
215.2000000522968
 20
146.109475224378
 30
0.0
 11
223.4500000522968
 21
146.109475224378
 31
0.0
  0
LINE
  5
4A7
330
1F
100
AcDbEntity
  8
0
100
AcDbLine
 10
213.1000000522969
 20
145.3000002050661
 30
0.0
 11
213.1000000522969
 21
135.3000002050662
 31
0.0
  0
LINE
  5
4A8
330
1F
100
AcDbEntity
  8
0
100
AcDbLine
 10
212.0000000522978
 20
128.3000002050662
 30
0.0
 11
202.0000000522978
 21
128.3000002050662
 31
0.0
  0
LINE
  5
4A9
330
1F
100
AcDbEntity
  8
0
100
AcDbLine
 10
213.1000000522969
 20
145.3000002050661
 30
0.0
 11
212.0000000522979
 21
145.3000002050661
 31
0.0
  0
LINE
  5
4AA
330
1F
100
AcDbEntity
  8
0
100
AcDbLine
 10
213.2000000522968
 20
143.5000002050661
 30
0.0
 11
213.1000000522963
 21
143.5000002050661
 31
0.0
  0
LINE
  5
4AB
330
1F
100
AcDbEntity
  8
0
100
AcDbLine
 10
213.2000000522969
 20
137.1000002050662
 30
0.0
 11
213.1000000522963
 21
137.1000002050662
 31
0.0
  0
LINE
  5
4AC
330
1F
100
AcDbEntity
  8
0
100
AcDbLine
 10
213.1000000522969
 20
135.3000002050662
 30
0.0
 11
212.0000000522979
 21
135.3000002050659
 31
0.0
  0
LINE
  5
4AD
330
1F
100
AcDbEntity
  8
0
100
AcDbLine
 10
208.2000000522977
 20
131.7000002050662
 30
0.0
 11
205.8000000522977
 21
131.7000002050662
 31
0.0
1001
GENIUS_GENREC_14
1002
{
1000
PYDIR
1011
208.0000000522978
1021
133.9000002050657
1031
0.0
1002
}
1002
{
1000
PXDIR
1011
206.0000000522978
1021
131.900000205066
1031
0.0
1002
}
1002
{
1000
PORI
1011
208.0000000522978
1021
131.900000205066
1031
0.0
1002
}
1002
{
1000
PINS
1011
208.0000000522978
1021
131.900000205066
1031
0.0
1002
}
1002
{
1000
PINS2
1011
206.0000000522978
1021
133.9000002050657
1031
0.0
1002
}
1002
{
1000
C
1070
     1
1002
}
1001
GENIUS_GENODEF_13
1002
{
1000
HIER
1070
     0
1002
}
1002
{
1000
MANEDIT
1070
     0
1002
}
1002
{
1000
NOSEL
1070
     0
1002
}
1002
{
1000
BEHIND
1070
     0
1002
}
1002
{
1000
OTHER
1070
     0
1002
}
1002
{
1000
REACTOR
1002
}
1001
GENIUS_GENOBJ-N-REC_13
1002
{
1000
OWNER
1000
GEN
1002
}
  0
LINE
  5
4AE
330
1F
100
AcDbEntity
  8
0
100
AcDbLine
 10
205.8000000522977
 20
131.7000002050662
 30
0.0
 11
205.8000000522977
 21
133.9000002050657
 31
0.0
1001
GENIUS_GENREC_14
1002
{
1000
PYDIR
1011
208.0000000522978
1021
133.7000002050656
1031
0.0
1002
}
1002
{
1000
PXDIR
1011
206.0000000522978
1021
131.900000205066
1031
0.0
1002
}
1002
{
1000
PORI
1011
208.0000000522978
1021
131.900000205066
1031
0.0
1002
}
1002
{
1000
PINS
1011
208.0000000522978
1021
131.900000205066
1031
0.0
1002
}
1002
{
1000
PINS2
1011
206.0000000522978
1021
133.7000002050656
1031
0.0
1002
}
1002
{
1000
C
1070
     1
1002
}
1001
GENIUS_GENODEF_13
1002
{
1000
HIER
1070
     0
1002
}
1002
{
1000
MANEDIT
1070
     0
1002
}
1002
{
1000
NOSEL
1070
     0
1002
}
1002
{
1000
BEHIND
1070
     0
1002
}
1002
{
1000
OTHER
1070
     0
1002
}
1002
{
1000
REACTOR
1002
}
1001
GENIUS_GENOBJ-N-REC_13
1002
{
1000
OWNER
1000
GEN
1002
}
  0
LINE
  5
4AF
330
1F
100
AcDbEntity
  8
0
100
AcDbLine
 10
205.8000000522977
 20
133.9000002050657
 30
0.0
 11
208.2000000522977
 21
133.9000002050657
 31
0.0
1001
GENIUS_GENREC_14
1002
{
1000
PYDIR
1011
208.0000000522978
1021
133.7000002050656
1031
0.0
1002
}
1002
{
1000
PXDIR
1011
206.0000000522978
1021
131.900000205066
1031
0.0
1002
}
1002
{
1000
PORI
1011
208.0000000522978
1021
131.900000205066
1031
0.0
1002
}
1002
{
1000
PINS
1011
208.0000000522978
1021
131.900000205066
1031
0.0
1002
}
1002
{
1000
PINS2
1011
206.0000000522978
1021
133.7000002050656
1031
0.0
1002
}
1002
{
1000
C
1070
     1
1002
}
1001
GENIUS_GENODEF_13
1002
{
1000
HIER
1070
     0
1002
}
1002
{
1000
MANEDIT
1070
     0
1002
}
1002
{
1000
NOSEL
1070
     0
1002
}
1002
{
1000
BEHIND
1070
     0
1002
}
1002
{
1000
OTHER
1070
     0
1002
}
1002
{
1000
REACTOR
1002
}
1001
GENIUS_GENOBJ-N-REC_13
1002
{
1000
OWNER
1000
GEN
1002
}
  0
LINE
  5
4B0
330
1F
100
AcDbEntity
  8
0
100
AcDbLine
 10
208.2000000522977
 20
133.9000002050657
 30
0.0
 11
208.2000000522977
 21
131.7000002050662
 31
0.0
1001
GENIUS_GENREC_14
1002
{
1000
PYDIR
1011
208.0000000522978
1021
133.7000002050656
1031
0.0
1002
}
1002
{
1000
PXDIR
1011
206.0000000522978
1021
131.900000205066
1031
0.0
1002
}
1002
{
1000
PORI
1011
208.0000000522978
1021
131.900000205066
1031
0.0
1002
}
1002
{
1000
PINS
1011
208.0000000522978
1021
131.900000205066
1031
0.0
1002
}
1002
{
1000
PINS2
1011
206.0000000522978
1021
133.7000002050656
1031
0.0
1002
}
1002
{
1000
C
1070
     1
1002
}
1001
GENIUS_GENODEF_13
1002
{
1000
HIER
1070
     0
1002
}
1002
{
1000
MANEDIT
1070
     0
1002
}
1002
{
1000
NOSEL
1070
     0
1002
}
1002
{
1000
BEHIND
1070
     0
1002
}
1002
{
1000
OTHER
1070
     0
1002
}
1002
{
1000
REACTOR
1002
}
1001
GENIUS_GENOBJ-N-REC_13
1002
{
1000
OWNER
1000
GEN
1002
}
  0
LINE
  5
4B1
330
1F
100
AcDbEntity
  8
0
100
AcDbLine
 10
202.0000000522978
 20
128.3000002050758
 30
0.0
 11
202.0000000522978
 21
152.3000002050662
 31
0.0
  0
LINE
  5
4B2
330
1F
100
AcDbEntity
  8
0
100
AcDbLine
 10
212.0000000522979
 20
128.3000002050758
 30
0.0
 11
212.0000000522979
 21
135.3000002050659
 31
0.0
  0
LINE
  5
4B3
330
1F
100
AcDbEntity
  8
0
100
AcDbLine
 10
212.0000000522979
 20
145.3000002050661
 30
0.0
 11
212.0000000522979
 21
152.3000002050662
 31
0.0
  0
LINE
  5
4B4
330
1F
100
AcDbEntity
  8
0
100
AcDbLine
 10
212.0000000522979
 20
145.3000002050661
 30
0.0
 11
207.0000000522977
 21
140.3000002050662
 31
0.0
  0
LINE
  5
4B5
330
1F
100
AcDbEntity
  8
0
100
AcDbLine
 10
207.0000000522977
 20
140.3000002050662
 30
0.0
 11
212.0000000522978
 21
135.3000002050662
 31
0.0
  0
LINE
  5
4B6
330
1F
100
AcDbEntity
  8
0
100
AcDbLine
 10
203.0000000522975
 20
205.3000002050664
 30
0.0
 11
211.0000000522977
 21
205.3000002050663
 31
0.0
  0
LINE
  5
4B8
330
1F
100
AcDbEntity
  8
0
100
AcDbLine
 10
212.0000000522978
 20
152.3000002050662
 30
0.0
 11
211.0000000522977
 21
205.3000002050663
 31
0.0
  0
LINE
  5
4B9
330
1F
100
AcDbEntity
  8
0
100
AcDbLine
 10
202.0000000522978
 20
152.3000002050662
 30
0.0
 11
203.0000000522975
 21
205.3000002050664
 31
0.0
  0
LINE
  5
4BA
330
1F
100
AcDbEntity
  8
0
100
AcDbLine
 10
210.9000000522982
 20
205.3000002050663
 30
0.0
 11
210.844201919109
 21
207.201503130905
 31
0.0
  0
LINE
  5
4BB
330
1F
100
AcDbEntity
  8
0
100
AcDbLine
 10
203.1000000522982
 20
205.3000002050663
 30
0.0
 11
203.1557981854875
 21
207.2015031309045
 31
0.0
  0
ARC
  5
4BC
330
1F
100
AcDbEntity
  8
0
100
AcDbCircle
 10
203.6557057555024
 20
207.1918895237891
 30
0.0
 40
0.5
100
AcDbArc
 50
110.6115892566144
 51
178.8982938847989
1001
GENIUS_GENODEF_13
1002
{
1000
HIER
1070
     0
1002
}
1002
{
1000
MANEDIT
1070
     0
1002
}
1002
{
1000
NOSEL
1070
     0
1002
}
1002
{
1000
BEHIND
1070
     0
1002
}
1002
{
1000
OTHER
1070
     0
1002
}
1002
{
1000
REACTOR
1002
}
1001
GENIUS_GENOBJ-N-FIL_13
1002
{
1000
OWNER
1000
GEN
1002
}
  0
ARC
  5
4BD
330
1F
100
AcDbEntity
  8
0
100
AcDbCircle
 10
210.3442943490941
 20
207.1918895237892
 30
0.0
 40
0.5
100
AcDbArc
 50
1.101706115207572
 51
69.38841074338842
1001
GENIUS_GENOBJ-N-FIL_13
1002
{
1000
OWNER
1000
GEN
1002
}
1001
GENIUS_GENODEF_13
1002
{
1000
HIER
1070
     0
1002
}
1002
{
1000
MANEDIT
1070
     0
1002
}
1002
{
1000
NOSEL
1070
     0
1002
}
1002
{
1000
BEHIND
1070
     0
1002
}
1002
{
1000
OTHER
1070
     0
1002
}
1002
{
1000
REACTOR
1002
}
  0
ARC
  5
4BE
330
1F
100
AcDbEntity
  8
0
100
AcDbCircle
 10
207.0000000522985
 20
198.3000002050662
 30
0.0
 40
10.0
100
AcDbArc
 50
98.62692656528871
 51
110.6115892566144
  0
ARC
  5
4BF
330
1F
100
AcDbEntity
  8
0
100
AcDbCircle
 10
207.0000000522985
 20
198.3000002050662
 30
0.0
 40
10.0
100
AcDbArc
 50
81.37307343471126
 51
98.62692656528871
  0
ARC
  5
4C0
330
1F
100
AcDbEntity
  8
0
100
AcDbCircle
 10
207.0000000522985
 20
198.3000002050662
 30
0.0
 40
10.0
100
AcDbArc
 50
69.38841074338842
 51
81.37307343471126
  0
LINE
  5
4C1
330
1F
100
AcDbEntity
  8
0
100
AcDbLine
 10
205.5000000511577
 20
208.1868601715358
 30
0.0
 11
208.5000000534392
 21
208.1868601715358
 31
0.0
  0
LINE
  5
4C2
330
1F
100
AcDbEntity
  8
0
100
AcDbLine
 10
206.0000000522978
 20
132.2000002050662
 30
0.0
 11
208.0000000522978
 21
132.2000002050661
 31
0.0
  0
LINE
  5
4C3
330
1F
100
AcDbEntity
  8
0
100
AcDbLine
 10
202.5000000522976
 20
126.8000002050663
 30
0.0
 11
211.500000052298
 21
126.800000205066
 31
0.0
  0
LINE
  5
4C4
330
1F
100
AcDbEntity
  8
0
100
AcDbLine
 10
212.0000000522978
 20
127.3000002050661
 30
0.0
 11
211.500000052298
 21
126.800000205066
 31
0.0
1001
GENIUS_GENFIL_13
1070
     0
1040
0.5
1040
0.5
1040
20.0
1040
0.0
1002
{
1002
}
1001
GENIUS_GENODEF_13
1002
{
1000
HIER
1070
     0
1002
}
1002
{
1000
MANEDIT
1070
     0
1002
}
1002
{
1000
NOSEL
1070
     0
1002
}
1002
{
1000
BEHIND
1070
     0
1002
}
1002
{
1000
OTHER
1070
     0
1002
}
1002
{
1000
REACTOR
1002
}
1001
GENIUS_GENOBJ-N-CHA_13
1002
{
1000
OWNER
1000
GEN
1002
}
  0
LINE
  5
4C5
330
1F
100
AcDbEntity
  8
0
100
AcDbLine
 10
202.0000000522978
 20
128.3000002050662
 30
0.0
 11
202.0000000522976
 21
127.3000002050662
 31
0.0
  0
LINE
  5
4C6
330
1F
100
AcDbEntity
  8
0
100
AcDbLine
 10
202.5000000522976
 20
126.8000002050663
 30
0.0
 11
202.0000000522976
 21
127.3000002050662
 31
0.0
1001
GENIUS_GENFIL_13
1070
     0
1040
0.5
1040
0.5
1040
0.4999999999999787
1040
45.00000000000446
1000
~T
  0
LINE
  5
4C7
330
1F
100
AcDbEntity
  8
0
100
AcDbLine
 10
212.0000000522976
 20
128.3000002050662
 30
0.0
 11
212.0000000522978
 21
127.3000002050661
 31
0.0
  0
LINE
  5
4C8
330
1F
100
AcDbEntity
  8
0
100
AcDbLine
 10
202.0000000522976
 20
127.3000002050667
 30
0.0
 11
212.0000000522978
 21
127.3000002050661
 31
0.0
  0
LINE
  5
4C9
330
1F
100
AcDbEntity
  8
0
100
AcDbLine
 10
206.0000000522978
 20
133.7000002050656
 30
0.0
 11
208.0000000522978
 21
133.7000002050657
 31
0.0
  0
LINE
  5
4CA
330
1F
100
AcDbEntity
  8
0
100
AcDbLine
 10
208.0000000522978
 20
131.7000002050662
 30
0.0
 11
208.0000000522978
 21
133.7000002050657
 31
0.0
  0
LINE
  5
4CB
330
1F
100
AcDbEntity
  8
0
100
AcDbLine
 10
206.0000000522978
 20
131.7000002050662
 30
0.0
 11
206.0000000522978
 21
133.7000002050656
 31
0.0
  0
LINE
  5
4CC
330
1F
100
AcDbEntity
  8
0
100
AcDbLine
 10
307.3000000522968
 20
145.3000002050661
 30
0.0
 11
307.3000000522968
 21
135.3000002050662
 31
0.0
  0
LINE
  5
4CD
330
1F
100
AcDbEntity
  8
0
100
AcDbLine
 10
308.4000000522967
 20
128.3000002050662
 30
0.0
 11
320.4000000522969
 21
128.3000002050662
 31
0.0
  0
LINE
  5
4CE
330
1F
100
AcDbEntity
  8
0
100
AcDbLine
 10
307.3000000522968
 20
145.3000002050661
 30
0.0
 11
308.4000000522967
 21
145.3000002050661
 31
0.0
  0
LINE
  5
4CF
330
1F
100
AcDbEntity
  8
0
100
AcDbLine
 10
307.2000000522966
 20
143.5000002050662
 30
0.0
 11
307.3000000522968
 21
143.5000002050662
 31
0.0
  0
LINE
  5
4D0
330
1F
100
AcDbEntity
  8
0
100
AcDbLine
 10
307.2000000522966
 20
137.1000002050662
 30
0.0
 11
307.3000000522968
 21
137.1000002050662
 31
0.0
  0
LINE
  5
4D1
330
1F
100
AcDbEntity
  8
0
100
AcDbLine
 10
307.3000000522968
 20
135.3000002050662
 30
0.0
 11
308.4000000522967
 21
135.3000002050658
 31
0.0
  0
LINE
  5
4D2
330
1F
100
AcDbEntity
  8
0
100
AcDbLine
 10
320.4000000522967
 20
121.8000002050662
 30
0.0
 11
320.4000000522967
 21
146.8000002050566
 31
0.0
  0
LINE
  5
4D3
330
1F
100
AcDbEntity
  8
0
100
AcDbLine
 10
308.4000000522967
 20
121.8000002050661
 30
0.0
 11
308.4000000522967
 21
135.3000002050658
 31
0.0
  0
LINE
  5
4D4
330
1F
100
AcDbEntity
  8
0
100
AcDbLine
 10
308.4000000522967
 20
145.3000002050661
 30
0.0
 11
308.4000000522967
 21
146.8000002050566
 31
0.0
  0
LINE
  5
4D5
330
1F
100
AcDbEntity
  8
0
100
AcDbLine
 10
308.4000000522967
 20
146.8000002050566
 30
0.0
 11
320.4000000522967
 21
146.8000002050566
 31
0.0
  0
LINE
  5
4D6
330
1F
100
AcDbEntity
  8
0
100
AcDbLine
 10
319.9000000522969
 20
147.3000002050566
 30
0.0
 11
320.4000000522967
 21
146.8000002050566
 31
0.0
1001
GENIUS_GENFIL_13
1070
     0
1040
0.5
1040
0.5
1040
0.5
1040
45.00000000000325
1002
{
1002
}
1001
GENIUS_GENOBJ-N-CHA_13
1002
{
1000
OWNER
1000
GEN
1002
}
1001
GENIUS_GENODEF_13
1002
{
1000
HIER
1070
     0
1002
}
1002
{
1000
MANEDIT
1070
     0
1002
}
1002
{
1000
NOSEL
1070
     0
1002
}
1002
{
1000
BEHIND
1070
     0
1002
}
1002
{
1000
OTHER
1070
     0
1002
}
1002
{
1000
REACTOR
1002
}
  0
LINE
  5
4D7
330
1F
100
AcDbEntity
  8
0
100
AcDbLine
 10
319.9000000522969
 20
147.3000002050566
 30
0.0
 11
308.9000000522966
 21
147.3000002050566
 31
0.0
  0
LINE
  5
4D8
330
1F
100
AcDbEntity
  8
0
100
AcDbLine
 10
308.4000000522967
 20
146.8000002050566
 30
0.0
 11
308.9000000522966
 21
147.3000002050566
 31
0.0
1001
GENIUS_GENFIL_13
1070
     0
1040
0.5
1040
0.5
1040
0.5
1040
45.00000000000325
1002
{
1002
}
1001
GENIUS_GENOBJ-N-CHA_13
1002
{
1000
OWNER
1000
GEN
1002
}
1001
GENIUS_GENODEF_13
1002
{
1000
HIER
1070
     0
1002
}
1002
{
1000
MANEDIT
1070
     0
1002
}
1002
{
1000
NOSEL
1070
     0
1002
}
1002
{
1000
BEHIND
1070
     0
1002
}
1002
{
1000
OTHER
1070
     0
1002
}
1002
{
1000
REACTOR
1002
}
  0
SPLINE
  5
4D9
330
1F
100
AcDbEntity
  8
0
100
AcDbSpline
210
0.0
220
0.0
230
1.0
 70
     8
 71
     3
 72
    38
 73
    34
 74
     0
 42
0.0000000001
 43
0.0000000001
 40
8.160870181059902
 40
8.160870181059902
 40
8.160870181059902
 40
8.160870181059902
 40
9.159821244704103
 40
9.159821244704103
 40
10.15877230834831
 40
10.15877230834831
 40
11.15772337199251
 40
11.15772337199251
 40
12.15667443563672
 40
12.15667443563672
 40
13.19794091725749
 40
13.19794091725749
 40
14.23920739887826
 40
14.23920739887826
 40
15.28047388049904
 40
15.28047388049904
 40
16.32174036211981
 40
16.32174036211981
 40
17.36300684374058
 40
17.36300684374058
 40
18.40427332536135
 40
18.40427332536135
 40
19.44553980698212
 40
19.44553980698212
 40
20.48680628860289
 40
20.48680628860289
 40
21.4857573522471
 40
21.4857573522471
 40
22.48470841589131
 40
22.48470841589131
 40
23.48365947953551
 40
23.48365947953551
 40
24.48261054317971
 40
24.48261054317971
 40
24.48261054317971
 40
24.48261054317971
 10
308.4000000522967
 20
145.3000002050661
 30
0.0
 10
308.4000000522967
 20
145.3000002050661
 30
0.0
 10
308.4282511408189
 20
145.2662095859848
 30
0.0
 10
308.5407489493541
 20
145.1303494720205
 30
0.0
 10
308.6249381494512
 20
145.0283410098075
 30
0.0
 10
308.8372846590411
 20
144.7665054575452
 30
0.0
 10
308.9655984978128
 20
144.6064486455709
 30
0.0
 10
309.2468502148872
 20
144.2455966308952
 30
0.0
 10
309.3996973717725
 20
144.0447999828722
 30
0.0
 10
309.7114080979984
 20
143.617403768023
 30
0.0
 10
309.8828197967814
 20
143.3733800292398
 30
0.0
 10
310.2247258002303
 20
142.844339256591
 30
0.0
 10
310.3952315057881
 20
142.5594330770018
 30
0.0
 10
310.7007203850855
 20
141.9587759645482
 30
0.0
 10
310.8356077397368
 20
141.6428218057295
 30
0.0
 10
311.027482083907
 20
140.9871353147656
 30
0.0
 10
311.0833752619414
 20
140.647089032273
 30
0.0
 10
311.0833752619414
 20
139.9529113778593
 30
0.0
 10
311.027482083907
 20
139.6128650953666
 30
0.0
 10
310.8356077397368
 20
138.9571786044027
 30
0.0
 10
310.7007203850855
 20
138.6412244455841
 30
0.0
 10
310.3952315057881
 20
138.0405673331305
 30
0.0
 10
310.2247258002303
 20
137.7556611535413
 30
0.0
 10
309.8828197967814
 20
137.2266203808925
 30
0.0
 10
309.7114080979984
 20
136.9825966421091
 30
0.0
 10
309.3996973717725
 20
136.5552004272601
 30
0.0
 10
309.2468502148872
 20
136.3544037792371
 30
0.0
 10
308.9655984978128
 20
135.9935517645614
 30
0.0
 10
308.8372846590411
 20
135.833494952587
 30
0.0
 10
308.6249381494512
 20
135.5716594003247
 30
0.0
 10
308.5407489493541
 20
135.4696509381118
 30
0.0
 10
308.4282511408189
 20
135.3337908241475
 30
0.0
 10
308.4000000522967
 20
135.3000002050661
 30
0.0
 10
308.4000000522967
 20
135.3000002050661
 30
0.0
  0
LINE
  5
4DA
330
1F
100
AcDbEntity
  8
0
100
AcDbLine
 10
145.2000000522968
 20
164.3000002050665
 30
0.0
 11
150.2000000522968
 21
164.3000002050663
 31
0.0
  0
LINE
  5
4DB
330
1F
100
AcDbEntity
  8
0
100
AcDbLine
 10
145.2000000522968
 20
100.3000002050661
 30
0.0
 11
150.2000000522969
 21
100.3000002050661
 31
0.0
  0
LINE
  5
4DC
330
1F
100
AcDbEntity
  8
0
100
AcDbLine
 10
143.2000000522968
 20
102.3000002050661
 30
0.0
 11
145.2000000522968
 21
100.3000002050661
 31
0.0
1001
GENIUS_GENFIL_13
1070
     0
1040
2.0
1040
2.0
1040
2.0
1040
45.0000000000008
1002
{
1002
}
1001
GENIUS_GENOBJ-N-CHA_13
1002
{
1000
OWNER
1000
GEN
1002
}
1001
GENIUS_GENODEF_13
1002
{
1000
HIER
1070
     0
1002
}
1002
{
1000
MANEDIT
1070
     0
1002
}
1002
{
1000
NOSEL
1070
     0
1002
}
1002
{
1000
BEHIND
1070
     0
1002
}
1002
{
1000
OTHER
1070
     0
1002
}
1002
{
1000
REACTOR
1002
}
  0
LINE
  5
4DD
330
1F
100
AcDbEntity
  8
0
100
AcDbLine
 10
143.2000000522968
 20
162.3000002050664
 30
0.0
 11
143.2000000522968
 21
102.3000002050661
 31
0.0
  0
LINE
  5
4DE
330
1F
100
AcDbEntity
  8
0
100
AcDbLine
 10
145.2000000522968
 20
164.3000002050665
 30
0.0
 11
143.2000000522968
 21
162.3000002050664
 31
0.0
1001
GENIUS_GENFIL_13
1070
     0
1040
2.0
1040
2.0
1040
2.0
1040
45.00000000000055
1000
~T
  0
LINE
  5
4DF
330
1F
100
AcDbEntity
  8
0
100
AcDbLine
 10
150.2000000522968
 20
164.3000002050663
 30
0.0
 11
150.2000000522969
 21
100.3000002050661
 31
0.0
  0
LINE
  5
4E0
330
1F
100
AcDbEntity
  8
0
100
AcDbLine
 10
175.2000000522968
 20
159.8000002050663
 30
0.0
 11
175.2000000522968
 21
101.0000002050657
 31
0.0
1001
GENIUS_GENODEF_13
1002
{
1000
HIER
1070
     0
1002
}
1002
{
1000
MANEDIT
1070
     0
1002
}
1002
{
1000
NOSEL
1070
     0
1002
}
1002
{
1000
BEHIND
1070
     0
1002
}
1002
{
1000
OTHER
1070
     0
1002
}
1002
{
1000
REACTOR
1002
}
1001
GENIUS_GENOBJ-N-CEN_13
1002
{
1000
OWNER
1000
GEN
1002
}
1001
GENIUS_GENCEN_19
1002
{
1040
2.793999999999998
1002
}
  0
ARC
  5
4E1
330
1F
100
AcDbEntity
  8
0
100
AcDbCircle
 10
173.7000000522968
 20
159.8000002050662
 30
0.0
 40
1.5
100
AcDbArc
 50
0.0
 51
90.0
1001
GENIUS_GENOBJ-N-CEN_13
1002
{
1000
OWNER
1000
GEN
1002
}
1001
GENIUS_GENCEN_19
1002
{
1040
2.793999999999998
1002
}
1001
GENIUS_GENODEF_13
1002
{
1000
HIER
1070
     0
1002
}
1002
{
1000
MANEDIT
1070
     0
1002
}
1002
{
1000
NOSEL
1070
     0
1002
}
1002
{
1000
BEHIND
1070
     0
1002
}
1002
{
1000
OTHER
1070
     0
1002
}
1002
{
1000
REACTOR
1002
}
1001
GENIUS_GENOBJ-N-FIL_13
1002
{
1000
OWNER
1000
GEN
1002
}
  0
LINE
  5
4E2
330
1F
100
AcDbEntity
  8
0
100
AcDbLine
 10
160.2000000522961
 20
126.8000002050663
 30
0.0
 11
160.2000000522968
 21
102.3000002050661
 31
0.0
1001
GENIUS_GENODEF_13
1002
{
1000
HIER
1070
     0
1002
}
1002
{
1000
MANEDIT
1070
     0
1002
}
1002
{
1000
NOSEL
1070
     0
1002
}
1002
{
1000
BEHIND
1070
     0
1002
}
1002
{
1000
OTHER
1070
     0
1002
}
1002
{
1000
REACTOR
1002
}
1001
GENIUS_GENOBJ-N-CEN_13
1002
{
1000
OWNER
1000
GEN
1002
}
1001
GENIUS_GENCEN_19
1002
{
1040
2.793999999999998
1002
}
  0
LINE
  5
4E3
330
1F
100
AcDbEntity
  8
0
100
AcDbLine
 10
153.2000000522968
 20
164.3000002050663
 30
0.0
 11
153.9264151466348
 21
164.3000002050663
 31
0.0
  0
LINE
  5
4E4
330
1F
100
AcDbEntity
  8
0
100
AcDbLine
 10
173.7000000522968
 20
161.3000002050661
 30
0.0
 11
163.5301887315406
 21
161.3000002050661
 31
0.0
  0
LINE
  5
4E5
330
1F
100
AcDbEntity
  8
0
100
AcDbLine
 10
173.7000000522968
 20
103.3000002050661
 30
0.0
 11
160.2000000522968
 21
103.3000002050661
 31
0.0
  0
ARC
  5
4E6
330
1F
100
AcDbEntity
  8
0
100
AcDbCircle
 10
173.7000000522968
 20
104.8000002050661
 30
0.0
 40
1.5
100
AcDbArc
 50
270.0
 51
0.0
1001
GENIUS_GENOBJ-N-FIL_13
1002
{
1000
OWNER
1000
GEN
1002
}
1001
GENIUS_GENODEF_13
1002
{
1000
HIER
1070
     0
1002
}
1002
{
1000
MANEDIT
1070
     0
1002
}
1002
{
1000
NOSEL
1070
     0
1002
}
1002
{
1000
BEHIND
1070
     0
1002
}
1002
{
1000
OTHER
1070
     0
1002
}
1002
{
1000
REACTOR
1002
}
  0
LINE
  5
4E7
330
1F
100
AcDbEntity
  8
0
100
AcDbLine
 10
153.2000000522969
 20
100.3000002050661
 30
0.0
 11
158.2000000522969
 21
100.3000002050661
 31
0.0
  0
LINE
  5
4E8
330
1F
100
AcDbEntity
  8
0
100
AcDbLine
 10
160.2000000522968
 20
102.3000002050661
 30
0.0
 11
158.2000000522969
 21
100.3000002050661
 31
0.0
1001
GENIUS_GENFIL_13
1070
     0
1040
2.0
1040
2.0
1040
2.000000000000023
1040
45.00000000000031
1000
~T
  0
LINE
  5
4E9
330
1F
100
AcDbEntity
  8
0
100
AcDbLine
 10
153.2000000522967
 20
100.3000002050665
 30
0.0
 11
153.2000000522967
 21
164.3000002050662
 31
0.0
  0
ARC
  5
4EA
330
1F
100
AcDbEntity
  8
0
100
AcDbCircle
 10
152.9000000522967
 20
100.3000002050665
 30
0.0
 40
0.3
100
AcDbArc
 50
270.0
 51
0.0
1001
GENIUS_GENODEF_13
1002
{
1000
HIER
1070
     0
1002
}
1002
{
1000
MANEDIT
1070
     0
1002
}
1002
{
1000
NOSEL
1070
     0
1002
}
1002
{
1000
BEHIND
1070
     0
1002
}
1002
{
1000
OTHER
1070
     0
1002
}
1002
{
1000
REACTOR
1002
}
1001
GENIUS_GENOBJ-N-FIL_13
1002
{
1000
OWNER
1000
GEN
1002
}
  0
ARC
  5
4EB
330
1F
100
AcDbEntity
  8
0
100
AcDbCircle
 10
152.9000000522966
 20
164.3000002050662
 30
0.0
 40
0.3
100
AcDbArc
 50
0.0
 51
90.00000000000325
1001
GENIUS_GENOBJ-N-FIL_13
1002
{
1000
OWNER
1000
GEN
1002
}
1001
GENIUS_GENODEF_13
1002
{
1000
HIER
1070
     0
1002
}
1002
{
1000
MANEDIT
1070
     0
1002
}
1002
{
1000
NOSEL
1070
     0
1002
}
1002
{
1000
BEHIND
1070
     0
1002
}
1002
{
1000
OTHER
1070
     0
1002
}
1002
{
1000
REACTOR
1002
}
  0
ARC
  5
4EC
330
1F
100
AcDbEntity
  8
0
100
AcDbCircle
 10
150.5000000522968
 20
100.3000002050665
 30
0.0
 40
0.3
100
AcDbArc
 50
180.0
 51
270.0
1001
GENIUS_GENOBJ-N-FIL_13
1002
{
1000
OWNER
1000
GEN
1002
}
1001
GENIUS_GENODEF_13
1002
{
1000
HIER
1070
     0
1002
}
1002
{
1000
MANEDIT
1070
     0
1002
}
1002
{
1000
NOSEL
1070
     0
1002
}
1002
{
1000
BEHIND
1070
     0
1002
}
1002
{
1000
OTHER
1070
     0
1002
}
1002
{
1000
REACTOR
1002
}
  0
ARC
  5
4ED
330
1F
100
AcDbEntity
  8
0
100
AcDbCircle
 10
150.5000000522968
 20
164.300000205066
 30
0.0
 40
0.3
100
AcDbArc
 50
90.00000000000325
 51
180.0
1001
GENIUS_GENODEF_13
1002
{
1000
HIER
1070
     0
1002
}
1002
{
1000
MANEDIT
1070
     0
1002
}
1002
{
1000
NOSEL
1070
     0
1002
}
1002
{
1000
BEHIND
1070
     0
1002
}
1002
{
1000
OTHER
1070
     0
1002
}
1002
{
1000
REACTOR
1002
}
1001
GENIUS_GENOBJ-N-FIL_13
1002
{
1000
OWNER
1000
GEN
1002
}
  0
LINE
  5
4EE
330
1F
100
AcDbEntity
  8
0
100
AcDbLine
 10
152.9000000522966
 20
164.6000002050661
 30
0.0
 11
150.5000000522968
 21
164.6000002050661
 31
0.0
  0
LINE
  5
4EF
330
1F
100
AcDbEntity
  8
0
100
AcDbLine
 10
152.9000000522967
 20
100.0000002050663
 30
0.0
 11
150.5000000522968
 21
100.0000002050664
 31
0.0
  0
LINE
  5
4F0
330
1F
100
AcDbEntity
  8
0
100
AcDbLine
 10
224.9500000522969
 20
103.3000002050662
 30
0.0
 11
235.294744163971
 21
103.3000002050662
 31
0.0
  0
LINE
  5
4F1
330
1F
100
AcDbEntity
  8
0
100
AcDbLine
 10
245.1052559406226
 20
103.3000002050662
 30
0.0
 11
275.2947441639713
 21
103.300000205066
 31
0.0
  0
LINE
  5
4F2
330
1F
100
AcDbEntity
  8
0
100
AcDbLine
 10
285.1052559406227
 20
103.3000002050661
 30
0.0
 11
295.4500000522965
 21
103.3000002050661
 31
0.0
  0
ARC
  5
4F3
330
1F
100
AcDbEntity
  8
0
100
AcDbCircle
 10
237.7773503214865
 20
101.0000002050661
 30
0.0
 40
1.0
100
AcDbArc
 50
210.0000000000036
 51
270.0
1001
GENIUS_GENOBJ-N-FIL_13
1002
{
1000
OWNER
1000
GEN
1002
}
1001
GENIUS_GENODEF_13
1002
{
1000
HIER
1070
     0
1002
}
1002
{
1000
MANEDIT
1070
     0
1002
}
1002
{
1000
NOSEL
1070
     0
1002
}
1002
{
1000
BEHIND
1070
     0
1002
}
1002
{
1000
OTHER
1070
     0
1002
}
1002
{
1000
REACTOR
1002
}
  0
LINE
  5
4F4
330
1F
100
AcDbEntity
  8
0
100
AcDbLine
 10
228.2000000522968
 20
148.3000002050661
 30
0.0
 11
228.2000000522969
 21
103.3000002050662
 31
0.0
  0
LINE
  5
4F5
330
1F
100
AcDbEntity
  8
0
100
AcDbLine
 10
292.2000000522965
 20
148.3000002050661
 30
0.0
 11
292.2000000522965
 21
103.3000002050661
 31
0.0
  0
ARC
  5
4F6
330
1F
100
AcDbEntity
  8
0
100
AcDbCircle
 10
260.2000000522966
 20
107.0500002050662
 30
0.0
 40
2.999999999999984
100
AcDbArc
 50
0.0
 51
180.0
  0
LINE
  5
4F7
330
1F
100
AcDbEntity
  8
0
100
AcDbLine
 10
263.2000000522968
 20
107.0500002050662
 30
0.0
 11
263.2000000522968
 21
103.3000002050662
 31
0.0
  0
LINE
  5
4F8
330
1F
100
AcDbEntity
  8
0
100
AcDbLine
 10
257.2000000522968
 20
107.0500002050662
 30
0.0
 11
257.2000000522968
 21
103.3000002050662
 31
0.0
  0
LINE
  5
4F9
330
1F
100
AcDbEntity
  8
0
100
AcDbLine
 10
243.4886751868917
 20
100.5000002050661
 30
0.0
 11
245.1052559406226
 21
103.3000002050662
 31
0.0
  0
ARC
  5
4FA
330
1F
100
AcDbEntity
  8
0
100
AcDbCircle
 10
242.6226497831071
 20
101.0000002050661
 30
0.0
 40
1.0
100
AcDbArc
 50
270.0
 51
330.0000000000029
1001
GENIUS_GENOBJ-N-FIL_13
1002
{
1000
OWNER
1000
GEN
1002
}
1001
GENIUS_GENODEF_13
1002
{
1000
HIER
1070
     0
1002
}
1002
{
1000
MANEDIT
1070
     0
1002
}
1002
{
1000
NOSEL
1070
     0
1002
}
1002
{
1000
BEHIND
1070
     0
1002
}
1002
{
1000
OTHER
1070
     0
1002
}
1002
{
1000
REACTOR
1002
}
  0
LINE
  5
4FB
330
1F
100
AcDbEntity
  8
0
100
AcDbLine
 10
236.9113249177019
 20
100.5000002050661
 30
0.0
 11
235.294744163971
 21
103.3000002050662
 31
0.0
  0
ARC
  5
4FC
330
1F
100
AcDbEntity
  8
0
100
AcDbCircle
 10
282.6226497831074
 20
101.0000002050661
 30
0.0
 40
1.0
100
AcDbArc
 50
270.0
 51
329.9999999999964
1001
GENIUS_GENOBJ-N-FIL_13
1002
{
1000
OWNER
1000
GEN
1002
}
1001
GENIUS_GENODEF_13
1002
{
1000
HIER
1070
     0
1002
}
1002
{
1000
MANEDIT
1070
     0
1002
}
1002
{
1000
NOSEL
1070
     0
1002
}
1002
{
1000
BEHIND
1070
     0
1002
}
1002
{
1000
OTHER
1070
     0
1002
}
1002
{
1000
REACTOR
1002
}
  0
ARC
  5
4FD
330
1F
100
AcDbEntity
  8
0
100
AcDbCircle
 10
282.6226497831074
 20
101.0000002050661
 30
0.0
 40
1.0
100
AcDbArc
 50
329.9999999999964
 51
329.9999999999964
1001
GENIUS_GENOBJ-N-FIL_13
1002
{
1000
OWNER
1000
GEN
1002
}
1001
GENIUS_GENODEF_13
1002
{
1000
HIER
1070
     0
1002
}
1002
{
1000
MANEDIT
1070
     0
1002
}
1002
{
1000
NOSEL
1070
     0
1002
}
1002
{
1000
BEHIND
1070
     0
1002
}
1002
{
1000
OTHER
1070
     0
1002
}
1002
{
1000
REACTOR
1002
}
  0
LINE
  5
4FE
330
1F
100
AcDbEntity
  8
0
100
AcDbLine
 10
276.9113249177021
 20
100.5000002050661
 30
0.0
 11
275.2947441639713
 21
103.300000205066
 31
0.0
  0
ARC
  5
4FF
330
1F
100
AcDbEntity
  8
0
100
AcDbCircle
 10
277.7773503214867
 20
101.0000002050661
 30
0.0
 40
1.0
100
AcDbArc
 50
209.9999999999972
 51
270.0
1001
GENIUS_GENOBJ-N-FIL_13
1002
{
1000
OWNER
1000
GEN
1002
}
1001
GENIUS_GENODEF_13
1002
{
1000
HIER
1070
     0
1002
}
1002
{
1000
MANEDIT
1070
     0
1002
}
1002
{
1000
NOSEL
1070
     0
1002
}
1002
{
1000
BEHIND
1070
     0
1002
}
1002
{
1000
OTHER
1070
     0
1002
}
1002
{
1000
REACTOR
1002
}
  0
LINE
  5
500
330
1F
100
AcDbEntity
  8
0
100
AcDbLine
 10
283.4886751868917
 20
100.5000002050661
 30
0.0
 11
285.1052559406227
 21
103.3000002050661
 31
0.0
  0
CIRCLE
  5
501
330
1F
100
AcDbEntity
  8
0
100
AcDbCircle
 10
260.2000000522966
 20
107.0500002050662
 30
0.0
 40
2.75
  0
LINE
  5
502
330
1F
100
AcDbEntity
  8
0
100
AcDbLine
 10
258.0362533018656
 20
108.5066401743103
 30
0.0
 11
258.7433600830522
 21
109.2137469554969
 31
0.0
  0
LINE
  5
503
330
1F
100
AcDbEntity
  8
0
100
AcDbLine
 10
261.656640021541
 20
104.8862534546352
 30
0.0
 11
262.3637468027274
 21
105.5933602358218
 31
0.0
  0
LINE
  5
504
330
1F
100
AcDbEntity
  8
0
100
AcDbLine
 10
262.3637468027274
 20
105.5933602358218
 30
0.0
 11
260.8010408163051
 21
107.1560662222441
 31
0.0
  0
LINE
  5
505
330
1F
100
AcDbEntity
  8
0
100
AcDbLine
 10
261.656640021541
 20
104.8862534546352
 30
0.0
 11
260.0939340351186
 21
106.4489594410576
 31
0.0
  0
LINE
  5
506
330
1F
100
AcDbEntity
  8
0
100
AcDbLine
 10
261.08388352878
 20
108.42885842838
 30
0.0
 11
261.5788582756104
 21
107.9338836815495
 31
0.0
  0
LINE
  5
507
330
1F
100
AcDbEntity
  8
0
100
AcDbLine
 10
258.8211418289829
 20
106.1661167285831
 30
0.0
 11
259.3161165758135
 21
105.6711419817525
 31
0.0
  0
LINE
  5
508
330
1F
100
AcDbEntity
  8
0
100
AcDbLine
 10
258.8211418289829
 20
106.1661167285831
 30
0.0
 11
259.5989592882879
 21
106.9439341878881
 31
0.0
  0
LINE
  5
509
330
1F
100
AcDbEntity
  8
0
100
AcDbLine
 10
259.3161165758135
 20
105.6711419817525
 30
0.0
 11
260.0939340351186
 21
106.4489594410576
 31
0.0
  0
LINE
  5
50A
330
1F
100
AcDbEntity
  8
0
100
AcDbLine
 10
259.5989592882879
 20
106.9439341878881
 30
0.0
 11
258.0362533018656
 21
108.5066401743103
 31
0.0
  0
LINE
  5
50B
330
1F
100
AcDbEntity
  8
0
100
AcDbLine
 10
260.3060660694745
 20
107.6510409690746
 30
0.0
 11
258.7433600830522
 21
109.2137469554969
 31
0.0
  0
LINE
  5
50C
330
1F
100
AcDbEntity
  8
0
100
AcDbLine
 10
260.3060660694745
 20
107.6510409690746
 30
0.0
 11
261.08388352878
 21
108.42885842838
 31
0.0
  0
LINE
  5
50D
330
1F
100
AcDbEntity
  8
0
100
AcDbLine
 10
260.8010408163051
 20
107.1560662222441
 30
0.0
 11
261.5788582756104
 21
107.9338836815495
 31
0.0
  0
LINE
  5
50E
330
1F
100
AcDbEntity
  8
0
100
AcDbLine
 10
153.7000000522951
 20
128.3000002050664
 30
0.0
 11
163.7000000522952
 21
128.3000002050662
 31
0.0
  0
LINE
  5
50F
330
1F
100
AcDbEntity
  8
0
100
AcDbLine
 10
163.7000000522951
 20
128.3000002050758
 30
0.0
 11
163.7000000522951
 21
131.7000002050662
 31
0.0
  0
LINE
  5
510
330
1F
100
AcDbEntity
  8
0
100
AcDbLine
 10
163.7000000522951
 20
133.9000002050663
 30
0.0
 11
163.7000000522951
 21
152.3000002050664
 31
0.0
  0
LINE
  5
511
330
1F
100
AcDbEntity
  8
0
100
AcDbLine
 10
153.7000000522951
 20
128.3000002050664
 30
0.0
 11
153.7000000522951
 21
131.7000002050662
 31
0.0
  0
LINE
  5
512
330
1F
100
AcDbEntity
  8
0
100
AcDbLine
 10
153.7000000522951
 20
133.9000002050663
 30
0.0
 11
153.7000000522951
 21
152.3000002050593
 31
0.0
  0
LINE
  5
513
330
1F
100
AcDbEntity
  8
0
100
AcDbLine
 10
163.7000000522952
 20
133.9000002050663
 30
0.0
 11
163.5538644920996
 21
133.9000002050663
 31
0.0
  0
LINE
  5
514
330
1F
100
AcDbEntity
  8
0
100
AcDbLine
 10
163.5538644920996
 20
133.9000002050663
 30
0.0
 11
163.5538644920998
 21
131.7000002050662
 31
0.0
  0
LINE
  5
515
330
1F
100
AcDbEntity
  8
0
100
AcDbLine
 10
163.5538644920998
 20
131.7000002050662
 30
0.0
 11
163.7000000522952
 21
131.7000002050662
 31
0.0
  0
LINE
  5
516
330
1F
100
AcDbEntity
  8
0
100
AcDbLine
 10
153.7000000522951
 20
133.9000002050663
 30
0.0
 11
153.8461356124904
 21
133.9000002050663
 31
0.0
  0
LINE
  5
517
330
1F
100
AcDbEntity
  8
0
100
AcDbLine
 10
153.8461356124904
 20
133.9000002050663
 30
0.0
 11
153.8461356124904
 21
131.7000002050662
 31
0.0
  0
LINE
  5
518
330
1F
100
AcDbEntity
  8
0
100
AcDbLine
 10
153.8461356124904
 20
131.7000002050662
 30
0.0
 11
153.7000000522951
 21
131.7000002050662
 31
0.0
  0
LINE
  5
519
330
1F
100
AcDbEntity
  8
0
100
AcDbLine
 10
162.7000000522952
 20
205.3000002050664
 30
0.0
 11
154.7000000522951
 21
205.3000002050664
 31
0.0
  0
LINE
  5
51A
330
1F
100
AcDbEntity
  8
0
100
AcDbLine
 10
153.7000000522951
 20
152.3000002050593
 30
0.0
 11
154.7000000522951
 21
205.3000002050664
 31
0.0
  0
LINE
  5
51B
330
1F
100
AcDbEntity
  8
0
100
AcDbLine
 10
163.7000000522951
 20
152.3000002050701
 30
0.0
 11
162.7000000522952
 21
205.3000002050664
 31
0.0
  0
LINE
  5
51C
330
1F
100
AcDbEntity
  8
0
100
AcDbLine
 10
154.8000000522948
 20
205.3000002050664
 30
0.0
 11
154.8557981854838
 21
207.201503130905
 31
0.0
  0
LINE
  5
51D
330
1F
100
AcDbEntity
  8
0
100
AcDbLine
 10
162.6000000522946
 20
205.3000002050664
 30
0.0
 11
162.5442019191055
 21
207.2015031309049
 31
0.0
  0
ARC
  5
51E
330
1F
100
AcDbEntity
  8
0
100
AcDbCircle
 10
162.0442943490904
 20
207.1918895237891
 30
0.0
 40
0.5
100
AcDbArc
 50
1.101706115201059
 51
69.38841074338518
1001
GENIUS_GENODEF_13
1002
{
1000
HIER
1070
     0
1002
}
1002
{
1000
MANEDIT
1070
     0
1002
}
1002
{
1000
NOSEL
1070
     0
1002
}
1002
{
1000
BEHIND
1070
     0
1002
}
1002
{
1000
OTHER
1070
     0
1002
}
1002
{
1000
REACTOR
1002
}
1001
GENIUS_GENOBJ-N-FIL_13
1002
{
1000
OWNER
1000
GEN
1002
}
  0
ARC
  5
51F
330
1F
100
AcDbEntity
  8
0
100
AcDbCircle
 10
162.0442943490904
 20
207.1918895237891
 30
0.0
 40
0.5
100
AcDbArc
 50
69.38841074338518
 51
69.38841074338518
1001
GENIUS_GENODEF_13
1002
{
1000
HIER
1070
     0
1002
}
1002
{
1000
MANEDIT
1070
     0
1002
}
1002
{
1000
NOSEL
1070
     0
1002
}
1002
{
1000
BEHIND
1070
     0
1002
}
1002
{
1000
OTHER
1070
     0
1002
}
1002
{
1000
REACTOR
1002
}
1001
GENIUS_GENOBJ-N-FIL_13
1002
{
1000
OWNER
1000
GEN
1002
}
  0
ARC
  5
520
330
1F
100
AcDbEntity
  8
0
100
AcDbCircle
 10
155.3557057554989
 20
207.1918895237894
 30
0.0
 40
0.5
100
AcDbArc
 50
110.6115892566108
 51
178.8982938847924
1001
GENIUS_GENOBJ-N-FIL_13
1002
{
1000
OWNER
1000
GEN
1002
}
1001
GENIUS_GENODEF_13
1002
{
1000
HIER
1070
     0
1002
}
1002
{
1000
MANEDIT
1070
     0
1002
}
1002
{
1000
NOSEL
1070
     0
1002
}
1002
{
1000
BEHIND
1070
     0
1002
}
1002
{
1000
OTHER
1070
     0
1002
}
1002
{
1000
REACTOR
1002
}
  0
ARC
  5
521
330
1F
100
AcDbEntity
  8
0
100
AcDbCircle
 10
158.7000000522941
 20
198.3000002050663
 30
0.0
 40
10.0
100
AcDbArc
 50
69.38841074338518
 51
81.37307343471126
  0
ARC
  5
522
330
1F
100
AcDbEntity
  8
0
100
AcDbCircle
 10
158.7000000522941
 20
198.3000002050663
 30
0.0
 40
10.0
100
AcDbArc
 50
98.62692656528871
 51
110.6115892566115
  0
LINE
  5
523
330
1F
100
AcDbEntity
  8
0
100
AcDbLine
 10
160.2000000534351
 20
208.1868601715358
 30
0.0
 11
157.2000000511536
 21
208.1868601715358
 31
0.0
  0
LINE
  5
524
330
1F
100
AcDbEntity
  8
0
100
AcDbLine
 10
153.7000000522951
 20
128.3000002050664
 30
0.0
 11
163.7000000522952
 21
128.3000002050662
 31
0.0
  0
LINE
  5
525
330
1F
100
AcDbEntity
  8
0
100
AcDbLine
 10
163.2000000522955
 20
126.8000002050663
 30
0.0
 11
154.2000000522949
 21
126.8000002050662
 31
0.0
  0
LINE
  5
526
330
1F
100
AcDbEntity
  8
0
100
AcDbLine
 10
153.7000000522951
 20
127.3000002050662
 30
0.0
 11
154.2000000522949
 21
126.8000002050662
 31
0.0
1001
GENIUS_GENFIL_13
1070
     0
1040
0.5
1040
0.5
1040
20.0
1040
0.0
1002
{
1002
}
1001
GENIUS_GENODEF_13
1002
{
1000
HIER
1070
     0
1002
}
1002
{
1000
MANEDIT
1070
     0
1002
}
1002
{
1000
NOSEL
1070
     0
1002
}
1002
{
1000
BEHIND
1070
     0
1002
}
1002
{
1000
OTHER
1070
     0
1002
}
1002
{
1000
REACTOR
1002
}
1001
GENIUS_GENOBJ-N-CHA_13
1002
{
1000
OWNER
1000
GEN
1002
}
  0
LINE
  5
527
330
1F
100
AcDbEntity
  8
0
100
AcDbLine
 10
163.7000000522952
 20
128.3000002050664
 30
0.0
 11
163.7000000522952
 21
127.3000002050663
 31
0.0
  0
LINE
  5
528
330
1F
100
AcDbEntity
  8
0
100
AcDbLine
 10
163.2000000522955
 20
126.8000002050663
 30
0.0
 11
163.7000000522952
 21
127.3000002050663
 31
0.0
1001
GENIUS_GENFIL_13
1070
     0
1040
0.5
1040
0.5
1040
0.4999999999999787
1040
45.00000000000446
1000
~T
  0
LINE
  5
529
330
1F
100
AcDbEntity
  8
0
100
AcDbLine
 10
153.7000000522953
 20
128.3000002050662
 30
0.0
 11
153.7000000522951
 21
127.3000002050662
 31
0.0
  0
LINE
  5
52A
330
1F
100
AcDbEntity
  8
0
100
AcDbLine
 10
163.7000000522953
 20
127.3000002050667
 30
0.0
 11
153.7000000522951
 21
127.3000002050662
 31
0.0
  0
LINE
  5
52B
330
1F
100
AcDbEntity
  8
0
100
AcDbLine
 10
320.4000000522969
 20
128.3000002050662
 30
0.0
 11
308.4000000522967
 21
128.3000002050662
 31
0.0
  0
LINE
  5
52C
330
1F
100
AcDbEntity
  8
0
100
AcDbLine
 10
320.4000000522967
 20
128.3000002050662
 30
0.0
 11
308.4000000522967
 21
128.3000002050662
 31
0.0
  0
LINE
  5
52D
330
1F
100
AcDbEntity
  8
0
100
AcDbLine
 10
314.4000000522368
 20
126.800000205066
 30
0.0
 11
314.4000000522368
 21
121.8000002050661
 31
0.0
  0
LINE
  5
52E
330
1F
100
AcDbEntity
  8
0
100
AcDbLine
 10
320.4000000522967
 20
120.3000002050661
 30
0.0
 11
320.4000000522967
 21
112.3000002050661
 31
0.0
  0
LINE
  5
52F
330
1F
100
AcDbEntity
  8
0
100
AcDbLine
 10
314.4000000522368
 20
120.3000002050661
 30
0.0
 11
314.4000000522368
 21
112.3000002050661
 31
0.0
  0
LINE
  5
530
330
1F
100
AcDbEntity
  8
0
100
AcDbLine
 10
308.4000000522967
 20
120.3000002050661
 30
0.0
 11
308.4000000522967
 21
112.3000002050661
 31
0.0
  0
LINE
  5
531
330
1F
100
AcDbEntity
  8
0
100
AcDbLine
 10
320.4000000522967
 20
126.800000205066
 30
0.0
 11
308.4000000522967
 21
126.800000205066
 31
0.0
  0
LINE
  5
532
330
1F
100
AcDbEntity
  8
0
100
AcDbLine
 10
319.4000000522966
 20
120.3000002050661
 30
0.0
 11
319.4000000522966
 21
121.8000002050661
 31
0.0
  0
LINE
  5
533
330
1F
100
AcDbEntity
  8
0
100
AcDbLine
 10
309.4000000522967
 20
120.3000002050661
 30
0.0
 11
309.4000000522967
 21
121.8000002050661
 31
0.0
  0
LINE
  5
534
330
1F
100
AcDbEntity
  8
0
100
AcDbLine
 10
308.9000000522966
 20
112.3000002050661
 30
0.0
 11
308.9000000522966
 21
111.3000002050661
 31
0.0
  0
LINE
  5
535
330
1F
100
AcDbEntity
  8
0
100
AcDbLine
 10
319.9000000522967
 20
112.3000002050661
 30
0.0
 11
319.9000000522967
 21
111.3000002050661
 31
0.0
  0
LINE
  5
537
330
1F
100
AcDbEntity
  8
0
100
AcDbLine
 10
317.9000000522967
 20
109.3000002050661
 30
0.0
 11
310.9000000522966
 21
109.3000002050661
 31
0.0
  0
ARC
  5
538
330
1F
100
AcDbEntity
  8
0
100
AcDbCircle
 10
310.9000000522966
 20
111.3000002050661
 30
0.0
 40
2.0
100
AcDbArc
 50
180.0
 51
270.0
  0
ARC
  5
539
330
1F
100
AcDbEntity
  8
0
100
AcDbCircle
 10
317.9000000522967
 20
111.3000002050661
 30
0.0
 40
2.0
100
AcDbArc
 50
270.0
 51
0.0
  0
LINE
  5
53A
330
1F
100
AcDbEntity
  8
0
100
AcDbLine
 10
308.4000000522967
 20
121.8000002050661
 30
0.0
 11
320.4000000522967
 21
121.8000002050662
 31
0.0
  0
LINE
  5
53B
330
1F
100
AcDbEntity
  8
0
100
AcDbLine
 10
308.4000000522967
 20
120.3000002050661
 30
0.0
 11
320.4000000522967
 21
120.3000002050661
 31
0.0
  0
LINE
  5
53C
330
1F
100
AcDbEntity
  8
0
100
AcDbLine
 10
308.4000000522967
 20
112.3000002050661
 30
0.0
 11
320.4000000522967
 21
112.3000002050661
 31
0.0
  0
LINE
  5
53D
330
1F
100
AcDbEntity
  8
0
100
AcDbLine
 10
142.7000000522968
 20
109.2160256088506
 30
0.0
 11
142.7000000522969
 21
113.4839748012818
 31
0.0
  0
ARC
  5
53E
330
1F
100
AcDbEntity
  8
0
100
AcDbCircle
 10
142.7000000522968
 20
108.3500002050662
 30
0.0
 40
0.5
100
AcDbArc
 50
0.0
 51
60.00000000000063
  0
ARC
  5
53F
330
1F
100
AcDbEntity
  8
0
100
AcDbCircle
 10
143.2000000522968
 20
109.2160256088506
 30
0.0
 40
0.5
100
AcDbArc
 50
180.0
 51
239.9999999999998
  0
ARC
  5
540
330
1F
100
AcDbEntity
  8
0
100
AcDbCircle
 10
142.7000000522968
 20
114.3500002050662
 30
0.0
 40
0.5
100
AcDbArc
 50
299.9999999999994
 51
0.0
  0
ARC
  5
541
330
1F
100
AcDbEntity
  8
0
100
AcDbCircle
 10
143.2000000522968
 20
113.4839748012818
 30
0.0
 40
0.5
100
AcDbArc
 50
119.9999999999993
 51
180.0
  0
LINE
  5
542
330
1F
100
AcDbEntity
  8
0
100
AcDbLine
 10
173.2000000522968
 20
101.0000002050657
 30
0.0
 11
173.2000000522968
 21
103.3000002050657
 31
0.0
  0
ARC
  5
543
330
1F
100
AcDbEntity
  8
0
100
AcDbCircle
 10
174.2000000522969
 20
101.0000002050657
 30
0.0
 40
0.9999999999999987
100
AcDbArc
 50
180.0
 51
0.0
  0
ARC
  5
544
330
1F
100
AcDbEntity
  8
0
100
AcDbCircle
 10
158.7000000522951
 20
140.3000002050681
 30
0.0
 40
6.0
100
AcDbArc
 50
326.442690238078
 51
33.55730976192136
1001
GENIUS_GENODEF_13
1002
{
1000
HIER
1070
     0
1002
}
1002
{
1000
MANEDIT
1070
     0
1002
}
1002
{
1000
NOSEL
1070
     0
1002
}
1002
{
1000
BEHIND
1070
     0
1002
}
1002
{
1000
OTHER
1070
     0
1002
}
1002
{
1000
REACTOR
1002
}
1001
GENIUS_GENOBJ-N-FIL_13
1002
{
1000
OWNER
1000
GEN
1002
}
  0
LINE
  5
547
330
1F
100
AcDbEntity
  8
0
100
AcDbLine
 10
316.4500000522959
 20
26.30000020506621
 30
0.0
 11
316.4500000522959
 21
65.62857163363765
 31
0.0
  0
LINE
  5
54A
330
1F
100
AcDbEntity
  8
0
100
AcDbLine
 10
312.3500000522974
 20
26.30000020506621
 30
0.0
 11
312.3500000522974
 21
67.97142877649395
 31
0.0
  0
LINE
  5
54D
330
1F
100
AcDbEntity
  8
0
100
AcDbLine
 10
156.6500000522959
 20
26.3000002050661
 30
0.0
 11
156.6500000522959
 21
67.97142877649474
 31
0.0
  0
LINE
  5
54E
330
1F
100
AcDbEntity
  8
0
100
AcDbLine
 10
160.7500000522944
 20
26.30000020506631
 30
0.0
 11
160.7500000522944
 21
65.62857163363844
 31
0.0
  0
CIRCLE
  5
551
330
1F
100
AcDbEntity
  8
0
100
AcDbCircle
 10
220.2000000522968
 20
157.3000002050665
 30
0.0
 40
1.75
  0
CIRCLE
  5
552
330
1F
100
AcDbEntity
  8
0
100
AcDbCircle
 10
220.2000000522968
 20
157.3000002050665
 30
0.0
 40
1.55
  0
CIRCLE
  5
553
330
1F
100
AcDbEntity
  8
0
100
AcDbCircle
 10
220.2000000522968
 20
157.3000002050665
 30
0.0
 40
0.9
  0
ARC
  5
554
330
1F
100
AcDbEntity
  8
0
100
AcDbCircle
 10
220.2000000522968
 20
158.3000002050665
 30
0.0
 40
0.4
100
AcDbArc
 50
205.9444797719998
 51
334.0555202279995
  0
ARC
  5
555
330
1F
100
AcDbEntity
  8
0
100
AcDbCircle
 10
219.3339746485124
 20
157.8000002050663
 30
0.0
 40
0.4
100
AcDbArc
 50
265.9444797725357
 51
34.05552022747354
  0
ARC
  5
556
330
1F
100
AcDbEntity
  8
0
100
AcDbCircle
 10
219.3339746485124
 20
156.8000002050666
 30
0.0
 40
0.4
100
AcDbArc
 50
325.944479772036
 51
94.0555202279638
  0
ARC
  5
557
330
1F
100
AcDbEntity
  8
0
100
AcDbCircle
 10
220.2000000522968
 20
156.3000002050665
 30
0.0
 40
0.4
100
AcDbArc
 50
25.94447977135941
 51
154.0555202286406
  0
ARC
  5
558
330
1F
100
AcDbEntity
  8
0
100
AcDbCircle
 10
221.0660254560811
 20
156.8000002050666
 30
0.0
 40
0.4
100
AcDbArc
 50
85.94447977219294
 51
214.0555202278116
  0
ARC
  5
559
330
1F
100
AcDbEntity
  8
0
100
AcDbCircle
 10
221.0660254560811
 20
157.8000002050666
 30
0.0
 40
0.4
100
AcDbArc
 50
145.9444797714077
 51
274.0555202286006
  0
CIRCLE
  5
55A
330
1F
100
AcDbEntity
  8
0
100
AcDbCircle
 10
220.2000000522967
 20
107.3000002050657
 30
0.0
 40
1.75
  0
CIRCLE
  5
55B
330
1F
100
AcDbEntity
  8
0
100
AcDbCircle
 10
220.2000000522967
 20
107.3000002050657
 30
0.0
 40
1.55
  0
CIRCLE
  5
55C
330
1F
100
AcDbEntity
  8
0
100
AcDbCircle
 10
220.2000000522967
 20
107.3000002050657
 30
0.0
 40
0.9
  0
ARC
  5
55D
330
1F
100
AcDbEntity
  8
0
100
AcDbCircle
 10
220.2000000522967
 20
108.3000002050657
 30
0.0
 40
0.4
100
AcDbArc
 50
205.9444797719998
 51
334.0555202279995
  0
ARC
  5
55E
330
1F
100
AcDbEntity
  8
0
100
AcDbCircle
 10
219.3339746485123
 20
107.8000002050655
 30
0.0
 40
0.4
100
AcDbArc
 50
265.9444797725357
 51
34.05552022747354
  0
ARC
  5
55F
330
1F
100
AcDbEntity
  8
0
100
AcDbCircle
 10
219.3339746485124
 20
106.8000002050657
 30
0.0
 40
0.4
100
AcDbArc
 50
325.944479772036
 51
94.0555202279638
  0
ARC
  5
560
330
1F
100
AcDbEntity
  8
0
100
AcDbCircle
 10
220.2000000522967
 20
106.3000002050657
 30
0.0
 40
0.4
100
AcDbArc
 50
25.94447977135941
 51
154.0555202286406
  0
ARC
  5
561
330
1F
100
AcDbEntity
  8
0
100
AcDbCircle
 10
221.0660254560811
 20
106.8000002050657
 30
0.0
 40
0.4
100
AcDbArc
 50
85.94447977219294
 51
214.0555202278116
  0
ARC
  5
562
330
1F
100
AcDbEntity
  8
0
100
AcDbCircle
 10
221.0660254560811
 20
107.8000002050657
 30
0.0
 40
0.4
100
AcDbArc
 50
145.9444797714077
 51
274.0555202286006
  0
CIRCLE
  5
563
330
1F
100
AcDbEntity
  8
0
100
AcDbCircle
 10
300.2000000522966
 20
107.300000205066
 30
0.0
 40
1.75
  0
CIRCLE
  5
564
330
1F
100
AcDbEntity
  8
0
100
AcDbCircle
 10
300.2000000522966
 20
107.300000205066
 30
0.0
 40
1.55
  0
CIRCLE
  5
565
330
1F
100
AcDbEntity
  8
0
100
AcDbCircle
 10
300.2000000522966
 20
107.300000205066
 30
0.0
 40
0.9
  0
ARC
  5
566
330
1F
100
AcDbEntity
  8
0
100
AcDbCircle
 10
300.2000000522966
 20
108.300000205066
 30
0.0
 40
0.4
100
AcDbArc
 50
205.9444797719998
 51
334.0555202279995
  0
ARC
  5
567
330
1F
100
AcDbEntity
  8
0
100
AcDbCircle
 10
299.3339746485121
 20
107.8000002050658
 30
0.0
 40
0.4
100
AcDbArc
 50
265.9444797725357
 51
34.05552022747354
  0
ARC
  5
568
330
1F
100
AcDbEntity
  8
0
100
AcDbCircle
 10
299.3339746485124
 20
106.8000002050659
 30
0.0
 40
0.4
100
AcDbArc
 50
325.944479772036
 51
94.0555202279638
  0
ARC
  5
569
330
1F
100
AcDbEntity
  8
0
100
AcDbCircle
 10
300.2000000522966
 20
106.300000205066
 30
0.0
 40
0.4
100
AcDbArc
 50
25.94447977135941
 51
154.0555202286406
  0
ARC
  5
56A
330
1F
100
AcDbEntity
  8
0
100
AcDbCircle
 10
301.0660254560812
 20
106.8000002050659
 30
0.0
 40
0.4
100
AcDbArc
 50
85.94447977219294
 51
214.0555202278116
  0
ARC
  5
56B
330
1F
100
AcDbEntity
  8
0
100
AcDbCircle
 10
301.0660254560812
 20
107.8000002050661
 30
0.0
 40
0.4
100
AcDbArc
 50
145.9444797714077
 51
274.0555202286006
  0
LINE
  5
574
330
1F
100
AcDbEntity
  8
0
100
AcDbLine
 10
280.2000000522966
 20
149.0500002050661
 30
0.0
 11
240.2000000522967
 21
149.0500002050661
 31
0.0
  0
LINE
  5
575
330
1F
100
AcDbEntity
  8
0
100
AcDbLine
 10
240.2000000522967
 20
159.050000205066
 30
0.0
 11
240.2000000522967
 21
149.0500002050661
 31
0.0
  0
LINE
  5
576
330
1F
100
AcDbEntity
  8
0
100
AcDbLine
 10
280.2000000522968
 20
159.050000205066
 30
0.0
 11
280.2000000522966
 21
149.0500002050661
 31
0.0
  0
LINE
  5
577
330
1F
100
AcDbEntity
  8
0
100
AcDbLine
 10
280.2000000522968
 20
159.050000205066
 30
0.0
 11
240.2000000522967
 21
159.050000205066
 31
0.0
  0
CIRCLE
  5
579
330
1F
100
AcDbEntity
  8
0
100
AcDbCircle
 10
300.2000000522966
 20
157.3000002050664
 30
0.0
 40
1.75
  0
CIRCLE
  5
57A
330
1F
100
AcDbEntity
  8
0
100
AcDbCircle
 10
300.2000000522966
 20
157.3000002050664
 30
0.0
 40
1.55
  0
CIRCLE
  5
57B
330
1F
100
AcDbEntity
  8
0
100
AcDbCircle
 10
300.2000000522966
 20
157.3000002050664
 30
0.0
 40
0.9
  0
ARC
  5
57C
330
1F
100
AcDbEntity
  8
0
100
AcDbCircle
 10
300.2000000522966
 20
158.3000002050664
 30
0.0
 40
0.4
100
AcDbArc
 50
205.9444797719998
 51
334.0555202279995
  0
ARC
  5
57D
330
1F
100
AcDbEntity
  8
0
100
AcDbCircle
 10
299.3339746485121
 20
157.8000002050662
 30
0.0
 40
0.4
100
AcDbArc
 50
265.9444797725357
 51
34.05552022747354
  0
ARC
  5
57E
330
1F
100
AcDbEntity
  8
0
100
AcDbCircle
 10
299.3339746485121
 20
156.8000002050663
 30
0.0
 40
0.4
100
AcDbArc
 50
325.944479772036
 51
94.0555202279638
  0
ARC
  5
57F
330
1F
100
AcDbEntity
  8
0
100
AcDbCircle
 10
300.2000000522966
 20
156.3000002050664
 30
0.0
 40
0.4
100
AcDbArc
 50
25.94447977135941
 51
154.0555202286406
  0
ARC
  5
580
330
1F
100
AcDbEntity
  8
0
100
AcDbCircle
 10
301.0660254560812
 20
156.8000002050663
 30
0.0
 40
0.4
100
AcDbArc
 50
85.94447977219294
 51
214.0555202278116
  0
ARC
  5
581
330
1F
100
AcDbEntity
  8
0
100
AcDbCircle
 10
301.0660254560812
 20
157.8000002050664
 30
0.0
 40
0.4
100
AcDbArc
 50
145.9444797714077
 51
274.0555202286006
  0
LINE
  5
582
330
1F
100
AcDbEntity
  8
0
100
AcDbLine
 10
103.6500000522969
 20
103.8500002050662
 30
0.0
 11
103.6500000522969
 21
160.7500002050664
 31
0.0
  0
LINE
  5
583
330
1F
100
AcDbEntity
  8
0
100
AcDbLine
 10
107.2000000522968
 20
160.8000002050661
 30
0.0
 11
107.2000000522967
 21
103.8000002050661
 31
0.0
  0
LINE
  5
584
330
1F
100
AcDbEntity
  8
0
100
AcDbLine
 10
107.5000000522968
 20
160.8000002050661
 30
0.0
 11
107.5000000522968
 21
145.3000002050661
 31
0.0
  0
LINE
  5
585
330
1F
100
AcDbEntity
  8
0
100
AcDbLine
 10
107.5000000522968
 20
135.3000002050661
 30
0.0
 11
107.5000000522968
 21
103.8000002050661
 31
0.0
  0
ARC
  5
586
330
1F
100
AcDbEntity
  8
0
100
AcDbCircle
 10
103.7000000522967
 20
160.8000002050661
 30
0.0
 40
3.5
100
AcDbArc
 50
0.0
 51
90.0
1001
GENIUS_GENODEF_13
1002
{
1000
HIER
1070
     0
1002
}
1002
{
1000
MANEDIT
1070
     0
1002
}
1002
{
1000
NOSEL
1070
     0
1002
}
1002
{
1000
BEHIND
1070
     0
1002
}
1002
{
1000
OTHER
1070
     0
1002
}
1002
{
1000
REACTOR
1002
}
1001
GENIUS_GENOBJ-N-FIL_13
1002
{
1000
OWNER
1000
GEN
1002
}
  0
ARC
  5
587
330
1F
100
AcDbEntity
  8
0
100
AcDbCircle
 10
103.7000000522967
 20
160.8000002050661
 30
0.0
 40
3.799999999999998
100
AcDbArc
 50
0.0
 51
90.0
1001
GENIUS_GENODEF_13
1002
{
1000
HIER
1070
     0
1002
}
1002
{
1000
MANEDIT
1070
     0
1002
}
1002
{
1000
NOSEL
1070
     0
1002
}
1002
{
1000
BEHIND
1070
     0
1002
}
1002
{
1000
OTHER
1070
     0
1002
}
1002
{
1000
REACTOR
1002
}
1001
GENIUS_GENOBJ-N-FIL_13
1002
{
1000
OWNER
1000
GEN
1002
}
  0
LINE
  5
588
330
1F
100
AcDbEntity
  8
0
100
AcDbLine
 10
16.70000005229679
 20
160.8000002050661
 30
0.0
 11
16.70000005229688
 21
103.8000002050661
 31
0.0
  0
LINE
  5
589
330
1F
100
AcDbEntity
  8
0
100
AcDbLine
 10
16.70000005229679
 20
164.300000205066
 30
0.0
 11
103.7000000522967
 21
164.300000205066
 31
0.0
  0
LINE
  5
58A
330
1F
100
AcDbEntity
  8
0
100
AcDbLine
 10
16.70000005229679
 20
164.6000002050661
 30
0.0
 11
103.7000000522967
 21
164.6000002050661
 31
0.0
  0
LINE
  5
58B
330
1F
100
AcDbEntity
  8
0
100
AcDbLine
 10
16.70000005229679
 20
160.8000002050661
 30
0.0
 11
103.7000000522967
 21
160.8000002050661
 31
0.0
  0
LINE
  5
58C
330
1F
100
AcDbEntity
  8
0
100
AcDbLine
 10
16.70000005229688
 20
100.3000002050661
 30
0.0
 11
103.7000000522968
 21
100.3000002050661
 31
0.0
  0
LINE
  5
58D
330
1F
100
AcDbEntity
  8
0
100
AcDbLine
 10
16.70000005229688
 20
100.0000002050661
 30
0.0
 11
103.7000000522968
 21
100.0000002050661
 31
0.0
  0
LINE
  5
58E
330
1F
100
AcDbEntity
  8
0
100
AcDbLine
 10
16.70000005229688
 20
103.8000002050661
 30
0.0
 11
103.7000000522968
 21
103.8000002050661
 31
0.0
  0
ARC
  5
58F
330
1F
100
AcDbEntity
  8
0
100
AcDbCircle
 10
103.7000000522967
 20
103.8000002050661
 30
0.0
 40
3.5
100
AcDbArc
 50
270.0
 51
0.0
1001
GENIUS_GENODEF_13
1002
{
1000
HIER
1070
     0
1002
}
1002
{
1000
MANEDIT
1070
     0
1002
}
1002
{
1000
NOSEL
1070
     0
1002
}
1002
{
1000
BEHIND
1070
     0
1002
}
1002
{
1000
OTHER
1070
     0
1002
}
1002
{
1000
REACTOR
1002
}
1001
GENIUS_GENOBJ-N-FIL_13
1002
{
1000
OWNER
1000
GEN
1002
}
  0
ARC
  5
590
330
1F
100
AcDbEntity
  8
0
100
AcDbCircle
 10
103.7000000522967
 20
103.8000002050661
 30
0.0
 40
3.799999999999998
100
AcDbArc
 50
270.0
 51
0.0
1001
GENIUS_GENODEF_13
1002
{
1000
HIER
1070
     0
1002
}
1002
{
1000
MANEDIT
1070
     0
1002
}
1002
{
1000
NOSEL
1070
     0
1002
}
1002
{
1000
BEHIND
1070
     0
1002
}
1002
{
1000
OTHER
1070
     0
1002
}
1002
{
1000
REACTOR
1002
}
1001
GENIUS_GENOBJ-N-FIL_13
1002
{
1000
OWNER
1000
GEN
1002
}
  0
LINE
  5
591
330
1F
100
AcDbEntity
  8
0
100
AcDbLine
 10
13.20000005229678
 20
160.8000002050661
 30
0.0
 11
13.20000005229678
 21
103.8000002050661
 31
0.0
  0
LINE
  5
592
330
1F
100
AcDbEntity
  8
0
100
AcDbLine
 10
12.90000005229682
 20
160.8000002050661
 30
0.0
 11
12.90000005229682
 21
103.8000002050661
 31
0.0
  0
ARC
  5
593
330
1F
100
AcDbEntity
  8
0
100
AcDbCircle
 10
16.70000005229679
 20
160.8000002050661
 30
0.0
 40
3.5
100
AcDbArc
 50
90.0
 51
180.0
1001
GENIUS_GENODEF_13
1002
{
1000
HIER
1070
     0
1002
}
1002
{
1000
MANEDIT
1070
     0
1002
}
1002
{
1000
NOSEL
1070
     0
1002
}
1002
{
1000
BEHIND
1070
     0
1002
}
1002
{
1000
OTHER
1070
     0
1002
}
1002
{
1000
REACTOR
1002
}
1001
GENIUS_GENOBJ-N-FIL_13
1002
{
1000
OWNER
1000
GEN
1002
}
  0
ARC
  5
594
330
1F
100
AcDbEntity
  8
0
100
AcDbCircle
 10
16.70000005229679
 20
160.8000002050661
 30
0.0
 40
3.799999999999998
100
AcDbArc
 50
90.0
 51
180.0
1001
GENIUS_GENODEF_13
1002
{
1000
HIER
1070
     0
1002
}
1002
{
1000
MANEDIT
1070
     0
1002
}
1002
{
1000
NOSEL
1070
     0
1002
}
1002
{
1000
BEHIND
1070
     0
1002
}
1002
{
1000
OTHER
1070
     0
1002
}
1002
{
1000
REACTOR
1002
}
1001
GENIUS_GENOBJ-N-FIL_13
1002
{
1000
OWNER
1000
GEN
1002
}
  0
ARC
  5
595
330
1F
100
AcDbEntity
  8
0
100
AcDbCircle
 10
16.70000005229679
 20
103.8000002050661
 30
0.0
 40
3.5
100
AcDbArc
 50
180.0
 51
270.0
1001
GENIUS_GENODEF_13
1002
{
1000
HIER
1070
     0
1002
}
1002
{
1000
MANEDIT
1070
     0
1002
}
1002
{
1000
NOSEL
1070
     0
1002
}
1002
{
1000
BEHIND
1070
     0
1002
}
1002
{
1000
OTHER
1070
     0
1002
}
1002
{
1000
REACTOR
1002
}
1001
GENIUS_GENOBJ-N-FIL_13
1002
{
1000
OWNER
1000
GEN
1002
}
  0
ARC
  5
596
330
1F
100
AcDbEntity
  8
0
100
AcDbCircle
 10
16.70000005229679
 20
103.8000002050661
 30
0.0
 40
3.799999999999998
100
AcDbArc
 50
180.0
 51
270.0
1001
GENIUS_GENODEF_13
1002
{
1000
HIER
1070
     0
1002
}
1002
{
1000
MANEDIT
1070
     0
1002
}
1002
{
1000
NOSEL
1070
     0
1002
}
1002
{
1000
BEHIND
1070
     0
1002
}
1002
{
1000
OTHER
1070
     0
1002
}
1002
{
1000
REACTOR
1002
}
1001
GENIUS_GENOBJ-N-FIL_13
1002
{
1000
OWNER
1000
GEN
1002
}
  0
LINE
  5
597
330
1F
100
AcDbEntity
  8
0
100
AcDbLine
 10
16.75000005229674
 20
118.8500002050663
 30
0.0
 11
103.6500000522969
 21
118.8500002050663
 31
0.0
  0
LINE
  5
598
330
1F
100
AcDbEntity
  8
0
100
AcDbLine
 10
16.75000005229674
 20
103.8500002050662
 30
0.0
 11
16.75000005229662
 21
160.7500002050663
 31
0.0
  0
LINE
  5
599
330
1F
100
AcDbEntity
  8
0
100
AcDbLine
 10
103.6500000522969
 20
160.7500002050664
 30
0.0
 11
16.75000005229662
 21
160.7500002050663
 31
0.0
  0
LINE
  5
59A
330
1F
100
AcDbEntity
  8
0
100
AcDbLine
 10
16.75000005229674
 20
103.8500002050662
 30
0.0
 11
103.6500000522969
 21
103.8500002050662
 31
0.0
  0
ARC
  5
59C
330
1F
100
AcDbEntity
  8
0
100
AcDbCircle
 10
93.7000000522967
 20
153.1000002050662
 30
0.0
 40
1.0
100
AcDbArc
 50
0.0
 51
90.0
1001
GENIUS_GENREC_14
1002
{
1000
PYDIR
1011
30.20000005229667
1021
152.6000002050663
1031
0.0
1002
}
1002
{
1000
PXDIR
1011
90.20000005229679
1021
126.1000002050661
1031
0.0
1002
}
1002
{
1000
PORI
1011
30.20000005229667
1021
126.1000002050661
1031
0.0
1002
}
1002
{
1000
PINS
1011
30.20000005229667
1021
126.1000002050661
1031
0.0
1002
}
1002
{
1000
PINS2
1011
90.20000005229679
1021
152.6000002050663
1031
0.0
1002
}
1002
{
1000
C
1070
     1
1002
}
1001
GENIUS_GENOBJ-N-REC_13
1002
{
1000
OWNER
1000
GEN
1002
}
1001
GENIUS_GENOBJ-N-FIL_13
1002
{
1000
OWNER
1000
GEN
1002
}
1001
GENIUS_GENODEF_13
1002
{
1000
HIER
1070
     0
1002
}
1002
{
1000
MANEDIT
1070
     0
1002
}
1002
{
1000
NOSEL
1070
     0
1002
}
1002
{
1000
BEHIND
1070
     0
1002
}
1002
{
1000
OTHER
1070
     0
1002
}
1002
{
1000
REACTOR
1002
}
  0
LINE
  5
59D
330
1F
100
AcDbEntity
  8
0
100
AcDbLine
 10
25.70000005229666
 20
153.1000002050662
 30
0.0
 11
25.70000005229666
 21
124.6000002050662
 31
0.0
1001
GENIUS_GENREC_14
1002
{
1000
PYDIR
1011
30.20000005229667
1021
152.6000002050663
1031
0.0
1002
}
1002
{
1000
PXDIR
1011
90.20000005229679
1021
125.1000002050661
1031
0.0
1002
}
1002
{
1000
PORI
1011
30.20000005229667
1021
125.1000002050661
1031
0.0
1002
}
1002
{
1000
PINS
1011
30.20000005229667
1021
125.1000002050661
1031
0.0
1002
}
1002
{
1000
PINS2
1011
90.20000005229679
1021
152.6000002050663
1031
0.0
1002
}
1002
{
1000
C
1070
     1
1002
}
1001
GENIUS_GENOBJ-N-REC_13
1002
{
1000
OWNER
1000
GEN
1002
}
1001
GENIUS_GENODEF_13
1002
{
1000
HIER
1070
     0
1002
}
1002
{
1000
MANEDIT
1070
     0
1002
}
1002
{
1000
NOSEL
1070
     0
1002
}
1002
{
1000
BEHIND
1070
     0
1002
}
1002
{
1000
OTHER
1070
     0
1002
}
1002
{
1000
REACTOR
1002
}
  0
ARC
  5
59E
330
1F
100
AcDbEntity
  8
0
100
AcDbCircle
 10
26.70000005229669
 20
153.1000002050662
 30
0.0
 40
1.0
100
AcDbArc
 50
90.0
 51
180.0
1001
GENIUS_GENREC_14
1002
{
1000
PYDIR
1011
30.20000005229667
1021
152.6000002050663
1031
0.0
1002
}
1002
{
1000
PXDIR
1011
90.20000005229679
1021
126.1000002050661
1031
0.0
1002
}
1002
{
1000
PORI
1011
30.20000005229667
1021
126.1000002050661
1031
0.0
1002
}
1002
{
1000
PINS
1011
30.20000005229667
1021
126.1000002050661
1031
0.0
1002
}
1002
{
1000
PINS2
1011
90.20000005229679
1021
152.6000002050663
1031
0.0
1002
}
1002
{
1000
C
1070
     1
1002
}
1001
GENIUS_GENOBJ-N-REC_13
1002
{
1000
OWNER
1000
GEN
1002
}
1001
GENIUS_GENOBJ-N-FIL_13
1002
{
1000
OWNER
1000
GEN
1002
}
1001
GENIUS_GENODEF_13
1002
{
1000
HIER
1070
     0
1002
}
1002
{
1000
MANEDIT
1070
     0
1002
}
1002
{
1000
NOSEL
1070
     0
1002
}
1002
{
1000
BEHIND
1070
     0
1002
}
1002
{
1000
OTHER
1070
     0
1002
}
1002
{
1000
REACTOR
1002
}
  0
LINE
  5
59F
330
1F
100
AcDbEntity
  8
0
100
AcDbLine
 10
26.70000005229679
 20
123.6000002050661
 30
0.0
 11
93.7000000522967
 21
123.6000002050661
 31
0.0
1001
GENIUS_GENREC_14
1002
{
1000
PYDIR
1011
30.20000005229667
1021
151.6000002050663
1031
0.0
1002
}
1002
{
1000
PXDIR
1011
90.20000005229679
1021
125.1000002050661
1031
0.0
1002
}
1002
{
1000
PORI
1011
30.20000005229667
1021
125.1000002050661
1031
0.0
1002
}
1002
{
1000
PINS
1011
30.20000005229667
1021
125.1000002050661
1031
0.0
1002
}
1002
{
1000
PINS2
1011
90.20000005229679
1021
151.6000002050663
1031
0.0
1002
}
1002
{
1000
C
1070
     1
1002
}
1001
GENIUS_GENOBJ-N-REC_13
1002
{
1000
OWNER
1000
GEN
1002
}
1001
GENIUS_GENODEF_13
1002
{
1000
HIER
1070
     0
1002
}
1002
{
1000
MANEDIT
1070
     0
1002
}
1002
{
1000
NOSEL
1070
     0
1002
}
1002
{
1000
BEHIND
1070
     0
1002
}
1002
{
1000
OTHER
1070
     0
1002
}
1002
{
1000
REACTOR
1002
}
  0
ARC
  5
5A0
330
1F
100
AcDbEntity
  8
0
100
AcDbCircle
 10
93.7000000522967
 20
124.6000002050662
 30
0.0
 40
1.0
100
AcDbArc
 50
270.0
 51
0.0
1001
GENIUS_GENREC_14
1002
{
1000
PYDIR
1011
30.20000005229667
1021
151.6000002050663
1031
0.0
1002
}
1002
{
1000
PXDIR
1011
90.20000005229679
1021
125.1000002050661
1031
0.0
1002
}
1002
{
1000
PORI
1011
30.20000005229667
1021
125.1000002050661
1031
0.0
1002
}
1002
{
1000
PINS
1011
30.20000005229667
1021
125.1000002050661
1031
0.0
1002
}
1002
{
1000
PINS2
1011
90.20000005229679
1021
151.6000002050663
1031
0.0
1002
}
1002
{
1000
C
1070
     1
1002
}
1001
GENIUS_GENOBJ-N-REC_13
1002
{
1000
OWNER
1000
GEN
1002
}
1001
GENIUS_GENODEF_13
1002
{
1000
HIER
1070
     0
1002
}
1002
{
1000
MANEDIT
1070
     0
1002
}
1002
{
1000
NOSEL
1070
     0
1002
}
1002
{
1000
BEHIND
1070
     0
1002
}
1002
{
1000
OTHER
1070
     0
1002
}
1002
{
1000
REACTOR
1002
}
1001
GENIUS_GENOBJ-N-FIL_13
1002
{
1000
OWNER
1000
GEN
1002
}
  0
ARC
  5
5A1
330
1F
100
AcDbEntity
  8
0
100
AcDbCircle
 10
26.70000005229679
 20
124.6000002050662
 30
0.0
 40
1.0
100
AcDbArc
 50
180.0
 51
270.0
1001
GENIUS_GENREC_14
1002
{
1000
PYDIR
1011
30.20000005229667
1021
151.6000002050663
1031
0.0
1002
}
1002
{
1000
PXDIR
1011
90.20000005229679
1021
125.1000002050661
1031
0.0
1002
}
1002
{
1000
PORI
1011
30.20000005229667
1021
125.1000002050661
1031
0.0
1002
}
1002
{
1000
PINS
1011
30.20000005229667
1021
125.1000002050661
1031
0.0
1002
}
1002
{
1000
PINS2
1011
90.20000005229679
1021
151.6000002050663
1031
0.0
1002
}
1002
{
1000
C
1070
     1
1002
}
1001
GENIUS_GENOBJ-N-REC_13
1002
{
1000
OWNER
1000
GEN
1002
}
1001
GENIUS_GENODEF_13
1002
{
1000
HIER
1070
     0
1002
}
1002
{
1000
MANEDIT
1070
     0
1002
}
1002
{
1000
NOSEL
1070
     0
1002
}
1002
{
1000
BEHIND
1070
     0
1002
}
1002
{
1000
OTHER
1070
     0
1002
}
1002
{
1000
REACTOR
1002
}
1001
GENIUS_GENOBJ-N-FIL_13
1002
{
1000
OWNER
1000
GEN
1002
}
  0
LINE
  5
5A2
330
1F
100
AcDbEntity
  8
0
100
AcDbLine
 10
93.7000000522967
 20
154.1000002050663
 30
0.0
 11
26.70000005229669
 21
154.1000002050663
 31
0.0
1001
GENIUS_GENREC_14
1002
{
1000
PYDIR
1011
30.20000005229667
1021
152.6000002050663
1031
0.0
1002
}
1002
{
1000
PXDIR
1011
90.20000005229679
1021
126.1000002050661
1031
0.0
1002
}
1002
{
1000
PORI
1011
30.20000005229667
1021
126.1000002050661
1031
0.0
1002
}
1002
{
1000
PINS
1011
30.20000005229667
1021
126.1000002050661
1031
0.0
1002
}
1002
{
1000
PINS2
1011
90.20000005229679
1021
152.6000002050663
1031
0.0
1002
}
1002
{
1000
C
1070
     1
1002
}
1001
GENIUS_GENOBJ-N-REC_13
1002
{
1000
OWNER
1000
GEN
1002
}
1001
GENIUS_GENODEF_13
1002
{
1000
HIER
1070
     0
1002
}
1002
{
1000
MANEDIT
1070
     0
1002
}
1002
{
1000
NOSEL
1070
     0
1002
}
1002
{
1000
BEHIND
1070
     0
1002
}
1002
{
1000
OTHER
1070
     0
1002
}
1002
{
1000
REACTOR
1002
}
  0
LINE
  5
5A3
330
1F
100
AcDbEntity
  8
0
100
AcDbLine
 10
16.75000005229674
 20
103.8500002050662
 30
0.0
 11
16.75000005229674
 21
118.8500002050663
 31
0.0
  0
LINE
  5
5A4
330
1F
100
AcDbEntity
  8
0
100
AcDbLine
 10
16.75000005229674
 20
103.8500002050662
 30
0.0
 11
103.6500000522969
 21
103.8500002050662
 31
0.0
  0
ELLIPSE
  5
5A5
330
1F
100
AcDbEntity
  8
0
100
AcDbEllipse
 10
54.40044031315697
 20
105.7656978794847
 30
0.0
 11
1.00276584225578
 21
0.0000000000000003
 31
0.0
210
0.0
220
0.0
230
1.0
 40
0.6522657033973506
 41
0.3314984999878012
 42
5.951686807191784
  0
ELLIPSE
  5
5A6
330
1F
100
AcDbEntity
  8
0
100
AcDbEllipse
 10
54.29159499956708
 20
105.7656978794847
 30
0.0
 11
1.591594947270215
 21
0.0000000000000061
 31
0.0
210
0.0
220
0.0
230
1.0
 40
0.5753333635477742
 41
0.7175354078333669
 42
6.048567121221497
  0
LINE
  5
5A7
330
1F
100
AcDbEntity
  8
0
100
AcDbLine
 10
55.8395852956745
 20
105.5528241312025
 30
0.0
 11
55.34861127414218
 21
105.5528241312025
 31
0.0
  0
LINE
  5
5A8
330
1F
100
AcDbEntity
  8
0
100
AcDbLine
 10
55.8395349360178
 20
105.9785716277671
 30
0.0
 11
55.34861127414218
 21
105.9785716277671
 31
0.0
  0
LINE
  5
5A9
330
1F
100
AcDbEntity
  8
0
100
AcDbLine
 10
55.49074808637207
 20
106.6813955539033
 30
0.0
 11
55.49074808637207
 21
106.3677963668841
 31
0.0
  0
LINE
  5
5AA
330
1F
100
AcDbEntity
  8
0
100
AcDbLine
 10
55.8395349360178
 20
106.6813955539033
 30
0.0
 11
55.49074808637207
 21
106.6813955539033
 31
0.0
  0
LINE
  5
5AB
330
1F
100
AcDbEntity
  8
0
100
AcDbLine
 10
55.8395349360178
 20
105.9785716277671
 30
0.0
 11
55.8395349360178
 21
106.6813955539033
 31
0.0
  0
LINE
  5
5AC
330
1F
100
AcDbEntity
  8
0
100
AcDbLine
 10
58.2377907499713
 20
106.4197676469267
 30
0.0
 11
58.2377907499713
 21
105.9183141585545
 31
0.0
  0
LINE
  5
5AD
330
1F
100
AcDbEntity
  8
0
100
AcDbLine
 10
57.19127912206428
 20
106.4197676469267
 30
0.0
 11
57.19127912206428
 21
105.9183141585545
 31
0.0
  0
LINE
  5
5AE
330
1F
100
AcDbEntity
  8
0
100
AcDbLine
 10
56.49360470345957
 20
106.4197676469267
 30
0.0
 11
56.49360470345957
 21
105.1116281120429
 31
0.0
  0
LINE
  5
5AF
330
1F
100
AcDbEntity
  8
0
100
AcDbLine
 10
58.93546516857586
 20
106.4197676469267
 30
0.0
 11
58.93546516857586
 21
105.1116281120429
 31
0.0
  0
LINE
  5
5B0
330
1F
100
AcDbEntity
  8
0
100
AcDbLine
 10
57.19127912206428
 20
105.9183141585545
 30
0.0
 11
58.2377907499713
 21
105.9183141585545
 31
0.0
  0
LINE
  5
5B1
330
1F
100
AcDbEntity
  8
0
100
AcDbLine
 10
57.19127912206428
 20
105.613081600415
 30
0.0
 11
58.2377907499713
 21
105.613081600415
 31
0.0
  0
LINE
  5
5B2
330
1F
100
AcDbEntity
  8
0
100
AcDbLine
 10
57.54011633136669
 20
105.1116281120429
 30
0.0
 11
57.19127912206428
 21
105.1116281120429
 31
0.0
  0
LINE
  5
5B3
330
1F
100
AcDbEntity
  8
0
100
AcDbLine
 10
57.54011633136669
 20
104.8500002050662
 30
0.0
 11
56.14476749415729
 21
104.8500002050662
 31
0.0
  0
LINE
  5
5B4
330
1F
100
AcDbEntity
  8
0
100
AcDbLine
 10
56.14476749415729
 20
105.1116281120429
 30
0.0
 11
56.14476749415729
 21
104.8500002050662
 31
0.0
  0
LINE
  5
5B5
330
1F
100
AcDbEntity
  8
0
100
AcDbLine
 10
56.49360470345957
 20
105.1116281120429
 30
0.0
 11
56.14476749415729
 21
105.1116281120429
 31
0.0
  0
LINE
  5
5B6
330
1F
100
AcDbEntity
  8
0
100
AcDbLine
 10
57.19127912206428
 20
105.613081600415
 30
0.0
 11
57.19127912206428
 21
105.1116281120429
 31
0.0
  0
LINE
  5
5B7
330
1F
100
AcDbEntity
  8
0
100
AcDbLine
 10
59.28430237787819
 20
104.8500002050662
 30
0.0
 11
57.88895354066887
 21
104.8500002050662
 31
0.0
  0
LINE
  5
5B8
330
1F
100
AcDbEntity
  8
0
100
AcDbLine
 10
57.88895354066887
 20
105.1116281120429
 30
0.0
 11
57.88895354066887
 21
104.8500002050662
 31
0.0
  0
LINE
  5
5B9
330
1F
100
AcDbEntity
  8
0
100
AcDbLine
 10
57.54011633136669
 20
105.1116281120429
 30
0.0
 11
57.54011633136669
 21
104.8500002050662
 31
0.0
  0
LINE
  5
5BA
330
1F
100
AcDbEntity
  8
0
100
AcDbLine
 10
58.2377907499713
 20
105.1116281120429
 30
0.0
 11
57.88895354066887
 21
105.1116281120429
 31
0.0
  0
LINE
  5
5BB
330
1F
100
AcDbEntity
  8
0
100
AcDbLine
 10
58.2377907499713
 20
105.613081600415
 30
0.0
 11
58.2377907499713
 21
105.1116281120429
 31
0.0
  0
LINE
  5
5BC
330
1F
100
AcDbEntity
  8
0
100
AcDbLine
 10
59.28430237787819
 20
105.1116281120429
 30
0.0
 11
59.28430237787819
 21
104.8500002050662
 31
0.0
  0
LINE
  5
5BD
330
1F
100
AcDbEntity
  8
0
100
AcDbLine
 10
59.28430237787819
 20
105.1116281120429
 30
0.0
 11
58.93546516857586
 21
105.1116281120429
 31
0.0
  0
LINE
  5
5BE
330
1F
100
AcDbEntity
  8
0
100
AcDbLine
 10
57.54011633136669
 20
106.4197676469267
 30
0.0
 11
57.19127912206428
 21
106.4197676469267
 31
0.0
  0
LINE
  5
5BF
330
1F
100
AcDbEntity
  8
0
100
AcDbLine
 10
57.54011633136669
 20
106.6813955539033
 30
0.0
 11
56.14476749415729
 21
106.6813955539033
 31
0.0
  0
LINE
  5
5C0
330
1F
100
AcDbEntity
  8
0
100
AcDbLine
 10
56.14476749415729
 20
106.6813955539033
 30
0.0
 11
56.14476749415729
 21
106.4197676469267
 31
0.0
  0
LINE
  5
5C1
330
1F
100
AcDbEntity
  8
0
100
AcDbLine
 10
56.49360470345957
 20
106.4197676469267
 30
0.0
 11
56.14476749415729
 21
106.4197676469267
 31
0.0
  0
LINE
  5
5C2
330
1F
100
AcDbEntity
  8
0
100
AcDbLine
 10
59.28430237787819
 20
106.6813955539033
 30
0.0
 11
57.88895354066887
 21
106.6813955539033
 31
0.0
  0
LINE
  5
5C3
330
1F
100
AcDbEntity
  8
0
100
AcDbLine
 10
58.2377907499713
 20
106.4197676469267
 30
0.0
 11
57.88895354066887
 21
106.4197676469267
 31
0.0
  0
LINE
  5
5C4
330
1F
100
AcDbEntity
  8
0
100
AcDbLine
 10
57.88895354066887
 20
106.6813955539033
 30
0.0
 11
57.88895354066887
 21
106.4197676469267
 31
0.0
  0
LINE
  5
5C5
330
1F
100
AcDbEntity
  8
0
100
AcDbLine
 10
57.54011633136669
 20
106.6813955539033
 30
0.0
 11
57.54011633136669
 21
106.4197676469267
 31
0.0
  0
LINE
  5
5C6
330
1F
100
AcDbEntity
  8
0
100
AcDbLine
 10
59.28430237787819
 20
106.6813955539033
 30
0.0
 11
59.28430237787819
 21
106.4197676469267
 31
0.0
  0
LINE
  5
5C7
330
1F
100
AcDbEntity
  8
0
100
AcDbLine
 10
59.28430237787819
 20
106.4197676469267
 30
0.0
 11
58.93546516857586
 21
106.4197676469267
 31
0.0
  0
LINE
  5
5C8
330
1F
100
AcDbEntity
  8
0
100
AcDbLine
 10
59.93837214532
 20
106.4197676469267
 30
0.0
 11
59.93837214532
 21
105.1116281120429
 31
0.0
  0
LINE
  5
5C9
330
1F
100
AcDbEntity
  8
0
100
AcDbLine
 10
60.63604656392449
 20
106.4197676469267
 30
0.0
 11
60.63604656392449
 21
105.1116281120429
 31
0.0
  0
LINE
  5
5CA
330
1F
100
AcDbEntity
  8
0
100
AcDbLine
 10
60.98488377322708
 20
104.8500002050662
 30
0.0
 11
59.5895349360178
 21
104.8500002050662
 31
0.0
  0
LINE
  5
5CB
330
1F
100
AcDbEntity
  8
0
100
AcDbLine
 10
59.5895349360178
 20
105.1116281120429
 30
0.0
 11
59.5895349360178
 21
104.8500002050662
 31
0.0
  0
LINE
  5
5CC
330
1F
100
AcDbEntity
  8
0
100
AcDbLine
 10
59.93837214532
 20
105.1116281120429
 30
0.0
 11
59.5895349360178
 21
105.1116281120429
 31
0.0
  0
LINE
  5
5CD
330
1F
100
AcDbEntity
  8
0
100
AcDbLine
 10
60.98488377322708
 20
105.1116281120429
 30
0.0
 11
60.98488377322708
 21
104.8500002050662
 31
0.0
  0
LINE
  5
5CE
330
1F
100
AcDbEntity
  8
0
100
AcDbLine
 10
60.98488377322708
 20
105.1116281120429
 30
0.0
 11
60.63604656392449
 21
105.1116281120429
 31
0.0
  0
LINE
  5
5CF
330
1F
100
AcDbEntity
  8
0
100
AcDbLine
 10
60.98488377322708
 20
106.6813955539033
 30
0.0
 11
59.5895349360178
 21
106.6813955539033
 31
0.0
  0
LINE
  5
5D0
330
1F
100
AcDbEntity
  8
0
100
AcDbLine
 10
59.5895349360178
 20
106.6813955539033
 30
0.0
 11
59.58953493601772
 21
106.4197676469267
 31
0.0
  0
LINE
  5
5D1
330
1F
100
AcDbEntity
  8
0
100
AcDbLine
 10
59.93837214532
 20
106.4197676469267
 30
0.0
 11
59.5895349360178
 21
106.4197676469267
 31
0.0
  0
LINE
  5
5D2
330
1F
100
AcDbEntity
  8
0
100
AcDbLine
 10
60.98488377322708
 20
106.4197676469267
 30
0.0
 11
60.63604656392449
 21
106.4197676469267
 31
0.0
  0
LINE
  5
5D3
330
1F
100
AcDbEntity
  8
0
100
AcDbLine
 10
60.98488377322708
 20
106.6813955539033
 30
0.0
 11
60.98488377322708
 21
106.4197676469267
 31
0.0
  0
LINE
  5
5D4
330
1F
100
AcDbEntity
  8
0
100
AcDbLine
 10
63.68837214532
 20
106.4197676469267
 30
0.0
 11
63.68837214532
 21
105.3732560190196
 31
0.0
  0
LINE
  5
5D5
330
1F
100
AcDbEntity
  8
0
100
AcDbLine
 10
62.38023261043628
 20
106.6813955539033
 30
0.0
 11
63.68837214532
 21
105.3732560190196
 31
0.0
  0
LINE
  5
5D6
330
1F
100
AcDbEntity
  8
0
100
AcDbLine
 10
62.03139540113399
 20
106.1669047164082
 30
0.0
 11
63.34829991247598
 21
104.8500002050662
 31
0.0
  0
LINE
  5
5D7
330
1F
100
AcDbEntity
  8
0
100
AcDbLine
 10
62.03139540113399
 20
106.1669047164082
 30
0.0
 11
62.03139540113399
 21
105.1116281120429
 31
0.0
  0
LINE
  5
5D8
330
1F
100
AcDbEntity
  8
0
100
AcDbLine
 10
61.63895354066887
 20
106.4197676469267
 30
0.0
 11
61.63895354066887
 21
105.1116281120429
 31
0.0
  0
LINE
  5
5D9
330
1F
100
AcDbEntity
  8
0
100
AcDbLine
 10
64.08081400578521
 20
106.4197676469267
 30
0.0
 11
64.08081400578521
 21
104.8500002050662
 31
0.0
  0
LINE
  5
5DA
330
1F
100
AcDbEntity
  8
0
100
AcDbLine
 10
62.38023261043628
 20
105.1116281120429
 30
0.0
 11
62.38023261043628
 21
104.8500002050662
 31
0.0
  0
LINE
  5
5DB
330
1F
100
AcDbEntity
  8
0
100
AcDbLine
 10
61.29011633136649
 20
105.1116281120429
 30
0.0
 11
61.29011633136649
 21
104.8500002050662
 31
0.0
  0
LINE
  5
5DC
330
1F
100
AcDbEntity
  8
0
100
AcDbLine
 10
62.38023261043628
 20
104.8500002050662
 30
0.0
 11
61.29011633136649
 21
104.8500002050662
 31
0.0
  0
LINE
  5
5DD
330
1F
100
AcDbEntity
  8
0
100
AcDbLine
 10
61.63895354066887
 20
105.1116281120429
 30
0.0
 11
61.29011633136649
 21
105.1116281120429
 31
0.0
  0
LINE
  5
5DE
330
1F
100
AcDbEntity
  8
0
100
AcDbLine
 10
62.03139540113399
 20
105.1116281120429
 30
0.0
 11
62.38023261043628
 21
105.1116281120429
 31
0.0
  0
LINE
  5
5DF
330
1F
100
AcDbEntity
  8
0
100
AcDbLine
 10
64.08081400578521
 20
104.8500002050662
 30
0.0
 11
63.34829991247598
 21
104.8500002050662
 31
0.0
  0
LINE
  5
5E0
330
1F
100
AcDbEntity
  8
0
100
AcDbLine
 10
62.38023261043628
 20
106.6813955539033
 30
0.0
 11
61.29011633136649
 21
106.6813955539033
 31
0.0
  0
LINE
  5
5E1
330
1F
100
AcDbEntity
  8
0
100
AcDbLine
 10
61.29011633136649
 20
106.6813955539033
 30
0.0
 11
61.29011633136649
 21
106.4197676469267
 31
0.0
  0
LINE
  5
5E2
330
1F
100
AcDbEntity
  8
0
100
AcDbLine
 10
61.63895354066887
 20
106.4197676469267
 30
0.0
 11
61.29011633136649
 21
106.4197676469267
 31
0.0
  0
LINE
  5
5E3
330
1F
100
AcDbEntity
  8
0
100
AcDbLine
 10
64.42965121508739
 20
106.6813955539033
 30
0.0
 11
63.3395349360178
 21
106.6813955539033
 31
0.0
  0
LINE
  5
5E4
330
1F
100
AcDbEntity
  8
0
100
AcDbLine
 10
63.3395349360178
 20
106.6813955539033
 30
0.0
 11
63.3395349360178
 21
106.4197676469267
 31
0.0
  0
LINE
  5
5E5
330
1F
100
AcDbEntity
  8
0
100
AcDbLine
 10
63.68837214532
 20
106.4197676469267
 30
0.0
 11
63.3395349360178
 21
106.4197676469267
 31
0.0
  0
LINE
  5
5E6
330
1F
100
AcDbEntity
  8
0
100
AcDbLine
 10
64.42965121508739
 20
106.6813955539033
 30
0.0
 11
64.42965121508739
 21
106.4197676469267
 31
0.0
  0
LINE
  5
5E7
330
1F
100
AcDbEntity
  8
0
100
AcDbLine
 10
64.42965121508739
 20
106.4197676469267
 30
0.0
 11
64.08081400578521
 21
106.4197676469267
 31
0.0
  0
ELLIPSE
  5
5E8
330
1F
100
AcDbEntity
  8
0
100
AcDbEllipse
 10
66.13023261043618
 20
105.7656978794847
 30
0.0
 11
-1.569767441860465
 21
0.0
 31
0.0
210
0.0
220
0.0
230
1.0
 40
0.5833333335538832
 41
0.0
 42
6.283185307179584
  0
ELLIPSE
  5
5E9
330
1F
100
AcDbEntity
  8
0
100
AcDbEllipse
 10
66.13025779026449
 20
105.7656978794847
 30
0.0
 11
-0.8721182030841744
 21
0.0
 31
0.0
210
0.0
220
0.0
230
1.0
 40
0.7499783459728239
 41
0.0
 42
6.283185307179584
  0
LINE
  5
5EA
330
1F
100
AcDbEntity
  8
0
100
AcDbLine
 10
26.70000005229679
 20
114.3500002050662
 30
0.0
 11
36.7000000522968
 21
114.3500002050662
 31
0.0
1001
GENIUS_GENODEF_13
1002
{
1000
HIER
1070
     0
1002
}
1002
{
1000
MANEDIT
1070
     0
1002
}
1002
{
1000
NOSEL
1070
     0
1002
}
1002
{
1000
BEHIND
1070
     0
1002
}
1002
{
1000
OTHER
1070
     0
1002
}
1002
{
1000
REACTOR
1002
}
1001
GENIUS_GENOBJ-N-CEN_13
1002
{
1000
OWNER
1000
GEN
1002
}
1001
GENIUS_GENCEN_19
1002
{
1040
2.793999999999998
1002
}
  0
LINE
  5
5EB
330
1F
100
AcDbEntity
  8
0
100
AcDbLine
 10
26.70000005229679
 20
108.3500002050661
 30
0.0
 11
36.7000000522968
 21
108.3500002050661
 31
0.0
1001
GENIUS_GENODEF_13
1002
{
1000
HIER
1070
     0
1002
}
1002
{
1000
MANEDIT
1070
     0
1002
}
1002
{
1000
NOSEL
1070
     0
1002
}
1002
{
1000
BEHIND
1070
     0
1002
}
1002
{
1000
OTHER
1070
     0
1002
}
1002
{
1000
REACTOR
1002
}
1001
GENIUS_GENOBJ-N-CEN_13
1002
{
1000
OWNER
1000
GEN
1002
}
1001
GENIUS_GENCEN_19
1002
{
1040
2.793999999999998
1002
}
  0
ARC
  5
5EC
330
1F
100
AcDbEntity
  8
0
100
AcDbCircle
 10
26.70000005229679
 20
111.3500002050662
 30
0.0
 40
3.000000000000006
100
AcDbArc
 50
90.0
 51
270.0
  0
ARC
  5
5ED
330
1F
100
AcDbEntity
  8
0
100
AcDbCircle
 10
36.7000000522968
 20
111.3500002050662
 30
0.0
 40
3.000000000000006
100
AcDbArc
 50
270.0
 51
90.0
  0
LINE
  5
5EE
330
1F
100
AcDbEntity
  8
0
100
AcDbLine
 10
45.70000005229679
 20
114.3500002050662
 30
0.0
 11
55.70000005229688
 21
114.3500002050662
 31
0.0
1001
GENIUS_GENODEF_13
1002
{
1000
HIER
1070
     0
1002
}
1002
{
1000
MANEDIT
1070
     0
1002
}
1002
{
1000
NOSEL
1070
     0
1002
}
1002
{
1000
BEHIND
1070
     0
1002
}
1002
{
1000
OTHER
1070
     0
1002
}
1002
{
1000
REACTOR
1002
}
1001
GENIUS_GENOBJ-N-CEN_13
1002
{
1000
OWNER
1000
GEN
1002
}
1001
GENIUS_GENCEN_19
1002
{
1040
2.793999999999998
1002
}
  0
LINE
  5
5EF
330
1F
100
AcDbEntity
  8
0
100
AcDbLine
 10
45.70000005229679
 20
108.3500002050661
 30
0.0
 11
55.70000005229688
 21
108.3500002050661
 31
0.0
1001
GENIUS_GENODEF_13
1002
{
1000
HIER
1070
     0
1002
}
1002
{
1000
MANEDIT
1070
     0
1002
}
1002
{
1000
NOSEL
1070
     0
1002
}
1002
{
1000
BEHIND
1070
     0
1002
}
1002
{
1000
OTHER
1070
     0
1002
}
1002
{
1000
REACTOR
1002
}
1001
GENIUS_GENOBJ-N-CEN_13
1002
{
1000
OWNER
1000
GEN
1002
}
1001
GENIUS_GENCEN_19
1002
{
1040
2.793999999999998
1002
}
  0
ARC
  5
5F0
330
1F
100
AcDbEntity
  8
0
100
AcDbCircle
 10
45.70000005229679
 20
111.3500002050662
 30
0.0
 40
3.000000000000006
100
AcDbArc
 50
90.0
 51
270.0
  0
ARC
  5
5F1
330
1F
100
AcDbEntity
  8
0
100
AcDbCircle
 10
55.70000005229688
 20
111.3500002050662
 30
0.0
 40
3.000000000000006
100
AcDbArc
 50
270.0
 51
90.0
  0
LINE
  5
5F2
330
1F
100
AcDbEntity
  8
0
100
AcDbLine
 10
64.70000005229678
 20
114.3500002050662
 30
0.0
 11
74.70000005229687
 21
114.3500002050662
 31
0.0
1001
GENIUS_GENODEF_13
1002
{
1000
HIER
1070
     0
1002
}
1002
{
1000
MANEDIT
1070
     0
1002
}
1002
{
1000
NOSEL
1070
     0
1002
}
1002
{
1000
BEHIND
1070
     0
1002
}
1002
{
1000
OTHER
1070
     0
1002
}
1002
{
1000
REACTOR
1002
}
1001
GENIUS_GENOBJ-N-CEN_13
1002
{
1000
OWNER
1000
GEN
1002
}
1001
GENIUS_GENCEN_19
1002
{
1040
2.793999999999998
1002
}
  0
LINE
  5
5F3
330
1F
100
AcDbEntity
  8
0
100
AcDbLine
 10
64.70000005229678
 20
108.3500002050661
 30
0.0
 11
74.70000005229687
 21
108.3500002050661
 31
0.0
1001
GENIUS_GENODEF_13
1002
{
1000
HIER
1070
     0
1002
}
1002
{
1000
MANEDIT
1070
     0
1002
}
1002
{
1000
NOSEL
1070
     0
1002
}
1002
{
1000
BEHIND
1070
     0
1002
}
1002
{
1000
OTHER
1070
     0
1002
}
1002
{
1000
REACTOR
1002
}
1001
GENIUS_GENOBJ-N-CEN_13
1002
{
1000
OWNER
1000
GEN
1002
}
1001
GENIUS_GENCEN_19
1002
{
1040
2.793999999999998
1002
}
  0
ARC
  5
5F4
330
1F
100
AcDbEntity
  8
0
100
AcDbCircle
 10
64.70000005229678
 20
111.3500002050662
 30
0.0
 40
3.000000000000006
100
AcDbArc
 50
90.0
 51
270.0
  0
ARC
  5
5F5
330
1F
100
AcDbEntity
  8
0
100
AcDbCircle
 10
74.70000005229687
 20
111.3500002050662
 30
0.0
 40
3.000000000000006
100
AcDbArc
 50
270.0
 51
90.0
  0
LINE
  5
5F6
330
1F
100
AcDbEntity
  8
0
100
AcDbLine
 10
83.7000000522968
 20
114.3500002050662
 30
0.0
 11
93.70000005229687
 21
114.3500002050662
 31
0.0
1001
GENIUS_GENODEF_13
1002
{
1000
HIER
1070
     0
1002
}
1002
{
1000
MANEDIT
1070
     0
1002
}
1002
{
1000
NOSEL
1070
     0
1002
}
1002
{
1000
BEHIND
1070
     0
1002
}
1002
{
1000
OTHER
1070
     0
1002
}
1002
{
1000
REACTOR
1002
}
1001
GENIUS_GENOBJ-N-CEN_13
1002
{
1000
OWNER
1000
GEN
1002
}
1001
GENIUS_GENCEN_19
1002
{
1040
2.793999999999998
1002
}
  0
LINE
  5
5F7
330
1F
100
AcDbEntity
  8
0
100
AcDbLine
 10
83.7000000522968
 20
108.3500002050661
 30
0.0
 11
93.70000005229687
 21
108.3500002050661
 31
0.0
1001
GENIUS_GENODEF_13
1002
{
1000
HIER
1070
     0
1002
}
1002
{
1000
MANEDIT
1070
     0
1002
}
1002
{
1000
NOSEL
1070
     0
1002
}
1002
{
1000
BEHIND
1070
     0
1002
}
1002
{
1000
OTHER
1070
     0
1002
}
1002
{
1000
REACTOR
1002
}
1001
GENIUS_GENOBJ-N-CEN_13
1002
{
1000
OWNER
1000
GEN
1002
}
1001
GENIUS_GENCEN_19
1002
{
1040
2.793999999999998
1002
}
  0
ARC
  5
5F8
330
1F
100
AcDbEntity
  8
0
100
AcDbCircle
 10
83.7000000522968
 20
111.3500002050662
 30
0.0
 40
3.000000000000006
100
AcDbArc
 50
90.0
 51
270.0
  0
ARC
  5
5F9
330
1F
100
AcDbEntity
  8
0
100
AcDbCircle
 10
93.70000005229687
 20
111.3500002050662
 30
0.0
 40
3.000000000000006
100
AcDbArc
 50
270.0
 51
90.0
  0
LINE
  5
5FA
330
1F
100
AcDbEntity
  8
0
100
AcDbLine
 10
107.3000000522968
 20
145.3000002050661
 30
0.0
 11
107.3000000522968
 21
135.3000002050662
 31
0.0
  0
LINE
  5
5FB
330
1F
100
AcDbEntity
  8
0
100
AcDbLine
 10
108.4000000522958
 20
128.3000002050662
 30
0.0
 11
118.400000052296
 21
128.3000002050662
 31
0.0
  0
LINE
  5
5FC
330
1F
100
AcDbEntity
  8
0
100
AcDbLine
 10
107.3000000522968
 20
145.3000002050661
 30
0.0
 11
108.4000000522958
 21
145.3000002050661
 31
0.0
  0
LINE
  5
5FD
330
1F
100
AcDbEntity
  8
0
100
AcDbLine
 10
107.2000000522968
 20
143.5000002050661
 30
0.0
 11
107.3000000522973
 21
143.5000002050661
 31
0.0
  0
LINE
  5
5FE
330
1F
100
AcDbEntity
  8
0
100
AcDbLine
 10
107.2000000522967
 20
137.1000002050661
 30
0.0
 11
107.3000000522973
 21
137.1000002050661
 31
0.0
  0
LINE
  5
5FF
330
1F
100
AcDbEntity
  8
0
100
AcDbLine
 10
107.3000000522968
 20
135.3000002050662
 30
0.0
 11
108.4000000522957
 21
135.3000002050659
 31
0.0
  0
LINE
  5
600
330
1F
100
AcDbEntity
  8
0
100
AcDbLine
 10
112.2000000522958
 20
131.7000002050662
 30
0.0
 11
114.6000000522959
 21
131.7000002050662
 31
0.0
1001
GENIUS_GENREC_14
1002
{
1000
PYDIR
1011
112.4000000522958
1021
133.9000002050657
1031
0.0
1002
}
1002
{
1000
PXDIR
1011
114.400000052296
1021
131.900000205066
1031
0.0
1002
}
1002
{
1000
PORI
1011
112.4000000522958
1021
131.900000205066
1031
0.0
1002
}
1002
{
1000
PINS
1011
112.4000000522958
1021
131.900000205066
1031
0.0
1002
}
1002
{
1000
PINS2
1011
114.400000052296
1021
133.9000002050657
1031
0.0
1002
}
1002
{
1000
C
1070
     1
1002
}
1001
GENIUS_GENODEF_13
1002
{
1000
HIER
1070
     0
1002
}
1002
{
1000
MANEDIT
1070
     0
1002
}
1002
{
1000
NOSEL
1070
     0
1002
}
1002
{
1000
BEHIND
1070
     0
1002
}
1002
{
1000
OTHER
1070
     0
1002
}
1002
{
1000
REACTOR
1002
}
1001
GENIUS_GENOBJ-N-REC_13
1002
{
1000
OWNER
1000
GEN
1002
}
  0
LINE
  5
601
330
1F
100
AcDbEntity
  8
0
100
AcDbLine
 10
114.6000000522959
 20
131.7000002050662
 30
0.0
 11
114.6000000522959
 21
133.9000002050657
 31
0.0
1001
GENIUS_GENREC_14
1002
{
1000
PYDIR
1011
112.4000000522958
1021
133.7000002050656
1031
0.0
1002
}
1002
{
1000
PXDIR
1011
114.400000052296
1021
131.900000205066
1031
0.0
1002
}
1002
{
1000
PORI
1011
112.4000000522958
1021
131.900000205066
1031
0.0
1002
}
1002
{
1000
PINS
1011
112.4000000522958
1021
131.900000205066
1031
0.0
1002
}
1002
{
1000
PINS2
1011
114.400000052296
1021
133.7000002050656
1031
0.0
1002
}
1002
{
1000
C
1070
     1
1002
}
1001
GENIUS_GENODEF_13
1002
{
1000
HIER
1070
     0
1002
}
1002
{
1000
MANEDIT
1070
     0
1002
}
1002
{
1000
NOSEL
1070
     0
1002
}
1002
{
1000
BEHIND
1070
     0
1002
}
1002
{
1000
OTHER
1070
     0
1002
}
1002
{
1000
REACTOR
1002
}
1001
GENIUS_GENOBJ-N-REC_13
1002
{
1000
OWNER
1000
GEN
1002
}
  0
LINE
  5
602
330
1F
100
AcDbEntity
  8
0
100
AcDbLine
 10
114.6000000522959
 20
133.9000002050657
 30
0.0
 11
112.2000000522958
 21
133.9000002050657
 31
0.0
1001
GENIUS_GENREC_14
1002
{
1000
PYDIR
1011
112.4000000522958
1021
133.7000002050656
1031
0.0
1002
}
1002
{
1000
PXDIR
1011
114.400000052296
1021
131.900000205066
1031
0.0
1002
}
1002
{
1000
PORI
1011
112.4000000522958
1021
131.900000205066
1031
0.0
1002
}
1002
{
1000
PINS
1011
112.4000000522958
1021
131.900000205066
1031
0.0
1002
}
1002
{
1000
PINS2
1011
114.400000052296
1021
133.7000002050656
1031
0.0
1002
}
1002
{
1000
C
1070
     1
1002
}
1001
GENIUS_GENODEF_13
1002
{
1000
HIER
1070
     0
1002
}
1002
{
1000
MANEDIT
1070
     0
1002
}
1002
{
1000
NOSEL
1070
     0
1002
}
1002
{
1000
BEHIND
1070
     0
1002
}
1002
{
1000
OTHER
1070
     0
1002
}
1002
{
1000
REACTOR
1002
}
1001
GENIUS_GENOBJ-N-REC_13
1002
{
1000
OWNER
1000
GEN
1002
}
  0
LINE
  5
603
330
1F
100
AcDbEntity
  8
0
100
AcDbLine
 10
112.2000000522958
 20
133.9000002050657
 30
0.0
 11
112.2000000522958
 21
131.7000002050662
 31
0.0
1001
GENIUS_GENREC_14
1002
{
1000
PYDIR
1011
112.4000000522958
1021
133.7000002050656
1031
0.0
1002
}
1002
{
1000
PXDIR
1011
114.400000052296
1021
131.900000205066
1031
0.0
1002
}
1002
{
1000
PORI
1011
112.4000000522958
1021
131.900000205066
1031
0.0
1002
}
1002
{
1000
PINS
1011
112.4000000522958
1021
131.900000205066
1031
0.0
1002
}
1002
{
1000
PINS2
1011
114.400000052296
1021
133.7000002050656
1031
0.0
1002
}
1002
{
1000
C
1070
     1
1002
}
1001
GENIUS_GENODEF_13
1002
{
1000
HIER
1070
     0
1002
}
1002
{
1000
MANEDIT
1070
     0
1002
}
1002
{
1000
NOSEL
1070
     0
1002
}
1002
{
1000
BEHIND
1070
     0
1002
}
1002
{
1000
OTHER
1070
     0
1002
}
1002
{
1000
REACTOR
1002
}
1001
GENIUS_GENOBJ-N-REC_13
1002
{
1000
OWNER
1000
GEN
1002
}
  0
LINE
  5
604
330
1F
100
AcDbEntity
  8
0
100
AcDbLine
 10
118.4000000522958
 20
128.3000002050758
 30
0.0
 11
118.4000000522958
 21
152.3000002050662
 31
0.0
  0
LINE
  5
605
330
1F
100
AcDbEntity
  8
0
100
AcDbLine
 10
108.4000000522957
 20
128.3000002050758
 30
0.0
 11
108.4000000522957
 21
135.3000002050659
 31
0.0
  0
LINE
  5
606
330
1F
100
AcDbEntity
  8
0
100
AcDbLine
 10
108.4000000522958
 20
145.3000002050661
 30
0.0
 11
108.4000000522958
 21
152.3000002050662
 31
0.0
  0
LINE
  5
607
330
1F
100
AcDbEntity
  8
0
100
AcDbLine
 10
108.4000000522958
 20
145.3000002050661
 30
0.0
 11
113.4000000522958
 21
140.3000002050662
 31
0.0
  0
LINE
  5
608
330
1F
100
AcDbEntity
  8
0
100
AcDbLine
 10
113.4000000522958
 20
140.3000002050662
 30
0.0
 11
108.4000000522958
 21
135.3000002050662
 31
0.0
  0
LINE
  5
609
330
1F
100
AcDbEntity
  8
0
100
AcDbLine
 10
117.400000052296
 20
205.3000002050664
 30
0.0
 11
109.4000000522958
 21
205.3000002050663
 31
0.0
  0
LINE
  5
60A
330
1F
100
AcDbEntity
  8
0
100
AcDbLine
 10
108.4000000522958
 20
152.3000002050662
 30
0.0
 11
109.4000000522958
 21
205.3000002050663
 31
0.0
  0
LINE
  5
60B
330
1F
100
AcDbEntity
  8
0
100
AcDbLine
 10
118.4000000522958
 20
152.3000002050662
 30
0.0
 11
117.400000052296
 21
205.3000002050664
 31
0.0
  0
LINE
  5
60C
330
1F
100
AcDbEntity
  8
0
100
AcDbLine
 10
109.5000000522954
 20
205.3000002050663
 30
0.0
 11
109.5557981854847
 21
207.201503130905
 31
0.0
  0
LINE
  5
60D
330
1F
100
AcDbEntity
  8
0
100
AcDbLine
 10
117.3000000522954
 20
205.3000002050663
 30
0.0
 11
117.2442019191061
 21
207.2015031309045
 31
0.0
  0
ARC
  5
60E
330
1F
100
AcDbEntity
  8
0
100
AcDbCircle
 10
116.7442943490911
 20
207.1918895237891
 30
0.0
 40
0.5
100
AcDbArc
 50
1.101706115201059
 51
69.38841074338518
1001
GENIUS_GENODEF_13
1002
{
1000
HIER
1070
     0
1002
}
1002
{
1000
MANEDIT
1070
     0
1002
}
1002
{
1000
NOSEL
1070
     0
1002
}
1002
{
1000
BEHIND
1070
     0
1002
}
1002
{
1000
OTHER
1070
     0
1002
}
1002
{
1000
REACTOR
1002
}
1001
GENIUS_GENOBJ-N-FIL_13
1002
{
1000
OWNER
1000
GEN
1002
}
  0
ARC
  5
60F
330
1F
100
AcDbEntity
  8
0
100
AcDbCircle
 10
110.0557057554996
 20
207.1918895237894
 30
0.0
 40
0.5
100
AcDbArc
 50
110.6115892566115
 51
178.8982938847924
1001
GENIUS_GENOBJ-N-FIL_13
1002
{
1000
OWNER
1000
GEN
1002
}
1001
GENIUS_GENODEF_13
1002
{
1000
HIER
1070
     0
1002
}
1002
{
1000
MANEDIT
1070
     0
1002
}
1002
{
1000
NOSEL
1070
     0
1002
}
1002
{
1000
BEHIND
1070
     0
1002
}
1002
{
1000
OTHER
1070
     0
1002
}
1002
{
1000
REACTOR
1002
}
  0
ARC
  5
610
330
1F
100
AcDbEntity
  8
0
100
AcDbCircle
 10
113.4000000522951
 20
198.3000002050662
 30
0.0
 40
10.0
100
AcDbArc
 50
69.38841074338518
 51
81.37307343471126
  0
ARC
  5
611
330
1F
100
AcDbEntity
  8
0
100
AcDbCircle
 10
113.4000000522951
 20
198.3000002050662
 30
0.0
 40
10.0
100
AcDbArc
 50
98.62692656528871
 51
110.6115892566115
  0
LINE
  5
612
330
1F
100
AcDbEntity
  8
0
100
AcDbLine
 10
114.9000000534358
 20
208.1868601715358
 30
0.0
 11
111.9000000511544
 21
208.1868601715358
 31
0.0
  0
LINE
  5
613
330
1F
100
AcDbEntity
  8
0
100
AcDbLine
 10
114.400000052296
 20
132.2000002050662
 30
0.0
 11
112.4000000522958
 21
132.2000002050661
 31
0.0
  0
LINE
  5
614
330
1F
100
AcDbEntity
  8
0
100
AcDbLine
 10
117.9000000522959
 20
126.8000002050662
 30
0.0
 11
108.9000000522956
 21
126.800000205066
 31
0.0
  0
LINE
  5
615
330
1F
100
AcDbEntity
  8
0
100
AcDbLine
 10
108.4000000522958
 20
127.3000002050661
 30
0.0
 11
108.9000000522956
 21
126.800000205066
 31
0.0
1001
GENIUS_GENFIL_13
1070
     0
1040
0.5
1040
0.5
1040
20.0
1040
0.0
1002
{
1002
}
1001
GENIUS_GENODEF_13
1002
{
1000
HIER
1070
     0
1002
}
1002
{
1000
MANEDIT
1070
     0
1002
}
1002
{
1000
NOSEL
1070
     0
1002
}
1002
{
1000
BEHIND
1070
     0
1002
}
1002
{
1000
OTHER
1070
     0
1002
}
1002
{
1000
REACTOR
1002
}
1001
GENIUS_GENOBJ-N-CHA_13
1002
{
1000
OWNER
1000
GEN
1002
}
  0
LINE
  5
616
330
1F
100
AcDbEntity
  8
0
100
AcDbLine
 10
118.4000000522958
 20
128.3000002050662
 30
0.0
 11
118.400000052296
 21
127.3000002050662
 31
0.0
  0
LINE
  5
617
330
1F
100
AcDbEntity
  8
0
100
AcDbLine
 10
117.9000000522959
 20
126.8000002050662
 30
0.0
 11
118.400000052296
 21
127.3000002050662
 31
0.0
1001
GENIUS_GENFIL_13
1070
     0
1040
0.5
1040
0.5
1040
0.4999999999999787
1040
45.00000000000446
1000
~T
1001
GENIUS_GENOREF_13
1005
0
  0
LINE
  5
618
330
1F
100
AcDbEntity
  8
0
100
AcDbLine
 10
108.4000000522959
 20
128.3000002050662
 30
0.0
 11
108.4000000522958
 21
127.3000002050661
 31
0.0
  0
LINE
  5
619
330
1F
100
AcDbEntity
  8
0
100
AcDbLine
 10
118.400000052296
 20
127.3000002050665
 30
0.0
 11
108.4000000522958
 21
127.3000002050661
 31
0.0
  0
LINE
  5
61A
330
1F
100
AcDbEntity
  8
0
100
AcDbLine
 10
114.400000052296
 20
133.7000002050656
 30
0.0
 11
112.4000000522958
 21
133.7000002050657
 31
0.0
  0
LINE
  5
61B
330
1F
100
AcDbEntity
  8
0
100
AcDbLine
 10
112.4000000522958
 20
131.7000002050662
 30
0.0
 11
112.4000000522958
 21
133.7000002050657
 31
0.0
  0
LINE
  5
61C
330
1F
100
AcDbEntity
  8
0
100
AcDbLine
 10
114.4000000522958
 20
131.7000002050662
 30
0.0
 11
114.400000052296
 21
133.7000002050656
 31
0.0
  0
LINE
  5
61D
330
1F
100
AcDbEntity
  8
0
100
AcDbLine
 10
12.00000005229707
 20
128.3000002050662
 30
0.0
 11
0.000000052296798
 21
128.3000002050662
 31
0.0
  0
LINE
  5
61E
330
1F
100
AcDbEntity
  8
0
100
AcDbLine
 10
12.90000005229682
 20
145.3000002050661
 30
0.0
 11
12.00000005229707
 21
145.3000002050661
 31
0.0
  0
LINE
  5
61F
330
1F
100
AcDbEntity
  8
0
100
AcDbLine
 10
12.90000005229682
 20
135.3000002050661
 30
0.0
 11
12.00000005229707
 21
135.3000002050659
 31
0.0
  0
LINE
  5
620
330
1F
100
AcDbEntity
  8
0
100
AcDbLine
 10
0.0000000522969685
 20
121.8000002050661
 30
0.0
 11
0.0000000522969685
 21
146.8000002050566
 31
0.0
  0
LINE
  5
621
330
1F
100
AcDbEntity
  8
0
100
AcDbLine
 10
12.00000005229707
 20
121.8000002050661
 30
0.0
 11
12.00000005229707
 21
135.3000002050659
 31
0.0
  0
LINE
  5
622
330
1F
100
AcDbEntity
  8
0
100
AcDbLine
 10
12.00000005229707
 20
145.3000002050661
 30
0.0
 11
12.00000005229707
 21
146.8000002050566
 31
0.0
  0
LINE
  5
623
330
1F
100
AcDbEntity
  8
0
100
AcDbLine
 10
12.00000005229707
 20
146.8000002050566
 30
0.0
 11
0.0000000522969685
 21
146.8000002050566
 31
0.0
  0
LINE
  5
624
330
1F
100
AcDbEntity
  8
0
100
AcDbLine
 10
0.500000052296798
 20
147.3000002050566
 30
0.0
 11
0.0000000522968548
 21
146.8000002050566
 31
0.0
1001
GENIUS_GENFIL_13
1070
     0
1040
0.5
1040
0.5
1040
0.5
1040
45.00000000000325
1002
{
1002
}
1001
GENIUS_GENOBJ-N-CHA_13
1002
{
1000
OWNER
1000
GEN
1002
}
1001
GENIUS_GENODEF_13
1002
{
1000
HIER
1070
     0
1002
}
1002
{
1000
MANEDIT
1070
     0
1002
}
1002
{
1000
NOSEL
1070
     0
1002
}
1002
{
1000
BEHIND
1070
     0
1002
}
1002
{
1000
OTHER
1070
     0
1002
}
1002
{
1000
REACTOR
1002
}
  0
LINE
  5
625
330
1F
100
AcDbEntity
  8
0
100
AcDbLine
 10
0.500000052296798
 20
147.3000002050566
 30
0.0
 11
11.50000005229697
 21
147.3000002050566
 31
0.0
  0
LINE
  5
626
330
1F
100
AcDbEntity
  8
0
100
AcDbLine
 10
12.00000005229697
 20
146.8000002050566
 30
0.0
 11
11.50000005229697
 21
147.3000002050566
 31
0.0
1001
GENIUS_GENFIL_13
1070
     0
1040
0.5
1040
0.5
1040
0.5
1040
45.00000000000325
1002
{
1002
}
1001
GENIUS_GENOBJ-N-CHA_13
1002
{
1000
OWNER
1000
GEN
1002
}
1001
GENIUS_GENODEF_13
1002
{
1000
HIER
1070
     0
1002
}
1002
{
1000
MANEDIT
1070
     0
1002
}
1002
{
1000
NOSEL
1070
     0
1002
}
1002
{
1000
BEHIND
1070
     0
1002
}
1002
{
1000
OTHER
1070
     0
1002
}
1002
{
1000
REACTOR
1002
}
  0
SPLINE
  5
627
330
1F
100
AcDbEntity
  8
0
100
AcDbSpline
210
0.0
220
0.0
230
1.0
 70
     8
 71
     3
 72
    38
 73
    34
 74
     0
 42
0.0000000001
 43
0.0000000001
 40
8.160870181059902
 40
8.160870181059902
 40
8.160870181059902
 40
8.160870181059902
 40
9.159821244704103
 40
9.159821244704103
 40
10.15877230834831
 40
10.15877230834831
 40
11.15772337199251
 40
11.15772337199251
 40
12.15667443563672
 40
12.15667443563672
 40
13.19794091725749
 40
13.19794091725749
 40
14.23920739887826
 40
14.23920739887826
 40
15.28047388049904
 40
15.28047388049904
 40
16.32174036211981
 40
16.32174036211981
 40
17.36300684374058
 40
17.36300684374058
 40
18.40427332536135
 40
18.40427332536135
 40
19.44553980698212
 40
19.44553980698212
 40
20.48680628860289
 40
20.48680628860289
 40
21.4857573522471
 40
21.4857573522471
 40
22.48470841589131
 40
22.48470841589131
 40
23.48365947953551
 40
23.48365947953551
 40
24.48261054317971
 40
24.48261054317971
 40
24.48261054317971
 40
24.48261054317971
 10
12.00000005229697
 20
145.3000002050661
 30
0.0
 10
12.00000005229697
 20
145.3000002050661
 30
0.0
 10
11.97174896377475
 20
145.2662095859848
 30
0.0
 10
11.85925115523957
 20
145.1303494720205
 30
0.0
 10
11.7750619551424
 20
145.0283410098075
 30
0.0
 10
11.5627154455525
 20
144.7665054575452
 30
0.0
 10
11.43440160678085
 20
144.6064486455709
 30
0.0
 10
11.15314988970647
 20
144.2455966308952
 30
0.0
 10
11.00030273282107
 20
144.044799982872
 30
0.0
 10
10.68859200659528
 20
143.617403768023
 30
0.0
 10
10.51718030781228
 20
143.3733800292398
 30
0.0
 10
10.17527430436338
 20
142.844339256591
 30
0.0
 10
10.00476859880551
 20
142.5594330770018
 30
0.0
 10
9.699279719508114
 20
141.958775964548
 30
0.0
 10
9.564392364856873
 20
141.6428218057295
 30
0.0
 10
9.372518020686683
 20
140.9871353147656
 30
0.0
 10
9.316624842652243
 20
140.647089032273
 30
0.0
 10
9.316624842652243
 20
139.9529113778593
 30
0.0
 10
9.372518020686683
 20
139.6128650953666
 30
0.0
 10
9.564392364856873
 20
138.9571786044027
 30
0.0
 10
9.699279719508114
 20
138.6412244455841
 30
0.0
 10
10.00476859880551
 20
138.0405673331305
 30
0.0
 10
10.17527430436338
 20
137.7556611535412
 30
0.0
 10
10.51718030781228
 20
137.2266203808925
 30
0.0
 10
10.68859200659528
 20
136.9825966421091
 30
0.0
 10
11.00030273282107
 20
136.5552004272601
 30
0.0
 10
11.15314988970647
 20
136.3544037792371
 30
0.0
 10
11.43440160678085
 20
135.9935517645614
 30
0.0
 10
11.5627154455525
 20
135.833494952587
 30
0.0
 10
11.7750619551424
 20
135.5716594003247
 30
0.0
 10
11.85925115523957
 20
135.4696509381118
 30
0.0
 10
11.97174896377475
 20
135.3337908241475
 30
0.0
 10
12.00000005229697
 20
135.3000002050661
 30
0.0
 10
12.00000005229697
 20
135.3000002050661
 30
0.0
  0
LINE
  5
628
330
1F
100
AcDbEntity
  8
0
100
AcDbLine
 10
12.00000005229697
 20
128.3000002050662
 30
0.0
 11
0.0000000522969046
 21
128.3000002050662
 31
0.0
  0
LINE
  5
629
330
1F
100
AcDbEntity
  8
0
100
AcDbLine
 10
6.000000052237168
 20
126.800000205066
 30
0.0
 11
6.000000052237168
 21
121.8000002050661
 31
0.0
  0
LINE
  5
62A
330
1F
100
AcDbEntity
  8
0
100
AcDbLine
 10
12.00000005229697
 20
120.3000002050661
 30
0.0
 11
12.00000005229697
 21
112.3000002050661
 31
0.0
  0
LINE
  5
62B
330
1F
100
AcDbEntity
  8
0
100
AcDbLine
 10
6.000000052237168
 20
120.3000002050661
 30
0.0
 11
6.000000052237168
 21
112.3000002050661
 31
0.0
  0
LINE
  5
62C
330
1F
100
AcDbEntity
  8
0
100
AcDbLine
 10
0.0000000522969046
 20
120.3000002050661
 30
0.0
 11
0.0000000522969046
 21
112.3000002050661
 31
0.0
  0
LINE
  5
62D
330
1F
100
AcDbEntity
  8
0
100
AcDbLine
 10
12.00000005229697
 20
126.800000205066
 30
0.0
 11
0.0000000522969046
 21
126.800000205066
 31
0.0
  0
LINE
  5
62E
330
1F
100
AcDbEntity
  8
0
100
AcDbLine
 10
11.00000005229685
 20
120.3000002050661
 30
0.0
 11
11.00000005229685
 21
121.8000002050661
 31
0.0
  0
LINE
  5
62F
330
1F
100
AcDbEntity
  8
0
100
AcDbLine
 10
1.000000052296903
 20
120.3000002050661
 30
0.0
 11
1.000000052296903
 21
121.8000002050661
 31
0.0
  0
LINE
  5
630
330
1F
100
AcDbEntity
  8
0
100
AcDbLine
 10
0.5000000522969046
 20
112.3000002050661
 30
0.0
 11
0.5000000522969046
 21
111.3000002050661
 31
0.0
  0
LINE
  5
631
330
1F
100
AcDbEntity
  8
0
100
AcDbLine
 10
11.50000005229697
 20
112.3000002050661
 30
0.0
 11
11.50000005229697
 21
111.3000002050661
 31
0.0
  0
LINE
  5
632
330
1F
100
AcDbEntity
  8
0
100
AcDbLine
 10
9.500000052296966
 20
109.3000002050661
 30
0.0
 11
2.500000052296904
 21
109.3000002050661
 31
0.0
  0
ARC
  5
633
330
1F
100
AcDbEntity
  8
0
100
AcDbCircle
 10
2.500000052296904
 20
111.3000002050661
 30
0.0
 40
2.0
100
AcDbArc
 50
180.0
 51
270.0
  0
ARC
  5
634
330
1F
100
AcDbEntity
  8
0
100
AcDbCircle
 10
9.500000052296966
 20
111.3000002050661
 30
0.0
 40
2.0
100
AcDbArc
 50
270.0
 51
0.0
  0
LINE
  5
635
330
1F
100
AcDbEntity
  8
0
100
AcDbLine
 10
0.0000000522969685
 20
121.8000002050661
 30
0.0
 11
12.00000005229707
 21
121.8000002050661
 31
0.0
  0
LINE
  5
636
330
1F
100
AcDbEntity
  8
0
100
AcDbLine
 10
0.0000000522969046
 20
120.3000002050661
 30
0.0
 11
12.00000005229697
 21
120.3000002050661
 31
0.0
  0
LINE
  5
637
330
1F
100
AcDbEntity
  8
0
100
AcDbLine
 10
0.0000000522969046
 20
112.3000002050661
 30
0.0
 11
12.00000005229697
 21
112.3000002050661
 31
0.0
  0
LINE
  5
638
330
1F
100
AcDbEntity
  8
0
100
AcDbLine
 10
103.7000000522968
 20
160.8000002050661
 30
0.0
 11
103.7000000522967
 21
103.8000002050661
 31
0.0
  0
LINE
  5
639
330
1F
100
AcDbEntity
  8
0
100
AcDbLine
 10
103.6500000522969
 20
103.8500002050662
 30
0.0
 11
103.6500000522969
 21
118.8500002050663
 31
0.0
  0
LINE
  5
644
330
1F
100
AcDbEntity
  8
0
100
AcDbLine
 10
16.75000005229662
 20
159.7500002050662
 30
0.0
 11
103.6500000522969
 21
159.7500002050666
 31
0.0
  0
LINE
  5
645
330
1F
100
AcDbEntity
  8
0
100
AcDbLine
 10
16.75000005229662
 20
158.7500002050663
 30
0.0
 11
103.6500000522969
 21
158.7500002050665
 31
0.0
  0
LINE
  5
646
330
1F
100
AcDbEntity
  8
0
100
AcDbLine
 10
16.75000005229662
 20
157.7500002050662
 30
0.0
 11
103.6500000522969
 21
157.7500002050666
 31
0.0
  0
LINE
  5
647
330
1F
100
AcDbEntity
  8
0
100
AcDbLine
 10
16.75000005229662
 20
156.7500002050663
 30
0.0
 11
103.6500000522969
 21
156.7500002050666
 31
0.0
  0
LINE
  5
648
330
1F
100
AcDbEntity
  8
0
100
AcDbLine
 10
16.75000005229662
 20
155.7500002050662
 30
0.0
 11
103.6500000522969
 21
155.7500002050666
 31
0.0
  0
LINE
  5
649
330
1F
100
AcDbEntity
  8
0
100
AcDbLine
 10
16.75000005229662
 20
154.7500002050663
 30
0.0
 11
103.6500000522969
 21
154.7500002050666
 31
0.0
  0
LINE
  5
64A
330
1F
100
AcDbEntity
  8
0
100
AcDbLine
 10
16.75000005229662
 20
153.7500002050662
 30
0.0
 11
25.94006584461825
 21
153.7500002050662
 31
0.0
  0
LINE
  5
64B
330
1F
100
AcDbEntity
  8
0
100
AcDbLine
 10
94.45993425997489
 20
153.7500002050666
 30
0.0
 11
103.6500000522969
 21
153.7500002050666
 31
0.0
  0
LINE
  5
64C
330
1F
100
AcDbEntity
  8
0
100
AcDbLine
 10
16.75000005229662
 20
152.7500002050663
 30
0.0
 11
25.70000005229666
 21
152.7500002050663
 31
0.0
  0
LINE
  5
64D
330
1F
100
AcDbEntity
  8
0
100
AcDbLine
 10
94.70000005229669
 20
152.7500002050666
 30
0.0
 11
103.6500000522969
 21
152.7500002050666
 31
0.0
  0
LINE
  5
64E
330
1F
100
AcDbEntity
  8
0
100
AcDbLine
 10
16.75000005229662
 20
151.7500002050662
 30
0.0
 11
25.70000005229666
 21
151.7500002050662
 31
0.0
  0
LINE
  5
64F
330
1F
100
AcDbEntity
  8
0
100
AcDbLine
 10
94.70000005229669
 20
151.7500002050666
 30
0.0
 11
103.6500000522969
 21
151.7500002050666
 31
0.0
  0
LINE
  5
650
330
1F
100
AcDbEntity
  8
0
100
AcDbLine
 10
16.75000005229662
 20
150.7500002050663
 30
0.0
 11
25.70000005229666
 21
150.7500002050663
 31
0.0
  0
LINE
  5
651
330
1F
100
AcDbEntity
  8
0
100
AcDbLine
 10
94.70000005229669
 20
150.7500002050666
 30
0.0
 11
103.6500000522969
 21
150.7500002050666
 31
0.0
  0
LINE
  5
652
330
1F
100
AcDbEntity
  8
0
100
AcDbLine
 10
16.75000005229662
 20
149.7500002050662
 30
0.0
 11
25.70000005229666
 21
149.7500002050662
 31
0.0
  0
LINE
  5
653
330
1F
100
AcDbEntity
  8
0
100
AcDbLine
 10
94.70000005229669
 20
149.7500002050666
 30
0.0
 11
103.6500000522969
 21
149.7500002050666
 31
0.0
  0
LINE
  5
654
330
1F
100
AcDbEntity
  8
0
100
AcDbLine
 10
16.75000005229662
 20
148.7500002050663
 30
0.0
 11
25.70000005229666
 21
148.7500002050663
 31
0.0
  0
LINE
  5
655
330
1F
100
AcDbEntity
  8
0
100
AcDbLine
 10
94.70000005229669
 20
148.7500002050666
 30
0.0
 11
103.6500000522969
 21
148.7500002050666
 31
0.0
  0
LINE
  5
656
330
1F
100
AcDbEntity
  8
0
100
AcDbLine
 10
16.75000005229662
 20
147.7500002050663
 30
0.0
 11
25.70000005229666
 21
147.7500002050663
 31
0.0
  0
LINE
  5
657
330
1F
100
AcDbEntity
  8
0
100
AcDbLine
 10
94.70000005229669
 20
147.7500002050666
 30
0.0
 11
103.6500000522969
 21
147.7500002050666
 31
0.0
  0
LINE
  5
658
330
1F
100
AcDbEntity
  8
0
100
AcDbLine
 10
16.75000005229662
 20
146.7500002050663
 30
0.0
 11
25.70000005229666
 21
146.7500002050663
 31
0.0
  0
LINE
  5
659
330
1F
100
AcDbEntity
  8
0
100
AcDbLine
 10
94.70000005229669
 20
146.7500002050666
 30
0.0
 11
103.6500000522969
 21
146.7500002050666
 31
0.0
  0
LINE
  5
65A
330
1F
100
AcDbEntity
  8
0
100
AcDbLine
 10
16.75000005229662
 20
145.7500002050663
 30
0.0
 11
25.70000005229666
 21
145.7500002050663
 31
0.0
  0
LINE
  5
65B
330
1F
100
AcDbEntity
  8
0
100
AcDbLine
 10
94.70000005229669
 20
145.7500002050666
 30
0.0
 11
103.6500000522969
 21
145.7500002050666
 31
0.0
  0
LINE
  5
65C
330
1F
100
AcDbEntity
  8
0
100
AcDbLine
 10
16.75000005229662
 20
144.7500002050663
 30
0.0
 11
25.70000005229666
 21
144.7500002050663
 31
0.0
  0
LINE
  5
65D
330
1F
100
AcDbEntity
  8
0
100
AcDbLine
 10
94.70000005229669
 20
144.7500002050666
 30
0.0
 11
103.6500000522969
 21
144.7500002050666
 31
0.0
  0
LINE
  5
65E
330
1F
100
AcDbEntity
  8
0
100
AcDbLine
 10
16.75000005229662
 20
143.7500002050663
 30
0.0
 11
25.70000005229666
 21
143.7500002050663
 31
0.0
  0
LINE
  5
65F
330
1F
100
AcDbEntity
  8
0
100
AcDbLine
 10
94.70000005229669
 20
143.7500002050666
 30
0.0
 11
103.6500000522969
 21
143.7500002050666
 31
0.0
  0
LINE
  5
660
330
1F
100
AcDbEntity
  8
0
100
AcDbLine
 10
16.75000005229662
 20
142.7500002050663
 30
0.0
 11
25.70000005229666
 21
142.7500002050663
 31
0.0
  0
LINE
  5
661
330
1F
100
AcDbEntity
  8
0
100
AcDbLine
 10
94.70000005229669
 20
142.7500002050666
 30
0.0
 11
103.6500000522969
 21
142.7500002050666
 31
0.0
  0
LINE
  5
662
330
1F
100
AcDbEntity
  8
0
100
AcDbLine
 10
16.75000005229662
 20
141.7500002050663
 30
0.0
 11
25.70000005229666
 21
141.7500002050663
 31
0.0
  0
LINE
  5
663
330
1F
100
AcDbEntity
  8
0
100
AcDbLine
 10
94.70000005229669
 20
141.7500002050666
 30
0.0
 11
103.6500000522969
 21
141.7500002050666
 31
0.0
  0
LINE
  5
664
330
1F
100
AcDbEntity
  8
0
100
AcDbLine
 10
16.75000005229662
 20
140.7500002050663
 30
0.0
 11
25.70000005229666
 21
140.7500002050663
 31
0.0
  0
LINE
  5
665
330
1F
100
AcDbEntity
  8
0
100
AcDbLine
 10
94.70000005229669
 20
140.7500002050666
 30
0.0
 11
103.6500000522969
 21
140.7500002050666
 31
0.0
  0
LINE
  5
666
330
1F
100
AcDbEntity
  8
0
100
AcDbLine
 10
16.75000005229662
 20
139.7500002050663
 30
0.0
 11
25.70000005229666
 21
139.7500002050663
 31
0.0
  0
LINE
  5
667
330
1F
100
AcDbEntity
  8
0
100
AcDbLine
 10
94.70000005229669
 20
139.7500002050666
 30
0.0
 11
103.6500000522969
 21
139.7500002050666
 31
0.0
  0
LINE
  5
668
330
1F
100
AcDbEntity
  8
0
100
AcDbLine
 10
16.75000005229662
 20
138.7500002050663
 30
0.0
 11
25.70000005229666
 21
138.7500002050663
 31
0.0
  0
LINE
  5
669
330
1F
100
AcDbEntity
  8
0
100
AcDbLine
 10
94.70000005229669
 20
138.7500002050666
 30
0.0
 11
103.6500000522969
 21
138.7500002050666
 31
0.0
  0
LINE
  5
66A
330
1F
100
AcDbEntity
  8
0
100
AcDbLine
 10
16.75000005229662
 20
137.7500002050663
 30
0.0
 11
25.70000005229666
 21
137.7500002050663
 31
0.0
  0
LINE
  5
66B
330
1F
100
AcDbEntity
  8
0
100
AcDbLine
 10
94.70000005229669
 20
137.7500002050666
 30
0.0
 11
103.6500000522969
 21
137.7500002050666
 31
0.0
  0
LINE
  5
66C
330
1F
100
AcDbEntity
  8
0
100
AcDbLine
 10
16.75000005229662
 20
136.7500002050662
 30
0.0
 11
25.70000005229666
 21
136.7500002050662
 31
0.0
  0
LINE
  5
66D
330
1F
100
AcDbEntity
  8
0
100
AcDbLine
 10
94.70000005229669
 20
136.7500002050666
 30
0.0
 11
103.6500000522969
 21
136.7500002050666
 31
0.0
  0
LINE
  5
66E
330
1F
100
AcDbEntity
  8
0
100
AcDbLine
 10
16.75000005229662
 20
135.7500002050663
 30
0.0
 11
25.70000005229666
 21
135.7500002050663
 31
0.0
  0
LINE
  5
66F
330
1F
100
AcDbEntity
  8
0
100
AcDbLine
 10
94.70000005229669
 20
135.7500002050666
 30
0.0
 11
103.6500000522969
 21
135.7500002050666
 31
0.0
  0
LINE
  5
670
330
1F
100
AcDbEntity
  8
0
100
AcDbLine
 10
16.75000005229662
 20
134.7500002050662
 30
0.0
 11
25.70000005229666
 21
134.7500002050662
 31
0.0
  0
LINE
  5
671
330
1F
100
AcDbEntity
  8
0
100
AcDbLine
 10
94.70000005229669
 20
134.7500002050666
 30
0.0
 11
103.6500000522969
 21
134.7500002050666
 31
0.0
  0
LINE
  5
672
330
1F
100
AcDbEntity
  8
0
100
AcDbLine
 10
16.75000005229662
 20
133.7500002050663
 30
0.0
 11
25.70000005229666
 21
133.7500002050663
 31
0.0
  0
LINE
  5
673
330
1F
100
AcDbEntity
  8
0
100
AcDbLine
 10
94.70000005229669
 20
133.7500002050665
 30
0.0
 11
103.6500000522969
 21
133.7500002050665
 31
0.0
  0
LINE
  5
674
330
1F
100
AcDbEntity
  8
0
100
AcDbLine
 10
16.75000005229662
 20
132.7500002050662
 30
0.0
 11
25.70000005229666
 21
132.7500002050662
 31
0.0
  0
LINE
  5
675
330
1F
100
AcDbEntity
  8
0
100
AcDbLine
 10
94.70000005229669
 20
132.7500002050665
 30
0.0
 11
103.6500000522969
 21
132.7500002050665
 31
0.0
  0
LINE
  5
676
330
1F
100
AcDbEntity
  8
0
100
AcDbLine
 10
16.75000005229662
 20
131.7500002050663
 30
0.0
 11
25.70000005229666
 21
131.7500002050663
 31
0.0
  0
LINE
  5
677
330
1F
100
AcDbEntity
  8
0
100
AcDbLine
 10
94.70000005229669
 20
131.7500002050666
 30
0.0
 11
103.6500000522969
 21
131.7500002050666
 31
0.0
  0
LINE
  5
678
330
1F
100
AcDbEntity
  8
0
100
AcDbLine
 10
16.75000005229662
 20
130.7500002050662
 30
0.0
 11
25.70000005229666
 21
130.7500002050662
 31
0.0
  0
LINE
  5
679
330
1F
100
AcDbEntity
  8
0
100
AcDbLine
 10
94.70000005229669
 20
130.7500002050666
 30
0.0
 11
103.6500000522969
 21
130.7500002050666
 31
0.0
  0
LINE
  5
67A
330
1F
100
AcDbEntity
  8
0
100
AcDbLine
 10
16.75000005229662
 20
129.7500002050663
 30
0.0
 11
25.70000005229666
 21
129.7500002050663
 31
0.0
  0
LINE
  5
67B
330
1F
100
AcDbEntity
  8
0
100
AcDbLine
 10
94.70000005229669
 20
129.7500002050666
 30
0.0
 11
103.6500000522969
 21
129.7500002050666
 31
0.0
  0
LINE
  5
67C
330
1F
100
AcDbEntity
  8
0
100
AcDbLine
 10
16.75000005229662
 20
128.7500002050662
 30
0.0
 11
25.70000005229666
 21
128.7500002050663
 31
0.0
  0
LINE
  5
67D
330
1F
100
AcDbEntity
  8
0
100
AcDbLine
 10
94.70000005229669
 20
128.7500002050666
 30
0.0
 11
103.6500000522969
 21
128.7500002050666
 31
0.0
  0
LINE
  5
67E
330
1F
100
AcDbEntity
  8
0
100
AcDbLine
 10
16.75000005229662
 20
127.7500002050663
 30
0.0
 11
25.70000005229666
 21
127.7500002050663
 31
0.0
  0
LINE
  5
67F
330
1F
100
AcDbEntity
  8
0
100
AcDbLine
 10
94.70000005229669
 20
127.7500002050665
 30
0.0
 11
103.6500000522969
 21
127.7500002050666
 31
0.0
  0
LINE
  5
680
330
1F
100
AcDbEntity
  8
0
100
AcDbLine
 10
16.75000005229662
 20
126.7500002050662
 30
0.0
 11
25.70000005229666
 21
126.7500002050663
 31
0.0
  0
LINE
  5
681
330
1F
100
AcDbEntity
  8
0
100
AcDbLine
 10
94.70000005229669
 20
126.7500002050666
 30
0.0
 11
103.6500000522969
 21
126.7500002050666
 31
0.0
  0
LINE
  5
682
330
1F
100
AcDbEntity
  8
0
100
AcDbLine
 10
16.75000005229662
 20
125.7500002050663
 30
0.0
 11
25.70000005229666
 21
125.7500002050663
 31
0.0
  0
LINE
  5
683
330
1F
100
AcDbEntity
  8
0
100
AcDbLine
 10
94.70000005229669
 20
125.7500002050665
 30
0.0
 11
103.6500000522969
 21
125.7500002050666
 31
0.0
  0
LINE
  5
684
330
1F
100
AcDbEntity
  8
0
100
AcDbLine
 10
16.75000005229662
 20
124.7500002050662
 30
0.0
 11
25.70000005229666
 21
124.7500002050663
 31
0.0
  0
LINE
  5
685
330
1F
100
AcDbEntity
  8
0
100
AcDbLine
 10
94.70000005229669
 20
124.7500002050666
 30
0.0
 11
103.6500000522969
 21
124.7500002050666
 31
0.0
  0
LINE
  5
686
330
1F
100
AcDbEntity
  8
0
100
AcDbLine
 10
16.75000005229662
 20
123.7500002050663
 30
0.0
 11
26.17321736465378
 21
123.7500002050663
 31
0.0
  0
LINE
  5
687
330
1F
100
AcDbEntity
  8
0
100
AcDbLine
 10
94.22678273993998
 20
123.7500002050665
 30
0.0
 11
103.6500000522969
 21
123.7500002050666
 31
0.0
  0
LINE
  5
688
330
1F
100
AcDbEntity
  8
0
100
AcDbLine
 10
16.75000005229662
 20
122.7500002050662
 30
0.0
 11
103.6500000522969
 21
122.7500002050666
 31
0.0
  0
LINE
  5
689
330
1F
100
AcDbEntity
  8
0
100
AcDbLine
 10
16.75000005229662
 20
121.7500002050662
 30
0.0
 11
103.6500000522969
 21
121.7500002050666
 31
0.0
  0
LINE
  5
68A
330
1F
100
AcDbEntity
  8
0
100
AcDbLine
 10
16.75000005229662
 20
120.7500002050662
 30
0.0
 11
103.6500000522969
 21
120.7500002050666
 31
0.0
  0
LINE
  5
68B
330
1F
100
AcDbEntity
  8
0
100
AcDbLine
 10
16.75000005229662
 20
119.7500002050662
 30
0.0
 11
103.6500000522969
 21
119.7500002050666
 31
0.0
  0
LINE
  5
68C
330
1F
100
AcDbEntity
  8
0
100
AcDbLine
 10
94.70000005229669
 20
153.1000002050662
 30
0.0
 11
94.70000005229669
 21
124.6000002050662
 31
0.0
1001
GENIUS_GENREC_14
1002
{
1000
PYDIR
1011
99.2000000522967
1021
152.6000002050663
1031
0.0
1002
}
1002
{
1000
PXDIR
1011
159.2000000522968
1021
125.1000002050661
1031
0.0
1002
}
1002
{
1000
PORI
1011
99.2000000522967
1021
125.1000002050661
1031
0.0
1002
}
1002
{
1000
PINS
1011
99.2000000522967
1021
125.1000002050661
1031
0.0
1002
}
1002
{
1000
PINS2
1011
159.2000000522968
1021
152.6000002050663
1031
0.0
1002
}
1002
{
1000
C
1070
     1
1002
}
1001
GENIUS_GENOBJ-N-REC_13
1002
{
1000
OWNER
1000
GEN
1002
}
1001
GENIUS_GENODEF_13
1002
{
1000
HIER
1070
     0
1002
}
1002
{
1000
MANEDIT
1070
     0
1002
}
1002
{
1000
NOSEL
1070
     0
1002
}
1002
{
1000
BEHIND
1070
     0
1002
}
1002
{
1000
OTHER
1070
     0
1002
}
1002
{
1000
REACTOR
1002
}
  0
ARC
  5
68D
330
1F
100
AcDbEntity
  8
0
100
AcDbCircle
 10
268.7583333856301
 20
152.3000002050662
 30
0.0
 40
2.5
100
AcDbArc
 50
15.98866499138059
 51
340.5287793655104
  0
ARC
  5
68E
330
1F
100
AcDbEntity
  8
0
100
AcDbCircle
 10
268.7583333856301
 20
152.3000002050662
 30
0.0
 40
2.166666666666666
100
AcDbArc
 50
25.00623305001834
 51
161.4936568715903
  0
ARC
  5
68F
330
1F
100
AcDbEntity
  8
0
100
AcDbCircle
 10
268.7583333856301
 20
152.3000002050662
 30
0.0
 40
2.166666666666666
100
AcDbArc
 50
171.5353527878993
 51
337.3801350519577
  0
LINE
  5
690
330
1F
100
AcDbEntity
  8
0
100
AcDbLine
 10
268.9250000522968
 20
153.5829144387118
 30
0.0
 11
268.9250000522968
 21
152.73440866268
 31
0.0
  0
LINE
  5
691
330
1F
100
AcDbEntity
  8
0
100
AcDbLine
 10
268.5916667189635
 20
153.1485059810981
 30
0.0
 11
268.5916667189635
 21
152.3000002050662
 31
0.0
  0
LINE
  5
692
330
1F
100
AcDbEntity
  8
0
100
AcDbLine
 10
267.4250000522968
 20
151.4666668717328
 30
0.0
 11
270.0916667189635
 21
151.4666668717328
 31
0.0
  0
LINE
  5
693
330
1F
100
AcDbEntity
  8
0
100
AcDbLine
 10
267.4250000522968
 20
151.0500002050662
 30
0.0
 11
268.5083333856301
 21
151.0500002050662
 31
0.0
  0
LINE
  5
694
330
1F
100
AcDbEntity
  8
0
100
AcDbLine
 10
269.0083333856301
 20
151.0500002050662
 30
0.0
 11
270.0916667189635
 21
151.0500002050662
 31
0.0
  0
LINE
  5
695
330
1F
100
AcDbEntity
  8
0
100
AcDbLine
 10
268.5083333856301
 20
150.3833335383995
 30
0.0
 11
269.0083333856301
 21
150.3833335383995
 31
0.0
  0
LINE
  5
696
330
1F
100
AcDbEntity
  8
0
100
AcDbLine
 10
268.5916667189635
 20
152.3000002050662
 30
0.0
 11
271.1616239040126
 21
152.9886181573827
 31
0.0
  0
LINE
  5
697
330
1F
100
AcDbEntity
  8
0
100
AcDbLine
 10
268.9250000522968
 20
152.73440866268
 30
0.0
 11
270.721900632391
 21
153.2158867219952
 31
0.0
  0
LINE
  5
698
330
1F
100
AcDbEntity
  8
0
100
AcDbLine
 10
266.6152684858356
 20
152.6189316706092
 30
0.0
 11
268.5916667189635
 21
153.1485059810981
 31
0.0
  0
LINE
  5
699
330
1F
100
AcDbEntity
  8
0
100
AcDbLine
 10
266.7037082566235
 20
152.9877210959072
 30
0.0
 11
268.9250000522968
 21
153.5829144387118
 31
0.0
  0
LINE
  5
69A
330
1F
100
AcDbEntity
  8
0
100
AcDbLine
 10
269.0083333856301
 20
151.0500002050662
 30
0.0
 11
269.0083333856301
 21
150.3833335383995
 31
0.0
  0
LINE
  5
69B
330
1F
100
AcDbEntity
  8
0
100
AcDbLine
 10
268.5083333856301
 20
151.0500002050662
 30
0.0
 11
268.5083333856301
 21
150.3833335383995
 31
0.0
  0
LINE
  5
69C
330
1F
100
AcDbEntity
  8
0
100
AcDbLine
 10
270.0916667189635
 20
151.4666668717328
 30
0.0
 11
270.0916667189635
 21
151.0500002050662
 31
0.0
  0
LINE
  5
69D
330
1F
100
AcDbEntity
  8
0
100
AcDbLine
 10
267.4250000522968
 20
151.4666668717328
 30
0.0
 11
267.4250000522968
 21
151.0500002050662
 31
0.0
  0
LINE
  5
69E
330
1F
100
AcDbEntity
  8
0
100
AcDbLine
 10
267.4250000522968
 20
152.1333335383995
 30
0.0
 11
270.0916667189635
 21
152.1333335383995
 31
0.0
  0
LINE
  5
69F
330
1F
100
AcDbEntity
  8
0
100
AcDbLine
 10
267.4250000522968
 20
151.7166668717328
 30
0.0
 11
270.0916667189635
 21
151.7166668717328
 31
0.0
  0
LINE
  5
6A0
330
1F
100
AcDbEntity
  8
0
100
AcDbLine
 10
270.0916667189635
 20
152.1333335383995
 30
0.0
 11
270.0916667189635
 21
151.7166668717328
 31
0.0
  0
LINE
  5
6A1
330
1F
100
AcDbEntity
  8
0
100
AcDbLine
 10
267.4250000522968
 20
152.1333335383995
 30
0.0
 11
267.4250000522968
 21
151.7166668717328
 31
0.0
  0
LINE
  5
6A2
330
1F
100
AcDbEntity
  8
0
100
AcDbLine
 10
270.7583333856301
 20
151.4666668717328
 30
0.0
 11
271.1153559895853
 21
151.4666668717328
 31
0.0
  0
LINE
  5
6A3
330
1F
100
AcDbEntity
  8
0
100
AcDbLine
 10
277.4500000522968
 20
150.3000002050662
 30
0.0
 11
277.4500000522968
 21
154.3000002050662
 31
0.0
1001
GENIUS_GENREC_14
1002
{
1000
PYDIR
1011
273.4500000522968
1021
150.3000002050662
1031
0.0
1002
}
1002
{
1000
PXDIR
1011
277.4500000522968
1021
154.3000002050662
1031
0.0
1002
}
1002
{
1000
PORI
1011
277.4500000522968
1021
150.3000002050662
1031
0.0
1002
}
1002
{
1000
PINS
1011
277.4500000522968
1021
150.3000002050662
1031
0.0
1002
}
1002
{
1000
HVAL
1000
4
1002
}
1002
{
1000
H
1070
     2
1002
}
1002
{
1000
WVAL
1000
4
1002
}
1002
{
1000
W
1070
     2
1002
}
1002
{
1000
C
1070
     1
1002
}
1001
GENIUS_GENOBJ-N-REC_13
1002
{
1000
OWNER
1000
GEN
1002
}
1001
GENIUS_GENODEF_13
1002
{
1000
HIER
1070
     0
1002
}
1002
{
1000
MANEDIT
1070
     0
1002
}
1002
{
1000
NOSEL
1070
     0
1002
}
1002
{
1000
BEHIND
1070
     0
1002
}
1002
{
1000
OTHER
1070
     0
1002
}
1002
{
1000
REACTOR
1002
}
  0
LINE
  5
6A4
330
1F
100
AcDbEntity
  8
0
100
AcDbLine
 10
277.4500000522968
 20
154.3000002050662
 30
0.0
 11
273.4500000522968
 21
154.3000002050662
 31
0.0
1001
GENIUS_GENREC_14
1002
{
1000
PYDIR
1011
273.4500000522968
1021
150.3000002050662
1031
0.0
1002
}
1002
{
1000
PXDIR
1011
277.4500000522968
1021
154.3000002050662
1031
0.0
1002
}
1002
{
1000
PORI
1011
277.4500000522968
1021
150.3000002050662
1031
0.0
1002
}
1002
{
1000
PINS
1011
277.4500000522968
1021
150.3000002050662
1031
0.0
1002
}
1002
{
1000
HVAL
1000
4
1002
}
1002
{
1000
H
1070
     2
1002
}
1002
{
1000
WVAL
1000
4
1002
}
1002
{
1000
W
1070
     2
1002
}
1002
{
1000
C
1070
     1
1002
}
1001
GENIUS_GENOBJ-N-REC_13
1002
{
1000
OWNER
1000
GEN
1002
}
1001
GENIUS_GENODEF_13
1002
{
1000
HIER
1070
     0
1002
}
1002
{
1000
MANEDIT
1070
     0
1002
}
1002
{
1000
NOSEL
1070
     0
1002
}
1002
{
1000
BEHIND
1070
     0
1002
}
1002
{
1000
OTHER
1070
     0
1002
}
1002
{
1000
REACTOR
1002
}
  0
LINE
  5
6A5
330
1F
100
AcDbEntity
  8
0
100
AcDbLine
 10
273.4500000522968
 20
154.3000002050662
 30
0.0
 11
273.4500000522968
 21
150.3000002050662
 31
0.0
1001
GENIUS_GENREC_14
1002
{
1000
PYDIR
1011
273.4500000522968
1021
150.3000002050662
1031
0.0
1002
}
1002
{
1000
PXDIR
1011
277.4500000522968
1021
154.3000002050662
1031
0.0
1002
}
1002
{
1000
PORI
1011
277.4500000522968
1021
150.3000002050662
1031
0.0
1002
}
1002
{
1000
PINS
1011
277.4500000522968
1021
150.3000002050662
1031
0.0
1002
}
1002
{
1000
HVAL
1000
4
1002
}
1002
{
1000
H
1070
     2
1002
}
1002
{
1000
WVAL
1000
4
1002
}
1002
{
1000
W
1070
     2
1002
}
1002
{
1000
C
1070
     1
1002
}
1001
GENIUS_GENOBJ-N-REC_13
1002
{
1000
OWNER
1000
GEN
1002
}
1001
GENIUS_GENODEF_13
1002
{
1000
HIER
1070
     0
1002
}
1002
{
1000
MANEDIT
1070
     0
1002
}
1002
{
1000
NOSEL
1070
     0
1002
}
1002
{
1000
BEHIND
1070
     0
1002
}
1002
{
1000
OTHER
1070
     0
1002
}
1002
{
1000
REACTOR
1002
}
  0
LINE
  5
6A6
330
1F
100
AcDbEntity
  8
0
100
AcDbLine
 10
273.4500000522968
 20
150.3000002050662
 30
0.0
 11
277.4500000522968
 21
150.3000002050662
 31
0.0
1001
GENIUS_GENREC_14
1002
{
1000
PYDIR
1011
273.4500000522968
1021
150.3000002050662
1031
0.0
1002
}
1002
{
1000
PXDIR
1011
277.4500000522968
1021
154.3000002050662
1031
0.0
1002
}
1002
{
1000
PORI
1011
277.4500000522968
1021
150.3000002050662
1031
0.0
1002
}
1002
{
1000
PINS
1011
277.4500000522968
1021
150.3000002050662
1031
0.0
1002
}
1002
{
1000
HVAL
1000
4
1002
}
1002
{
1000
H
1070
     2
1002
}
1002
{
1000
WVAL
1000
4
1002
}
1002
{
1000
W
1070
     2
1002
}
1002
{
1000
C
1070
     1
1002
}
1001
GENIUS_GENOBJ-N-REC_13
1002
{
1000
OWNER
1000
GEN
1002
}
1001
GENIUS_GENODEF_13
1002
{
1000
HIER
1070
     0
1002
}
1002
{
1000
MANEDIT
1070
     0
1002
}
1002
{
1000
NOSEL
1070
     0
1002
}
1002
{
1000
BEHIND
1070
     0
1002
}
1002
{
1000
OTHER
1070
     0
1002
}
1002
{
1000
REACTOR
1002
}
  0
LINE
  5
9D7
330
1F
100
AcDbEntity
  8
0
100
AcDbLine
 10
13.30000005229607
 20
-20.99999979493386
 30
0.0
 11
13.30000005229624
 21
-18.49999979493386
 31
0.0
  0
LINE
  5
9D8
330
1F
100
AcDbEntity
  8
0
100
AcDbLine
 10
-1.299999947703952
 20
-20.99999979493386
 30
0.0
 11
-1.299999947703952
 21
-18.49999979493386
 31
0.0
  0
LINE
  5
9D9
330
1F
100
AcDbEntity
  8
0
100
AcDbLine
 10
-2.79999994770395
 20
5.500000205066221
 30
0.0
 11
-2.79999994770395
 21
-41.19999979493393
 31
0.0
  0
LINE
  5
9DA
330
1F
100
AcDbEntity
  8
0
100
AcDbLine
 10
14.80000005229624
 20
5.500000205066276
 30
0.0
 11
14.80000005229624
 21
-41.19999979493393
 31
0.0
  0
LINE
  5
9DB
330
1F
100
AcDbEntity
  8
0
100
AcDbLine
 10
-2.79999994770395
 20
-14.49999979493386
 30
0.0
 11
14.80000005229624
 21
-14.49999979493386
 31
0.0
  0
LINE
  5
9DC
330
1F
100
AcDbEntity
  8
0
100
AcDbLine
 10
-2.79999994770395
 20
-16.99999979493386
 30
0.0
 11
14.80000005229624
 21
-16.99999979493386
 31
0.0
  0
LINE
  5
9DD
330
1F
100
AcDbEntity
  8
0
100
AcDbLine
 10
-2.79999994770395
 20
-18.49999979493386
 30
0.0
 11
14.80000005229624
 21
-18.49999979493386
 31
0.0
  0
LINE
  5
9DF
330
1F
100
AcDbEntity
  8
0
100
AcDbLine
 10
-1.299999947703952
 20
-16.99999979493386
 30
0.0
 11
-1.299999947703952
 21
-14.49999979493386
 31
0.0
  0
LINE
  5
9E1
330
1F
100
AcDbEntity
  8
0
100
AcDbLine
 10
13.30000005229624
 20
-16.99999979493386
 30
0.0
 11
13.30000005229624
 21
-14.49999979493386
 31
0.0
  0
ARC
  5
9E2
330
1F
100
AcDbEntity
  8
0
100
AcDbCircle
 10
6.000000052296059
 20
-41.19999979493393
 30
0.0
 40
8.800000000000006
100
AcDbArc
 50
180.0
 51
0.0
  0
LINE
  5
9E3
330
1F
100
AcDbEntity
  8
0
100
AcDbLine
 10
14.80000005229624
 20
-40.99999979493389
 30
0.0
 11
-2.79999994770395
 21
-40.99999979493389
 31
0.0
  0
LINE
  5
9E4
330
1F
100
AcDbEntity
  8
0
100
AcDbLine
 10
-2.79999994770395
 20
-22.49999979493386
 30
0.0
 11
14.80000005229624
 21
-22.49999979493386
 31
0.0
  0
LINE
  5
9E5
330
1F
100
AcDbEntity
  8
0
100
AcDbLine
 10
-2.79999994770395
 20
-20.99999979493386
 30
0.0
 11
14.80000005229624
 21
-20.99999979493386
 31
0.0
  0
LINE
  5
9E6
330
1F
100
AcDbEntity
  8
0
100
AcDbLine
 10
-2.79999994770395
 20
-24.99999979493387
 30
0.0
 11
14.80000005229624
 21
-24.99999979493387
 31
0.0
  0
LINE
  5
9E7
330
1F
100
AcDbEntity
  8
0
100
AcDbLine
 10
-2.79999994770395
 20
-26.49999979493387
 30
0.0
 11
14.80000005229624
 21
-26.49999979493387
 31
0.0
  0
LINE
  5
9E8
330
1F
100
AcDbEntity
  8
0
100
AcDbLine
 10
-2.79999994770395
 20
-30.49999979493389
 30
0.0
 11
14.80000005229624
 21
-30.49999979493389
 31
0.0
  0
LINE
  5
9E9
330
1F
100
AcDbEntity
  8
0
100
AcDbLine
 10
-2.79999994770395
 20
-28.99999979493387
 30
0.0
 11
14.80000005229624
 21
-28.99999979493387
 31
0.0
  0
LINE
  5
9EA
330
1F
100
AcDbEntity
  8
0
100
AcDbLine
 10
-2.79999994770395
 20
-32.99999979493389
 30
0.0
 11
14.80000005229624
 21
-32.99999979493389
 31
0.0
  0
LINE
  5
9EB
330
1F
100
AcDbEntity
  8
0
100
AcDbLine
 10
-2.79999994770395
 20
-34.49999979493389
 30
0.0
 11
14.80000005229624
 21
-34.49999979493389
 31
0.0
  0
LINE
  5
9EC
330
1F
100
AcDbEntity
  8
0
100
AcDbLine
 10
-2.79999994770395
 20
-36.99999979493389
 30
0.0
 11
14.80000005229624
 21
-36.99999979493389
 31
0.0
  0
LINE
  5
9ED
330
1F
100
AcDbEntity
  8
0
100
AcDbLine
 10
-2.79999994770395
 20
-38.49999979493389
 30
0.0
 11
14.80000005229624
 21
-38.49999979493389
 31
0.0
  0
LINE
  5
9EE
330
1F
100
AcDbEntity
  8
0
100
AcDbLine
 10
-1.299999947703952
 20
-32.99999979493389
 30
0.0
 11
-1.299999947703952
 21
-30.49999979493389
 31
0.0
  0
LINE
  5
9EF
330
1F
100
AcDbEntity
  8
0
100
AcDbLine
 10
-1.299999947703952
 20
-24.99999979493387
 30
0.0
 11
-1.299999947703952
 21
-22.49999979493386
 31
0.0
  0
LINE
  5
9F0
330
1F
100
AcDbEntity
  8
0
100
AcDbLine
 10
-1.299999947703952
 20
-28.99999979493387
 30
0.0
 11
-1.299999947703952
 21
-26.49999979493387
 31
0.0
  0
LINE
  5
9F1
330
1F
100
AcDbEntity
  8
0
100
AcDbLine
 10
-1.299999947703952
 20
-36.99999979493389
 30
0.0
 11
-1.299999947703952
 21
-34.49999979493389
 31
0.0
  0
LINE
  5
9F2
330
1F
100
AcDbEntity
  8
0
100
AcDbLine
 10
-1.299999947703952
 20
-40.99999979493389
 30
0.0
 11
-1.299999947703952
 21
-38.49999979493389
 31
0.0
  0
LINE
  5
9F3
330
1F
100
AcDbEntity
  8
0
100
AcDbLine
 10
13.30000005229607
 20
-32.99999979493389
 30
0.0
 11
13.30000005229607
 21
-30.49999979493389
 31
0.0
  0
LINE
  5
9F4
330
1F
100
AcDbEntity
  8
0
100
AcDbLine
 10
13.30000005229607
 20
-24.99999979493387
 30
0.0
 11
13.30000005229607
 21
-22.49999979493386
 31
0.0
  0
LINE
  5
9F5
330
1F
100
AcDbEntity
  8
0
100
AcDbLine
 10
13.30000005229607
 20
-28.99999979493387
 30
0.0
 11
13.30000005229607
 21
-26.49999979493387
 31
0.0
  0
LINE
  5
9F6
330
1F
100
AcDbEntity
  8
0
100
AcDbLine
 10
13.30000005229607
 20
-36.99999979493389
 30
0.0
 11
13.30000005229607
 21
-34.49999979493389
 31
0.0
  0
LINE
  5
9F7
330
1F
100
AcDbEntity
  8
0
100
AcDbLine
 10
13.30000005229607
 20
-40.99999979493389
 30
0.0
 11
13.30000005229607
 21
-38.49999979493389
 31
0.0
  0
CIRCLE
  5
9F8
330
1F
100
AcDbEntity
  8
0
100
AcDbCircle
 10
6.000000052296059
 20
-45.99999979493389
 30
0.0
 40
2.000000000000003
  0
LINE
  5
9F9
330
1F
100
AcDbEntity
  8
0
100
AcDbLine
 10
13.4500000522961
 20
8.500000205066221
 30
0.0
 11
13.4500000522961
 21
6.500000205066276
 31
0.0
1001
GENIUS_GENODEF_13
1002
{
1000
HIER
1070
     0
1002
}
1002
{
1000
MANEDIT
1070
     0
1002
}
1002
{
1000
NOSEL
1070
     0
1002
}
1002
{
1000
BEHIND
1070
     0
1002
}
1002
{
1000
OTHER
1070
     0
1002
}
1002
{
1000
REACTOR
1002
}
1001
GENIUS_GENOBJ-N-CEN_13
1002
{
1000
OWNER
1000
GEN
1002
}
  0
LINE
  5
9FA
330
1F
100
AcDbEntity
  8
0
100
AcDbLine
 10
-1.449999947703983
 20
8.500000205066221
 30
0.0
 11
-1.449999947703983
 21
6.500000205066221
 31
0.0
1001
GENIUS_GENODEF_13
1002
{
1000
HIER
1070
     0
1002
}
1002
{
1000
MANEDIT
1070
     0
1002
}
1002
{
1000
NOSEL
1070
     0
1002
}
1002
{
1000
BEHIND
1070
     0
1002
}
1002
{
1000
OTHER
1070
     0
1002
}
1002
{
1000
REACTOR
1002
}
1001
GENIUS_GENOBJ-N-CEN_13
1002
{
1000
OWNER
1000
GEN
1002
}
  0
LINE
  5
9FB
330
1F
100
AcDbEntity
  8
0
100
AcDbLine
 10
12.9500000522961
 20
9.00000020506622
 30
0.0
 11
-0.9499999477039864
 21
9.00000020506622
 31
0.0
  0
ARC
  5
9FC
330
1F
100
AcDbEntity
  8
0
100
AcDbCircle
 10
-0.9499999477039864
 20
8.500000205066221
 30
0.0
 40
0.5000000000000009
100
AcDbArc
 50
90.0
 51
180.0
1001
GENIUS_GENOBJ-N-FIL_13
1002
{
1000
OWNER
1000
GEN
1002
}
1001
GENIUS_GENODEF_13
1002
{
1000
HIER
1070
     0
1002
}
1002
{
1000
MANEDIT
1070
     0
1002
}
1002
{
1000
NOSEL
1070
     0
1002
}
1002
{
1000
BEHIND
1070
     0
1002
}
1002
{
1000
OTHER
1070
     0
1002
}
1002
{
1000
REACTOR
1002
}
  0
ARC
  5
9FD
330
1F
100
AcDbEntity
  8
0
100
AcDbCircle
 10
12.9500000522961
 20
8.500000205066221
 30
0.0
 40
0.5000000000000009
100
AcDbArc
 50
0.0
 51
90.0
1001
GENIUS_GENOBJ-N-CEN_13
1002
{
1000
OWNER
1000
GEN
1002
}
1001
GENIUS_GENOBJ-N-FIL_13
1002
{
1000
OWNER
1000
GEN
1002
}
1001
GENIUS_GENODEF_13
1002
{
1000
HIER
1070
     0
1002
}
1002
{
1000
MANEDIT
1070
     0
1002
}
1002
{
1000
NOSEL
1070
     0
1002
}
1002
{
1000
BEHIND
1070
     0
1002
}
1002
{
1000
OTHER
1070
     0
1002
}
1002
{
1000
REACTOR
1002
}
  0
LINE
  5
9FE
330
1F
100
AcDbEntity
  8
0
100
AcDbLine
 10
13.80000005229624
 20
6.500000205066276
 30
0.0
 11
-1.799999947703949
 21
6.500000205066221
 31
0.0
  0
LINE
  5
9FF
330
1F
100
AcDbEntity
  8
0
100
AcDbLine
 10
13.80000005229624
 20
-6.499999794933806
 30
0.0
 11
-1.799999947703781
 21
-6.499999794933806
 31
0.0
  0
ARC
  5
A00
330
1F
100
AcDbEntity
  8
0
100
AcDbCircle
 10
-1.799999947703949
 20
5.500000205066221
 30
0.0
 40
1.000000000000001
100
AcDbArc
 50
90.0
 51
180.0
1001
GENIUS_GENODEF_13
1002
{
1000
HIER
1070
     0
1002
}
1002
{
1000
MANEDIT
1070
     0
1002
}
1002
{
1000
NOSEL
1070
     0
1002
}
1002
{
1000
BEHIND
1070
     0
1002
}
1002
{
1000
OTHER
1070
     0
1002
}
1002
{
1000
REACTOR
1002
}
1001
GENIUS_GENOBJ-N-FIL_13
1002
{
1000
OWNER
1000
GEN
1002
}
  0
ARC
  5
A01
330
1F
100
AcDbEntity
  8
0
100
AcDbCircle
 10
-1.799999947703781
 20
-5.499999794933806
 30
0.0
 40
1.000000000000001
100
AcDbArc
 50
180.0
 51
270.0
1001
GENIUS_GENODEF_13
1002
{
1000
HIER
1070
     0
1002
}
1002
{
1000
MANEDIT
1070
     0
1002
}
1002
{
1000
NOSEL
1070
     0
1002
}
1002
{
1000
BEHIND
1070
     0
1002
}
1002
{
1000
OTHER
1070
     0
1002
}
1002
{
1000
REACTOR
1002
}
1001
GENIUS_GENOBJ-N-FIL_13
1002
{
1000
OWNER
1000
GEN
1002
}
  0
ARC
  5
A02
330
1F
100
AcDbEntity
  8
0
100
AcDbCircle
 10
13.80000005229624
 20
5.500000205066276
 30
0.0
 40
1.000000000000001
100
AcDbArc
 50
0.0
 51
90.0
1001
GENIUS_GENOBJ-N-FIL_13
1002
{
1000
OWNER
1000
GEN
1002
}
1001
GENIUS_GENODEF_13
1002
{
1000
HIER
1070
     0
1002
}
1002
{
1000
MANEDIT
1070
     0
1002
}
1002
{
1000
NOSEL
1070
     0
1002
}
1002
{
1000
BEHIND
1070
     0
1002
}
1002
{
1000
OTHER
1070
     0
1002
}
1002
{
1000
REACTOR
1002
}
  0
ARC
  5
A03
330
1F
100
AcDbEntity
  8
0
100
AcDbCircle
 10
13.80000005229624
 20
-5.499999794933806
 30
0.0
 40
1.000000000000001
100
AcDbArc
 50
270.0
 51
0.0
1001
GENIUS_GENOBJ-N-FIL_13
1002
{
1000
OWNER
1000
GEN
1002
}
1001
GENIUS_GENODEF_13
1002
{
1000
HIER
1070
     0
1002
}
1002
{
1000
MANEDIT
1070
     0
1002
}
1002
{
1000
NOSEL
1070
     0
1002
}
1002
{
1000
BEHIND
1070
     0
1002
}
1002
{
1000
OTHER
1070
     0
1002
}
1002
{
1000
REACTOR
1002
}
  0
LINE
  5
A04
330
1F
100
AcDbEntity
  8
0
100
AcDbLine
 10
12.4500000522961
 20
15.48054020132261
 30
0.0
 11
12.4500000522961
 21
9.00000020506622
 31
0.0
  0
LINE
  5
A05
330
1F
100
AcDbEntity
  8
0
100
AcDbLine
 10
-0.4499999477037592
 20
15.48054020132255
 30
0.0
 11
-0.4499999477035887
 21
9.00000020506622
 31
0.0
  0
LINE
  5
A06
330
1F
100
AcDbEntity
  8
0
100
AcDbLine
 10
9.951478962234377
 20
26.30000020506626
 30
0.0
 11
2.048521142357913
 21
26.30000020506626
 31
0.0
  0
LINE
  5
A07
330
1F
100
AcDbEntity
  8
0
100
AcDbLine
 10
1.061861851490107
 20
25.46279898805949
 30
0.0
 11
-0.3165928563827833
 21
17.10852803125456
 31
0.0
  0
LINE
  5
A08
330
1F
100
AcDbEntity
  8
0
100
AcDbLine
 10
10.93813825310224
 20
25.46279898805949
 30
0.0
 11
12.3165929609753
 21
17.10852803125468
 31
0.0
  0
ARC
  5
A09
330
1F
100
AcDbEntity
  8
0
100
AcDbCircle
 10
2.450000052296045
 20
15.48054020132261
 30
0.0
 40
10.00000000000001
100
AcDbArc
 50
0.0
 51
9.369385096487482
1001
GENIUS_GENODEF_13
1002
{
1000
HIER
1070
     0
1002
}
1002
{
1000
MANEDIT
1070
     0
1002
}
1002
{
1000
NOSEL
1070
     0
1002
}
1002
{
1000
BEHIND
1070
     0
1002
}
1002
{
1000
OTHER
1070
     0
1002
}
1002
{
1000
REACTOR
1002
}
1001
GENIUS_GENOBJ-N-FIL_13
1002
{
1000
OWNER
1000
GEN
1002
}
  0
ARC
  5
A0A
330
1F
100
AcDbEntity
  8
0
100
AcDbCircle
 10
9.55000005229624
 20
15.48054020132255
 30
0.0
 40
10.00000000000001
100
AcDbArc
 50
170.6306149035125
 51
180.0
1001
GENIUS_GENOBJ-N-FIL_13
1002
{
1000
OWNER
1000
GEN
1002
}
1001
GENIUS_GENODEF_13
1002
{
1000
HIER
1070
     0
1002
}
1002
{
1000
MANEDIT
1070
     0
1002
}
1002
{
1000
NOSEL
1070
     0
1002
}
1002
{
1000
BEHIND
1070
     0
1002
}
1002
{
1000
OTHER
1070
     0
1002
}
1002
{
1000
REACTOR
1002
}
  0
ARC
  5
A0B
330
1F
100
AcDbEntity
  8
0
100
AcDbCircle
 10
9.951478962234377
 20
25.30000020506625
 30
0.0
 40
1.000000000000001
100
AcDbArc
 50
9.369385096487482
 51
90.0
1001
GENIUS_GENOBJ-N-FIL_13
1002
{
1000
OWNER
1000
GEN
1002
}
1001
GENIUS_GENODEF_13
1002
{
1000
HIER
1070
     0
1002
}
1002
{
1000
MANEDIT
1070
     0
1002
}
1002
{
1000
NOSEL
1070
     0
1002
}
1002
{
1000
BEHIND
1070
     0
1002
}
1002
{
1000
OTHER
1070
     0
1002
}
1002
{
1000
REACTOR
1002
}
  0
ARC
  5
A0C
330
1F
100
AcDbEntity
  8
0
100
AcDbCircle
 10
2.048521142357913
 20
25.30000020506625
 30
0.0
 40
1.000000000000001
100
AcDbArc
 50
90.0
 51
170.6306149035125
1001
GENIUS_GENODEF_13
1002
{
1000
HIER
1070
     0
1002
}
1002
{
1000
MANEDIT
1070
     0
1002
}
1002
{
1000
NOSEL
1070
     0
1002
}
1002
{
1000
BEHIND
1070
     0
1002
}
1002
{
1000
OTHER
1070
     0
1002
}
1002
{
1000
REACTOR
1002
}
1001
GENIUS_GENOBJ-N-FIL_13
1002
{
1000
OWNER
1000
GEN
1002
}
  0
LINE
  5
A1B
330
1F
100
AcDbEntity
  8
0
100
AcDbLine
 10
3.950000052296218
 20
26.30000020506603
 30
0.0
 11
3.950000052295195
 21
67.97142877649514
 31
0.0
  0
LINE
  5
A1C
330
1F
100
AcDbEntity
  8
0
100
AcDbLine
 10
8.05000005229624
 20
26.3000002050662
 30
0.0
 11
8.050000052295445
 21
65.62857163363711
 31
0.0
  0
LINE
  5
A1D
330
1F
100
AcDbEntity
  8
0
100
AcDbLine
 10
8.050000052295445
 20
67.6285716336381
 30
0.0
 11
8.050000052296468
 21
109.3000002050661
 31
0.0
  0
LINE
  5
A1E
330
1F
100
AcDbEntity
  8
0
100
AcDbLine
 10
8.050000052295445
 20
67.6285716336381
 30
0.0
 11
3.950000052296843
 21
69.97142877649441
 31
0.0
  0
LINE
  5
A1F
330
1F
100
AcDbEntity
  8
0
100
AcDbLine
 10
8.050000052296866
 20
65.62857163363722
 30
0.0
 11
3.950000052296843
 21
67.97142877649441
 31
0.0
  0
LINE
  5
A20
330
1F
100
AcDbEntity
  8
0
100
AcDbLine
 10
3.950000052296843
 20
69.97142877649441
 30
0.0
 11
3.950000052297866
 21
109.3000002050661
 31
0.0
  0
LINE
  5
A21
330
1F
100
AcDbEntity
  8
0
100
AcDbLine
 10
13.25603202576542
 20
-43.49999979493399
 30
0.0
 11
-1.256031921173132
 21
-43.49999979493399
 31
0.0
  0
ARC
  5
A22
330
1F
100
AcDbEntity
  8
0
100
AcDbCircle
 10
13.25603202576542
 20
-41.99999979493399
 30
0.0
 40
1.5
100
AcDbArc
 50
270.0
 51
353.70837386061
1001
GENIUS_GENODEF_13
1002
{
1000
HIER
1070
     0
1002
}
1002
{
1000
MANEDIT
1070
     0
1002
}
1002
{
1000
NOSEL
1070
     0
1002
}
1002
{
1000
BEHIND
1070
     0
1002
}
1002
{
1000
OTHER
1070
     0
1002
}
1002
{
1000
REACTOR
1002
}
1001
GENIUS_GENOBJ-N-FIL_13
1002
{
1000
OWNER
1000
GEN
1002
}
  0
ARC
  5
A23
330
1F
100
AcDbEntity
  8
0
100
AcDbCircle
 10
-1.256031921173132
 20
-41.99999979493399
 30
0.0
 40
1.5
100
AcDbArc
 50
186.29162613939
 51
270.0
1001
GENIUS_GENODEF_13
1002
{
1000
HIER
1070
     0
1002
}
1002
{
1000
MANEDIT
1070
     0
1002
}
1002
{
1000
NOSEL
1070
     0
1002
}
1002
{
1000
BEHIND
1070
     0
1002
}
1002
{
1000
OTHER
1070
     0
1002
}
1002
{
1000
REACTOR
1002
}
1001
GENIUS_GENOBJ-N-FIL_13
1002
{
1000
OWNER
1000
GEN
1002
}
  0
LINE
  5
14BD
330
1F
100
AcDbEntity
  8
0
100
AcDbLine
 10
152.6000000522959
 20
5.50000020506605
 30
0.0
 11
152.6000000522959
 21
-5.999999794933946
 31
0.0
  0
LINE
  5
14BE
330
1F
100
AcDbEntity
  8
0
100
AcDbLine
 10
166.600000052296
 20
5.50000020506605
 30
0.0
 11
166.6000000522958
 21
-5.999999794933776
 31
0.0
  0
LINE
  5
14BF
330
1F
100
AcDbEntity
  8
0
100
AcDbLine
 10
154.0000000522959
 20
2.500000205066069
 30
0.0
 11
154.0000000522959
 21
-5.999999794933946
 31
0.0
  0
LINE
  5
14C0
330
1F
100
AcDbEntity
  8
0
100
AcDbLine
 10
165.2000000522957
 20
2.500000205066069
 30
0.0
 11
165.2000000522957
 21
-5.999999794933776
 31
0.0
  0
LINE
  5
14C1
330
1F
100
AcDbEntity
  8
0
100
AcDbLine
 10
154.7500000522959
 20
25.30000020506607
 30
0.0
 11
154.7500000522959
 21
9.000000205066049
 31
0.0
  0
LINE
  5
14C2
330
1F
100
AcDbEntity
  8
0
100
AcDbLine
 10
162.6500000522958
 20
25.30000020506636
 30
0.0
 11
162.6500000522958
 21
9.000000205066049
 31
0.0
  0
LINE
  5
14C3
330
1F
100
AcDbEntity
  8
0
100
AcDbLine
 10
158.7000000522959
 20
9.000000205066049
 30
0.0
 11
158.7000000522959
 21
26.30000020506606
 31
0.0
  0
LINE
  5
14C4
330
1F
100
AcDbEntity
  8
0
100
AcDbLine
 10
155.7500000522959
 20
26.30000020506606
 30
0.0
 11
161.6500000522958
 21
26.30000020506635
 31
0.0
  0
ARC
  5
14C5
330
1F
100
AcDbEntity
  8
0
100
AcDbCircle
 10
155.7500000522959
 20
25.300000205066
 30
0.0
 40
1.0
100
AcDbArc
 50
90.0
 51
180.0
1001
GENIUS_GENOBJ-N-FIL_13
1002
{
1000
OWNER
1000
GEN
1002
}
1001
GENIUS_GENODEF_13
1002
{
1000
HIER
1070
     0
1002
}
1002
{
1000
MANEDIT
1070
     0
1002
}
1002
{
1000
NOSEL
1070
     0
1002
}
1002
{
1000
BEHIND
1070
     0
1002
}
1002
{
1000
OTHER
1070
     0
1002
}
1002
{
1000
REACTOR
1002
}
  0
ARC
  5
14C6
330
1F
100
AcDbEntity
  8
0
100
AcDbCircle
 10
161.6500000522958
 20
25.3000002050663
 30
0.0
 40
1.0
100
AcDbArc
 50
0.0
 51
90.0
1001
GENIUS_GENOBJ-N-FIL_13
1002
{
1000
OWNER
1000
GEN
1002
}
1001
GENIUS_GENODEF_13
1002
{
1000
HIER
1070
     0
1002
}
1002
{
1000
MANEDIT
1070
     0
1002
}
1002
{
1000
NOSEL
1070
     0
1002
}
1002
{
1000
BEHIND
1070
     0
1002
}
1002
{
1000
OTHER
1070
     0
1002
}
1002
{
1000
REACTOR
1002
}
  0
LINE
  5
14C7
330
1F
100
AcDbEntity
  8
0
100
AcDbLine
 10
154.7500000522959
 20
9.00000020506622
 30
0.0
 11
162.6500000522958
 21
9.000000205066049
 31
0.0
  0
LINE
  5
14C8
330
1F
100
AcDbEntity
  8
0
100
AcDbLine
 10
153.6000000522959
 20
6.50000020506605
 30
0.0
 11
165.600000052296
 21
6.50000020506605
 31
0.0
  0
LINE
  5
14C9
330
1F
100
AcDbEntity
  8
0
100
AcDbLine
 10
154.0000000522959
 20
2.500000205066069
 30
0.0
 11
165.2000000522957
 21
2.500000205066069
 31
0.0
  0
ARC
  5
14CA
330
1F
100
AcDbEntity
  8
0
100
AcDbCircle
 10
153.6000000522959
 20
5.500000205066179
 30
0.0
 40
1.0
100
AcDbArc
 50
90.0
 51
180.0
1001
GENIUS_GENOBJ-N-FIL_13
1002
{
1000
OWNER
1000
GEN
1002
}
1001
GENIUS_GENODEF_13
1002
{
1000
HIER
1070
     0
1002
}
1002
{
1000
MANEDIT
1070
     0
1002
}
1002
{
1000
NOSEL
1070
     0
1002
}
1002
{
1000
BEHIND
1070
     0
1002
}
1002
{
1000
OTHER
1070
     0
1002
}
1002
{
1000
REACTOR
1002
}
  0
ARC
  5
14CB
330
1F
100
AcDbEntity
  8
0
100
AcDbCircle
 10
154.7500000522959
 20
8.000000205066335
 30
0.0
 40
1.0
100
AcDbArc
 50
90.0
 51
180.0
1001
GENIUS_GENODEF_13
1002
{
1000
HIER
1070
     0
1002
}
1002
{
1000
MANEDIT
1070
     0
1002
}
1002
{
1000
NOSEL
1070
     0
1002
}
1002
{
1000
BEHIND
1070
     0
1002
}
1002
{
1000
OTHER
1070
     0
1002
}
1002
{
1000
REACTOR
1002
}
1001
GENIUS_GENOBJ-N-FIL_13
1002
{
1000
OWNER
1000
GEN
1002
}
  0
LINE
  5
14CC
330
1F
100
AcDbEntity
  8
0
100
AcDbLine
 10
153.7500000522959
 20
8.000000205066049
 30
0.0
 11
153.7500000522959
 21
6.50000020506605
 31
0.0
  0
ARC
  5
14CD
330
1F
100
AcDbEntity
  8
0
100
AcDbCircle
 10
162.6500000522958
 20
8.000000205065994
 30
0.0
 40
1.0
100
AcDbArc
 50
0.0
 51
90.0
1001
GENIUS_GENODEF_13
1002
{
1000
HIER
1070
     0
1002
}
1002
{
1000
MANEDIT
1070
     0
1002
}
1002
{
1000
NOSEL
1070
     0
1002
}
1002
{
1000
BEHIND
1070
     0
1002
}
1002
{
1000
OTHER
1070
     0
1002
}
1002
{
1000
REACTOR
1002
}
1001
GENIUS_GENOBJ-N-FIL_13
1002
{
1000
OWNER
1000
GEN
1002
}
  0
ARC
  5
14CE
330
1F
100
AcDbEntity
  8
0
100
AcDbCircle
 10
165.6000000522958
 20
5.500000205065994
 30
0.0
 40
1.0
100
AcDbArc
 50
0.0
 51
90.0
1001
GENIUS_GENODEF_13
1002
{
1000
HIER
1070
     0
1002
}
1002
{
1000
MANEDIT
1070
     0
1002
}
1002
{
1000
NOSEL
1070
     0
1002
}
1002
{
1000
BEHIND
1070
     0
1002
}
1002
{
1000
OTHER
1070
     0
1002
}
1002
{
1000
REACTOR
1002
}
1001
GENIUS_GENOBJ-N-FIL_13
1002
{
1000
OWNER
1000
GEN
1002
}
  0
LINE
  5
14CF
330
1F
100
AcDbEntity
  8
0
100
AcDbLine
 10
163.6500000522958
 20
8.000000205066049
 30
0.0
 11
163.6500000522958
 21
6.50000020506605
 31
0.0
  0
ARC
  5
14D0
330
1F
100
AcDbEntity
  8
0
100
AcDbCircle
 10
153.100000052296
 20
-5.999999794933817
 30
0.0
 40
0.5
100
AcDbArc
 50
180.0
 51
270.0
1001
GENIUS_GENOBJ-N-FIL_13
1002
{
1000
OWNER
1000
GEN
1002
}
1001
GENIUS_GENODEF_13
1002
{
1000
HIER
1070
     0
1002
}
1002
{
1000
MANEDIT
1070
     0
1002
}
1002
{
1000
NOSEL
1070
     0
1002
}
1002
{
1000
BEHIND
1070
     0
1002
}
1002
{
1000
OTHER
1070
     0
1002
}
1002
{
1000
REACTOR
1002
}
  0
LINE
  5
14D1
330
1F
100
AcDbEntity
  8
0
100
AcDbLine
 10
153.100000052296
 20
-6.499999794933946
 30
0.0
 11
153.5000000522959
 21
-6.499999794933946
 31
0.0
  0
ARC
  5
14D2
330
1F
100
AcDbEntity
  8
0
100
AcDbCircle
 10
153.5000000522958
 20
-5.999999794933817
 30
0.0
 40
0.5
100
AcDbArc
 50
270.0
 51
0.0
1001
GENIUS_GENODEF_13
1002
{
1000
HIER
1070
     0
1002
}
1002
{
1000
MANEDIT
1070
     0
1002
}
1002
{
1000
NOSEL
1070
     0
1002
}
1002
{
1000
BEHIND
1070
     0
1002
}
1002
{
1000
OTHER
1070
     0
1002
}
1002
{
1000
REACTOR
1002
}
1001
GENIUS_GENOBJ-N-FIL_13
1002
{
1000
OWNER
1000
GEN
1002
}
  0
ARC
  5
14D3
330
1F
100
AcDbEntity
  8
0
100
AcDbCircle
 10
166.1000000522958
 20
-5.999999794933662
 30
0.0
 40
0.5
100
AcDbArc
 50
270.0
 51
0.0
1001
GENIUS_GENOBJ-N-FIL_13
1002
{
1000
OWNER
1000
GEN
1002
}
1001
GENIUS_GENODEF_13
1002
{
1000
HIER
1070
     0
1002
}
1002
{
1000
MANEDIT
1070
     0
1002
}
1002
{
1000
NOSEL
1070
     0
1002
}
1002
{
1000
BEHIND
1070
     0
1002
}
1002
{
1000
OTHER
1070
     0
1002
}
1002
{
1000
REACTOR
1002
}
  0
LINE
  5
14D4
330
1F
100
AcDbEntity
  8
0
100
AcDbLine
 10
165.7000000522956
 20
-6.499999794933776
 30
0.0
 11
166.1000000522957
 21
-6.499999794933776
 31
0.0
  0
ARC
  5
14D5
330
1F
100
AcDbEntity
  8
0
100
AcDbCircle
 10
165.7000000522956
 20
-5.999999794933662
 30
0.0
 40
0.5
100
AcDbArc
 50
180.0
 51
270.0
1001
GENIUS_GENOBJ-N-FIL_13
1002
{
1000
OWNER
1000
GEN
1002
}
1001
GENIUS_GENODEF_13
1002
{
1000
HIER
1070
     0
1002
}
1002
{
1000
MANEDIT
1070
     0
1002
}
1002
{
1000
NOSEL
1070
     0
1002
}
1002
{
1000
BEHIND
1070
     0
1002
}
1002
{
1000
OTHER
1070
     0
1002
}
1002
{
1000
REACTOR
1002
}
  0
LINE
  5
14D6
330
1F
100
AcDbEntity
  8
0
100
AcDbLine
 10
163.600000052296
 20
-28.99999979493395
 30
0.0
 11
163.600000052296
 21
-26.49999979493395
 31
0.0
  0
LINE
  5
14D7
330
1F
100
AcDbEntity
  8
0
100
AcDbLine
 10
159.6000000522958
 20
2.500000205066069
 30
0.0
 11
159.6000000522959
 21
-43.49999979493394
 31
0.0
  0
LINE
  5
14D8
330
1F
100
AcDbEntity
  8
0
100
AcDbLine
 10
163.600000052296
 20
-43.4999997949336
 30
0.0
 11
159.6000000522959
 21
-43.49999979493394
 31
0.0
  0
LINE
  5
14D9
330
1F
100
AcDbEntity
  8
0
100
AcDbLine
 10
163.600000052296
 20
-36.99999979493394
 30
0.0
 11
163.600000052296
 21
-34.49999979493378
 31
0.0
  0
LINE
  5
14DA
330
1F
100
AcDbEntity
  8
0
100
AcDbLine
 10
163.600000052296
 20
-40.99999979493394
 30
0.0
 11
163.600000052296
 21
-38.49999979493377
 31
0.0
  0
LINE
  5
14DB
330
1F
100
AcDbEntity
  8
0
100
AcDbLine
 10
165.1000000522959
 20
-40.99999979493394
 30
0.0
 11
163.600000052296
 21
-40.99999979493394
 31
0.0
  0
LINE
  5
14DC
330
1F
100
AcDbEntity
  8
0
100
AcDbLine
 10
165.1000000522959
 20
-38.49999979493377
 30
0.0
 11
163.600000052296
 21
-38.49999979493377
 31
0.0
  0
LINE
  5
14DD
330
1F
100
AcDbEntity
  8
0
100
AcDbLine
 10
165.1000000522959
 20
-36.99999979493394
 30
0.0
 11
163.600000052296
 21
-36.99999979493394
 31
0.0
  0
LINE
  5
14DE
330
1F
100
AcDbEntity
  8
0
100
AcDbLine
 10
165.1000000522959
 20
-36.99999979493394
 30
0.0
 11
165.1000000522959
 21
-38.49999979493377
 31
0.0
  0
LINE
  5
14DF
330
1F
100
AcDbEntity
  8
0
100
AcDbLine
 10
165.1000000522959
 20
-48.49999979493378
 30
0.0
 11
165.1000000522959
 21
-40.99999979493394
 31
0.0
  0
LINE
  5
14E0
330
1F
100
AcDbEntity
  8
0
100
AcDbLine
 10
165.1000000522959
 20
-34.49999979493378
 30
0.0
 11
163.600000052296
 21
-34.49999979493378
 31
0.0
  0
LINE
  5
14E1
330
1F
100
AcDbEntity
  8
0
100
AcDbLine
 10
165.1000000522959
 20
-32.99999979493394
 30
0.0
 11
163.600000052296
 21
-32.99999979493394
 31
0.0
  0
LINE
  5
14E2
330
1F
100
AcDbEntity
  8
0
100
AcDbLine
 10
165.1000000522959
 20
-28.99999979493395
 30
0.0
 11
165.1000000522959
 21
-30.49999979493377
 31
0.0
  0
LINE
  5
14E3
330
1F
100
AcDbEntity
  8
0
100
AcDbLine
 10
165.1000000522959
 20
-30.49999979493377
 30
0.0
 11
163.600000052296
 21
-30.49999979493377
 31
0.0
  0
LINE
  5
14E4
330
1F
100
AcDbEntity
  8
0
100
AcDbLine
 10
165.1000000522959
 20
-28.99999979493395
 30
0.0
 11
163.600000052296
 21
-28.99999979493395
 31
0.0
  0
LINE
  5
14E5
330
1F
100
AcDbEntity
  8
0
100
AcDbLine
 10
163.600000052296
 20
-32.99999979493394
 30
0.0
 11
163.600000052296
 21
-30.49999979493377
 31
0.0
  0
LINE
  5
14E6
330
1F
100
AcDbEntity
  8
0
100
AcDbLine
 10
165.1000000522959
 20
-32.99999979493394
 30
0.0
 11
165.1000000522959
 21
-34.49999979493378
 31
0.0
  0
LINE
  5
14E7
330
1F
100
AcDbEntity
  8
0
100
AcDbLine
 10
163.600000052296
 20
-20.99999979493393
 30
0.0
 11
163.600000052296
 21
-18.49999979493394
 31
0.0
  0
LINE
  5
14E8
330
1F
100
AcDbEntity
  8
0
100
AcDbLine
 10
165.1000000522959
 20
-26.49999979493395
 30
0.0
 11
163.600000052296
 21
-26.49999979493395
 31
0.0
  0
LINE
  5
14E9
330
1F
100
AcDbEntity
  8
0
100
AcDbLine
 10
165.1000000522959
 20
-24.99999979493395
 30
0.0
 11
163.600000052296
 21
-24.99999979493395
 31
0.0
  0
LINE
  5
14EA
330
1F
100
AcDbEntity
  8
0
100
AcDbLine
 10
165.1000000522959
 20
-24.99999979493395
 30
0.0
 11
165.1000000522959
 21
-26.49999979493395
 31
0.0
  0
LINE
  5
14EB
330
1F
100
AcDbEntity
  8
0
100
AcDbLine
 10
165.1000000522959
 20
-22.49999979493393
 30
0.0
 11
163.600000052296
 21
-22.49999979493393
 31
0.0
  0
LINE
  5
14EC
330
1F
100
AcDbEntity
  8
0
100
AcDbLine
 10
165.1000000522959
 20
-20.99999979493393
 30
0.0
 11
163.600000052296
 21
-20.99999979493393
 31
0.0
  0
LINE
  5
14ED
330
1F
100
AcDbEntity
  8
0
100
AcDbLine
 10
165.1000000522959
 20
-20.99999979493393
 30
0.0
 11
165.1000000522959
 21
-22.49999979493393
 31
0.0
  0
LINE
  5
14EE
330
1F
100
AcDbEntity
  8
0
100
AcDbLine
 10
163.600000052296
 20
-24.99999979493395
 30
0.0
 11
163.600000052296
 21
-22.49999979493393
 31
0.0
  0
LINE
  5
14EF
330
1F
100
AcDbEntity
  8
0
100
AcDbLine
 10
165.1000000522959
 20
-18.49999979493394
 30
0.0
 11
163.600000052296
 21
-18.49999979493394
 31
0.0
  0
LINE
  5
14F0
330
1F
100
AcDbEntity
  8
0
100
AcDbLine
 10
165.1000000522959
 20
-16.99999979493394
 30
0.0
 11
163.600000052296
 21
-16.99999979493394
 31
0.0
  0
LINE
  5
14F1
330
1F
100
AcDbEntity
  8
0
100
AcDbLine
 10
165.1000000522959
 20
-16.99999979493394
 30
0.0
 11
165.1000000522959
 21
-18.49999979493394
 31
0.0
  0
LINE
  5
14F2
330
1F
100
AcDbEntity
  8
0
100
AcDbLine
 10
165.1000000522959
 20
-14.49999979493395
 30
0.0
 11
163.600000052296
 21
-14.49999979493395
 31
0.0
  0
LINE
  5
14F3
330
1F
100
AcDbEntity
  8
0
100
AcDbLine
 10
165.1000000522958
 20
2.000000205066049
 30
0.0
 11
165.1000000522959
 21
-14.49999979493395
 31
0.0
  0
LINE
  5
14F4
330
1F
100
AcDbEntity
  8
0
100
AcDbLine
 10
163.600000052296
 20
-16.99999979493394
 30
0.0
 11
163.600000052296
 21
-14.49999979493395
 31
0.0
  0
LINE
  5
14F5
330
1F
100
AcDbEntity
  8
0
100
AcDbLine
 10
164.6000000522958
 20
2.500000205066069
 30
0.0
 11
159.6000000522958
 21
2.500000205066069
 31
0.0
  0
ARC
  5
14F6
330
1F
100
AcDbEntity
  8
0
100
AcDbCircle
 10
164.6000000522958
 20
2.000000205065994
 30
0.0
 40
0.5
100
AcDbArc
 50
0.0
 51
90.0
1001
GENIUS_GENOBJ-N-FIL_13
1002
{
1000
OWNER
1000
GEN
1002
}
1001
GENIUS_GENODEF_13
1002
{
1000
HIER
1070
     0
1002
}
1002
{
1000
MANEDIT
1070
     0
1002
}
1002
{
1000
NOSEL
1070
     0
1002
}
1002
{
1000
BEHIND
1070
     0
1002
}
1002
{
1000
OTHER
1070
     0
1002
}
1002
{
1000
REACTOR
1002
}
  0
ARC
  5
14F7
330
1F
100
AcDbEntity
  8
0
100
AcDbCircle
 10
163.6000000522958
 20
-48.49999979493384
 30
0.0
 40
1.5
100
AcDbArc
 50
270.0
 51
0.0
1001
GENIUS_GENODEF_13
1002
{
1000
HIER
1070
     0
1002
}
1002
{
1000
MANEDIT
1070
     0
1002
}
1002
{
1000
NOSEL
1070
     0
1002
}
1002
{
1000
BEHIND
1070
     0
1002
}
1002
{
1000
OTHER
1070
     0
1002
}
1002
{
1000
REACTOR
1002
}
1001
GENIUS_GENOBJ-N-FIL_13
1002
{
1000
OWNER
1000
GEN
1002
}
  0
LINE
  5
14F8
330
1F
100
AcDbEntity
  8
0
100
AcDbLine
 10
163.6000000522961
 20
-49.99999979493377
 30
0.0
 11
163.600000052296
 21
-43.4999997949336
 31
0.0
  0
LINE
  5
14F9
330
1F
100
AcDbEntity
  8
0
100
AcDbLine
 10
165.2000000522957
 20
-3.299999794933611
 30
0.0
 11
165.1000000522958
 21
-3.299999794933611
 31
0.0
  0
LINE
  5
14FA
330
1F
100
AcDbEntity
  8
0
100
AcDbLine
 10
165.1000000522958
 20
-0.7999997949337825
 30
0.0
 11
165.2000000522957
 21
-0.9249997949336119
 31
0.0
  0
LINE
  5
14FB
330
1F
100
AcDbEntity
  8
0
100
AcDbLine
 10
155.6000000522958
 20
-28.99999979493395
 30
0.0
 11
155.6000000522958
 21
-26.49999979493395
 31
0.0
  0
ARC
  5
14FC
330
1F
100
AcDbEntity
  8
0
100
AcDbCircle
 10
155.6000000522958
 20
-41.99999979493367
 30
0.0
 40
1.5
100
AcDbArc
 50
180.0
 51
270.0
1001
GENIUS_GENODEF_13
1002
{
1000
HIER
1070
     0
1002
}
1002
{
1000
MANEDIT
1070
     0
1002
}
1002
{
1000
NOSEL
1070
     0
1002
}
1002
{
1000
BEHIND
1070
     0
1002
}
1002
{
1000
OTHER
1070
     0
1002
}
1002
{
1000
REACTOR
1002
}
1001
GENIUS_GENOBJ-N-FIL_13
1002
{
1000
OWNER
1000
GEN
1002
}
  0
LINE
  5
14FD
330
1F
100
AcDbEntity
  8
0
100
AcDbLine
 10
155.6000000522958
 20
-43.49999979493394
 30
0.0
 11
159.6000000522958
 21
-43.49999979493394
 31
0.0
  0
LINE
  5
14FE
330
1F
100
AcDbEntity
  8
0
100
AcDbLine
 10
155.6000000522958
 20
-36.99999979493394
 30
0.0
 11
155.6000000522958
 21
-34.49999979493394
 31
0.0
  0
LINE
  5
14FF
330
1F
100
AcDbEntity
  8
0
100
AcDbLine
 10
155.6000000522958
 20
-40.99999979493394
 30
0.0
 11
155.6000000522958
 21
-38.49999979493394
 31
0.0
  0
LINE
  5
1500
330
1F
100
AcDbEntity
  8
0
100
AcDbLine
 10
154.1000000522958
 20
-40.99999979493394
 30
0.0
 11
155.6000000522958
 21
-40.99999979493394
 31
0.0
  0
LINE
  5
1501
330
1F
100
AcDbEntity
  8
0
100
AcDbLine
 10
154.1000000522958
 20
-38.49999979493394
 30
0.0
 11
155.6000000522958
 21
-38.49999979493394
 31
0.0
  0
LINE
  5
1502
330
1F
100
AcDbEntity
  8
0
100
AcDbLine
 10
154.1000000522958
 20
-36.99999979493394
 30
0.0
 11
155.6000000522958
 21
-36.99999979493394
 31
0.0
  0
LINE
  5
1503
330
1F
100
AcDbEntity
  8
0
100
AcDbLine
 10
154.1000000522958
 20
-36.99999979493394
 30
0.0
 11
154.1000000522958
 21
-38.49999979493394
 31
0.0
  0
LINE
  5
1504
330
1F
100
AcDbEntity
  8
0
100
AcDbLine
 10
154.1000000522958
 20
-41.99999979493393
 30
0.0
 11
154.1000000522958
 21
-40.99999979493394
 31
0.0
  0
LINE
  5
1505
330
1F
100
AcDbEntity
  8
0
100
AcDbLine
 10
154.1000000522958
 20
-34.49999979493394
 30
0.0
 11
155.6000000522958
 21
-34.49999979493394
 31
0.0
  0
LINE
  5
1506
330
1F
100
AcDbEntity
  8
0
100
AcDbLine
 10
154.1000000522958
 20
-32.99999979493394
 30
0.0
 11
155.6000000522958
 21
-32.99999979493394
 31
0.0
  0
LINE
  5
1507
330
1F
100
AcDbEntity
  8
0
100
AcDbLine
 10
154.1000000522958
 20
-28.99999979493395
 30
0.0
 11
154.1000000522958
 21
-30.49999979493394
 31
0.0
  0
LINE
  5
1508
330
1F
100
AcDbEntity
  8
0
100
AcDbLine
 10
154.1000000522958
 20
-30.49999979493394
 30
0.0
 11
155.6000000522958
 21
-30.49999979493394
 31
0.0
  0
LINE
  5
1509
330
1F
100
AcDbEntity
  8
0
100
AcDbLine
 10
154.1000000522958
 20
-28.99999979493395
 30
0.0
 11
155.6000000522958
 21
-28.99999979493395
 31
0.0
  0
LINE
  5
150A
330
1F
100
AcDbEntity
  8
0
100
AcDbLine
 10
155.6000000522958
 20
-32.99999979493394
 30
0.0
 11
155.6000000522958
 21
-30.49999979493394
 31
0.0
  0
LINE
  5
150B
330
1F
100
AcDbEntity
  8
0
100
AcDbLine
 10
154.1000000522958
 20
-32.99999979493394
 30
0.0
 11
154.1000000522958
 21
-34.49999979493394
 31
0.0
  0
LINE
  5
150C
330
1F
100
AcDbEntity
  8
0
100
AcDbLine
 10
157.1000000522958
 20
-12.99999979493395
 30
0.0
 11
157.1000000522958
 21
-10.49999979493395
 31
0.0
  0
LINE
  5
150D
330
1F
100
AcDbEntity
  8
0
100
AcDbLine
 10
155.6000000522958
 20
-20.99999979493393
 30
0.0
 11
155.6000000522958
 21
-18.49999979493394
 31
0.0
  0
LINE
  5
150E
330
1F
100
AcDbEntity
  8
0
100
AcDbLine
 10
154.1000000522958
 20
-26.49999979493395
 30
0.0
 11
155.6000000522958
 21
-26.49999979493395
 31
0.0
  0
LINE
  5
150F
330
1F
100
AcDbEntity
  8
0
100
AcDbLine
 10
154.1000000522958
 20
-24.99999979493395
 30
0.0
 11
155.6000000522958
 21
-24.99999979493395
 31
0.0
  0
LINE
  5
1510
330
1F
100
AcDbEntity
  8
0
100
AcDbLine
 10
154.1000000522958
 20
-24.99999979493395
 30
0.0
 11
154.1000000522958
 21
-26.49999979493395
 31
0.0
  0
LINE
  5
1511
330
1F
100
AcDbEntity
  8
0
100
AcDbLine
 10
154.1000000522958
 20
-22.49999979493393
 30
0.0
 11
155.6000000522958
 21
-22.49999979493393
 31
0.0
  0
LINE
  5
1512
330
1F
100
AcDbEntity
  8
0
100
AcDbLine
 10
154.1000000522958
 20
-20.99999979493393
 30
0.0
 11
155.6000000522958
 21
-20.99999979493393
 31
0.0
  0
LINE
  5
1513
330
1F
100
AcDbEntity
  8
0
100
AcDbLine
 10
154.1000000522958
 20
-20.99999979493393
 30
0.0
 11
154.1000000522958
 21
-22.49999979493393
 31
0.0
  0
LINE
  5
1514
330
1F
100
AcDbEntity
  8
0
100
AcDbLine
 10
155.6000000522958
 20
-24.99999979493395
 30
0.0
 11
155.6000000522958
 21
-22.49999979493393
 31
0.0
  0
LINE
  5
1515
330
1F
100
AcDbEntity
  8
0
100
AcDbLine
 10
154.1000000522958
 20
-18.49999979493394
 30
0.0
 11
155.6000000522958
 21
-18.49999979493394
 31
0.0
  0
LINE
  5
1516
330
1F
100
AcDbEntity
  8
0
100
AcDbLine
 10
154.1000000522958
 20
-16.99999979493394
 30
0.0
 11
155.6000000522958
 21
-16.99999979493394
 31
0.0
  0
LINE
  5
1517
330
1F
100
AcDbEntity
  8
0
100
AcDbLine
 10
154.1000000522958
 20
-16.99999979493394
 30
0.0
 11
154.1000000522958
 21
-18.49999979493394
 31
0.0
  0
LINE
  5
1518
330
1F
100
AcDbEntity
  8
0
100
AcDbLine
 10
154.1000000522958
 20
-14.49999979493395
 30
0.0
 11
155.6000000522958
 21
-14.49999979493395
 31
0.0
  0
LINE
  5
1519
330
1F
100
AcDbEntity
  8
0
100
AcDbLine
 10
154.1000000522958
 20
-12.99999979493395
 30
0.0
 11
157.1000000522958
 21
-12.99999979493395
 31
0.0
  0
LINE
  5
151A
330
1F
100
AcDbEntity
  8
0
100
AcDbLine
 10
154.1000000522958
 20
-12.99999979493395
 30
0.0
 11
154.1000000522958
 21
-14.49999979493395
 31
0.0
  0
LINE
  5
151B
330
1F
100
AcDbEntity
  8
0
100
AcDbLine
 10
155.6000000522958
 20
-16.99999979493394
 30
0.0
 11
155.6000000522958
 21
-14.49999979493395
 31
0.0
  0
LINE
  5
151C
330
1F
100
AcDbEntity
  8
0
100
AcDbLine
 10
154.6000000522958
 20
2.500000205066069
 30
0.0
 11
159.6000000522958
 21
2.500000205066069
 31
0.0
  0
LINE
  5
151D
330
1F
100
AcDbEntity
  8
0
100
AcDbLine
 10
154.1000000522958
 20
2.000000205066049
 30
0.0
 11
154.1000000522958
 21
-10.49999979493395
 31
0.0
  0
LINE
  5
151E
330
1F
100
AcDbEntity
  8
0
100
AcDbLine
 10
154.1000000522958
 20
-10.49999979493395
 30
0.0
 11
157.1000000522958
 21
-10.49999979493395
 31
0.0
  0
ARC
  5
151F
330
1F
100
AcDbEntity
  8
0
100
AcDbCircle
 10
154.6000000522958
 20
2.000000205065994
 30
0.0
 40
0.5
100
AcDbArc
 50
90.0
 51
180.0
1001
GENIUS_GENOBJ-N-FIL_13
1002
{
1000
OWNER
1000
GEN
1002
}
1001
GENIUS_GENODEF_13
1002
{
1000
HIER
1070
     0
1002
}
1002
{
1000
MANEDIT
1070
     0
1002
}
1002
{
1000
NOSEL
1070
     0
1002
}
1002
{
1000
BEHIND
1070
     0
1002
}
1002
{
1000
OTHER
1070
     0
1002
}
1002
{
1000
REACTOR
1002
}
  0
LINE
  5
1520
330
1F
100
AcDbEntity
  8
0
100
AcDbLine
 10
159.6000000522958
 20
-10.49999979493376
 30
0.0
 11
159.6000000522958
 21
-33.99999979493376
 31
0.0
  0
LINE
  5
1521
330
1F
100
AcDbEntity
  8
0
100
AcDbLine
 10
159.1000000522959
 20
-7.499999794933946
 30
0.0
 11
159.6000000522958
 21
-7.499999794933946
 31
0.0
  0
LINE
  5
1522
330
1F
100
AcDbEntity
  8
0
100
AcDbLine
 10
159.1000000522959
 20
-10.49999979493395
 30
0.0
 11
159.6000000522958
 21
-10.49999979493395
 31
0.0
  0
LINE
  5
1523
330
1F
100
AcDbEntity
  8
0
100
AcDbLine
 10
159.1000000522958
 20
-7.499999794933946
 30
0.0
 11
159.1000000522958
 21
-10.49999979493395
 31
0.0
  0
LINE
  5
1524
330
1F
100
AcDbEntity
  8
0
100
AcDbLine
 10
159.1000000522958
 20
-36.99999979493394
 30
0.0
 11
159.6000000522958
 21
-36.99999979493394
 31
0.0
  0
LINE
  5
1525
330
1F
100
AcDbEntity
  8
0
100
AcDbLine
 10
159.1000000522958
 20
-33.99999979493376
 30
0.0
 11
159.6000000522958
 21
-33.99999979493376
 31
0.0
  0
LINE
  5
1526
330
1F
100
AcDbEntity
  8
0
100
AcDbLine
 10
159.1000000522958
 20
-33.99999979493376
 30
0.0
 11
159.1000000522958
 21
-36.99999979493394
 31
0.0
  0
LINE
  5
1527
330
1F
100
AcDbEntity
  8
0
100
AcDbLine
 10
321.7000000522959
 20
-20.99999979493377
 30
0.0
 11
321.7000000522959
 21
-18.49999979493376
 31
0.0
  0
LINE
  5
1528
330
1F
100
AcDbEntity
  8
0
100
AcDbLine
 10
307.1000000522959
 20
-20.99999979493377
 30
0.0
 11
307.1000000522959
 21
-18.49999979493376
 31
0.0
  0
LINE
  5
1529
330
1F
100
AcDbEntity
  8
0
100
AcDbLine
 10
305.6000000522959
 20
5.500000205066243
 30
0.0
 11
305.6000000522959
 21
-41.19999979493392
 31
0.0
  0
LINE
  5
152A
330
1F
100
AcDbEntity
  8
0
100
AcDbLine
 10
323.2000000522959
 20
5.500000205066243
 30
0.0
 11
323.2000000522959
 21
-41.19999979493392
 31
0.0
  0
LINE
  5
152B
330
1F
100
AcDbEntity
  8
0
100
AcDbLine
 10
305.6000000522959
 20
-14.49999979493376
 30
0.0
 11
323.2000000522959
 21
-14.49999979493376
 31
0.0
  0
LINE
  5
152C
330
1F
100
AcDbEntity
  8
0
100
AcDbLine
 10
305.6000000522959
 20
-16.99999979493376
 30
0.0
 11
323.2000000522959
 21
-16.99999979493376
 31
0.0
  0
LINE
  5
152D
330
1F
100
AcDbEntity
  8
0
100
AcDbLine
 10
305.6000000522959
 20
-18.49999979493376
 30
0.0
 11
323.2000000522959
 21
-18.49999979493376
 31
0.0
  0
LINE
  5
152E
330
1F
100
AcDbEntity
  8
0
100
AcDbLine
 10
310.1000000522958
 20
-0.7999997949337825
 30
0.0
 11
310.1000000522958
 21
-3.299999794933781
 31
0.0
1001
GENIUS_GENOBJ-N-CEN_13
1002
{
1000
OWNER
1000
GEN
1002
}
1001
GENIUS_GENODEF_13
1002
{
1000
HIER
1070
     0
1002
}
1002
{
1000
MANEDIT
1070
     0
1002
}
1002
{
1000
NOSEL
1070
     0
1002
}
1002
{
1000
BEHIND
1070
     0
1002
}
1002
{
1000
OTHER
1070
     0
1002
}
1002
{
1000
REACTOR
1002
}
  0
LINE
  5
152F
330
1F
100
AcDbEntity
  8
0
100
AcDbLine
 10
312.7000000522959
 20
-0.7999997949337825
 30
0.0
 11
312.7000000522959
 21
-3.299999794933781
 31
0.0
1001
GENIUS_GENOBJ-N-CEN_13
1002
{
1000
OWNER
1000
GEN
1002
}
1001
GENIUS_GENODEF_13
1002
{
1000
HIER
1070
     0
1002
}
1002
{
1000
MANEDIT
1070
     0
1002
}
1002
{
1000
NOSEL
1070
     0
1002
}
1002
{
1000
BEHIND
1070
     0
1002
}
1002
{
1000
OTHER
1070
     0
1002
}
1002
{
1000
REACTOR
1002
}
  0
LINE
  5
1530
330
1F
100
AcDbEntity
  8
0
100
AcDbLine
 10
310.1000000522958
 20
-0.7999997949337825
 30
0.0
 11
312.7000000522959
 21
-0.7999997949337825
 31
0.0
  0
LINE
  5
1531
330
1F
100
AcDbEntity
  8
0
100
AcDbLine
 10
310.1000000522958
 20
-1.799999794933953
 30
0.0
 11
312.7000000522959
 21
-1.799999794933779
 31
0.0
  0
LINE
  5
1532
330
1F
100
AcDbEntity
  8
0
100
AcDbLine
 10
310.1000000522958
 20
-3.299999794933781
 30
0.0
 11
312.7000000522959
 21
-3.299999794933781
 31
0.0
  0
LINE
  5
1533
330
1F
100
AcDbEntity
  8
0
100
AcDbLine
 10
307.1000000522959
 20
-16.99999979493376
 30
0.0
 11
307.1000000522959
 21
-14.49999979493376
 31
0.0
  0
LINE
  5
1534
330
1F
100
AcDbEntity
  8
0
100
AcDbLine
 10
318.7000000522961
 20
-0.7999997949337825
 30
0.0
 11
318.7000000522961
 21
-3.299999794933781
 31
0.0
1001
GENIUS_GENOBJ-N-CEN_13
1002
{
1000
OWNER
1000
GEN
1002
}
1001
GENIUS_GENODEF_13
1002
{
1000
HIER
1070
     0
1002
}
1002
{
1000
MANEDIT
1070
     0
1002
}
1002
{
1000
NOSEL
1070
     0
1002
}
1002
{
1000
BEHIND
1070
     0
1002
}
1002
{
1000
OTHER
1070
     0
1002
}
1002
{
1000
REACTOR
1002
}
  0
LINE
  5
1535
330
1F
100
AcDbEntity
  8
0
100
AcDbLine
 10
316.1000000522959
 20
-0.7999997949337825
 30
0.0
 11
316.1000000522959
 21
-3.299999794933781
 31
0.0
1001
GENIUS_GENOBJ-N-CEN_13
1002
{
1000
OWNER
1000
GEN
1002
}
1001
GENIUS_GENODEF_13
1002
{
1000
HIER
1070
     0
1002
}
1002
{
1000
MANEDIT
1070
     0
1002
}
1002
{
1000
NOSEL
1070
     0
1002
}
1002
{
1000
BEHIND
1070
     0
1002
}
1002
{
1000
OTHER
1070
     0
1002
}
1002
{
1000
REACTOR
1002
}
  0
LINE
  5
1536
330
1F
100
AcDbEntity
  8
0
100
AcDbLine
 10
318.7000000522961
 20
-0.7999997949337825
 30
0.0
 11
316.1000000522959
 21
-0.7999997949337825
 31
0.0
  0
LINE
  5
1537
330
1F
100
AcDbEntity
  8
0
100
AcDbLine
 10
318.7000000522961
 20
-1.799999794933953
 30
0.0
 11
316.1000000522959
 21
-1.799999794933779
 31
0.0
  0
LINE
  5
1538
330
1F
100
AcDbEntity
  8
0
100
AcDbLine
 10
318.7000000522961
 20
-3.299999794933781
 30
0.0
 11
316.1000000522959
 21
-3.299999794933781
 31
0.0
  0
LINE
  5
1539
330
1F
100
AcDbEntity
  8
0
100
AcDbLine
 10
321.7000000522959
 20
-16.99999979493376
 30
0.0
 11
321.7000000522959
 21
-14.49999979493376
 31
0.0
  0
ARC
  5
153A
330
1F
100
AcDbEntity
  8
0
100
AcDbCircle
 10
314.4000000522959
 20
-41.19999979493395
 30
0.0
 40
8.799999999999991
100
AcDbArc
 50
180.0
 51
0.0
  0
LINE
  5
153B
330
1F
100
AcDbEntity
  8
0
100
AcDbLine
 10
323.2000000522959
 20
-40.99999979493374
 30
0.0
 11
305.6000000522959
 21
-40.99999979493374
 31
0.0
  0
LINE
  5
153C
330
1F
100
AcDbEntity
  8
0
100
AcDbLine
 10
305.6000000522959
 20
-22.49999979493376
 30
0.0
 11
323.2000000522959
 21
-22.49999979493376
 31
0.0
  0
LINE
  5
153D
330
1F
100
AcDbEntity
  8
0
100
AcDbLine
 10
305.6000000522959
 20
-20.99999979493377
 30
0.0
 11
323.2000000522959
 21
-20.99999979493377
 31
0.0
  0
LINE
  5
153E
330
1F
100
AcDbEntity
  8
0
100
AcDbLine
 10
305.6000000522959
 20
-24.99999979493376
 30
0.0
 11
323.2000000522959
 21
-24.99999979493376
 31
0.0
  0
LINE
  5
153F
330
1F
100
AcDbEntity
  8
0
100
AcDbLine
 10
305.6000000522959
 20
-26.49999979493378
 30
0.0
 11
323.2000000522959
 21
-26.49999979493378
 31
0.0
  0
LINE
  5
1540
330
1F
100
AcDbEntity
  8
0
100
AcDbLine
 10
305.6000000522959
 20
-30.49999979493377
 30
0.0
 11
323.2000000522959
 21
-30.49999979493377
 31
0.0
  0
LINE
  5
1541
330
1F
100
AcDbEntity
  8
0
100
AcDbLine
 10
305.6000000522959
 20
-28.99999979493377
 30
0.0
 11
323.2000000522959
 21
-28.99999979493377
 31
0.0
  0
LINE
  5
1542
330
1F
100
AcDbEntity
  8
0
100
AcDbLine
 10
305.6000000522959
 20
-32.99999979493377
 30
0.0
 11
323.2000000522959
 21
-32.99999979493377
 31
0.0
  0
LINE
  5
1543
330
1F
100
AcDbEntity
  8
0
100
AcDbLine
 10
305.6000000522959
 20
-34.49999979493377
 30
0.0
 11
323.2000000522959
 21
-34.49999979493377
 31
0.0
  0
LINE
  5
1544
330
1F
100
AcDbEntity
  8
0
100
AcDbLine
 10
305.6000000522959
 20
-36.99999979493377
 30
0.0
 11
323.2000000522959
 21
-36.99999979493377
 31
0.0
  0
LINE
  5
1545
330
1F
100
AcDbEntity
  8
0
100
AcDbLine
 10
305.6000000522959
 20
-38.49999979493377
 30
0.0
 11
323.2000000522959
 21
-38.49999979493377
 31
0.0
  0
LINE
  5
1546
330
1F
100
AcDbEntity
  8
0
100
AcDbLine
 10
307.100000052296
 20
-32.99999979493377
 30
0.0
 11
307.100000052296
 21
-30.49999979493377
 31
0.0
  0
LINE
  5
1547
330
1F
100
AcDbEntity
  8
0
100
AcDbLine
 10
307.100000052296
 20
-24.99999979493376
 30
0.0
 11
307.1000000522959
 21
-22.49999979493376
 31
0.0
  0
LINE
  5
1548
330
1F
100
AcDbEntity
  8
0
100
AcDbLine
 10
307.100000052296
 20
-28.99999979493377
 30
0.0
 11
307.100000052296
 21
-26.49999979493378
 31
0.0
  0
LINE
  5
1549
330
1F
100
AcDbEntity
  8
0
100
AcDbLine
 10
307.100000052296
 20
-36.99999979493377
 30
0.0
 11
307.100000052296
 21
-34.49999979493377
 31
0.0
  0
LINE
  5
154A
330
1F
100
AcDbEntity
  8
0
100
AcDbLine
 10
307.1000000522959
 20
-40.99999979493374
 30
0.0
 11
307.100000052296
 21
-38.49999979493377
 31
0.0
  0
LINE
  5
154B
330
1F
100
AcDbEntity
  8
0
100
AcDbLine
 10
321.7000000522959
 20
-32.99999979493377
 30
0.0
 11
321.7000000522959
 21
-30.49999979493377
 31
0.0
  0
LINE
  5
154C
330
1F
100
AcDbEntity
  8
0
100
AcDbLine
 10
321.7000000522959
 20
-24.99999979493376
 30
0.0
 11
321.7000000522959
 21
-22.49999979493376
 31
0.0
  0
LINE
  5
154D
330
1F
100
AcDbEntity
  8
0
100
AcDbLine
 10
321.7000000522959
 20
-28.99999979493377
 30
0.0
 11
321.7000000522959
 21
-26.49999979493378
 31
0.0
  0
LINE
  5
154E
330
1F
100
AcDbEntity
  8
0
100
AcDbLine
 10
321.7000000522959
 20
-36.99999979493377
 30
0.0
 11
321.7000000522959
 21
-34.49999979493377
 31
0.0
  0
LINE
  5
154F
330
1F
100
AcDbEntity
  8
0
100
AcDbLine
 10
321.7000000522959
 20
-40.99999979493374
 30
0.0
 11
321.7000000522959
 21
-38.49999979493377
 31
0.0
  0
CIRCLE
  5
1550
330
1F
100
AcDbEntity
  8
0
100
AcDbCircle
 10
314.4000000522959
 20
-45.99999979493378
 30
0.0
 40
2.0
  0
LINE
  5
1551
330
1F
100
AcDbEntity
  8
0
100
AcDbLine
 10
321.8500000522959
 20
8.500000205066227
 30
0.0
 11
321.8500000522959
 21
6.500000205066227
 31
0.0
1001
GENIUS_GENODEF_13
1002
{
1000
HIER
1070
     0
1002
}
1002
{
1000
MANEDIT
1070
     0
1002
}
1002
{
1000
NOSEL
1070
     0
1002
}
1002
{
1000
BEHIND
1070
     0
1002
}
1002
{
1000
OTHER
1070
     0
1002
}
1002
{
1000
REACTOR
1002
}
1001
GENIUS_GENOBJ-N-CEN_13
1002
{
1000
OWNER
1000
GEN
1002
}
  0
LINE
  5
1552
330
1F
100
AcDbEntity
  8
0
100
AcDbLine
 10
306.950000052296
 20
8.500000205066227
 30
0.0
 11
306.950000052296
 21
6.500000205066227
 31
0.0
1001
GENIUS_GENODEF_13
1002
{
1000
HIER
1070
     0
1002
}
1002
{
1000
MANEDIT
1070
     0
1002
}
1002
{
1000
NOSEL
1070
     0
1002
}
1002
{
1000
BEHIND
1070
     0
1002
}
1002
{
1000
OTHER
1070
     0
1002
}
1002
{
1000
REACTOR
1002
}
1001
GENIUS_GENOBJ-N-CEN_13
1002
{
1000
OWNER
1000
GEN
1002
}
  0
LINE
  5
1553
330
1F
100
AcDbEntity
  8
0
100
AcDbLine
 10
321.3500000522959
 20
9.000000205066227
 30
0.0
 11
307.4500000522959
 21
9.000000205066227
 31
0.0
  0
ARC
  5
1554
330
1F
100
AcDbEntity
  8
0
100
AcDbCircle
 10
307.4500000522959
 20
8.500000205066212
 30
0.0
 40
0.5
100
AcDbArc
 50
90.0
 51
180.0
1001
GENIUS_GENOBJ-N-FIL_13
1002
{
1000
OWNER
1000
GEN
1002
}
1001
GENIUS_GENODEF_13
1002
{
1000
HIER
1070
     0
1002
}
1002
{
1000
MANEDIT
1070
     0
1002
}
1002
{
1000
NOSEL
1070
     0
1002
}
1002
{
1000
BEHIND
1070
     0
1002
}
1002
{
1000
OTHER
1070
     0
1002
}
1002
{
1000
REACTOR
1002
}
  0
ARC
  5
1555
330
1F
100
AcDbEntity
  8
0
100
AcDbCircle
 10
321.3500000522959
 20
8.500000205066212
 30
0.0
 40
0.5
100
AcDbArc
 50
0.0
 51
90.0
1001
GENIUS_GENOBJ-N-CEN_13
1002
{
1000
OWNER
1000
GEN
1002
}
1001
GENIUS_GENOBJ-N-FIL_13
1002
{
1000
OWNER
1000
GEN
1002
}
1001
GENIUS_GENODEF_13
1002
{
1000
HIER
1070
     0
1002
}
1002
{
1000
MANEDIT
1070
     0
1002
}
1002
{
1000
NOSEL
1070
     0
1002
}
1002
{
1000
BEHIND
1070
     0
1002
}
1002
{
1000
OTHER
1070
     0
1002
}
1002
{
1000
REACTOR
1002
}
  0
LINE
  5
1556
330
1F
100
AcDbEntity
  8
0
100
AcDbLine
 10
318.9000000522959
 20
-3.499999794933771
 30
0.0
 11
315.9000000522961
 21
-3.499999794933771
 31
0.0
  0
LINE
  5
1557
330
1F
100
AcDbEntity
  8
0
100
AcDbLine
 10
319.9000000522961
 20
-0.5999997949337798
 30
0.0
 11
308.9000000522958
 21
-0.5999997949337798
 31
0.0
  0
LINE
  5
1558
330
1F
100
AcDbEntity
  8
0
100
AcDbLine
 10
319.9000000522961
 20
5.400000205066216
 30
0.0
 11
308.9000000522958
 21
5.400000205066216
 31
0.0
  0
LINE
  5
1559
330
1F
100
AcDbEntity
  8
0
100
AcDbLine
 10
322.2000000522962
 20
6.500000205066227
 30
0.0
 11
306.6000000522958
 21
6.500000205066227
 31
0.0
  0
LINE
  5
155A
330
1F
100
AcDbEntity
  8
0
100
AcDbLine
 10
322.2000000522962
 20
-6.499999794933771
 30
0.0
 11
306.600000052296
 21
-6.499999794933771
 31
0.0
  0
LINE
  5
155B
330
1F
100
AcDbEntity
  8
0
100
AcDbLine
 10
309.9000000522959
 20
-0.5999997949337798
 30
0.0
 11
309.9000000522959
 21
-3.499999794933771
 31
0.0
1001
GENIUS_GENODEF_13
1002
{
1000
HIER
1070
     0
1002
}
1002
{
1000
MANEDIT
1070
     0
1002
}
1002
{
1000
NOSEL
1070
     0
1002
}
1002
{
1000
BEHIND
1070
     0
1002
}
1002
{
1000
OTHER
1070
     0
1002
}
1002
{
1000
REACTOR
1002
}
1001
GENIUS_GENOBJ-N-CEN_13
1002
{
1000
OWNER
1000
GEN
1002
}
  0
LINE
  5
155C
330
1F
100
AcDbEntity
  8
0
100
AcDbLine
 10
312.9000000522959
 20
-0.5999997949337798
 30
0.0
 11
312.9000000522959
 21
-3.499999794933771
 31
0.0
1001
GENIUS_GENODEF_13
1002
{
1000
HIER
1070
     0
1002
}
1002
{
1000
MANEDIT
1070
     0
1002
}
1002
{
1000
NOSEL
1070
     0
1002
}
1002
{
1000
BEHIND
1070
     0
1002
}
1002
{
1000
OTHER
1070
     0
1002
}
1002
{
1000
REACTOR
1002
}
1001
GENIUS_GENOBJ-N-CEN_13
1002
{
1000
OWNER
1000
GEN
1002
}
  0
LINE
  5
155D
330
1F
100
AcDbEntity
  8
0
100
AcDbLine
 10
315.9000000522961
 20
-0.5999997949337798
 30
0.0
 11
315.9000000522961
 21
-3.499999794933771
 31
0.0
1001
GENIUS_GENODEF_13
1002
{
1000
HIER
1070
     0
1002
}
1002
{
1000
MANEDIT
1070
     0
1002
}
1002
{
1000
NOSEL
1070
     0
1002
}
1002
{
1000
BEHIND
1070
     0
1002
}
1002
{
1000
OTHER
1070
     0
1002
}
1002
{
1000
REACTOR
1002
}
1001
GENIUS_GENOBJ-N-CEN_13
1002
{
1000
OWNER
1000
GEN
1002
}
  0
ARC
  5
155E
330
1F
100
AcDbEntity
  8
0
100
AcDbCircle
 10
306.6000000522958
 20
5.500000205066212
 30
0.0
 40
1.0
100
AcDbArc
 50
90.0
 51
180.0
1001
GENIUS_GENODEF_13
1002
{
1000
HIER
1070
     0
1002
}
1002
{
1000
MANEDIT
1070
     0
1002
}
1002
{
1000
NOSEL
1070
     0
1002
}
1002
{
1000
BEHIND
1070
     0
1002
}
1002
{
1000
OTHER
1070
     0
1002
}
1002
{
1000
REACTOR
1002
}
1001
GENIUS_GENOBJ-N-FIL_13
1002
{
1000
OWNER
1000
GEN
1002
}
  0
LINE
  5
155F
330
1F
100
AcDbEntity
  8
0
100
AcDbLine
 10
308.9000000522958
 20
5.400000205066216
 30
0.0
 11
308.9000000522958
 21
-0.5999997949337798
 31
0.0
1001
GENIUS_GENODEF_13
1002
{
1000
HIER
1070
     0
1002
}
1002
{
1000
MANEDIT
1070
     0
1002
}
1002
{
1000
NOSEL
1070
     0
1002
}
1002
{
1000
BEHIND
1070
     0
1002
}
1002
{
1000
OTHER
1070
     0
1002
}
1002
{
1000
REACTOR
1002
}
1001
GENIUS_GENOBJ-N-CEN_13
1002
{
1000
OWNER
1000
GEN
1002
}
  0
ARC
  5
1560
330
1F
100
AcDbEntity
  8
0
100
AcDbCircle
 10
306.600000052296
 20
-5.499999794933798
 30
0.0
 40
1.0
100
AcDbArc
 50
180.0
 51
270.0
1001
GENIUS_GENODEF_13
1002
{
1000
HIER
1070
     0
1002
}
1002
{
1000
MANEDIT
1070
     0
1002
}
1002
{
1000
NOSEL
1070
     0
1002
}
1002
{
1000
BEHIND
1070
     0
1002
}
1002
{
1000
OTHER
1070
     0
1002
}
1002
{
1000
REACTOR
1002
}
1001
GENIUS_GENOBJ-N-FIL_13
1002
{
1000
OWNER
1000
GEN
1002
}
  0
LINE
  5
1561
330
1F
100
AcDbEntity
  8
0
100
AcDbLine
 10
312.9000000522959
 20
-3.499999794933771
 30
0.0
 11
309.9000000522959
 21
-3.499999794933771
 31
0.0
  0
LINE
  5
1562
330
1F
100
AcDbEntity
  8
0
100
AcDbLine
 10
318.9000000522959
 20
-0.5999997949337798
 30
0.0
 11
318.9000000522959
 21
-3.499999794933771
 31
0.0
1001
GENIUS_GENODEF_13
1002
{
1000
HIER
1070
     0
1002
}
1002
{
1000
MANEDIT
1070
     0
1002
}
1002
{
1000
NOSEL
1070
     0
1002
}
1002
{
1000
BEHIND
1070
     0
1002
}
1002
{
1000
OTHER
1070
     0
1002
}
1002
{
1000
REACTOR
1002
}
1001
GENIUS_GENOBJ-N-CEN_13
1002
{
1000
OWNER
1000
GEN
1002
}
  0
LINE
  5
1563
330
1F
100
AcDbEntity
  8
0
100
AcDbLine
 10
319.9000000522961
 20
5.400000205066216
 30
0.0
 11
319.9000000522961
 21
-0.5999997949337798
 31
0.0
1001
GENIUS_GENODEF_13
1002
{
1000
HIER
1070
     0
1002
}
1002
{
1000
MANEDIT
1070
     0
1002
}
1002
{
1000
NOSEL
1070
     0
1002
}
1002
{
1000
BEHIND
1070
     0
1002
}
1002
{
1000
OTHER
1070
     0
1002
}
1002
{
1000
REACTOR
1002
}
1001
GENIUS_GENOBJ-N-CEN_13
1002
{
1000
OWNER
1000
GEN
1002
}
  0
ARC
  5
1564
330
1F
100
AcDbEntity
  8
0
100
AcDbCircle
 10
322.2000000522962
 20
5.500000205066212
 30
0.0
 40
1.0
100
AcDbArc
 50
0.0
 51
90.0
1001
GENIUS_GENOBJ-N-FIL_13
1002
{
1000
OWNER
1000
GEN
1002
}
1001
GENIUS_GENODEF_13
1002
{
1000
HIER
1070
     0
1002
}
1002
{
1000
MANEDIT
1070
     0
1002
}
1002
{
1000
NOSEL
1070
     0
1002
}
1002
{
1000
BEHIND
1070
     0
1002
}
1002
{
1000
OTHER
1070
     0
1002
}
1002
{
1000
REACTOR
1002
}
  0
ARC
  5
1565
330
1F
100
AcDbEntity
  8
0
100
AcDbCircle
 10
322.2000000522962
 20
-5.499999794933798
 30
0.0
 40
1.0
100
AcDbArc
 50
270.0
 51
0.0
1001
GENIUS_GENOBJ-N-FIL_13
1002
{
1000
OWNER
1000
GEN
1002
}
1001
GENIUS_GENODEF_13
1002
{
1000
HIER
1070
     0
1002
}
1002
{
1000
MANEDIT
1070
     0
1002
}
1002
{
1000
NOSEL
1070
     0
1002
}
1002
{
1000
BEHIND
1070
     0
1002
}
1002
{
1000
OTHER
1070
     0
1002
}
1002
{
1000
REACTOR
1002
}
  0
LINE
  5
1566
330
1F
100
AcDbEntity
  8
0
100
AcDbLine
 10
320.850000052296
 20
15.48054020132254
 30
0.0
 11
320.850000052296
 21
9.000000205066227
 31
0.0
  0
LINE
  5
1567
330
1F
100
AcDbEntity
  8
0
100
AcDbLine
 10
307.9500000522962
 20
15.48054020132248
 30
0.0
 11
307.9500000522962
 21
9.000000205066227
 31
0.0
  0
LINE
  5
1568
330
1F
100
AcDbEntity
  8
0
100
AcDbLine
 10
318.3514789622341
 20
26.30000020506621
 30
0.0
 11
310.4485211423579
 21
26.30000020506621
 31
0.0
  0
LINE
  5
1569
330
1F
100
AcDbEntity
  8
0
100
AcDbLine
 10
309.4618618514898
 20
25.4627989880594
 30
0.0
 11
308.0834071436171
 21
17.10852803125455
 31
0.0
  0
LINE
  5
156A
330
1F
100
AcDbEntity
  8
0
100
AcDbLine
 10
319.3381382531021
 20
25.4627989880594
 30
0.0
 11
320.716592960975
 21
17.10852803125472
 31
0.0
  0
ARC
  5
156B
330
1F
100
AcDbEntity
  8
0
100
AcDbCircle
 10
310.850000052296
 20
15.48054020132251
 30
0.0
 40
10.0
100
AcDbArc
 50
0.0
 51
9.369385096487482
1001
GENIUS_GENODEF_13
1002
{
1000
HIER
1070
     0
1002
}
1002
{
1000
MANEDIT
1070
     0
1002
}
1002
{
1000
NOSEL
1070
     0
1002
}
1002
{
1000
BEHIND
1070
     0
1002
}
1002
{
1000
OTHER
1070
     0
1002
}
1002
{
1000
REACTOR
1002
}
1001
GENIUS_GENOBJ-N-FIL_13
1002
{
1000
OWNER
1000
GEN
1002
}
  0
ARC
  5
156C
330
1F
100
AcDbEntity
  8
0
100
AcDbCircle
 10
317.950000052296
 20
15.48054020132244
 30
0.0
 40
10.0
100
AcDbArc
 50
170.6306149035125
 51
180.0
1001
GENIUS_GENOBJ-N-FIL_13
1002
{
1000
OWNER
1000
GEN
1002
}
1001
GENIUS_GENODEF_13
1002
{
1000
HIER
1070
     0
1002
}
1002
{
1000
MANEDIT
1070
     0
1002
}
1002
{
1000
NOSEL
1070
     0
1002
}
1002
{
1000
BEHIND
1070
     0
1002
}
1002
{
1000
OTHER
1070
     0
1002
}
1002
{
1000
REACTOR
1002
}
  0
ARC
  5
156D
330
1F
100
AcDbEntity
  8
0
100
AcDbCircle
 10
318.3514789622341
 20
25.30000020506618
 30
0.0
 40
1.0
100
AcDbArc
 50
9.369385096487482
 51
90.0
1001
GENIUS_GENOBJ-N-FIL_13
1002
{
1000
OWNER
1000
GEN
1002
}
1001
GENIUS_GENODEF_13
1002
{
1000
HIER
1070
     0
1002
}
1002
{
1000
MANEDIT
1070
     0
1002
}
1002
{
1000
NOSEL
1070
     0
1002
}
1002
{
1000
BEHIND
1070
     0
1002
}
1002
{
1000
OTHER
1070
     0
1002
}
1002
{
1000
REACTOR
1002
}
  0
ARC
  5
156E
330
1F
100
AcDbEntity
  8
0
100
AcDbCircle
 10
310.4485211423579
 20
25.30000020506618
 30
0.0
 40
1.0
100
AcDbArc
 50
90.0
 51
170.6306149035125
1001
GENIUS_GENODEF_13
1002
{
1000
HIER
1070
     0
1002
}
1002
{
1000
MANEDIT
1070
     0
1002
}
1002
{
1000
NOSEL
1070
     0
1002
}
1002
{
1000
BEHIND
1070
     0
1002
}
1002
{
1000
OTHER
1070
     0
1002
}
1002
{
1000
REACTOR
1002
}
1001
GENIUS_GENOBJ-N-FIL_13
1002
{
1000
OWNER
1000
GEN
1002
}
  0
LINE
  5
156F
330
1F
100
AcDbEntity
  8
0
100
AcDbLine
 10
165.0000000522959
 20
2.300000205066068
 30
0.0
 11
165.0000000522959
 21
2.500000205066392
 31
0.0
  0
LINE
  5
1570
330
1F
100
AcDbEntity
  8
0
100
AcDbLine
 10
165.1000000522958
 20
-5.299999794933611
 30
0.0
 11
165.2000000522957
 21
-5.299999794933611
 31
0.0
  0
LINE
  5
1572
330
1F
100
AcDbEntity
  8
0
100
AcDbLine
 10
156.6500000522959
 20
26.30000020506621
 30
0.0
 11
160.7500000522959
 21
26.30000020506621
 31
0.0
  0
LINE
  5
1622
330
1F
100
AcDbEntity
  8
0
100
AcDbLine
 10
29.70000005229666
 20
125.6000002050661
 30
0.0
 11
90.70000005229671
 21
125.6000002050661
 31
0.0
1001
GENIUS_GENREC_14
1002
{
1000
PYDIR
1011
30.20000005229667
1021
151.6000002050663
1031
0.0
1002
}
1002
{
1000
PXDIR
1011
90.20000005229679
1021
126.1000002050661
1031
0.0
1002
}
1002
{
1000
PORI
1011
30.20000005229667
1021
126.1000002050661
1031
0.0
1002
}
1002
{
1000
PINS
1011
30.20000005229667
1021
126.1000002050661
1031
0.0
1002
}
1002
{
1000
PINS2
1011
90.20000005229679
1021
151.6000002050663
1031
0.0
1002
}
1002
{
1000
C
1070
     1
1002
}
1001
GENIUS_GENOBJ-N-REC_13
1002
{
1000
OWNER
1000
GEN
1002
}
1001
GENIUS_GENODEF_13
1002
{
1000
HIER
1070
     0
1002
}
1002
{
1000
MANEDIT
1070
     0
1002
}
1002
{
1000
NOSEL
1070
     0
1002
}
1002
{
1000
BEHIND
1070
     0
1002
}
1002
{
1000
OTHER
1070
     0
1002
}
1002
{
1000
REACTOR
1002
}
  0
LINE
  5
1623
330
1F
100
AcDbEntity
  8
0
100
AcDbLine
 10
90.70000005229671
 20
125.6000002050661
 30
0.0
 11
90.70000005229671
 21
152.1000002050663
 31
0.0
1001
GENIUS_GENREC_14
1002
{
1000
PYDIR
1011
30.20000005229667
1021
151.6000002050663
1031
0.0
1002
}
1002
{
1000
PXDIR
1011
90.20000005229679
1021
126.1000002050661
1031
0.0
1002
}
1002
{
1000
PORI
1011
30.20000005229667
1021
126.1000002050661
1031
0.0
1002
}
1002
{
1000
PINS
1011
30.20000005229667
1021
126.1000002050661
1031
0.0
1002
}
1002
{
1000
PINS2
1011
90.20000005229679
1021
151.6000002050663
1031
0.0
1002
}
1002
{
1000
C
1070
     1
1002
}
1001
GENIUS_GENOBJ-N-REC_13
1002
{
1000
OWNER
1000
GEN
1002
}
1001
GENIUS_GENODEF_13
1002
{
1000
HIER
1070
     0
1002
}
1002
{
1000
MANEDIT
1070
     0
1002
}
1002
{
1000
NOSEL
1070
     0
1002
}
1002
{
1000
BEHIND
1070
     0
1002
}
1002
{
1000
OTHER
1070
     0
1002
}
1002
{
1000
REACTOR
1002
}
  0
LINE
  5
1624
330
1F
100
AcDbEntity
  8
0
100
AcDbLine
 10
90.70000005229671
 20
152.1000002050663
 30
0.0
 11
29.70000005229666
 21
152.1000002050663
 31
0.0
1001
GENIUS_GENREC_14
1002
{
1000
PYDIR
1011
30.20000005229667
1021
151.6000002050663
1031
0.0
1002
}
1002
{
1000
PXDIR
1011
90.20000005229679
1021
126.1000002050661
1031
0.0
1002
}
1002
{
1000
PORI
1011
30.20000005229667
1021
126.1000002050661
1031
0.0
1002
}
1002
{
1000
PINS
1011
30.20000005229667
1021
126.1000002050661
1031
0.0
1002
}
1002
{
1000
PINS2
1011
90.20000005229679
1021
151.6000002050663
1031
0.0
1002
}
1002
{
1000
C
1070
     1
1002
}
1001
GENIUS_GENOBJ-N-REC_13
1002
{
1000
OWNER
1000
GEN
1002
}
1001
GENIUS_GENODEF_13
1002
{
1000
HIER
1070
     0
1002
}
1002
{
1000
MANEDIT
1070
     0
1002
}
1002
{
1000
NOSEL
1070
     0
1002
}
1002
{
1000
BEHIND
1070
     0
1002
}
1002
{
1000
OTHER
1070
     0
1002
}
1002
{
1000
REACTOR
1002
}
  0
LINE
  5
1625
330
1F
100
AcDbEntity
  8
0
100
AcDbLine
 10
29.70000005229666
 20
152.1000002050663
 30
0.0
 11
29.70000005229666
 21
125.6000002050661
 31
0.0
1001
GENIUS_GENREC_14
1002
{
1000
PYDIR
1011
30.20000005229667
1021
151.6000002050663
1031
0.0
1002
}
1002
{
1000
PXDIR
1011
90.20000005229679
1021
126.1000002050661
1031
0.0
1002
}
1002
{
1000
PORI
1011
30.20000005229667
1021
126.1000002050661
1031
0.0
1002
}
1002
{
1000
PINS
1011
30.20000005229667
1021
126.1000002050661
1031
0.0
1002
}
1002
{
1000
PINS2
1011
90.20000005229679
1021
151.6000002050663
1031
0.0
1002
}
1002
{
1000
C
1070
     1
1002
}
1001
GENIUS_GENOBJ-N-REC_13
1002
{
1000
OWNER
1000
GEN
1002
}
1001
GENIUS_GENODEF_13
1002
{
1000
HIER
1070
     0
1002
}
1002
{
1000
MANEDIT
1070
     0
1002
}
1002
{
1000
NOSEL
1070
     0
1002
}
1002
{
1000
BEHIND
1070
     0
1002
}
1002
{
1000
OTHER
1070
     0
1002
}
1002
{
1000
REACTOR
1002
}
  0
LINE
  5
1627
330
1F
100
AcDbEntity
  8
0
100
AcDbLine
 10
240.9500000522968
 20
149.3000002050662
 30
0.0
 11
279.4500000522968
 21
149.3000002050662
 31
0.0
1001
GENIUS_GENREC_14
1002
{
1000
PYDIR
1011
240.2000000522968
1021
159.050000205066
1031
0.0
1002
}
1002
{
1000
PXDIR
1011
280.2000000522968
1021
149.0500002050661
1031
0.0
1002
}
1002
{
1000
PORI
1011
240.2000000522968
1021
149.0500002050661
1031
0.0
1002
}
1002
{
1000
PINS
1011
240.2000000522968
1021
149.0500002050661
1031
0.0
1002
}
1002
{
1000
PINS2
1011
280.2000000522968
1021
159.050000205066
1031
0.0
1002
}
1002
{
1000
C
1070
     1
1002
}
1001
GENIUS_GENOBJ-N-REC_13
1002
{
1000
OWNER
1000
GEN
1002
}
1001
GENIUS_GENODEF_13
1002
{
1000
HIER
1070
     0
1002
}
1002
{
1000
MANEDIT
1070
     0
1002
}
1002
{
1000
NOSEL
1070
     0
1002
}
1002
{
1000
BEHIND
1070
     0
1002
}
1002
{
1000
OTHER
1070
     0
1002
}
1002
{
1000
REACTOR
1002
}
  0
ARC
  5
1628
330
1F
100
AcDbEntity
  8
0
100
AcDbCircle
 10
279.4500000522969
 20
149.8000002050661
 30
0.0
 40
0.4999999999999434
100
AcDbArc
 50
269.9999999999935
 51
359.9999999999935
1001
GENIUS_GENREC_14
1002
{
1000
PYDIR
1011
240.2000000522968
1021
159.050000205066
1031
0.0
1002
}
1002
{
1000
PXDIR
1011
280.2000000522968
1021
149.0500002050661
1031
0.0
1002
}
1002
{
1000
PORI
1011
240.2000000522968
1021
149.0500002050661
1031
0.0
1002
}
1002
{
1000
PINS
1011
240.2000000522968
1021
149.0500002050661
1031
0.0
1002
}
1002
{
1000
PINS2
1011
280.2000000522968
1021
159.050000205066
1031
0.0
1002
}
1002
{
1000
C
1070
     1
1002
}
1001
GENIUS_GENOBJ-N-REC_13
1002
{
1000
OWNER
1000
GEN
1002
}
1001
GENIUS_GENODEF_13
1002
{
1000
HIER
1070
     0
1002
}
1002
{
1000
MANEDIT
1070
     0
1002
}
1002
{
1000
NOSEL
1070
     0
1002
}
1002
{
1000
BEHIND
1070
     0
1002
}
1002
{
1000
OTHER
1070
     0
1002
}
1002
{
1000
REACTOR
1002
}
  0
LINE
  5
1629
330
1F
100
AcDbEntity
  8
0
100
AcDbLine
 10
279.9500000522968
 20
149.8000002050661
 30
0.0
 11
279.9500000522968
 21
158.3000002050662
 31
0.0
1001
GENIUS_GENREC_14
1002
{
1000
PYDIR
1011
240.2000000522968
1021
159.050000205066
1031
0.0
1002
}
1002
{
1000
PXDIR
1011
280.2000000522968
1021
149.0500002050661
1031
0.0
1002
}
1002
{
1000
PORI
1011
240.2000000522968
1021
149.0500002050661
1031
0.0
1002
}
1002
{
1000
PINS
1011
240.2000000522968
1021
149.0500002050661
1031
0.0
1002
}
1002
{
1000
PINS2
1011
280.2000000522968
1021
159.050000205066
1031
0.0
1002
}
1002
{
1000
C
1070
     1
1002
}
1001
GENIUS_GENOBJ-N-REC_13
1002
{
1000
OWNER
1000
GEN
1002
}
1001
GENIUS_GENODEF_13
1002
{
1000
HIER
1070
     0
1002
}
1002
{
1000
MANEDIT
1070
     0
1002
}
1002
{
1000
NOSEL
1070
     0
1002
}
1002
{
1000
BEHIND
1070
     0
1002
}
1002
{
1000
OTHER
1070
     0
1002
}
1002
{
1000
REACTOR
1002
}
  0
ARC
  5
162A
330
1F
100
AcDbEntity
  8
0
100
AcDbCircle
 10
279.4500000522969
 20
158.3000002050661
 30
0.0
 40
0.4999999999999434
100
AcDbArc
 50
0.0000000000065138
 51
90.00000000000651
1001
GENIUS_GENREC_14
1002
{
1000
PYDIR
1011
240.2000000522968
1021
159.050000205066
1031
0.0
1002
}
1002
{
1000
PXDIR
1011
280.2000000522968
1021
149.0500002050661
1031
0.0
1002
}
1002
{
1000
PORI
1011
240.2000000522968
1021
149.0500002050661
1031
0.0
1002
}
1002
{
1000
PINS
1011
240.2000000522968
1021
149.0500002050661
1031
0.0
1002
}
1002
{
1000
PINS2
1011
280.2000000522968
1021
159.050000205066
1031
0.0
1002
}
1002
{
1000
C
1070
     1
1002
}
1001
GENIUS_GENOBJ-N-REC_13
1002
{
1000
OWNER
1000
GEN
1002
}
1001
GENIUS_GENODEF_13
1002
{
1000
HIER
1070
     0
1002
}
1002
{
1000
MANEDIT
1070
     0
1002
}
1002
{
1000
NOSEL
1070
     0
1002
}
1002
{
1000
BEHIND
1070
     0
1002
}
1002
{
1000
OTHER
1070
     0
1002
}
1002
{
1000
REACTOR
1002
}
  0
LINE
  5
162B
330
1F
100
AcDbEntity
  8
0
100
AcDbLine
 10
279.4500000522968
 20
158.8000002050661
 30
0.0
 11
240.9500000522968
 21
158.8000002050661
 31
0.0
1001
GENIUS_GENREC_14
1002
{
1000
PYDIR
1011
240.2000000522968
1021
159.050000205066
1031
0.0
1002
}
1002
{
1000
PXDIR
1011
280.2000000522968
1021
149.0500002050661
1031
0.0
1002
}
1002
{
1000
PORI
1011
240.2000000522968
1021
149.0500002050661
1031
0.0
1002
}
1002
{
1000
PINS
1011
240.2000000522968
1021
149.0500002050661
1031
0.0
1002
}
1002
{
1000
PINS2
1011
280.2000000522968
1021
159.050000205066
1031
0.0
1002
}
1002
{
1000
C
1070
     1
1002
}
1001
GENIUS_GENOBJ-N-REC_13
1002
{
1000
OWNER
1000
GEN
1002
}
1001
GENIUS_GENODEF_13
1002
{
1000
HIER
1070
     0
1002
}
1002
{
1000
MANEDIT
1070
     0
1002
}
1002
{
1000
NOSEL
1070
     0
1002
}
1002
{
1000
BEHIND
1070
     0
1002
}
1002
{
1000
OTHER
1070
     0
1002
}
1002
{
1000
REACTOR
1002
}
  0
ARC
  5
162C
330
1F
100
AcDbEntity
  8
0
100
AcDbCircle
 10
240.9500000522967
 20
158.3000002050661
 30
0.0
 40
0.4999999999999434
100
AcDbArc
 50
89.99999999999348
 51
179.9999999999935
1001
GENIUS_GENREC_14
1002
{
1000
PYDIR
1011
240.2000000522968
1021
159.050000205066
1031
0.0
1002
}
1002
{
1000
PXDIR
1011
280.2000000522968
1021
149.0500002050661
1031
0.0
1002
}
1002
{
1000
PORI
1011
240.2000000522968
1021
149.0500002050661
1031
0.0
1002
}
1002
{
1000
PINS
1011
240.2000000522968
1021
149.0500002050661
1031
0.0
1002
}
1002
{
1000
PINS2
1011
280.2000000522968
1021
159.050000205066
1031
0.0
1002
}
1002
{
1000
C
1070
     1
1002
}
1001
GENIUS_GENOBJ-N-REC_13
1002
{
1000
OWNER
1000
GEN
1002
}
1001
GENIUS_GENODEF_13
1002
{
1000
HIER
1070
     0
1002
}
1002
{
1000
MANEDIT
1070
     0
1002
}
1002
{
1000
NOSEL
1070
     0
1002
}
1002
{
1000
BEHIND
1070
     0
1002
}
1002
{
1000
OTHER
1070
     0
1002
}
1002
{
1000
REACTOR
1002
}
  0
LINE
  5
162D
330
1F
100
AcDbEntity
  8
0
100
AcDbLine
 10
240.4500000522968
 20
158.3000002050662
 30
0.0
 11
240.4500000522968
 21
149.8000002050661
 31
0.0
1001
GENIUS_GENREC_14
1002
{
1000
PYDIR
1011
240.2000000522968
1021
159.050000205066
1031
0.0
1002
}
1002
{
1000
PXDIR
1011
280.2000000522968
1021
149.0500002050661
1031
0.0
1002
}
1002
{
1000
PORI
1011
240.2000000522968
1021
149.0500002050661
1031
0.0
1002
}
1002
{
1000
PINS
1011
240.2000000522968
1021
149.0500002050661
1031
0.0
1002
}
1002
{
1000
PINS2
1011
280.2000000522968
1021
159.050000205066
1031
0.0
1002
}
1002
{
1000
C
1070
     1
1002
}
1001
GENIUS_GENOBJ-N-REC_13
1002
{
1000
OWNER
1000
GEN
1002
}
1001
GENIUS_GENODEF_13
1002
{
1000
HIER
1070
     0
1002
}
1002
{
1000
MANEDIT
1070
     0
1002
}
1002
{
1000
NOSEL
1070
     0
1002
}
1002
{
1000
BEHIND
1070
     0
1002
}
1002
{
1000
OTHER
1070
     0
1002
}
1002
{
1000
REACTOR
1002
}
  0
ARC
  5
162E
330
1F
100
AcDbEntity
  8
0
100
AcDbCircle
 10
240.9500000522967
 20
149.8000002050661
 30
0.0
 40
0.4999999999999434
100
AcDbArc
 50
180.0000000000065
 51
270.0000000000065
1001
GENIUS_GENREC_14
1002
{
1000
PYDIR
1011
240.2000000522968
1021
159.050000205066
1031
0.0
1002
}
1002
{
1000
PXDIR
1011
280.2000000522968
1021
149.0500002050661
1031
0.0
1002
}
1002
{
1000
PORI
1011
240.2000000522968
1021
149.0500002050661
1031
0.0
1002
}
1002
{
1000
PINS
1011
240.2000000522968
1021
149.0500002050661
1031
0.0
1002
}
1002
{
1000
PINS2
1011
280.2000000522968
1021
159.050000205066
1031
0.0
1002
}
1002
{
1000
C
1070
     1
1002
}
1001
GENIUS_GENOBJ-N-REC_13
1002
{
1000
OWNER
1000
GEN
1002
}
1001
GENIUS_GENODEF_13
1002
{
1000
HIER
1070
     0
1002
}
1002
{
1000
MANEDIT
1070
     0
1002
}
1002
{
1000
NOSEL
1070
     0
1002
}
1002
{
1000
BEHIND
1070
     0
1002
}
1002
{
1000
OTHER
1070
     0
1002
}
1002
{
1000
REACTOR
1002
}
  0
LINE
  5
16E6
330
1F
100
AcDbEntity
  8
0
100
AcDbLine
 10
160.7500000522952
 20
67.62857163363803
 30
0.0
 11
156.6500000522966
 21
69.97142877649435
 31
0.0
  0
LINE
  5
16E7
330
1F
100
AcDbEntity
  8
0
100
AcDbLine
 10
160.7500000522966
 20
65.62857163363715
 30
0.0
 11
156.6500000522966
 21
67.97142877649434
 31
0.0
  0
LINE
  5
16E8
330
1F
100
AcDbEntity
  8
0
100
AcDbLine
 10
316.4500000522953
 20
67.62857163363803
 30
0.0
 11
312.3500000522966
 21
69.97142877649435
 31
0.0
  0
LINE
  5
16E9
330
1F
100
AcDbEntity
  8
0
100
AcDbLine
 10
316.4500000522967
 20
65.62857163363715
 30
0.0
 11
312.3500000522966
 21
67.97142877649434
 31
0.0
  0
LINE
  5
16EA
330
1F
100
AcDbEntity
  8
0
100
AcDbLine
 10
316.4500000522959
 20
67.62857163363772
 30
0.0
 11
316.4500000522959
 21
109.3000002050661
 31
0.0
  0
LINE
  5
16EB
330
1F
100
AcDbEntity
  8
0
100
AcDbLine
 10
312.3500000522974
 20
69.97142877649395
 30
0.0
 11
312.3500000522974
 21
109.3000002050661
 31
0.0
  0
LINE
  5
16EC
330
1F
100
AcDbEntity
  8
0
100
AcDbLine
 10
160.7500000522944
 20
67.6285716336385
 30
0.0
 11
160.7500000522944
 21
103.3000002050661
 31
0.0
  0
LINE
  5
16ED
330
1F
100
AcDbEntity
  8
0
100
AcDbLine
 10
156.6500000522959
 20
69.97142877649475
 30
0.0
 11
156.6500000522959
 21
100.3000002050661
 31
0.0
  0
ENDSEC
  0
SECTION
  2
OBJECTS
  0
DICTIONARY
  5
C
330
0
100
AcDbDictionary
281
     1
  3
ACAD_COLOR
350
BE
  3
ACAD_GROUP
350
D
  3
ACAD_LAYOUT
350
1A
  3
ACAD_MATERIAL
350
BD
  3
ACAD_MLINESTYLE
350
17
  3
ACAD_PLOTSETTINGS
350
19
  3
ACAD_PLOTSTYLENAME
350
E
  3
ACAD_TABLESTYLE
350
11A
  3
ACDBHEADERROUNDTRIPXREC
350
17B6
  3
AcDbVariableDictionary
350
94
  3
AcmDictionary
350
5B
  3
AMG
350
41
  3
AMGSNAPSETTINGS
350
1B8
  3
DWGPROPS
350
17B5
  0
DICTIONARY
  5
21A
330
2
100
AcDbDictionary
280
     1
281
     1
  3
ACAD_LAYERSTATES
360
21B
  0
DICTIONARY
  5
8F
330
1F
100
AcDbDictionary
280
     1
281
     1
  3
ACAD_SORTENTS
360
1626
  0
DICTIONARY
  5
BE
102
{ACAD_REACTORS
330
C
102
}
330
C
100
AcDbDictionary
281
     1
  3
DIC COLOR GUIDE(R) PART II$DIC 2190
350
74D
  0
DICTIONARY
  5
D
102
{ACAD_REACTORS
330
C
102
}
330
C
100
AcDbDictionary
281
     1
  0
DICTIONARY
  5
1A
102
{ACAD_REACTORS
330
C
102
}
330
C
100
AcDbDictionary
281
     1
  3
Model
350
22
  3
レイアウト1
350
1E
  3
レイアウト2
350
26
  0
DICTIONARY
  5
BD
102
{ACAD_REACTORS
330
C
102
}
330
C
100
AcDbDictionary
281
     1
  0
DICTIONARY
  5
17
102
{ACAD_REACTORS
330
C
102
}
330
C
100
AcDbDictionary
281
     1
  3
Standard
350
18
  0
DICTIONARY
  5
19
102
{ACAD_REACTORS
330
C
102
}
330
C
100
AcDbDictionary
281
     1
  0
ACDBDICTIONARYWDFLT
  5
E
102
{ACAD_REACTORS
330
C
102
}
330
C
100
AcDbDictionary
281
     1
  3
Normal
350
F
100
AcDbDictionaryWithDefault
340
F
  0
DICTIONARY
  5
11A
102
{ACAD_REACTORS
330
C
102
}
330
C
100
AcDbDictionary
281
     1
  3
Standard
350
11B
  0
DICTIONARY
  5
17B6
102
{ACAD_REACTORS
330
C
102
}
330
C
100
AcDbDictionary
281
     1
  0
DICTIONARY
  5
94
102
{ACAD_REACTORS
330
C
102
}
330
C
100
AcDbDictionary
281
     1
  3
CTABLESTYLE
350
138
  3
DIMASSOC
350
96
  3
INDEXCTL
350
95
  3
PROJECTNAME
350
6A8
  0
DICTIONARY
  5
5B
102
{ACAD_REACTORS
330
C
102
}
330
C
100
AcDbDictionary
281
     1
  3
AcmBOM
350
1B5
  3
AcmStdDictionary
350
61
  3
AMDTSECTSYM_ARROWCOLOR
350
123
  0
DICTIONARY
  5
41
102
{ACAD_REACTORS
330
C
102
}
330
C
100
AcDbDictionary
281
     1
  0
DICTIONARY
  5
1B8
102
{ACAD_REACTORS
330
C
102
}
330
C
100
AcDbDictionary
281
     1
  0
XRECORD
  5
17B5
102
{ACAD_REACTORS
330
C
102
}
330
C
100
AcDbXrecord
280
     1
  1
DWGPROPS COOKIE
  2

  3

  4

  6

  7

  8

  9

300
AmdtFileType=84
301
=
302
=
303
=
304
=
305
=
306
=
307
=
308
=
309
=
 40
0.0169622106481482
 41
2456406.576683461
 42
2456406.677000208
  1

 90
        1
  0
DICTIONARY
  5
21B
102
{ACAD_REACTORS
330
21A
102
}
330
21A
100
AcDbDictionary
281
     1
  0
SORTENTSTABLE
  5
1626
102
{ACAD_REACTORS
330
8F
102
}
330
8F
100
AcDbSortentsTable
330
1F
331
150D
  5
151E
331
153E
  5
154F
331
9FF
  5
A1D
331
14CE
  5
14DF
331
1625
  5
5AB
331
532
  5
532
331
622
  5
632
331
661
  5
671
331
487
  5
487
331
4BC
  5
4BC
331
5AC
  5
5BC
331
4FB
  5
4FB
331
5EB
  5
5FB
331
698
  5
9D8
331
1515
  5
1526
331
1546
  5
1557
331
6A0
  5
9E2
331
53A
  5
53A
331
62A
  5
644
331
A07
  5
14BF
331
4C4
  5
4C4
331
5B4
  5
5C4
331
14D6
  5
14E7
331
162D
  5
583
331
14DE
  5
14EF
331
154E
  5
155F
331
1556
  5
1567
331
669
  5
679
331
5BC
  5
5CC
331
503
  5
503
331
5F3
  5
603
331
542
  5
542
331
632
  5
64C
331
48D
  5
48D
331
57D
  5
589
331
4CC
  5
4CC
331
14E6
  5
14F7
331
671
  5
681
331
9D8
  5
9EA
331
4D4
  5
4D4
331
5C4
  5
5D4
331
50B
  5
50B
331
5FB
  5
60B
331
54A
  5
54D
331
495
  5
495
331
585
  5
591
331
155E
  5
156F
331
16ED
  5
552
331
A1F
  5
14C9
331
552
  5
556
331
679
  5
689
331
14EE
  5
14FF
331
49D
  5
49D
331
58D
  5
599
331
4DC
  5
4DC
331
5CC
  5
5DC
331
513
  5
513
331
603
  5
613
331
151F
  5
1530
331
1527
  5
1538
331
1566
  5
1627
331
9E8
  5
9F8
331
51B
  5
51B
331
60B
  5
61B
331
55A
  5
55E
331
64A
  5
65A
331
4A5
  5
4A5
331
595
  5
5A2
331
4E4
  5
4E4
331
5D4
  5
5E4
331
681
  5
691
331
14F6
  5
1507
331
14FE
  5
150F
331
152F
  5
1540
331
14BF
  5
14D0
331
156E
  5
16E4
331
1537
  5
1548
331
470
  5
470
331
689
  5
699
331
9F0
  5
A00
331
523
  5
523
331
613
  5
623
331
562
  5
566
331
652
  5
662
331
478
  5
478
331
4AD
  5
4AD
331
59D
  5
5AD
331
4EC
  5
4EC
331
5DC
  5
5EC
331
1506
  5
1517
331
691
  5
6A1
331
9F8
  5
A08
331
4F4
  5
4F4
331
5E4
  5
5F4
331
52B
  5
52B
331
61B
  5
62B
331
480
  5
480
331
4B5
  5
4B5
331
5A5
  5
5B5
331
56A
  5
576
331
65A
  5
66A
331
14C7
  5
14D8
331
14CF
  5
14E0
331
150E
  5
151F
331
662
  5
672
331
699
  5
9D9
331
4BD
  5
4BD
331
5AD
  5
5BD
331
4FC
  5
4FC
331
5EC
  5
5FC
331
533
  5
533
331
623
  5
633
331
A00
  5
A1E
331
153F
  5
1550
331
1547
  5
1558
331
162E
  5
584
331
14D7
  5
14E8
331
62B
  5
645
331
6A1
  5
9E3
331
1516
  5
1527
331
4C5
  5
4C5
331
5B5
  5
5C5
331
53B
  5
53B
331
154F
  5
1560
331
14DF
  5
14F0
331
16E6
  5
16EA
331
1557
  5
1568
331
A08
  5
14C0
331
543
  5
543
331
633
  5
64D
331
66A
  5
67A
331
48E
  5
48E
331
57E
  5
58A
331
4CD
  5
4CD
331
5BD
  5
5CD
331
504
  5
504
331
5F4
  5
604
331
1518
  5
1529
331
9D9
  5
9EB
331
50C
  5
50C
331
5FC
  5
60C
331
496
  5
496
331
586
  5
592
331
4D5
  5
4D5
331
5C5
  5
5D5
331
672
  5
682
331
14E7
  5
14F8
331
14EF
  5
1500
331
1520
  5
1531
331
67A
  5
68A
331
9E1
  5
9F1
331
5CD
  5
5DD
331
514
  5
514
331
604
  5
614
331
553
  5
557
331
A20
  5
14CA
331
155F
  5
1570
331
49E
  5
49E
331
58E
  5
59A
331
4DD
  5
4DD
331
1567
  5
1628
331
14F7
  5
1508
331
682
  5
692
331
9E9
  5
9F9
331
1528
  5
1539
331
4E5
  5
4E5
331
5D5
  5
5E5
331
51C
  5
51C
331
60C
  5
61C
331
55B
  5
55F
331
4A6
  5
4A6
331
596
  5
5A3
331
64B
  5
65B
331
156F
  5
16E6
331
14FF
  5
1510
331
1530
  5
1541
331
471
  5
471
331
14C0
  5
14D1
331
563
  5
567
331
653
  5
663
331
68A
  5
69A
331
479
  5
479
331
4AE
  5
4AE
331
59E
  5
5AE
331
4ED
  5
4ED
331
5DD
  5
5ED
331
524
  5
524
331
614
  5
624
331
9F1
  5
A01
331
1538
  5
1549
331
9F9
  5
A09
331
14C8
  5
14D9
331
52C
  5
52C
331
61C
  5
62C
331
56B
  5
577
331
65B
  5
66B
331
481
  5
481
331
4B6
  5
4B6
331
5A6
  5
5B6
331
4F5
  5
4F5
331
5E5
  5
5F5
331
692
  5
6A2
331
1507
  5
1518
331
150F
  5
1520
331
1540
  5
1551
331
69A
  5
9DA
331
A01
  5
A1F
331
534
  5
534
331
624
  5
634
331
663
  5
673
331
14D0
  5
14E1
331
1627
  5
57D
331
4BE
  5
4BE
331
5AE
  5
5BE
331
4FD
  5
4FD
331
5ED
  5
5FD
331
1517
  5
1528
331
1548
  5
1559
331
6A2
  5
9E4
331
53C
  5
53C
331
62C
  5
646
331
4C6
  5
4C6
331
5B6
  5
5C6
331
14D8
  5
14E9
331
16E7
  5
16EB
331
1550
  5
1561
331
14E0
  5
14F1
331
66B
  5
67B
331
4CE
  5
4CE
331
5BE
  5
5CE
331
505
  5
505
331
5F5
  5
605
331
48F
  5
48F
331
57F
  5
58B
331
544
  5
544
331
634
  5
64E
331
A09
  5
14C1
331
1558
  5
1569
331
14E8
  5
14F9
331
673
  5
683
331
4D6
  5
4D6
331
5C6
  5
5D6
331
50D
  5
50D
331
5FD
  5
60D
331
9DA
  5
9EC
331
1519
  5
152A
331
497
  5
497
331
587
  5
593
331
1560
  5
1571
331
A21
  5
14CB
331
14F0
  5
1501
331
554
  5
558
331
644
  5
654
331
67B
  5
68B
331
49F
  5
49F
331
58F
  5
59C
331
4DE
  5
4DE
331
5CE
  5
5DE
331
515
  5
515
331
605
  5
615
331
9E2
  5
9F2
331
1521
  5
1532
331
1529
  5
153A
331
1568
  5
1629
331
9EA
  5
9FA
331
51D
  5
51D
331
60D
  5
61D
331
55C
  5
560
331
64C
  5
65C
331
4A7
  5
4A7
331
597
  5
5A4
331
4E6
  5
4E6
331
5D6
  5
5E6
331
683
  5
693
331
14F8
  5
1509
331
1531
  5
1542
331
1570
  5
16E7
331
472
  5
472
331
1500
  5
1511
331
68B
  5
69B
331
9F2
  5
A02
331
5DE
  5
5EE
331
525
  5
525
331
615
  5
625
331
564
  5
568
331
654
  5
664
331
14C1
  5
14D2
331
47A
  5
47A
331
4AF
  5
4AF
331
59F
  5
5AF
331
4EE
  5
4EE
331
14C9
  5
14DA
331
1508
  5
1519
331
693
  5
6A3
331
9FA
  5
A0A
331
1539
  5
154A
331
4F6
  5
4F6
331
5E6
  5
5F6
331
52D
  5
52D
331
61D
  5
62D
331
482
  5
482
331
5A7
  5
5B7
331
65C
  5
66C
331
1628
  5
57E
331
14D1
  5
14E2
331
1510
  5
1521
331
574
  5
579
331
664
  5
674
331
69B
  5
9DB
331
4BF
  5
4BF
331
5AF
  5
5BF
331
4FE
  5
4FE
331
5EE
  5
5FE
331
535
  5
535
331
625
  5
635
331
A02
  5
A20
331
1541
  5
1552
331
1549
  5
155A
331
14D9
  5
14EA
331
53D
  5
53D
331
62D
  5
647
331
4C7
  5
4C7
331
5B7
  5
5C7
331
6A3
  5
9E5
331
1551
  5
1562
331
488
  5
488
331
A0A
  5
14C2
331
635
  5
64F
331
66C
  5
67C
331
14E1
  5
14F2
331
490
  5
490
331
580
  5
58C
331
4CF
  5
4CF
331
5BF
  5
5CF
331
506
  5
506
331
5F6
  5
606
331
151A
  5
152B
331
1559
  5
156A
331
9DB
  5
9ED
331
50E
  5
50E
331
5FE
  5
60E
331
54D
  5
551
331
498
  5
498
331
588
  5
594
331
4D7
  5
4D7
331
5C7
  5
5D7
331
674
  5
684
331
14E9
  5
14FA
331
16E8
  5
16EC
331
14F1
  5
1502
331
1522
  5
1533
331
67C
  5
68C
331
9E3
  5
9F3
331
4DF
  5
4DF
331
5CF
  5
5DF
331
516
  5
516
331
606
  5
616
331
4A0
  5
4A0
331
590
  5
59D
331
555
  5
559
331
645
  5
655
331
A22
  5
14CC
331
1561
  5
1572
331
1569
  5
162A
331
14F9
  5
150A
331
64D
  5
65D
331
684
  5
694
331
9EB
  5
9FB
331
152A
  5
153B
331
4E7
  5
4E7
331
5D7
  5
5E7
331
51E
  5
51E
331
60E
  5
61E
331
55D
  5
561
331
1532
  5
1543
331
473
  5
473
331
4A8
  5
4A8
331
598
  5
5A5
331
14C2
  5
14D3
331
1501
  5
1512
331
565
  5
569
331
655
  5
665
331
68C
  5
69C
331
47B
  5
47B
331
4B0
  5
4B0
331
5A0
  5
5B0
331
4EF
  5
4EF
331
5DF
  5
5EF
331
526
  5
526
331
616
  5
626
331
9F3
  5
A03
331
153A
  5
154B
331
9FB
  5
A0B
331
14CA
  5
14DB
331
52E
  5
52E
331
61E
  5
62E
331
65D
  5
66D
331
483
  5
483
331
4B8
  5
4B8
331
5A8
  5
5B8
331
4F7
  5
4F7
331
5E7
  5
5F7
331
694
  5
6A4
331
1509
  5
151A
331
1511
  5
1522
331
1542
  5
1553
331
69C
  5
9DC
331
A03
  5
A22
331
5EF
  5
5FF
331
626
  5
636
331
575
  5
57A
331
665
  5
675
331
14D2
  5
14E3
331
1629
  5
57F
331
4C0
  5
4C0
331
5B0
  5
5C0
331
4FF
  5
4FF
331
14DA
  5
14EB
331
6A4
  5
9E6
331
53E
  5
53E
331
62E
  5
648
331
154A
  5
155B
331
1552
  5
1563
331
489
  5
489
331
579
  5
585
331
4C8
  5
4C8
331
5B8
  5
5C8
331
14E2
  5
14F3
331
66D
  5
67D
331
4D0
  5
4D0
331
5C0
  5
5D0
331
507
  5
507
331
5F7
  5
607
331
491
  5
491
331
581
  5
58D
331
636
  5
650
331
A0B
  5
14C3
331
155A
  5
156B
331
16E9
  5
16ED
331
A1B
  5
14C5
331
14EA
  5
14FB
331
54E
  5
553
331
675
  5
685
331
589
  5
595
331
4D8
  5
4D8
331
5C8
  5
5D8
331
50F
  5
50F
331
5FF
  5
60F
331
9DC
  5
9EE
331
151B
  5
152C
331
499
  5
499
331
1523
  5
1534
331
1562
  5
1622
331
9E4
  5
9F4
331
A23
  5
14CD
331
556
  5
55A
331
646
  5
656
331
67D
  5
68D
331
14F2
  5
1503
331
4A1
  5
4A1
331
591
  5
59E
331
4E0
  5
4E0
331
5D0
  5
5E0
331
517
  5
517
331
607
  5
617
331
152B
  5
153C
331
156A
  5
162B
331
9EC
  5
9FC
331
51F
  5
51F
331
60F
  5
61F
331
55E
  5
562
331
64E
  5
65E
331
685
  5
695
331
14FA
  5
150B
331
1533
  5
1544
331
1572
  5
16E9
331
474
  5
474
331
4A9
  5
4A9
331
599
  5
5A6
331
4E8
  5
4E8
331
5D8
  5
5E8
331
1502
  5
1513
331
68D
  5
69D
331
9F4
  5
A04
331
4F0
  5
4F0
331
5E0
  5
5F0
331
527
  5
527
331
617
  5
627
331
47C
  5
47C
331
4B1
  5
4B1
331
5A1
  5
5B1
331
566
  5
56A
331
656
  5
666
331
14C3
  5
14D4
331
1622
  5
5A8
331
14CB
  5
14DC
331
150A
  5
151B
331
65E
  5
66E
331
695
  5
6A5
331
4F8
  5
4F8
331
5E8
  5
5F8
331
52F
  5
52F
331
61F
  5
62F
331
9FC
  5
A0C
331
153B
  5
154C
331
484
  5
484
331
4B9
  5
4B9
331
5A9
  5
5B9
331
162A
  5
580
331
14D3
  5
14E4
331
1512
  5
1523
331
576
  5
57B
331
666
  5
676
331
69D
  5
9DD
331
4C1
  5
4C1
331
5B1
  5
5C1
331
537
  5
537
331
627
  5
637
331
A04
  5
A23
331
1543
  5
1554
331
154B
  5
155C
331
14DB
  5
14EC
331
53F
  5
53F
331
62F
  5
649
331
6A5
  5
9E7
331
1553
  5
1564
331
48A
  5
48A
331
57A
  5
586
331
4C9
  5
4C9
331
5B9
  5
5C9
331
500
  5
500
331
5F0
  5
600
331
A0C
  5
14C4
331
5F8
  5
608
331
547
  5
547
331
637
  5
651
331
66E
  5
67E
331
14E3
  5
14F4
331
492
  5
492
331
582
  5
58E
331
4D1
  5
4D1
331
5C1
  5
5D1
331
508
  5
508
331
16EA
  5
54A
331
14EB
  5
14FC
331
151C
  5
152D
331
9DD
  5
9EF
331
A1C
  5
14C6
331
155B
  5
156C
331
510
  5
510
331
600
  5
610
331
49A
  5
49A
331
58A
  5
596
331
4D9
  5
4D9
331
5C9
  5
5D9
331
676
  5
686
331
14F3
  5
1504
331
67E
  5
68E
331
9E5
  5
9F5
331
1524
  5
1535
331
4E1
  5
4E1
331
5D1
  5
5E1
331
518
  5
518
331
608
  5
618
331
4A2
  5
4A2
331
592
  5
59F
331
557
  5
55B
331
647
  5
657
331
1563
  5
1623
331
156B
  5
162C
331
14FB
  5
150C
331
55F
  5
563
331
64F
  5
65F
331
686
  5
696
331
9ED
  5
9FD
331
152C
  5
153D
331
1534
  5
1545
331
59A
  5
5A7
331
4E9
  5
4E9
331
5D9
  5
5E9
331
520
  5
520
331
610
  5
620
331
475
  5
475
331
4AA
  5
4AA
331
9F5
  5
A05
331
14C4
  5
14D5
331
567
  5
56B
331
657
  5
667
331
68E
  5
69E
331
1503
  5
1514
331
47D
  5
47D
331
4B2
  5
4B2
331
5A2
  5
5B2
331
4F1
  5
4F1
331
5E1
  5
5F1
331
528
  5
528
331
618
  5
628
331
153C
  5
154D
331
1623
  5
5A9
331
9FD
  5
A1B
331
14CC
  5
14DD
331
530
  5
530
331
620
  5
630
331
65F
  5
66F
331
485
  5
485
331
4BA
  5
4BA
331
5AA
  5
5BA
331
4F9
  5
4F9
331
5E9
  5
5F9
331
696
  5
6A6
331
150B
  5
151C
331
1513
  5
1524
331
1544
  5
1555
331
69E
  5
9DF
331
A05
  5
14BD
331
538
  5
538
331
628
  5
638
331
4C2
  5
4C2
331
5B2
  5
5C2
331
577
  5
57C
331
667
  5
677
331
14D4
  5
14E5
331
162B
  5
581
331
14DC
  5
14ED
331
6A6
  5
9E8
331
154C
  5
155D
331
1554
  5
1565
331
501
  5
501
331
5F1
  5
601
331
540
  5
540
331
630
  5
64A
331
48B
  5
48B
331
57B
  5
587
331
4CA
  5
4CA
331
5BA
  5
5CA
331
66F
  5
67F
331
14E4
  5
14F5
331
4D2
  5
4D2
331
5C2
  5
5D2
331
509
  5
509
331
5F9
  5
609
331
493
  5
493
331
583
  5
58F
331
638
  5
652
331
155C
  5
156D
331
16EB
  5
54E
331
A1D
  5
14C7
331
677
  5
687
331
14EC
  5
14FD
331
49B
  5
49B
331
58B
  5
597
331
4DA
  5
4DA
331
5CA
  5
5DA
331
511
  5
511
331
601
  5
611
331
151D
  5
152E
331
1525
  5
1536
331
1564
  5
1624
331
9E6
  5
9F6
331
609
  5
619
331
558
  5
55C
331
648
  5
658
331
67F
  5
68F
331
14F4
  5
1505
331
4A3
  5
4A3
331
593
  5
5A0
331
4E2
  5
4E2
331
5D2
  5
5E2
331
519
  5
519
331
14FC
  5
150D
331
152D
  5
153E
331
9EE
  5
9FE
331
14BD
  5
14CE
331
156C
  5
162D
331
687
  5
697
331
1535
  5
1546
331
521
  5
521
331
611
  5
621
331
560
  5
564
331
650
  5
660
331
476
  5
476
331
4AB
  5
4AB
331
4EA
  5
4EA
331
5DA
  5
5EA
331
1504
  5
1515
331
68F
  5
69F
331
9F6
  5
A06
331
4F2
  5
4F2
331
5E2
  5
5F2
331
529
  5
529
331
619
  5
629
331
47E
  5
47E
331
4B3
  5
4B3
331
5A3
  5
5B3
331
568
  5
574
331
658
  5
668
331
14C5
  5
14D6
331
1624
  5
5AA
331
14CD
  5
14DE
331
150C
  5
151D
331
660
  5
670
331
697
  5
9D7
331
5AB
  5
5BB
331
4FA
  5
4FA
331
5EA
  5
5FA
331
531
  5
531
331
621
  5
631
331
9FE
  5
A1C
331
153D
  5
154E
331
486
  5
486
331
4BB
  5
4BB
331
1545
  5
1556
331
162C
  5
582
331
A06
  5
14BE
331
14D5
  5
14E6
331
69F
  5
9E1
331
1514
  5
1525
331
4C3
  5
4C3
331
5B3
  5
5C3
331
539
  5
539
331
629
  5
639
331
154D
  5
155E
331
14DD
  5
14EE
331
1555
  5
1566
331
541
  5
541
331
631
  5
64B
331
668
  5
678
331
48C
  5
48C
331
57C
  5
588
331
4CB
  5
4CB
331
5BB
  5
5CB
331
502
  5
502
331
5F2
  5
602
331
9D7
  5
9E9
331
50A
  5
50A
331
5FA
  5
60A
331
639
  5
653
331
494
  5
494
331
584
  5
590
331
4D3
  5
4D3
331
5C3
  5
5D3
331
670
  5
680
331
14E5
  5
14F6
331
16EC
  5
554
331
14ED
  5
14FE
331
151E
  5
152F
331
678
  5
688
331
9DF
  5
9F0
331
512
  5
512
331
602
  5
612
331
551
  5
555
331
A1E
  5
14C8
331
155D
  5
156E
331
49C
  5
49C
331
58C
  5
598
331
4DB
  5
4DB
331
5CB
  5
5DB
331
14F5
  5
1506
331
680
  5
690
331
9E7
  5
9F7
331
1526
  5
1537
331
4E3
  5
4E3
331
5D3
  5
5E3
331
51A
  5
51A
331
60A
  5
61A
331
4A4
  5
4A4
331
594
  5
5A1
331
559
  5
55D
331
649
  5
659
331
1565
  5
1625
331
156D
  5
162E
331
14BE
  5
14CF
331
14FD
  5
150E
331
9EF
  5
9FF
331
152E
  5
153F
331
1536
  5
1547
331
561
  5
565
331
651
  5
661
331
688
  5
698
331
4AC
  5
4AC
331
59C
  5
5AC
331
4EB
  5
4EB
331
5DB
  5
5EB
331
522
  5
522
331
612
  5
622
331
477
  5
477
331
9F7
  5
A07
331
14C6
  5
14D7
331
61A
  5
62A
331
569
  5
575
331
659
  5
669
331
690
  5
6A0
331
1505
  5
1516
331
47F
  5
47F
331
4B4
  5
4B4
331
5A4
  5
5B4
331
4F3
  5
4F3
331
5E3
  5
5F3
331
52A
  5
52A
  0
DBCOLOR
  5
74D
102
{ACAD_REACTORS
330
BE
102
}
330
BE
100
AcDbColor
  0
LAYOUT
  5
22
102
{ACAD_XDICTIONARY
360
17B9
102
}
102
{ACAD_REACTORS
330
1A
102
}
330
1A
100
AcDbPlotSettings
  1

  2

  4

  6

 40
0.0
 41
0.0
 42
0.0
 43
0.0
 44
0.0
 45
0.0
 46
0.0
 47
0.0
 48
0.0
 49
0.0
140
0.0
141
0.0
142
1.0
143
1.0
 70
  1712
 72
     0
 73
     0
 74
     0
  7

 75
     0
147
1.0
148
0.0
149
0.0
100
AcDbLayout
  1
Model
 70
     1
 71
     0
 10
0.0
 20
0.0
 11
12.0
 21
9.0
 12
0.0
 22
0.0
 32
0.0
 14
0.0
 24
0.0
 34
0.0
 15
0.0
 25
0.0
 35
0.0
146
0.0
 13
0.0
 23
0.0
 33
0.0
 16
1.0
 26
0.0
 36
0.0
 17
0.0
 27
1.0
 37
0.0
 76
     0
330
1F
  0
LAYOUT
  5
1E
102
{ACAD_XDICTIONARY
360
17B7
102
}
102
{ACAD_REACTORS
330
1A
102
}
330
1A
100
AcDbPlotSettings
  1

  2

  4

  6

 40
0.0
 41
0.0
 42
0.0
 43
0.0
 44
0.0
 45
0.0
 46
0.0
 47
0.0
 48
0.0
 49
0.0
140
0.0
141
0.0
142
1.0
143
1.0
 70
   688
 72
     0
 73
     0
 74
     5
  7

 75
    16
147
1.0
148
0.0
149
0.0
100
AcDbLayout
  1
レイアウト1
 70
     1
 71
     1
 10
0.0
 20
0.0
 11
420.0
 21
297.0
 12
0.0
 22
0.0
 32
0.0
 14
1.000000000000000E+20
 24
1.000000000000000E+20
 34
1.000000000000000E+20
 15
-1.000000000000000E+20
 25
-1.000000000000000E+20
 35
-1.000000000000000E+20
146
0.0
 13
0.0
 23
0.0
 33
0.0
 16
1.0
 26
0.0
 36
0.0
 17
0.0
 27
1.0
 37
0.0
 76
     0
330
1B
  0
LAYOUT
  5
26
102
{ACAD_XDICTIONARY
360
17BB
102
}
102
{ACAD_REACTORS
330
1A
102
}
330
1A
100
AcDbPlotSettings
  1

  2

  4

  6

 40
0.0
 41
0.0
 42
0.0
 43
0.0
 44
0.0
 45
0.0
 46
0.0
 47
0.0
 48
0.0
 49
0.0
140
0.0
141
0.0
142
1.0
143
1.0
 70
   688
 72
     0
 73
     0
 74
     5
  7

 75
    16
147
1.0
148
0.0
149
0.0
100
AcDbLayout
  1
レイアウト2
 70
     1
 71
     2
 10
0.0
 20
0.0
 11
12.0
 21
9.0
 12
0.0
 22
0.0
 32
0.0
 14
0.0
 24
0.0
 34
0.0
 15
0.0
 25
0.0
 35
0.0
146
0.0
 13
0.0
 23
0.0
 33
0.0
 16
1.0
 26
0.0
 36
0.0
 17
0.0
 27
1.0
 37
0.0
 76
     0
330
23
  0
MLINESTYLE
  5
18
102
{ACAD_REACTORS
330
17
102
}
330
17
100
AcDbMlineStyle
  2
STANDARD
 70
     0
  3

 62
   256
 51
90.0
 52
90.0
 71
     2
 49
0.5
 62
   256
  6
BYLAYER
 49
-0.5
 62
   256
  6
BYLAYER
  0
ACDBPLACEHOLDER
  5
F
102
{ACAD_REACTORS
330
E
102
}
330
E
  0
TABLESTYLE
  5
11B
102
{ACAD_REACTORS
330
11A
102
}
330
11A
100
AcDbTableStyle
  3
Standard
 70
     0
 71
     0
 40
1.5
 41
1.5
280
     0
281
     0
  7
STANDARD
140
4.5
170
     2
 62
     0
 63
     7
283
     0
274
    -2
284
     1
 64
     0
275
    -2
285
     1
 65
     0
276
    -2
286
     1
 66
     0
277
    -2
287
     1
 67
     0
278
    -2
288
     1
 68
     0
279
    -2
289
     1
 69
     0
  7
STANDARD
140
6.0
170
     5
 62
     0
 63
     7
283
     0
274
    -2
284
     1
 64
     0
275
    -2
285
     1
 65
     0
276
    -2
286
     1
 66
     0
277
    -2
287
     1
 67
     0
278
    -2
288
     1
 68
     0
279
    -2
289
     1
 69
     0
  7
STANDARD
140
4.5
170
     5
 62
     0
 63
     7
283
     0
274
    -2
284
     1
 64
     0
275
    -2
285
     1
 65
     0
276
    -2
286
     1
 66
     0
277
    -2
287
     1
 67
     0
278
    -2
288
     1
 68
     0
279
    -2
289
     1
 69
     0
  0
DICTIONARYVAR
  5
138
102
{ACAD_REACTORS
330
94
102
}
330
94
100
DictionaryVariables
280
     0
  1
STANDARD
  0
DICTIONARYVAR
  5
96
102
{ACAD_REACTORS
330
94
102
}
330
94
100
DictionaryVariables
280
     0
  1
2
  0
DICTIONARYVAR
  5
95
102
{ACAD_REACTORS
330
94
102
}
330
94
100
DictionaryVariables
280
     0
  1
0
  0
DICTIONARYVAR
  5
6A8
102
{ACAD_REACTORS
330
94
102
}
330
94
100
DictionaryVariables
280
     0
  1

  0
DICTIONARY
  5
1B5
102
{ACAD_REACTORS
330
5B
102
}
330
5B
100
AcDbDictionary
281
     1
  0
DICTIONARY
  5
61
102
{ACAD_REACTORS
330
5B
102
}
330
5B
100
AcDbDictionary
281
     1
  0
XRECORD
  5
123
102
{ACAD_REACTORS
330
5B
102
}
330
5B
100
AcDbXrecord
280
     1
 90
-1023410169
  0
DICTIONARY
  5
17B9
330
22
100
AcDbDictionary
280
     1
281
     1
  3
ACAD_XREC_ROUNDTRIP
360
17BA
  0
DICTIONARY
  5
17B7
330
1E
100
AcDbDictionary
280
     1
281
     1
  3
ACAD_XREC_ROUNDTRIP
360
17B8
  0
DICTIONARY
  5
17BB
330
26
100
AcDbDictionary
280
     1
281
     1
  3
ACAD_XREC_ROUNDTRIP
360
17BC
  0
XRECORD
  5
17BA
102
{ACAD_REACTORS
330
17B9
102
}
330
17B9
100
AcDbXrecord
280
     1
102
SHADEPLOT
 70
     0
102
SHADEPLOTRESLEVEL
 70
     2
102
SHADEPLOTCUSTOMDPI
 70
   300
  0
XRECORD
  5
17B8
102
{ACAD_REACTORS
330
17B7
102
}
330
17B7
100
AcDbXrecord
280
     1
102
SHADEPLOT
 70
     0
102
SHADEPLOTRESLEVEL
 70
     2
102
SHADEPLOTCUSTOMDPI
 70
   300
  0
XRECORD
  5
17BC
102
{ACAD_REACTORS
330
17BB
102
}
330
17BB
100
AcDbXrecord
280
     1
102
SHADEPLOT
 70
     0
102
SHADEPLOTRESLEVEL
 70
     2
102
SHADEPLOTCUSTOMDPI
 70
   300
  0
ENDSEC
  0
EOF
