  0
SECTION
  2
HEADER
  9
$ACADVER
  1
AC1015
  9
$ACADMAINTVER
 70
    20
  9
$DWGCODEPAGE
  3
ANSI_932
  9
$INSBASE
 10
0.0
 20
0.0
 30
0.0
  9
$EXTMIN
 10
-0.7248743221939922
 20
-0.3106604537208479
 30
0.0
  9
$EXTMAX
 10
304.099873146112
 20
182.8749997180591
 30
0.0
  9
$LIMMIN
 10
0.0
 20
0.0
  9
$LIMMAX
 10
420.0
 20
297.0
  9
$ORTHOMODE
 70
     0
  9
$REGENMODE
 70
     1
  9
$FILLMODE
 70
     1
  9
$QTEXTMODE
 70
     0
  9
$MIRRTEXT
 70
     1
  9
$LTSCALE
 40
1.0
  9
$ATTMODE
 70
     1
  9
$TEXTSIZE
 40
1.0
  9
$TRACEWID
 40
1.0
  9
$TEXTSTYLE
  7
ACISOTS
  9
$CLAYER
  8
AM_0
  9
$CELTYPE
  6
ByLayer
  9
$CECOLOR
 62
   256
  9
$CELTSCALE
 40
1.0
  9
$DISPSILH
 70
     0
  9
$DIMSCALE
 40
1.0
  9
$DIMASZ
 40
2.5
  9
$DIMEXO
 40
1.0
  9
$DIMDLI
 40
10.0
  9
$DIMRND
 40
0.0
  9
$DIMDLE
 40
0.0
  9
$DIMEXE
 40
1.0
  9
$DIMTP
 40
0.1
  9
$DIMTM
 40
0.1
  9
$DIMTXT
 40
3.5
  9
$DIMCEN
 40
0.0
  9
$DIMTSZ
 40
0.0
  9
$DIMTOL
 70
     0
  9
$DIMLIM
 70
     0
  9
$DIMTIH
 70
     0
  9
$DIMTOH
 70
     0
  9
$DIMSE1
 70
     0
  9
$DIMSE2
 70
     0
  9
$DIMTAD
 70
     1
  9
$DIMZIN
 70
     8
  9
$DIMBLK
  1

  9
$DIMASO
 70
     1
  9
$DIMSHO
 70
     1
  9
$DIMPOST
  1

  9
$DIMAPOST
  1
"
  9
$DIMALT
 70
     0
  9
$DIMALTD
 70
     2
  9
$DIMALTF
 40
0.0393701
  9
$DIMLFAC
 40
1.0
  9
$DIMTOFL
 70
     1
  9
$DIMTVP
 40
0.0
  9
$DIMTIX
 70
     0
  9
$DIMSOXD
 70
     0
  9
$DIMSAH
 70
     0
  9
$DIMBLK1
  1

  9
$DIMBLK2
  1

  9
$DIMSTYLE
  2
AM_ISO
  9
$DIMCLRD
 70
   256
  9
$DIMCLRE
 70
   256
  9
$DIMCLRT
 70
     2
  9
$DIMTFAC
 40
0.71
  9
$DIMGAP
 40
1.5
  9
$DIMJUST
 70
     0
  9
$DIMSD1
 70
     0
  9
$DIMSD2
 70
     0
  9
$DIMTOLJ
 70
     0
  9
$DIMTZIN
 70
     8
  9
$DIMALTZ
 70
     0
  9
$DIMALTTZ
 70
     0
  9
$DIMUPT
 70
     0
  9
$DIMDEC
 70
     2
  9
$DIMTDEC
 70
     3
  9
$DIMALTU
 70
     2
  9
$DIMALTTD
 70
     4
  9
$DIMTXSTY
  7
STANDARD
  9
$DIMAUNIT
 70
     0
  9
$DIMADEC
 70
     0
  9
$DIMALTRND
 40
0.0
  9
$DIMAZIN
 70
     2
  9
$DIMDSEP
 70
    46
  9
$DIMATFIT
 70
     3
  9
$DIMFRAC
 70
     0
  9
$DIMLDRBLK
  1

  9
$DIMLUNIT
 70
     2
  9
$DIMLWD
 70
    -1
  9
$DIMLWE
 70
    -1
  9
$DIMTMOVE
 70
     0
  9
$LUNITS
 70
     2
  9
$LUPREC
 70
     2
  9
$SKETCHINC
 40
1.0
  9
$FILLETRAD
 40
0.0
  9
$AUNITS
 70
     0
  9
$AUPREC
 70
     0
  9
$MENU
  1
.
  9
$ELEVATION
 40
0.0
  9
$PELEVATION
 40
0.0
  9
$THICKNESS
 40
0.0
  9
$LIMCHECK
 70
     0
  9
$CHAMFERA
 40
2.5
  9
$CHAMFERB
 40
2.5
  9
$CHAMFERC
 40
20.0
  9
$CHAMFERD
 40
0.0
  9
$SKPOLY
 70
     0
  9
$TDCREATE
 40
2456406.601094699
  9
$TDUCREATE
 40
2456406.226094699
  9
$TDUPDATE
 40
2456406.639740382
  9
$TDUUPDATE
 40
2456406.264740382
  9
$TDINDWG
 40
0.0029262037
  9
$TDUSRTIMER
 40
0.0029124653
  9
$USRTIMER
 70
     1
  9
$ANGBASE
 50
0.0
  9
$ANGDIR
 70
     0
  9
$PDMODE
 70
     0
  9
$PDSIZE
 40
0.0
  9
$PLINEWID
 40
0.0
  9
$SPLFRAME
 70
     0
  9
$SPLINETYPE
 70
     6
  9
$SPLINESEGS
 70
     8
  9
$HANDSEED
  5
964
  9
$SURFTAB1
 70
     6
  9
$SURFTAB2
 70
     6
  9
$SURFTYPE
 70
     6
  9
$SURFU
 70
     6
  9
$SURFV
 70
     6
  9
$UCSBASE
  2

  9
$UCSNAME
  2

  9
$UCSORG
 10
0.0
 20
0.0
 30
0.0
  9
$UCSXDIR
 10
1.0
 20
0.0
 30
0.0
  9
$UCSYDIR
 10
0.0
 20
1.0
 30
0.0
  9
$UCSORTHOREF
  2

  9
$UCSORTHOVIEW
 70
     0
  9
$UCSORGTOP
 10
0.0
 20
0.0
 30
0.0
  9
$UCSORGBOTTOM
 10
0.0
 20
0.0
 30
0.0
  9
$UCSORGLEFT
 10
0.0
 20
0.0
 30
0.0
  9
$UCSORGRIGHT
 10
0.0
 20
0.0
 30
0.0
  9
$UCSORGFRONT
 10
0.0
 20
0.0
 30
0.0
  9
$UCSORGBACK
 10
0.0
 20
0.0
 30
0.0
  9
$PUCSBASE
  2

  9
$PUCSNAME
  2

  9
$PUCSORG
 10
0.0
 20
0.0
 30
0.0
  9
$PUCSXDIR
 10
1.0
 20
0.0
 30
0.0
  9
$PUCSYDIR
 10
0.0
 20
1.0
 30
0.0
  9
$PUCSORTHOREF
  2

  9
$PUCSORTHOVIEW
 70
     0
  9
$PUCSORGTOP
 10
0.0
 20
0.0
 30
0.0
  9
$PUCSORGBOTTOM
 10
0.0
 20
0.0
 30
0.0
  9
$PUCSORGLEFT
 10
0.0
 20
0.0
 30
0.0
  9
$PUCSORGRIGHT
 10
0.0
 20
0.0
 30
0.0
  9
$PUCSORGFRONT
 10
0.0
 20
0.0
 30
0.0
  9
$PUCSORGBACK
 10
0.0
 20
0.0
 30
0.0
  9
$USERI1
 70
     0
  9
$USERI2
 70
     0
  9
$USERI3
 70
     0
  9
$USERI4
 70
     0
  9
$USERI5
 70
     0
  9
$USERR1
 40
0.0
  9
$USERR2
 40
0.0
  9
$USERR3
 40
0.0
  9
$USERR4
 40
0.0
  9
$USERR5
 40
0.0
  9
$WORLDVIEW
 70
     1
  9
$SHADEDGE
 70
     3
  9
$SHADEDIF
 70
    70
  9
$TILEMODE
 70
     1
  9
$MAXACTVP
 70
    64
  9
$PINSBASE
 10
0.0
 20
0.0
 30
0.0
  9
$PLIMCHECK
 70
     0
  9
$PEXTMIN
 10
1.000000000000000E+20
 20
1.000000000000000E+20
 30
1.000000000000000E+20
  9
$PEXTMAX
 10
-1.000000000000000E+20
 20
-1.000000000000000E+20
 30
-1.000000000000000E+20
  9
$PLIMMIN
 10
0.0
 20
0.0
  9
$PLIMMAX
 10
420.0
 20
297.0
  9
$UNITMODE
 70
     0
  9
$VISRETAIN
 70
     1
  9
$PLINEGEN
 70
     0
  9
$PSLTSCALE
 70
     1
  9
$TREEDEPTH
 70
  3020
  9
$CMLSTYLE
  2
Standard
  9
$CMLJUST
 70
     0
  9
$CMLSCALE
 40
20.0
  9
$PROXYGRAPHICS
 70
     1
  9
$MEASUREMENT
 70
     1
  9
$CELWEIGHT
370
    -1
  9
$ENDCAPS
280
     0
  9
$JOINSTYLE
280
     0
  9
$LWDISPLAY
290
     0
  9
$INSUNITS
 70
     4
  9
$HYPERLINKBASE
  1

  9
$STYLESHEET
  1

  9
$XEDIT
290
     1
  9
$CEPSNTYPE
380
     0
  9
$PSTYLEMODE
290
     1
  9
$FINGERPRINTGUID
  2
{78957765-E4FE-4D6B-8613-34B0060940EB}
  9
$VERSIONGUID
  2
{AF9E9E82-12C1-4824-843D-CCDAE27A9415}
  9
$EXTNAMES
290
     1
  9
$PSVPSCALE
 40
0.0
  9
$OLESTARTUP
290
     0
  0
ENDSEC
  0
SECTION
  2
CLASSES
  0
CLASS
  1
ACDBDICTIONARYWDFLT
  2
AcDbDictionaryWithDefault
  3
ObjectDBX Classes
 90
        0
280
     0
281
     0
  0
CLASS
  1
ACDBPLACEHOLDER
  2
AcDbPlaceHolder
  3
ObjectDBX Classes
 90
        0
280
     0
281
     0
  0
CLASS
  1
LAYOUT
  2
AcDbLayout
  3
ObjectDBX Classes
 90
        0
280
     0
281
     0
  0
CLASS
  1
ACME_DOCUMENT
  2
AcMeDbDoc
  3
AcMeServices
 90
        0
280
     0
281
     0
  0
CLASS
  1
AMGSETTINGSOBJ
  2
AmgSettingsObj
  3
"AcadM|Product Description: AutoCAD Mechanical 2000|Company: Autodesk"
 90
        0
280
     0
281
     0
  0
CLASS
  1
ACMESCOPE
  2
AcMeScope
  3
AcMeServices
 90
        0
280
     0
281
     0
  0
CLASS
  1
ACMECOMMANDHISTORY
  2
AcMeCommandHistory
  3
AcMeServices
 90
        0
280
     0
281
     0
  0
CLASS
  1
ACIMSYSVARMAN
  2
AcImSysVarManager
  3
AcMeServices
 90
        0
280
     0
281
     0
  0
CLASS
  1
ACIMREALSYSVAR
  2
AcImRealSysVar
  3
AcMeServices
 90
        0
280
     0
281
     0
  0
CLASS
  1
ACIMINTSYSVAR
  2
AcImIntSysVar
  3
AcMeServices
 90
        0
280
     0
281
     0
  0
CLASS
  1
ACMEDRAWINGMAN
  2
AcMeDrawingMan
  3
AcMeServices
 90
        0
280
     0
281
     0
  0
CLASS
  1
ACMEVIEW
  2
AcMeView
  3
AcMeServices
 90
        0
280
     0
281
     0
  0
CLASS
  1
ACDBENTITYCACHE
  2
AcMeEntityCache
  3
AcMeServices
 90
        0
280
     0
281
     0
  0
CLASS
  1
GSMANAGER
  2
AcMeGSManager
  3
AcMeServices
 90
        0
280
     0
281
     0
  0
CLASS
  1
AMDTINTERNALREACTOR
  2
AmdtInternalReactor
  3
AcMeServices
 90
        0
280
     0
281
     0
  0
CLASS
  1
ACMESTATEMGR
  2
AcMeStateMgr
  3
AcMeServices
 90
        0
280
     0
281
     0
  0
CLASS
  1
ACGREFMASTER
  2
AcGrefMaster
  3
AcAttribServices
 90
        0
280
     0
281
     0
  0
CLASS
  1
ACME_DATABASE
  2
AcMeDbDatabase
  3
AcMeServices
 90
        0
280
     0
281
     0
  0
CLASS
  1
ACRFINSADJUSTERMGR
  2
AcRfInsAdjusterMgr
  3
AcMeServices
 90
        0
280
     0
281
     0
  0
CLASS
  1
ACGREFACADMASTER
  2
AcGrefacadMaster
  3
AcGrefServices
 90
        0
280
     0
281
     0
  0
CLASS
  1
AMIMASTER
  2
AmiMaster
  3
AmiServices
 90
        0
280
     0
281
     0
  0
CLASS
  1
ACMDATADICTIONARY
  2
AcmDataDictionary
  3
"AcmSymBB|Product Description: AutoCAD Mechanical 2004 DX|Company: Autodesk"
 90
        0
280
     0
281
     0
  0
CLASS
  1
ACMDATAENTRYBLOCK
  2
AcmDataEntryBlock
  3
"AcmSymBB|Product Description: AutoCAD Mechanical 2004 DX|Company: Autodesk"
 90
    32768
280
     0
281
     0
  0
CLASS
  1
ACIMSTRSYSVAR
  2
AcImStrSysVar
  3
AcMeServices
 90
        0
280
     0
281
     0
  0
CLASS
  1
ACMSTANDARDISO
  2
AcmStandardISO
  3
"Amdt_StdImp|Product Description: AutoCAD Mechanical 2004 DX|Company: Autodesk"
 90
    32768
280
     0
281
     0
  0
CLASS
  1
AMGOBJPROPCFG
  2
AmgObjPropCfg
  3
"AmgLay|Product Description: AutoCAD Mechanical 2000|Company: Autodesk"
 90
        1
280
     0
281
     0
  0
CLASS
  1
AMDTEDGESTANDARDISO
  2
AmdtEdgeStdISO
  3
"Amdt_StdImp|Product Description: AutoCAD Mechanical 2004 DX|Company: Autodesk"
 90
    32768
280
     0
281
     0
  0
CLASS
  1
ACMSURFSTANDARDISO
  2
AcmSurfTextStdISO
  3
"Amdt_StdImp|Product Description: AutoCAD Mechanical 2004 DX|Company: Autodesk"
 90
    32768
280
     0
281
     0
  0
CLASS
  1
ACMFCFSTANDARDISO
  2
AcmFCFStdISO
  3
"Amdt_StdImp|Product Description: AutoCAD Mechanical 2004 DX|Company: Autodesk"
 90
    32768
280
     0
281
     0
  0
CLASS
  1
ACMWELDSTANDARDISO
  2
AcmWeldingStdISO
  3
"Amdt_StdImp|Product Description: AutoCAD Mechanical 2004 DX|Company: Autodesk"
 90
    32768
280
     0
281
     0
  0
CLASS
  1
ACMIDSTANDARDISO
  2
AcmIdStdISO
  3
"Amdt_StdImp|Product Description: AutoCAD Mechanical 2004 DX|Company: Autodesk"
 90
    32768
280
     0
281
     0
  0
CLASS
  1
ACMDATUMSTANDARDISO
  2
AcmDatumStdISO
  3
"Amdt_StdImp|Product Description: AutoCAD Mechanical 2004 DX|Company: Autodesk"
 90
    32768
280
     0
281
     0
  0
CLASS
  1
ACMBOMSTANDARDISO
  2
AcmBOMStdISO
  3
"Amdt_StdImp|Product Description: AutoCAD Mechanical 2004 DX|Company: Autodesk"
 90
    32768
280
     0
281
     0
  0
CLASS
  1
ACMDETAILSTANDARDISO
  2
AmdtDetailSymStdISO
  3
"Amdt_StdImp|Product Description: AutoCAD Mechanical 2004 DX|Company: Autodesk"
 90
    32768
280
     0
281
     0
  0
CLASS
  1
ACMSECTIONSTANDARDISO
  2
AmdtSectionSymStdISO
  3
"Amdt_StdImp|Product Description: AutoCAD Mechanical 2004 DX|Company: Autodesk"
 90
    32768
280
     0
281
     0
  0
CLASS
  1
ACMCENTERLINESTANDARDISO
  2
AmdtCenterLineStdISO
  3
"Amdt_StdImp|Product Description: AutoCAD Mechanical 2004 DX|Company: Autodesk"
 90
    32768
280
     0
281
     0
  0
CLASS
  1
ACMNOTESTANDARDISO
  2
AmdtNoteStdISO
  3
"Amdt_StdImp|Product Description: AutoCAD Mechanical 2004 DX|Company: Autodesk"
 90
    32768
280
     0
281
     0
  0
CLASS
  1
ACAMGLAYSTD
  2
AcAmgLayStd
  3
"AcAmgLayStd|Product Description: AutoCAD Mechanical 2000|Company: Autodesk"
 90
        0
280
     0
281
     0
  0
CLASS
  1
ACAMGDIMSTD
  2
AcAmgDimStd
  3
"AcAmgDimStd|Product Description: AutoCAD Mechanical 2000|Company: Autodesk"
 90
        0
280
     0
281
     0
  0
CLASS
  1
ACAMGHOLECHARTSTDISO
  2
AcAmgHoleChartStdISO
  3
ACMSYMBB_MODULE_NAME
 90
    32768
280
     0
281
     0
  0
CLASS
  1
ACAMGTITLESTD
  2
AcAmgTitleStd
  3
"TITLEAPP"
 90
        0
280
     0
281
     0
  0
CLASS
  1
LAYER_INDEX
  2
AcDbLayerIndex
  3
ObjectDBX Classes
 90
    32768
280
     0
281
     0
  0
CLASS
  1
IDBUFFER
  2
AcDbIdBuffer
  3
ObjectDBX Classes
 90
    32768
280
     0
281
     0
  0
CLASS
  1
DICTIONARYVAR
  2
AcDbDictionaryVar
  3
ObjectDBX Classes
 90
        0
280
     0
281
     0
  0
CLASS
  1
AM_DRAWING_MGR
  2
AcDmDwgMgr
  3
AcMechDwgViewMgmt
 90
        0
280
     0
281
     0
  0
CLASS
  1
AM_DWG_DOCUMENT
  2
AcDmDwgDocument
  3
AcMechDwgViewMgmt
 90
        0
280
     0
281
     0
  0
CLASS
  1
AM_DWG_SHEET
  2
AcDmSheet
  3
AcMechDwgViewMgmt
 90
        0
280
     0
281
     0
  0
CLASS
  1
AM_VIEWDIMPARMAP
  2
AcDmViewDimParMap
  3
AcMechDwgViewMgmt
 90
        0
280
     0
281
     0
  0
CLASS
  1
AM_DWGMGR_NAME
  2
AcDmDwgMgrName
  3
AcMechDwgViewMgmt
 90
        0
280
     0
281
     0
  0
CLASS
  1
AMDTMENUSTATEMGR
  2
AmdtMenuStateMgr
  3
McadcomServices
 90
        0
280
     0
281
     0
  0
CLASS
  1
AMDTMCOMMENUSTATE
  2
AmdtMcomMenuState
  3
McadcomServices
 90
        0
280
     0
281
     0
  0
CLASS
  1
MAPIAMMOUDLE
  2
MApiAmModule
  3
MApiAmServices
 90
        0
280
     0
281
     0
  0
CLASS
  1
AMDTADMENUSTATE
  2
AmdtAdMenuState
  3
DesignerServices
 90
        0
280
     0
281
     0
  0
CLASS
  1
ADAPPL
  2
AcAdAppl
  3
DesignerServices
 90
        0
280
     0
281
     0
  0
CLASS
  1
DEPMGR
  2
AcAdDepMgr
  3
DesignerServices
 90
        0
280
     0
281
     0
  0
CLASS
  1
PARAMMGR
  2
AcAdParamMgr
  3
DesignerServices
 90
        0
280
     0
281
     0
  0
CLASS
  1
PARAMSCOPE
  2
AcAdParamScope
  3
DesignerServices
 90
        0
280
     0
281
     0
  0
CLASS
  1
NAMEDAPPL
  2
AcAdNamedAppl
  3
DesignerServices
 90
        0
280
     0
281
     0
  0
CLASS
  1
AMDTDMMENUSTATE
  2
AmdtDmMenuState
  3
AcMechDwgViewMgmt
 90
        0
280
     0
281
     0
  0
CLASS
  1
AMDTAMMENUSTATE
  2
AmdtAmMenuState
  3
DesignerAssemblies
 90
        0
280
     0
281
     0
  0
CLASS
  1
ACAMPROJECT
  2
AcAmProject
  3
DesignerAssemblies
 90
        0
280
     0
281
     0
  0
CLASS
  1
ACAMGRCOMPDEF
  2
AcAmGrCompDef
  3
DesignerAssemblies
 90
        0
280
     0
281
     0
  0
CLASS
  1
ACCMCONTEXT
  2
AcCmContext
  3
DesignerAssemblies
 90
        0
280
     0
281
     0
  0
CLASS
  1
ACAMCOMPDEF
  2
AcAmCompDef
  3
DesignerAssemblies
 90
        0
280
     0
281
     0
  0
CLASS
  1
ACAMCOMPDEFMGR
  2
AcAmCompDefMgr
  3
DesignerAssemblies
 90
        0
280
     0
281
     0
  0
CLASS
  1
AMCONTEXTMGR
  2
AcAmContextMgr
  3
DesignerAssemblies
 90
        0
280
     0
281
     0
  0
CLASS
  1
ACAMCONTEXTMODELER
  2
AcAmContextModeler
  3
DesignerAssemblies
 90
        0
280
     0
281
     0
  0
CLASS
  1
ACMTHREADLINESTANDARDISO
  2
AmdtThreadLineStdISO
  3
"Amdt_StdImp|Product Description: AutoCAD Mechanical 2004 DX|Company: Autodesk"
 90
    32768
280
     0
281
     0
  0
CLASS
  1
CATALOGSTATE
  2
AcAmCatalogState
  3
DesignerAssemblies
 90
        0
280
     0
281
     0
  0
CLASS
  1
ACAMGRCOMPDEFSET
  2
AcAmGrCompDefSet
  3
DesignerAssemblies
 90
        0
280
     0
281
     0
  0
CLASS
  1
AMDTBROWSERDBTAB
  2
AmdtBrowserDbTab
  3
McadcomServices
 90
        0
280
     0
281
     0
  0
CLASS
  1
CBROWSERAPPOBJECT
  2
CBrowserAppObject
  3
McadcomServices
 90
        0
280
     0
281
     0
  0
CLASS
  1
DM_PLACEHOLDER
  2
AcDmSelsetPlaceholder
  3
AcMechDwgViewMgmt
 90
        0
280
     0
281
     0
  0
CLASS
  1
TABLESTYLE
  2
AcDbTableStyle
  3
ObjectDBX Classes
 90
     2047
280
     0
281
     0
  0
CLASS
  1
VAACXREFPANELOBJECT
  2
VaAcXREFPanelObject
  3
VAAC_ADDIN
 90
    32768
280
     0
281
     0
  0
CLASS
  1
VAACIMAGEINVENTORY
  2
VaAcImageInventory
  3
VAAC_ADDIN
 90
    32768
280
     0
281
     0
  0
CLASS
  1
AMDTNOTETEMPLATEDB
  2
AmdtNoteTemplateDB
  3
AMDT_STDIMP_MODULE_NAME
 90
        0
280
     0
281
     0
  0
CLASS
  1
ACMBOM
  2
AcmBom
  3
"AcmSymBB|Product Description: AutoCAD Mechanical 2004 DX|Company: Autodesk"
 90
    32768
280
     0
281
     0
  0
CLASS
  1
AMDTFORMULAUPDATEDISPATCHER
  2
AmdtFormulaUpdateDispatcher
  3
AcMeServices
 90
    32768
280
     0
281
     0
  0
CLASS
  1
ACMPARTLIST
  2
AcmPartList
  3
"AcmSymBB|Product Description: AutoCAD Mechanical 2004 DX|Company: Autodesk"
 90
    33791
280
     0
281
     1
  0
CLASS
  1
ACAMGFILTERDAT
  2
AcAmgFilterDat
  3
"AcadM|Product Description: AutoCAD Mechanical 2000|Company: Autodesk"
 90
    32768
280
     0
281
     0
  0
CLASS
  1
SORTENTSTABLE
  2
AcDbSortentsTable
  3
ObjectDBX Classes
 90
        0
280
     0
281
     0
  0
CLASS
  1
ACMSTANDARDJIS
  2
AcmStandardJIS
  3
"Amdt_StdImp|Product Description: AutoCAD Mechanical 2004 DX|Company: Autodesk"
 90
        0
280
     0
281
     0
  0
CLASS
  1
ACMSURFSTANDARDJIS
  2
AcmSurfTextStdJIS
  3
"Amdt_StdImp|Product Description: AutoCAD Mechanical 2004 DX|Company: Autodesk"
 90
        0
280
     0
281
     0
  0
CLASS
  1
ACMFCFSTANDARDJIS
  2
AcmFCFStdJIS
  3
"Amdt_StdImp|Product Description: AutoCAD Mechanical 2004 DX|Company: Autodesk"
 90
        0
280
     0
281
     0
  0
CLASS
  1
ACMWELDSTANDARDJIS
  2
AcmWeldingStdJIS
  3
"Amdt_StdImp|Product Description: AutoCAD Mechanical 2004 DX|Company: Autodesk"
 90
        0
280
     0
281
     0
  0
CLASS
  1
ACMIDSTANDARDJIS
  2
AcmIdStdJIS
  3
"Amdt_StdImp|Product Description: AutoCAD Mechanical 2004 DX|Company: Autodesk"
 90
        0
280
     0
281
     0
  0
CLASS
  1
ACMDATUMSTANDARDJIS
  2
AcmDatumStdJIS
  3
"Amdt_StdImp|Product Description: AutoCAD Mechanical 2004 DX|Company: Autodesk"
 90
        0
280
     0
281
     0
  0
CLASS
  1
ACMBOMSTANDARDJIS
  2
AcmBOMStdJIS
  3
"Amdt_StdImp|Product Description: AutoCAD Mechanical 2004 DX|Company: Autodesk"
 90
        0
280
     0
281
     0
  0
CLASS
  1
ACMDETAILSTANDARDJIS
  2
AmdtDetailSymStdJIS
  3
"Amdt_StdImp|Product Description: AutoCAD Mechanical 2004 DX|Company: Autodesk"
 90
        0
280
     0
281
     0
  0
CLASS
  1
ACMSECTIONSTANDARDJIS
  2
AmdtSectionSymStdJIS
  3
"Amdt_StdImp|Product Description: AutoCAD Mechanical 2004 DX|Company: Autodesk"
 90
        0
280
     0
281
     0
  0
CLASS
  1
ACMCENTERLINESTANDARDJIS
  2
AmdtCenterLineStdJIS
  3
"Amdt_StdImp|Product Description: AutoCAD Mechanical 2004 DX|Company: Autodesk"
 90
        0
280
     0
281
     0
  0
CLASS
  1
ACMTHREADLINESTANDARDJIS
  2
AmdtThreadLineStdJIS
  3
"Amdt_StdImp|Product Description: AutoCAD Mechanical 2004 DX|Company: Autodesk"
 90
        0
280
     0
281
     0
  0
CLASS
  1
ACMNOTESTANDARDJIS
  2
AmdtNoteStdJIS
  3
"Amdt_StdImp|Product Description: AutoCAD Mechanical 2004 DX|Company: Autodesk"
 90
        0
280
     0
281
     0
  0
CLASS
  1
ACAMGHOLECHARTSTDJIS
  2
AcAmgHoleChartStdJIS
  3
ACMSYMBB_MODULE_NAME
 90
        0
280
     0
281
     0
  0
CLASS
  1
ACRFATTGENMGR
  2
AcRfAttGeneralMgr
  3
AcAttribServices
 90
    32768
280
     0
281
     0
  0
ENDSEC
  0
SECTION
  2
TABLES
  0
TABLE
  2
VPORT
  5
8
330
0
100
AcDbSymbolTable
 70
     3
  0
VPORT
  5
95B
330
8
100
AcDbSymbolTableRecord
100
AcDbViewportTableRecord
  2
*Active
 70
     0
 10
0.0
 20
0.0
 11
1.0
 21
1.0
 12
151.6809091131215
 22
91.28526368642372
 13
0.0
 23
0.0
 14
2.5
 24
2.5
 15
10.0
 25
10.0
 16
0.0
 26
0.0
 36
1.0
 17
0.0
 27
0.0
 37
0.0
 40
368.7389048912939
 41
1.954070981210855
 42
50.0
 43
0.0
 44
0.0
 50
0.0
 51
0.0
 71
     0
 72
   100
 73
     1
 74
     3
 75
     0
 76
     0
 77
     0
 78
     0
281
     0
 65
     1
110
0.0
120
0.0
130
0.0
111
1.0
121
0.0
131
0.0
112
0.0
122
1.0
132
0.0
 79
     0
146
0.0
  0
ENDTAB
  0
TABLE
  2
LTYPE
  5
5
330
0
100
AcDbSymbolTable
 70
    17
  0
LTYPE
  5
14
330
5
100
AcDbSymbolTableRecord
100
AcDbLinetypeTableRecord
  2
ByBlock
 70
     0
  3

 72
    65
 73
     0
 40
0.0
  0
LTYPE
  5
15
330
5
100
AcDbSymbolTableRecord
100
AcDbLinetypeTableRecord
  2
ByLayer
 70
     0
  3

 72
    65
 73
     0
 40
0.0
  0
LTYPE
  5
16
330
5
100
AcDbSymbolTableRecord
100
AcDbLinetypeTableRecord
  2
Continuous
 70
     0
  3
Solid line
 72
    65
 73
     0
 40
0.0
  0
LTYPE
  5
64
330
5
100
AcDbSymbolTableRecord
100
AcDbLinetypeTableRecord
  2
AM_ISO02W050
 70
     0
  3
__ __ __ __ __ __ __ __ __ __ __ __ __ __ __
 72
    65
 73
     2
 40
7.5
 49
6.0
 74
     0
 49
-1.5
 74
     0
  0
LTYPE
  5
65
330
5
100
AcDbSymbolTableRecord
100
AcDbLinetypeTableRecord
  2
AM_ISO08W050
 70
     0
  3
____ . ____ . ____ . ____ . ____ . ____ . ____
 72
    65
 73
     4
 40
18.0
 49
12.0
 74
     0
 49
-1.5
 74
     0
 49
3.0
 74
     0
 49
-1.5
 74
     0
  0
LTYPE
  5
66
330
5
100
AcDbSymbolTableRecord
100
AcDbLinetypeTableRecord
  2
AM_ISO09W050
 70
     0
  3
_____ . . _____ . . _____ . . ____ .. ____
 72
    65
 73
     6
 40
22.5
 49
12.0
 74
     0
 49
-1.5
 74
     0
 49
3.0
 74
     0
 49
-1.5
 74
     0
 49
3.0
 74
     0
 49
-1.5
 74
     0
  0
LTYPE
  5
67
330
5
100
AcDbSymbolTableRecord
100
AcDbLinetypeTableRecord
  2
Amconstr
 70
     0
  3
_______________________
 72
    65
 73
     2
 40
9999.0
 49
9999.0
 74
     0
 49
0.0
 74
     0
  0
LTYPE
  5
68
330
5
100
AcDbSymbolTableRecord
100
AcDbLinetypeTableRecord
  2
AM_ISO08W050x2
 70
     0
  3
__ . __ . __ . __ . __ . __
 72
    65
 73
     4
 40
9.0
 49
6.0
 74
     0
 49
-0.75
 74
     0
 49
1.5
 74
     0
 49
-0.75
 74
     0
  0
LTYPE
  5
69
330
5
100
AcDbSymbolTableRecord
100
AcDbLinetypeTableRecord
  2
AM_ISO02W050x2
 70
     0
  3
 _ _ _ _ _ _ _ _ _ _ _ _
 72
    65
 73
     2
 40
3.75
 49
3.0
 74
     0
 49
-0.75
 74
     0
  0
LTYPE
  5
6C
330
5
100
AcDbSymbolTableRecord
100
AcDbLinetypeTableRecord
  2
Amzigzag
 70
     0
  3
/\/-/\/-/\/-/\/-/\/-/\/
 72
    65
 73
     2
 40
11.0001
 49
0.0001
 74
     4
 75
   135
340
6B
 46
0.04
 50
0.0
 44
0.0
 45
0.0
 49
-11.0
 74
     0
  0
LTYPE
  5
7A
330
5
100
AcDbSymbolTableRecord
100
AcDbLinetypeTableRecord
  2
ACISOWELD
 70
     0
  3
_ _ _ _ _
 72
    65
 73
     2
 40
2.0
 49
2.0
 74
     0
 49
-1.0
 74
     0
  0
LTYPE
  5
7B
330
5
100
AcDbSymbolTableRecord
100
AcDbLinetypeTableRecord
  2
ACISOTGB
 70
     0
  3
__ . . __ . .
 72
    65
 73
     6
 40
9.0
 49
4.0
 74
     0
 49
-1.0
 74
     0
 49
1.0
 74
     0
 49
-1.0
 74
     0
 49
1.0
 74
     0
 49
-1.0
 74
     0
  0
LTYPE
  5
7C
330
5
100
AcDbSymbolTableRecord
100
AcDbLinetypeTableRecord
  2
ACISOTGL
 70
     0
  3
_ _ _ _ _
 72
    65
 73
     2
 40
3.0
 49
2.0
 74
     0
 49
-1.0
 74
     0
  0
LTYPE
  5
7E
330
5
100
AcDbSymbolTableRecord
100
AcDbLinetypeTableRecord
  2
CENTER
 70
     0
  3
__ . __
 72
    65
 73
     4
 40
7.0
 49
4.0
 74
     0
 49
-1.0
 74
     0
 49
1.0
 74
     0
 49
-1.0
 74
     0
  0
LTYPE
  5
D8
330
5
100
AcDbSymbolTableRecord
100
AcDbLinetypeTableRecord
  2
HIDDEN
 70
     0
  3
Hidden __ __ __ __ __ __ __ __ __ __ __ __ __ _
 72
    65
 73
     2
 40
9.524999999999996
 49
6.349999999999998
 74
     0
 49
-3.174999999999998
 74
     0
  0
LTYPE
  5
D9
330
5
100
AcDbSymbolTableRecord
100
AcDbLinetypeTableRecord
  2
PHANTOM2
 70
     0
  3
Phantom (.5x) ___ _ _ ___ _ _ ___ _ _ ___ _ _
 72
    65
 73
     6
 40
31.75
 49
15.875
 74
     0
 49
-3.174999999999998
 74
     0
 49
3.174999999999998
 74
     0
 49
-3.174999999999998
 74
     0
 49
3.174999999999998
 74
     0
 49
-3.174999999999998
 74
     0
  0
LTYPE
  5
207
330
5
100
AcDbSymbolTableRecord
100
AcDbLinetypeTableRecord
  2
ACJISTGB
 70
     0
  3
__ . . __ . .
 72
    65
 73
     6
 40
9.0
 49
4.0
 74
     0
 49
-1.0
 74
     0
 49
1.0
 74
     0
 49
-1.0
 74
     0
 49
1.0
 74
     0
 49
-1.0
 74
     0
  0
LTYPE
  5
208
330
5
100
AcDbSymbolTableRecord
100
AcDbLinetypeTableRecord
  2
ACJISTGL
 70
     0
  3
_ _ _ _ _
 72
    65
 73
     2
 40
3.0
 49
2.0
 74
     0
 49
-1.0
 74
     0
  0
LTYPE
  5
209
330
5
100
AcDbSymbolTableRecord
100
AcDbLinetypeTableRecord
  2
ACJISWELD
 70
     0
  3
_ _ _ _ _
 72
    65
 73
     2
 40
2.0
 49
2.0
 74
     0
 49
-1.0
 74
     0
  0
ENDTAB
  0
TABLE
  2
LAYER
  5
2
102
{ACAD_XDICTIONARY
360
21D
102
}
330
0
100
AcDbSymbolTable
 70
     3
  0
LAYER
  5
10
330
2
100
AcDbSymbolTableRecord
100
AcDbLayerTableRecord
  2
0
 70
     0
 62
     7
  6
Continuous
370
    -3
390
F
  0
LAYER
  5
1B0
330
2
100
AcDbSymbolTableRecord
100
AcDbLayerTableRecord
  2
AM_5
 70
     0
 62
     3
  6
Continuous
370
    25
390
F
  0
LAYER
  5
1FD
330
2
100
AcDbSymbolTableRecord
100
AcDbLayerTableRecord
  2
AM_0
 70
     0
 62
     7
  6
Continuous
370
    50
390
F
  0
ENDTAB
  0
TABLE
  2
STYLE
  5
3
330
0
100
AcDbSymbolTable
 70
     9
  0
STYLE
  5
11
330
3
100
AcDbSymbolTableRecord
100
AcDbTextStyleTableRecord
  2
STANDARD
 70
     0
 40
0.0
 41
1.0
 50
0.0
 71
     0
 42
2.5
  3
ISOCP.SHX
  4
extfont.shx
  0
STYLE
  5
6B
330
3
100
AcDbSymbolTableRecord
100
AcDbTextStyleTableRecord
  2

 70
     1
 40
0.0
 41
1.0
 50
0.0
 71
     0
 42
2.5
  3
ltypeshp.shx
  4

  0
STYLE
  5
6D
330
3
100
AcDbSymbolTableRecord
100
AcDbTextStyleTableRecord
  2
ACISOTS
 70
     0
 40
1.0
 41
1.0
 50
0.0
 71
     0
 42
1.0
  3
isocp.shx
  4
extfont.shx
  0
STYLE
  5
79
330
3
100
AcDbSymbolTableRecord
100
AcDbTextStyleTableRecord
  2
ACISOGDT
 70
     0
 40
0.0
 41
1.0
 50
0.0
 71
     0
 42
2.5
  3
amgdt.shx
  4
extfont.shx
  0
STYLE
  5
1F8
330
3
100
AcDbSymbolTableRecord
100
AcDbTextStyleTableRecord
  2
USER1
 70
     0
 40
0.0
 41
1.0
 50
0.0
 71
     0
 42
1.0
  3
TXT.SHX
  4

  0
STYLE
  5
1F9
330
3
100
AcDbSymbolTableRecord
100
AcDbTextStyleTableRecord
  2
USER2
 70
     0
 40
0.0
 41
1.0
 50
0.0
 71
     0
 42
1.0
  3
SIMPLEX.SHX
  4

  0
STYLE
  5
1FA
330
3
100
AcDbSymbolTableRecord
100
AcDbTextStyleTableRecord
  2
USER3
 70
     0
 40
0.0
 41
1.0
 50
0.0
 71
     0
 42
1.0
  3
ITALIC.SHX
  4

  0
STYLE
  5
1FB
330
3
100
AcDbSymbolTableRecord
100
AcDbTextStyleTableRecord
  2
ACJISTS
 70
     0
 40
1.0
 41
1.0
 50
0.0
 71
     0
 42
2.5
  3
isocp.shx
  4
extfont.shx
  0
STYLE
  5
1FC
330
3
100
AcDbSymbolTableRecord
100
AcDbTextStyleTableRecord
  2
ACJISGDT
 70
     0
 40
0.0
 41
1.0
 50
0.0
 71
     0
 42
2.5
  3
amgdt.shx
  4
extfont.shx
  0
ENDTAB
  0
TABLE
  2
VIEW
  5
6
330
0
100
AcDbSymbolTable
 70
     0
  0
ENDTAB
  0
TABLE
  2
UCS
  5
7
330
0
100
AcDbSymbolTable
 70
     0
  0
ENDTAB
  0
TABLE
  2
APPID
  5
9
330
0
100
AcDbSymbolTable
 70
    20
  0
APPID
  5
12
330
9
100
AcDbSymbolTableRecord
100
AcDbRegAppTableRecord
  2
ACAD
 70
     0
  0
APPID
  5
46
330
9
100
AcDbSymbolTableRecord
100
AcDbRegAppTableRecord
  2
MCAD_NO_VIS
 70
     0
  0
APPID
  5
47
330
9
100
AcDbSymbolTableRecord
100
AcDbRegAppTableRecord
  2
ACAD_TEMP_GRAPHIC
 70
     0
  0
APPID
  5
58
330
9
100
AcDbSymbolTableRecord
100
AcDbRegAppTableRecord
  2
ACATTRIBSERVICES
 70
     0
  0
APPID
  5
EE
330
9
100
AcDbSymbolTableRecord
100
AcDbRegAppTableRecord
  2
AD_DRAW
 70
     0
  0
APPID
  5
10C
330
9
100
AcDbSymbolTableRecord
100
AcDbRegAppTableRecord
  2
DESIGNERASSEMBLIES
 70
     0
  0
APPID
  5
111
330
9
100
AcDbSymbolTableRecord
100
AcDbRegAppTableRecord
  2
ACADM_DIM_EDIT
 70
     0
  0
APPID
  5
112
330
9
100
AcDbSymbolTableRecord
100
AcDbRegAppTableRecord
  2
AMDT_DM_ADJ
 70
     0
  0
APPID
  5
211
330
9
100
AcDbSymbolTableRecord
100
AcDbRegAppTableRecord
  2
GENIUS_GENREC_14
 70
     0
  0
APPID
  5
212
330
9
100
AcDbSymbolTableRecord
100
AcDbRegAppTableRecord
  2
GENIUS_GENODEF_13
 70
     0
  0
APPID
  5
213
330
9
100
AcDbSymbolTableRecord
100
AcDbRegAppTableRecord
  2
GENIUS_GENOBJ-N-REC_13
 70
     0
  0
APPID
  5
214
330
9
100
AcDbSymbolTableRecord
100
AcDbRegAppTableRecord
  2
GENIUS_GENOENT_13
 70
     0
  0
APPID
  5
215
330
9
100
AcDbSymbolTableRecord
100
AcDbRegAppTableRecord
  2
GENIUS_GENOBJ-N-FIL_13
 70
     0
  0
APPID
  5
216
330
9
100
AcDbSymbolTableRecord
100
AcDbRegAppTableRecord
  2
GENIUS_GENOLIS_13
 70
     0
  0
APPID
  5
217
330
9
100
AcDbSymbolTableRecord
100
AcDbRegAppTableRecord
  2
GENIUS_GENOREF_13
 70
     0
  0
APPID
  5
218
330
9
100
AcDbSymbolTableRecord
100
AcDbRegAppTableRecord
  2
GENIUS_GENOBJ-N-CEN_13
 70
     0
  0
APPID
  5
219
330
9
100
AcDbSymbolTableRecord
100
AcDbRegAppTableRecord
  2
GENIUS_GENCEN_19
 70
     0
  0
APPID
  5
21A
330
9
100
AcDbSymbolTableRecord
100
AcDbRegAppTableRecord
  2
GENIUS_GENFIL_13
 70
     0
  0
APPID
  5
21B
330
9
100
AcDbSymbolTableRecord
100
AcDbRegAppTableRecord
  2
GENIUS_GENOBJ-N-CHA_13
 70
     0
  0
APPID
  5
21C
330
9
100
AcDbSymbolTableRecord
100
AcDbRegAppTableRecord
  2
ACAD_PSEXT
 70
     0
  0
ENDTAB
  0
TABLE
  2
DIMSTYLE
  5
A
330
0
100
AcDbSymbolTable
 70
    16
100
AcDbDimStyleTable
 71
     2
340
81
340
1FE
  0
DIMSTYLE
105
27
330
A
100
AcDbSymbolTableRecord
100
AcDbDimStyleTableRecord
  2
ISO-25
 70
     0
 41
2.5
 42
0.625
 43
3.75
 44
1.25
 73
     0
 74
     0
 77
     1
 78
     8
140
2.5
141
2.5
143
0.03937007874016
147
0.625
171
     3
172
     1
271
     2
272
     2
274
     3
278
    44
283
     0
284
     8
340
11
  0
DIMSTYLE
105
81
330
A
100
AcDbSymbolTableRecord
100
AcDbDimStyleTableRecord
  2
AM_ISO
 70
     0
  4
"
 41
2.5
 42
1.0
 43
10.0
 44
1.0
 47
0.1
 48
0.1
 73
     0
 74
     0
 77
     1
 78
     8
 79
     2
140
3.5
141
0.0
143
0.0393701
146
0.71
147
1.5
172
     1
176
   256
177
   256
178
     2
271
     2
272
     3
274
     4
283
     0
284
     8
340
11
371
    -1
372
    -1
  0
DIMSTYLE
105
82
330
A
100
AcDbSymbolTableRecord
100
AcDbDimStyleTableRecord
  2
AM_ISO$3
 70
     0
  4
"
 41
2.5
 42
1.0
 43
10.0
 44
1.0
 47
0.1
 48
0.1
 73
     0
 77
     1
 78
     8
 79
     2
140
3.5
141
0.0
143
0.0393701
146
0.71
147
1.5
176
   256
177
   256
178
     2
271
     2
272
     3
274
     4
283
     0
284
     8
288
     1
289
     0
340
11
371
    -1
372
    -1
  0
DIMSTYLE
105
83
330
A
100
AcDbSymbolTableRecord
100
AcDbDimStyleTableRecord
  2
AM_ISO$4
 70
     0
  4
"
 41
2.5
 42
1.0
 43
10.0
 44
1.0
 47
0.1
 48
0.1
 73
     0
 77
     1
 78
     8
 79
     2
140
3.5
141
0.0
143
0.0393701
146
0.71
147
1.5
176
   256
177
   256
178
     2
271
     2
272
     3
274
     4
283
     0
284
     8
288
     1
289
     0
340
11
371
    -1
372
    -1
  0
DIMSTYLE
105
84
330
A
100
AcDbSymbolTableRecord
100
AcDbDimStyleTableRecord
  2
AM_ISO$6
 70
     0
  4
"
 41
2.5
 42
1.0
 43
10.0
 44
1.0
 47
0.1
 48
0.1
 73
     0
 74
     0
 78
     8
 79
     2
140
3.5
141
0.0
143
0.0393701
146
0.71
147
1.5
172
     1
176
   256
177
   256
178
     2
271
     2
272
     3
274
     4
283
     0
284
     8
340
11
371
    -1
372
    -1
  0
DIMSTYLE
105
85
330
A
100
AcDbSymbolTableRecord
100
AcDbDimStyleTableRecord
  2
AM_ISO$7
 70
     0
  4
"
 41
2.5
 42
1.0
 43
10.0
 44
1.0
 47
0.1
 48
0.1
 73
     0
 74
     0
 77
     1
 78
     8
 79
     2
140
5.0
141
0.0
143
0.0393701
146
0.71
147
1.5
172
     1
176
   256
177
   256
178
     2
271
     2
272
     3
274
     4
283
     0
284
     8
340
11
371
    -1
372
    -1
  0
DIMSTYLE
105
86
330
A
100
AcDbSymbolTableRecord
100
AcDbDimStyleTableRecord
  2
AM_ISO$SF
 70
     0
  4
"
 41
2.5
 42
1.0
 43
10.0
 44
1.0
 47
0.1
 48
0.1
 73
     0
 74
     0
 75
     1
 76
     1
 77
     1
 78
     8
 79
     2
140
3.5
141
0.0
143
0.0393701
146
0.71
147
1.5
172
     1
176
   256
177
   256
178
     2
271
     2
272
     3
274
     4
283
     0
284
     8
340
11
371
    -1
372
    -1
  0
DIMSTYLE
105
8B
330
A
100
AcDbSymbolTableRecord
100
AcDbDimStyleTableRecord
  2
AM_ISO$SH
 70
     0
  4
"
 41
2.5
 42
1.0
 43
10.0
 44
1.0
 47
0.1
 48
0.1
 73
     0
 74
     0
 75
     1
 76
     1
 77
     1
 78
     8
 79
     2
140
3.5
141
0.0
143
0.0393701
144
2.0
146
0.71
147
1.5
172
     1
173
     1
176
   256
177
   256
178
     2
271
     2
272
     3
274
     4
283
     0
284
     8
340
11
343
87
371
    -1
372
    -1
  0
DIMSTYLE
105
1FE
330
A
100
AcDbSymbolTableRecord
100
AcDbDimStyleTableRecord
  2
AM_JIS
 70
     0
  4
"
 41
2.5
 42
1.0
 43
10.0
 44
1.0
 47
0.1
 48
0.1
 73
     0
 74
     0
 77
     3
 78
     8
 79
     2
140
3.5
141
0.0
143
0.0393701
146
0.71
147
1.5
172
     1
176
   256
177
   256
178
     2
271
     2
272
     3
274
     4
283
     0
284
     8
340
11
341
1FF
342
1FF
343
1FF
344
1FF
371
    -1
372
    -1
  0
DIMSTYLE
105
20A
330
A
100
AcDbSymbolTableRecord
100
AcDbDimStyleTableRecord
  2
AM_JIS$3
 70
     0
  4
"
 41
2.5
 42
1.0
 43
10.0
 44
1.0
 47
0.1
 48
0.1
 73
     0
 77
     3
 78
     8
 79
     2
140
3.5
141
0.0
143
0.0393701
146
0.71
147
1.5
176
   256
177
   256
178
     2
271
     2
272
     3
274
     4
283
     0
284
     8
288
     1
289
     0
340
11
341
1FF
342
1FF
343
1FF
344
1FF
371
    -1
372
    -1
  0
DIMSTYLE
105
20B
330
A
100
AcDbSymbolTableRecord
100
AcDbDimStyleTableRecord
  2
AM_JIS$4
 70
     0
  4
"
 41
2.5
 42
1.0
 43
10.0
 44
1.0
 47
0.1
 48
0.1
 73
     0
 77
     3
 78
     8
 79
     2
140
3.5
141
0.0
143
0.0393701
146
0.71
147
1.5
176
   256
177
   256
178
     2
271
     2
272
     3
274
     4
283
     0
284
     8
288
     1
289
     0
340
11
341
1FF
342
1FF
343
1FF
344
1FF
371
    -1
372
    -1
  0
DIMSTYLE
105
20C
330
A
100
AcDbSymbolTableRecord
100
AcDbDimStyleTableRecord
  2
AM_JIS$6
 70
     0
  4
"
 41
2.5
 42
1.0
 43
10.0
 44
1.0
 47
0.1
 48
0.1
 73
     0
 74
     0
 78
     8
 79
     2
140
3.5
141
0.0
143
0.0393701
146
0.71
147
1.5
172
     1
176
   256
177
   256
178
     2
271
     2
272
     3
274
     4
283
     0
284
     8
340
11
341
1FF
342
1FF
343
1FF
344
1FF
371
    -1
372
    -1
  0
DIMSTYLE
105
20D
330
A
100
AcDbSymbolTableRecord
100
AcDbDimStyleTableRecord
  2
AM_JIS$7
 70
     0
  4
"
 41
2.5
 42
1.0
 43
10.0
 44
1.0
 47
0.1
 48
0.1
 73
     0
 74
     0
 77
     3
 78
     8
 79
     2
140
3.5
141
0.0
143
0.0393701
146
0.71
147
1.5
172
     1
176
   256
177
   256
178
     2
271
     2
272
     3
274
     4
283
     0
284
     8
340
11
341
1FF
342
1FF
343
1FF
344
1FF
371
    -1
372
    -1
  0
DIMSTYLE
105
20E
330
A
100
AcDbSymbolTableRecord
100
AcDbDimStyleTableRecord
  2
AM_JIS$SF
 70
     0
  4
"
 41
2.5
 42
1.0
 43
10.0
 44
1.0
 47
0.1
 48
0.1
 73
     0
 74
     0
 75
     1
 76
     1
 77
     3
 78
     8
 79
     2
140
3.5
141
0.0
143
0.0393701
146
0.71
147
1.5
172
     1
176
   256
177
   256
178
     2
271
     2
272
     3
274
     4
283
     0
284
     8
340
11
341
1FF
342
1FF
343
1FF
344
1FF
371
    -1
372
    -1
  0
DIMSTYLE
105
20F
330
A
100
AcDbSymbolTableRecord
100
AcDbDimStyleTableRecord
  2
AM_JIS$SH
 70
     0
  4
"
 41
2.5
 42
1.0
 43
10.0
 44
1.0
 47
0.1
 48
0.1
 73
     0
 74
     0
 75
     1
 76
     1
 77
     3
 78
     8
 79
     2
140
3.5
141
0.0
143
0.0393701
144
2.0
146
0.71
147
1.5
172
     1
173
     1
176
   256
177
   256
178
     2
271
     2
272
     3
274
     4
283
     0
284
     8
340
11
341
1FF
342
1FF
343
87
344
1FF
371
    -1
372
    -1
  0
DIMSTYLE
105
210
330
A
100
AcDbSymbolTableRecord
100
AcDbDimStyleTableRecord
  2
AM_JIS$0
 70
     0
  4
"
 40
1.25
 41
2.5
 42
1.0
 43
10.0
 44
1.0
 47
0.1
 48
0.1
 73
     0
 74
     0
 77
     3
 78
     8
 79
     2
140
2.799999999999998
141
0.0
143
0.0393701
146
0.71
147
1.0
172
     1
176
   256
177
   256
178
     2
271
     2
272
     2
283
     0
284
     8
289
     1
340
11
341
1FF
342
1FF
371
    -1
372
    -1
  0
ENDTAB
  0
TABLE
  2
BLOCK_RECORD
  5
1
330
0
100
AcDbSymbolTable
 70
     4
  0
BLOCK_RECORD
  5
1F
102
{ACAD_XDICTIONARY
360
8F
102
}
330
1
100
AcDbSymbolTableRecord
100
AcDbBlockTableRecord
  2
*Model_Space
340
22
  0
BLOCK_RECORD
  5
1B
330
1
100
AcDbSymbolTableRecord
100
AcDbBlockTableRecord
  2
*Paper_Space
340
1E
  0
BLOCK_RECORD
  5
23
330
1
100
AcDbSymbolTableRecord
100
AcDbBlockTableRecord
  2
*Paper_Space0
340
26
  0
BLOCK_RECORD
  5
87
330
1
100
AcDbSymbolTableRecord
100
AcDbBlockTableRecord
  2
GENAXEH
340
0
  0
BLOCK_RECORD
  5
1FF
330
1
100
AcDbSymbolTableRecord
100
AcDbBlockTableRecord
  2
_Open30
340
0
  0
ENDTAB
  0
ENDSEC
  0
SECTION
  2
BLOCKS
  0
BLOCK
  5
20
330
1F
100
AcDbEntity
  8
0
100
AcDbBlockBegin
  2
*Model_Space
 70
     0
 10
0.0
 20
0.0
 30
0.0
  3
*Model_Space
  1

  0
ENDBLK
  5
21
330
1F
100
AcDbEntity
  8
0
100
AcDbBlockEnd
  0
BLOCK
  5
1C
330
1B
100
AcDbEntity
 67
     1
  8
0
100
AcDbBlockBegin
  2
*Paper_Space
 70
     0
 10
0.0
 20
0.0
 30
0.0
  3
*Paper_Space
  1

  0
ENDBLK
  5
1D
330
1B
100
AcDbEntity
 67
     1
  8
0
100
AcDbBlockEnd
  0
BLOCK
  5
24
330
23
100
AcDbEntity
  8
0
100
AcDbBlockBegin
  2
*Paper_Space0
 70
     0
 10
0.0
 20
0.0
 30
0.0
  3
*Paper_Space0
  1

  0
ENDBLK
  5
25
330
23
100
AcDbEntity
  8
0
100
AcDbBlockEnd
  0
BLOCK
  5
946
330
87
100
AcDbEntity
  8
0
100
AcDbBlockBegin
  2
GENAXEH
 70
     0
 10
0.0
 20
0.0
 30
0.0
  3
GENAXEH
  1

  0
LINE
  5
947
330
87
100
AcDbEntity
  8
0
100
AcDbLine
 10
-1.0
 20
0.0
 30
0.0
 11
1.0
 21
0.0
 31
0.0
  0
ENDBLK
  5
948
330
87
100
AcDbEntity
  8
0
100
AcDbBlockEnd
  0
BLOCK
  5
93A
330
1FF
100
AcDbEntity
  8
0
100
AcDbBlockBegin
  2
_Open30
 70
     0
 10
0.0
 20
0.0
 30
0.0
  3
_Open30
  1

  0
LINE
  5
93B
330
1FF
100
AcDbEntity
  8
0
  6
ByBlock
 62
     0
370
    -2
100
AcDbLine
 10
-1.0
 20
0.26794919
 30
0.0
 11
0.0
 21
0.0
 31
0.0
  0
LINE
  5
93C
330
1FF
100
AcDbEntity
  8
0
  6
ByBlock
 62
     0
370
    -2
100
AcDbLine
 10
0.0
 20
0.0
 30
0.0
 11
-1.0
 21
-0.26794919
 31
0.0
  0
LINE
  5
93D
330
1FF
100
AcDbEntity
  8
0
  6
ByBlock
 62
     0
370
    -2
100
AcDbLine
 10
0.0
 20
0.0
 30
0.0
 11
-1.0
 21
0.0
 31
0.0
  0
ENDBLK
  5
93E
330
1FF
100
AcDbEntity
  8
0
100
AcDbBlockEnd
  0
ENDSEC
  0
SECTION
  2
ENTITIES
  0
ELLIPSE
  5
571
330
1F
100
AcDbEntity
  8
0
100
AcDbEllipse
 10
40.81380235687641
 20
70.85174390410526
 30
0.0
 11
1.069616898406167
 21
0.0000000000000003
 31
0.0
210
0.0
220
0.0
230
1.0
 40
0.6522657033973506
 41
0.3314984999878012
 42
5.951686807191784
  0
ELLIPSE
  5
572
330
1F
100
AcDbEntity
  8
0
100
AcDbEllipse
 10
40.69770068904722
 20
70.85174390410526
 30
0.0
 11
1.69770127708823
 21
0.0000000000000065
 31
0.0
210
0.0
220
0.0
230
1.0
 40
0.5753333635477742
 41
0.7175354078333669
 42
6.048567121221497
  0
LINE
  5
573
330
1F
100
AcDbEntity
  8
0
100
AcDbLine
 10
42.34889033822838
 20
70.62467857260407
 30
0.0
 11
41.82518471526059
 21
70.62467857260407
 31
0.0
  0
LINE
  5
574
330
1F
100
AcDbEntity
  8
0
100
AcDbLine
 10
42.34883662126128
 20
71.07880923560634
 30
0.0
 11
41.82518471526059
 21
71.07880923560634
 31
0.0
  0
LINE
  5
575
330
1F
100
AcDbEntity
  8
0
100
AcDbLine
 10
41.9767973149726
 20
71.82848809015178
 30
0.0
 11
41.9767973149726
 21
71.49398229066452
 31
0.0
  0
LINE
  5
576
330
1F
100
AcDbEntity
  8
0
100
AcDbLine
 10
42.34883662126128
 20
71.82848809015178
 30
0.0
 11
41.9767973149726
 21
71.82848809015178
 31
0.0
  0
LINE
  5
577
330
1F
100
AcDbEntity
  8
0
100
AcDbLine
 10
42.34883662126128
 20
71.07880923560634
 30
0.0
 11
42.34883662126128
 21
71.82848809015178
 31
0.0
  0
LINE
  5
578
330
1F
100
AcDbEntity
  8
0
100
AcDbLine
 10
44.90697615614499
 20
71.54941832270987
 30
0.0
 11
44.90697615614499
 21
71.01453460177964
 31
0.0
  0
LINE
  5
579
330
1F
100
AcDbEntity
  8
0
100
AcDbLine
 10
43.79069708637753
 20
71.54941832270987
 30
0.0
 11
43.79069708637753
 21
71.01453460177964
 31
0.0
  0
LINE
  5
57A
330
1F
100
AcDbEntity
  8
0
100
AcDbLine
 10
43.04651103986588
 20
71.54941832270987
 30
0.0
 11
43.04651103986588
 21
70.15406948550054
 31
0.0
  0
LINE
  5
57B
330
1F
100
AcDbEntity
  8
0
100
AcDbLine
 10
45.65116220265662
 20
71.54941832270987
 30
0.0
 11
45.65116220265662
 21
70.15406948550054
 31
0.0
  0
LINE
  5
57C
330
1F
100
AcDbEntity
  8
0
100
AcDbLine
 10
43.79069708637753
 20
71.01453460177964
 30
0.0
 11
44.90697615614499
 21
71.01453460177964
 31
0.0
  0
LINE
  5
57D
330
1F
100
AcDbEntity
  8
0
100
AcDbLine
 10
43.79069708637753
 20
70.68895320643086
 30
0.0
 11
44.90697615614499
 21
70.68895320643086
 31
0.0
  0
LINE
  5
57E
330
1F
100
AcDbEntity
  8
0
100
AcDbLine
 10
44.16279010963336
 20
70.15406948550054
 30
0.0
 11
43.79069708637753
 21
70.15406948550054
 31
0.0
  0
LINE
  5
57F
330
1F
100
AcDbEntity
  8
0
100
AcDbLine
 10
44.16279010963336
 20
69.87499971805874
 30
0.0
 11
42.6744180166101
 21
69.87499971805874
 31
0.0
  0
LINE
  5
580
330
1F
100
AcDbEntity
  8
0
100
AcDbLine
 10
42.6744180166101
 20
70.15406948550054
 30
0.0
 11
42.6744180166101
 21
69.87499971805874
 31
0.0
  0
LINE
  5
581
330
1F
100
AcDbEntity
  8
0
100
AcDbLine
 10
43.04651103986588
 20
70.15406948550054
 30
0.0
 11
42.6744180166101
 21
70.15406948550054
 31
0.0
  0
LINE
  5
582
330
1F
100
AcDbEntity
  8
0
100
AcDbLine
 10
43.79069708637753
 20
70.68895320643086
 30
0.0
 11
43.79069708637753
 21
70.15406948550054
 31
0.0
  0
LINE
  5
583
330
1F
100
AcDbEntity
  8
0
100
AcDbLine
 10
46.02325522591246
 20
69.87499971805874
 30
0.0
 11
44.53488313288914
 21
69.87499971805874
 31
0.0
  0
LINE
  5
584
330
1F
100
AcDbEntity
  8
0
100
AcDbLine
 10
44.53488313288914
 20
70.15406948550054
 30
0.0
 11
44.53488313288914
 21
69.87499971805874
 31
0.0
  0
LINE
  5
585
330
1F
100
AcDbEntity
  8
0
100
AcDbLine
 10
44.16279010963336
 20
70.15406948550054
 30
0.0
 11
44.16279010963336
 21
69.87499971805874
 31
0.0
  0
LINE
  5
586
330
1F
100
AcDbEntity
  8
0
100
AcDbLine
 10
44.90697615614499
 20
70.15406948550054
 30
0.0
 11
44.53488313288914
 21
70.15406948550054
 31
0.0
  0
LINE
  5
587
330
1F
100
AcDbEntity
  8
0
100
AcDbLine
 10
44.90697615614499
 20
70.68895320643086
 30
0.0
 11
44.90697615614499
 21
70.15406948550054
 31
0.0
  0
LINE
  5
588
330
1F
100
AcDbEntity
  8
0
100
AcDbLine
 10
46.02325522591246
 20
70.15406948550054
 30
0.0
 11
46.02325522591246
 21
69.87499971805874
 31
0.0
  0
LINE
  5
589
330
1F
100
AcDbEntity
  8
0
100
AcDbLine
 10
46.02325522591246
 20
70.15406948550054
 30
0.0
 11
45.65116220265662
 21
70.15406948550054
 31
0.0
  0
LINE
  5
58A
330
1F
100
AcDbEntity
  8
0
100
AcDbLine
 10
44.16279010963336
 20
71.54941832270987
 30
0.0
 11
43.79069708637753
 21
71.54941832270987
 31
0.0
  0
LINE
  5
58B
330
1F
100
AcDbEntity
  8
0
100
AcDbLine
 10
44.16279010963336
 20
71.82848809015178
 30
0.0
 11
42.6744180166101
 21
71.82848809015178
 31
0.0
  0
LINE
  5
58C
330
1F
100
AcDbEntity
  8
0
100
AcDbLine
 10
42.6744180166101
 20
71.82848809015178
 30
0.0
 11
42.6744180166101
 21
71.54941832270987
 31
0.0
  0
LINE
  5
58D
330
1F
100
AcDbEntity
  8
0
100
AcDbLine
 10
43.04651103986588
 20
71.54941832270987
 30
0.0
 11
42.6744180166101
 21
71.54941832270987
 31
0.0
  0
LINE
  5
58E
330
1F
100
AcDbEntity
  8
0
100
AcDbLine
 10
46.02325522591246
 20
71.82848809015178
 30
0.0
 11
44.53488313288914
 21
71.82848809015178
 31
0.0
  0
LINE
  5
58F
330
1F
100
AcDbEntity
  8
0
100
AcDbLine
 10
44.90697615614499
 20
71.54941832270987
 30
0.0
 11
44.53488313288914
 21
71.54941832270987
 31
0.0
  0
LINE
  5
590
330
1F
100
AcDbEntity
  8
0
100
AcDbLine
 10
44.53488313288914
 20
71.82848809015178
 30
0.0
 11
44.53488313288914
 21
71.54941832270987
 31
0.0
  0
LINE
  5
591
330
1F
100
AcDbEntity
  8
0
100
AcDbLine
 10
44.16279010963336
 20
71.82848809015178
 30
0.0
 11
44.16279010963336
 21
71.54941832270987
 31
0.0
  0
LINE
  5
592
330
1F
100
AcDbEntity
  8
0
100
AcDbLine
 10
46.02325522591246
 20
71.82848809015178
 30
0.0
 11
46.02325522591246
 21
71.54941832270987
 31
0.0
  0
LINE
  5
593
330
1F
100
AcDbEntity
  8
0
100
AcDbLine
 10
46.02325522591246
 20
71.54941832270987
 30
0.0
 11
45.65116220265662
 21
71.54941832270987
 31
0.0
  0
LINE
  5
594
330
1F
100
AcDbEntity
  8
0
100
AcDbLine
 10
46.72092964451701
 20
71.54941832270987
 30
0.0
 11
46.72092964451701
 21
70.15406948550054
 31
0.0
  0
LINE
  5
595
330
1F
100
AcDbEntity
  8
0
100
AcDbLine
 10
47.46511569102864
 20
71.54941832270987
 30
0.0
 11
47.46511569102864
 21
70.15406948550054
 31
0.0
  0
LINE
  5
596
330
1F
100
AcDbEntity
  8
0
100
AcDbLine
 10
47.83720871428453
 20
69.87499971805874
 30
0.0
 11
46.34883662126128
 21
69.87499971805874
 31
0.0
  0
LINE
  5
597
330
1F
100
AcDbEntity
  8
0
100
AcDbLine
 10
46.34883662126128
 20
70.15406948550054
 30
0.0
 11
46.34883662126128
 21
69.87499971805874
 31
0.0
  0
LINE
  5
598
330
1F
100
AcDbEntity
  8
0
100
AcDbLine
 10
46.72092964451701
 20
70.15406948550054
 30
0.0
 11
46.34883662126128
 21
70.15406948550054
 31
0.0
  0
LINE
  5
599
330
1F
100
AcDbEntity
  8
0
100
AcDbLine
 10
47.83720871428453
 20
70.15406948550054
 30
0.0
 11
47.83720871428453
 21
69.87499971805874
 31
0.0
  0
LINE
  5
59A
330
1F
100
AcDbEntity
  8
0
100
AcDbLine
 10
47.83720871428453
 20
70.15406948550054
 30
0.0
 11
47.46511569102864
 21
70.15406948550054
 31
0.0
  0
LINE
  5
59B
330
1F
100
AcDbEntity
  8
0
100
AcDbLine
 10
47.83720871428453
 20
71.82848809015178
 30
0.0
 11
46.34883662126128
 21
71.82848809015178
 31
0.0
  0
LINE
  5
59C
330
1F
100
AcDbEntity
  8
0
100
AcDbLine
 10
46.34883662126128
 20
71.82848809015178
 30
0.0
 11
46.34883662126123
 21
71.54941832270987
 31
0.0
  0
LINE
  5
59D
330
1F
100
AcDbEntity
  8
0
100
AcDbLine
 10
46.72092964451701
 20
71.54941832270987
 30
0.0
 11
46.34883662126128
 21
71.54941832270987
 31
0.0
  0
LINE
  5
59E
330
1F
100
AcDbEntity
  8
0
100
AcDbLine
 10
47.83720871428453
 20
71.54941832270987
 30
0.0
 11
47.46511569102864
 21
71.54941832270987
 31
0.0
  0
LINE
  5
59F
330
1F
100
AcDbEntity
  8
0
100
AcDbLine
 10
47.83720871428453
 20
71.82848809015178
 30
0.0
 11
47.83720871428453
 21
71.54941832270987
 31
0.0
  0
LINE
  5
5A0
330
1F
100
AcDbEntity
  8
0
100
AcDbLine
 10
50.72092964451702
 20
71.54941832270987
 30
0.0
 11
50.72092964451702
 21
70.43313925294246
 31
0.0
  0
LINE
  5
5A1
330
1F
100
AcDbEntity
  8
0
100
AcDbLine
 10
49.32558080730779
 20
71.82848809015178
 30
0.0
 11
50.72092964451702
 21
70.43313925294246
 31
0.0
  0
LINE
  5
5A2
330
1F
100
AcDbEntity
  8
0
100
AcDbLine
 10
48.95348778405196
 20
71.27969786349019
 30
0.0
 11
50.35818592948345
 21
69.87499971805874
 31
0.0
  0
LINE
  5
5A3
330
1F
100
AcDbEntity
  8
0
100
AcDbLine
 10
48.95348778405196
 20
71.27969786349019
 30
0.0
 11
48.95348778405196
 21
70.15406948550054
 31
0.0
  0
LINE
  5
5A4
330
1F
100
AcDbEntity
  8
0
100
AcDbLine
 10
48.53488313288915
 20
71.54941832270987
 30
0.0
 11
48.53488313288915
 21
70.15406948550054
 31
0.0
  0
LINE
  5
5A5
330
1F
100
AcDbEntity
  8
0
100
AcDbLine
 10
51.13953429567981
 20
71.54941832270987
 30
0.0
 11
51.13953429567988
 21
69.87499971805874
 31
0.0
  0
LINE
  5
5A6
330
1F
100
AcDbEntity
  8
0
100
AcDbLine
 10
49.32558080730779
 20
70.15406948550054
 30
0.0
 11
49.32558080730779
 21
69.87499971805874
 31
0.0
  0
LINE
  5
5A7
330
1F
100
AcDbEntity
  8
0
100
AcDbLine
 10
48.16279010963336
 20
70.15406948550054
 30
0.0
 11
48.16279010963336
 21
69.87499971805874
 31
0.0
  0
LINE
  5
5A8
330
1F
100
AcDbEntity
  8
0
100
AcDbLine
 10
49.32558080730779
 20
69.87499971805874
 30
0.0
 11
48.16279010963336
 21
69.87499971805874
 31
0.0
  0
LINE
  5
5A9
330
1F
100
AcDbEntity
  8
0
100
AcDbLine
 10
48.53488313288915
 20
70.15406948550054
 30
0.0
 11
48.16279010963336
 21
70.15406948550054
 31
0.0
  0
LINE
  5
5AA
330
1F
100
AcDbEntity
  8
0
100
AcDbLine
 10
48.95348778405196
 20
70.15406948550054
 30
0.0
 11
49.32558080730779
 21
70.15406948550054
 31
0.0
  0
LINE
  5
5AB
330
1F
100
AcDbEntity
  8
0
100
AcDbLine
 10
51.13953429567988
 20
69.87499971805874
 30
0.0
 11
50.35818592948345
 21
69.87499971805874
 31
0.0
  0
LINE
  5
5AC
330
1F
100
AcDbEntity
  8
0
100
AcDbLine
 10
49.32558080730779
 20
71.82848809015178
 30
0.0
 11
48.16279010963336
 21
71.82848809015178
 31
0.0
  0
LINE
  5
5AD
330
1F
100
AcDbEntity
  8
0
100
AcDbLine
 10
48.16279010963336
 20
71.82848809015178
 30
0.0
 11
48.16279010963336
 21
71.54941832270987
 31
0.0
  0
LINE
  5
5AE
330
1F
100
AcDbEntity
  8
0
100
AcDbLine
 10
48.53488313288915
 20
71.54941832270987
 30
0.0
 11
48.16279010963336
 21
71.54941832270987
 31
0.0
  0
LINE
  5
5AF
330
1F
100
AcDbEntity
  8
0
100
AcDbLine
 10
51.51162731893567
 20
71.82848809015178
 30
0.0
 11
50.34883662126128
 21
71.82848809015178
 31
0.0
  0
LINE
  5
5B0
330
1F
100
AcDbEntity
  8
0
100
AcDbLine
 10
50.34883662126128
 20
71.82848809015165
 30
0.0
 11
50.34883662126128
 21
71.54941832270987
 31
0.0
  0
LINE
  5
5B1
330
1F
100
AcDbEntity
  8
0
100
AcDbLine
 10
50.72092964451702
 20
71.54941832270987
 30
0.0
 11
50.34883662126128
 21
71.54941832270987
 31
0.0
  0
LINE
  5
5B2
330
1F
100
AcDbEntity
  8
0
100
AcDbLine
 10
51.51162731893567
 20
71.82848809015165
 30
0.0
 11
51.51162731893567
 21
71.54941832270987
 31
0.0
  0
LINE
  5
5B3
330
1F
100
AcDbEntity
  8
0
100
AcDbLine
 10
51.51162731893567
 20
71.54941832270987
 30
0.0
 11
51.13953429567988
 21
71.54941832270987
 31
0.0
  0
ELLIPSE
  5
5B4
330
1F
100
AcDbEntity
  8
0
100
AcDbEllipse
 10
53.3255808073077
 20
70.85174390410526
 30
0.0
 11
-1.674418604651161
 21
0.0
 31
0.0
210
0.0
220
0.0
230
0.9999999999999998
 40
0.5833333335538832
 41
0.0
 42
6.283185307179585
  0
ELLIPSE
  5
5B5
330
1F
100
AcDbEntity
  8
0
100
AcDbEllipse
 10
53.32560766579128
 20
70.85174390410526
 30
0.0
 11
-0.9302594166231195
 21
0.0
 31
0.0
210
0.0
220
0.0
230
0.9999999999999998
 40
0.7499783459728239
 41
0.0
 42
6.283185307179585
  0
LINE
  5
5B6
330
1F
100
AcDbEntity
  8
0
100
AcDbLine
 10
93.99999941195892
 20
135.3749997180588
 30
0.0
 11
93.99999941195886
 21
68.37499971805865
 31
0.0
  0
ARC
  5
5B7
330
1F
100
AcDbEntity
  8
0
100
AcDbCircle
 10
90.49999941195887
 20
135.3749997180588
 30
0.0
 40
3.5
100
AcDbArc
 50
0.0
 51
90.0
1001
GENIUS_GENODEF_13
1002
{
1000
HIER
1070
     0
1002
}
1002
{
1000
MANEDIT
1070
     0
1002
}
1002
{
1000
NOSEL
1070
     0
1002
}
1002
{
1000
BEHIND
1070
     0
1002
}
1002
{
1000
OTHER
1070
     0
1002
}
1002
{
1000
REACTOR
1002
}
1001
GENIUS_GENOBJ-N-FIL_13
1002
{
1000
OWNER
1000
GEN
1002
}
  0
LINE
  5
5B8
330
1F
100
AcDbEntity
  8
0
100
AcDbLine
 10
-0.0000005880410754
 20
135.3749997180588
 30
0.0
 11
-0.0000005880410185
 21
68.37499971805872
 31
0.0
  0
LINE
  5
5B9
330
1F
100
AcDbEntity
  8
0
100
AcDbLine
 10
3.499999411958923
 20
138.8749997180588
 30
0.0
 11
90.49999941195887
 21
138.8749997180588
 31
0.0
  0
LINE
  5
5BA
330
1F
100
AcDbEntity
  8
0
100
AcDbLine
 10
3.499999411958981
 20
64.87499971805878
 30
0.0
 11
90.49999941195892
 21
64.87499971805878
 31
0.0
  0
ARC
  5
5BB
330
1F
100
AcDbEntity
  8
0
100
AcDbCircle
 10
3.499999411958923
 20
135.3749997180588
 30
0.0
 40
3.5
100
AcDbArc
 50
90.0
 51
180.0
1001
GENIUS_GENODEF_13
1002
{
1000
HIER
1070
     0
1002
}
1002
{
1000
MANEDIT
1070
     0
1002
}
1002
{
1000
NOSEL
1070
     0
1002
}
1002
{
1000
BEHIND
1070
     0
1002
}
1002
{
1000
OTHER
1070
     0
1002
}
1002
{
1000
REACTOR
1002
}
1001
GENIUS_GENOBJ-N-FIL_13
1002
{
1000
OWNER
1000
GEN
1002
}
  0
LINE
  5
5BC
330
1F
100
AcDbEntity
  8
0
100
AcDbLine
 10
3.499999411958923
 20
135.3749997180587
 30
0.0
 11
90.49999941195887
 21
135.3749997180587
 31
0.0
  0
LINE
  5
5BD
330
1F
100
AcDbEntity
  8
0
100
AcDbLine
 10
90.49999941195892
 20
135.3749997180587
 30
0.0
 11
90.49999941195892
 21
78.37499971805875
 31
0.0
  0
LINE
  5
5BE
330
1F
100
AcDbEntity
  8
0
100
AcDbLine
 10
3.499999411958981
 20
78.37499971805875
 30
0.0
 11
90.49999941195892
 21
78.37499971805875
 31
0.0
  0
LINE
  5
5BF
330
1F
100
AcDbEntity
  8
0
100
AcDbLine
 10
3.499999411958923
 20
135.3749997180587
 30
0.0
 11
3.499999411958981
 21
78.37499971805875
 31
0.0
  0
ARC
  5
5C0
330
1F
100
AcDbEntity
  8
0
100
AcDbCircle
 10
90.49994186620564
 20
68.37505726381173
 30
0.0
 40
3.500057546225952
100
AcDbArc
 50
270.0009420213031
 51
359.9990579786953
  0
ARC
  5
5C1
330
1F
100
AcDbEntity
  8
0
100
AcDbCircle
 10
3.499999434782806
 20
68.374999740883
 30
0.0
 40
3.500000022824181
100
AcDbArc
 50
180.0000007472652
 51
269.9999999999984
  0
LINE
  5
5C2
330
1F
100
AcDbEntity
  8
0
100
AcDbLine
 10
90.44999941195907
 20
78.4249997180587
 30
0.0
 11
90.44999941195907
 21
135.324999718059
 31
0.0
  0
LINE
  5
5C3
330
1F
100
AcDbEntity
  8
0
100
AcDbLine
 10
3.549999411958878
 20
78.4249997180587
 30
0.0
 11
3.549999411958765
 21
135.324999718059
 31
0.0
  0
LINE
  5
5C4
330
1F
100
AcDbEntity
  8
0
100
AcDbLine
 10
90.44999941195907
 20
135.324999718059
 30
0.0
 11
3.549999411958765
 21
135.324999718059
 31
0.0
  0
LINE
  5
5C5
330
1F
100
AcDbEntity
  8
0
100
AcDbLine
 10
3.549999411958878
 20
78.4249997180587
 30
0.0
 11
90.44999941195907
 21
78.42499971805882
 31
0.0
  0
LINE
  5
5C6
330
1F
100
AcDbEntity
  8
0
100
AcDbLine
 10
51.49999941195892
 20
88.42499971805882
 30
0.0
 11
61.49999941195904
 21
88.42499971805882
 31
0.0
1001
GENIUS_GENODEF_13
1002
{
1000
HIER
1070
     0
1002
}
1002
{
1000
MANEDIT
1070
     0
1002
}
1002
{
1000
NOSEL
1070
     0
1002
}
1002
{
1000
BEHIND
1070
     0
1002
}
1002
{
1000
OTHER
1070
     0
1002
}
1002
{
1000
REACTOR
1002
}
1001
GENIUS_GENOBJ-N-CEN_13
1002
{
1000
OWNER
1000
GEN
1002
}
1001
GENIUS_GENCEN_19
1002
{
1040
2.793999999999999
1002
}
  0
LINE
  5
5C7
330
1F
100
AcDbEntity
  8
0
100
AcDbLine
 10
51.49999941195892
 20
88.92499971805881
 30
0.0
 11
61.49999941195904
 21
88.92499971805881
 31
0.0
1001
GENIUS_GENODEF_13
1002
{
1000
HIER
1070
     0
1002
}
1002
{
1000
MANEDIT
1070
     0
1002
}
1002
{
1000
NOSEL
1070
     0
1002
}
1002
{
1000
BEHIND
1070
     0
1002
}
1002
{
1000
OTHER
1070
     0
1002
}
1002
{
1000
REACTOR
1002
}
1001
GENIUS_GENOBJ-N-CEN_13
1002
{
1000
OWNER
1000
GEN
1002
}
1001
GENIUS_GENCEN_19
1002
{
1040
2.793999999999999
1002
}
  0
LINE
  5
5C8
330
1F
100
AcDbEntity
  8
0
100
AcDbLine
 10
51.49999941195892
 20
83.42499971805882
 30
0.0
 11
61.49999941195904
 21
83.42499971805882
 31
0.0
1001
GENIUS_GENODEF_13
1002
{
1000
HIER
1070
     0
1002
}
1002
{
1000
MANEDIT
1070
     0
1002
}
1002
{
1000
NOSEL
1070
     0
1002
}
1002
{
1000
BEHIND
1070
     0
1002
}
1002
{
1000
OTHER
1070
     0
1002
}
1002
{
1000
REACTOR
1002
}
1001
GENIUS_GENOBJ-N-CEN_13
1002
{
1000
OWNER
1000
GEN
1002
}
1001
GENIUS_GENCEN_19
1002
{
1040
2.793999999999999
1002
}
  0
LINE
  5
5C9
330
1F
100
AcDbEntity
  8
0
100
AcDbLine
 10
51.49999941195892
 20
82.92499971805881
 30
0.0
 11
61.49999941195904
 21
82.92499971805881
 31
0.0
1001
GENIUS_GENODEF_13
1002
{
1000
HIER
1070
     0
1002
}
1002
{
1000
MANEDIT
1070
     0
1002
}
1002
{
1000
NOSEL
1070
     0
1002
}
1002
{
1000
BEHIND
1070
     0
1002
}
1002
{
1000
OTHER
1070
     0
1002
}
1002
{
1000
REACTOR
1002
}
1001
GENIUS_GENOBJ-N-CEN_13
1002
{
1000
OWNER
1000
GEN
1002
}
1001
GENIUS_GENCEN_19
1002
{
1040
2.793999999999999
1002
}
  0
ARC
  5
5CA
330
1F
100
AcDbEntity
  8
0
100
AcDbCircle
 10
51.49999941195892
 20
85.92499971805882
 30
0.0
 40
2.500000000000006
100
AcDbArc
 50
90.0
 51
270.0
  0
ARC
  5
5CB
330
1F
100
AcDbEntity
  8
0
100
AcDbCircle
 10
51.49999941195892
 20
85.92499971805882
 30
0.0
 40
3.000000000000006
100
AcDbArc
 50
90.0
 51
270.0
  0
ARC
  5
5CC
330
1F
100
AcDbEntity
  8
0
100
AcDbCircle
 10
61.49999941195904
 20
85.92499971805882
 30
0.0
 40
2.500000000000006
100
AcDbArc
 50
270.0
 51
90.0
  0
ARC
  5
5CD
330
1F
100
AcDbEntity
  8
0
100
AcDbCircle
 10
61.49999941195904
 20
85.92499971805882
 30
0.0
 40
3.000000000000006
100
AcDbArc
 50
270.0
 51
90.0
  0
LINE
  5
5CE
330
1F
100
AcDbEntity
  8
0
100
AcDbLine
 10
70.49999941195892
 20
88.42499971805882
 30
0.0
 11
80.49999941195904
 21
88.42499971805882
 31
0.0
1001
GENIUS_GENODEF_13
1002
{
1000
HIER
1070
     0
1002
}
1002
{
1000
MANEDIT
1070
     0
1002
}
1002
{
1000
NOSEL
1070
     0
1002
}
1002
{
1000
BEHIND
1070
     0
1002
}
1002
{
1000
OTHER
1070
     0
1002
}
1002
{
1000
REACTOR
1002
}
1001
GENIUS_GENOBJ-N-CEN_13
1002
{
1000
OWNER
1000
GEN
1002
}
1001
GENIUS_GENCEN_19
1002
{
1040
2.793999999999999
1002
}
  0
LINE
  5
5CF
330
1F
100
AcDbEntity
  8
0
100
AcDbLine
 10
70.49999941195892
 20
88.92499971805881
 30
0.0
 11
80.49999941195904
 21
88.92499971805881
 31
0.0
1001
GENIUS_GENODEF_13
1002
{
1000
HIER
1070
     0
1002
}
1002
{
1000
MANEDIT
1070
     0
1002
}
1002
{
1000
NOSEL
1070
     0
1002
}
1002
{
1000
BEHIND
1070
     0
1002
}
1002
{
1000
OTHER
1070
     0
1002
}
1002
{
1000
REACTOR
1002
}
1001
GENIUS_GENOBJ-N-CEN_13
1002
{
1000
OWNER
1000
GEN
1002
}
1001
GENIUS_GENCEN_19
1002
{
1040
2.793999999999999
1002
}
  0
LINE
  5
5D0
330
1F
100
AcDbEntity
  8
0
100
AcDbLine
 10
70.49999941195892
 20
83.42499971805882
 30
0.0
 11
80.49999941195904
 21
83.42499971805882
 31
0.0
1001
GENIUS_GENODEF_13
1002
{
1000
HIER
1070
     0
1002
}
1002
{
1000
MANEDIT
1070
     0
1002
}
1002
{
1000
NOSEL
1070
     0
1002
}
1002
{
1000
BEHIND
1070
     0
1002
}
1002
{
1000
OTHER
1070
     0
1002
}
1002
{
1000
REACTOR
1002
}
1001
GENIUS_GENOBJ-N-CEN_13
1002
{
1000
OWNER
1000
GEN
1002
}
1001
GENIUS_GENCEN_19
1002
{
1040
2.793999999999999
1002
}
  0
LINE
  5
5D1
330
1F
100
AcDbEntity
  8
0
100
AcDbLine
 10
70.49999941195892
 20
82.92499971805881
 30
0.0
 11
80.49999941195904
 21
82.92499971805881
 31
0.0
1001
GENIUS_GENODEF_13
1002
{
1000
HIER
1070
     0
1002
}
1002
{
1000
MANEDIT
1070
     0
1002
}
1002
{
1000
NOSEL
1070
     0
1002
}
1002
{
1000
BEHIND
1070
     0
1002
}
1002
{
1000
OTHER
1070
     0
1002
}
1002
{
1000
REACTOR
1002
}
1001
GENIUS_GENOBJ-N-CEN_13
1002
{
1000
OWNER
1000
GEN
1002
}
1001
GENIUS_GENCEN_19
1002
{
1040
2.793999999999999
1002
}
  0
ARC
  5
5D2
330
1F
100
AcDbEntity
  8
0
100
AcDbCircle
 10
70.49999941195892
 20
85.92499971805882
 30
0.0
 40
2.500000000000006
100
AcDbArc
 50
90.0
 51
270.0
  0
ARC
  5
5D3
330
1F
100
AcDbEntity
  8
0
100
AcDbCircle
 10
70.49999941195892
 20
85.92499971805882
 30
0.0
 40
3.000000000000006
100
AcDbArc
 50
90.0
 51
270.0
  0
ARC
  5
5D4
330
1F
100
AcDbEntity
  8
0
100
AcDbCircle
 10
80.49999941195904
 20
85.92499971805882
 30
0.0
 40
2.500000000000006
100
AcDbArc
 50
270.0
 51
90.0
  0
ARC
  5
5D5
330
1F
100
AcDbEntity
  8
0
100
AcDbCircle
 10
80.49999941195904
 20
85.92499971805882
 30
0.0
 40
3.000000000000006
100
AcDbArc
 50
270.0
 51
90.0
  0
LINE
  5
5D6
330
1F
100
AcDbEntity
  8
0
100
AcDbLine
 10
3.549999411958878
 20
93.42499971805892
 30
0.0
 11
90.44999941195907
 21
93.42499971805892
 31
0.0
  0
LINE
  5
5D7
330
1F
100
AcDbEntity
  8
0
100
AcDbLine
 10
3.549999411958878
 20
78.4249997180587
 30
0.0
 11
90.44999941195907
 21
78.4249997180587
 31
0.0
  0
LINE
  5
5D8
330
1F
100
AcDbEntity
  8
0
100
AcDbLine
 10
299.8749994119588
 20
138.874999718059
 30
0.0
 11
212.874999411959
 21
138.8749997180591
 31
0.0
  0
ARC
  5
5D9
330
1F
100
AcDbEntity
  8
0
100
AcDbCircle
 10
225.3749994119588
 20
66.37499971805903
 30
0.0
 40
1.5
100
AcDbArc
 50
180.0
 51
270.0
1001
GENIUS_GENOBJ-N-FIL_13
1002
{
1000
OWNER
1000
GEN
1002
}
1001
GENIUS_GENODEF_13
1002
{
1000
HIER
1070
     0
1002
}
1002
{
1000
MANEDIT
1070
     0
1002
}
1002
{
1000
NOSEL
1070
     0
1002
}
1002
{
1000
BEHIND
1070
     0
1002
}
1002
{
1000
OTHER
1070
     0
1002
}
1002
{
1000
REACTOR
1002
}
  0
LINE
  5
5DE
330
1F
100
AcDbEntity
  8
0
100
AcDbLine
 10
209.374999411959
 20
135.3749997180591
 30
0.0
 11
209.374999411959
 21
68.374999718059
 31
0.0
  0
ARC
  5
5DF
330
1F
100
AcDbEntity
  8
0
100
AcDbCircle
 10
212.874999411959
 20
135.3749997180591
 30
0.0
 40
3.5
100
AcDbArc
 50
90.0
 51
180.0
1001
GENIUS_GENOBJ-N-FIL_13
1002
{
1000
OWNER
1000
GEN
1002
}
1001
GENIUS_GENODEF_13
1002
{
1000
HIER
1070
     0
1002
}
1002
{
1000
MANEDIT
1070
     0
1002
}
1002
{
1000
NOSEL
1070
     0
1002
}
1002
{
1000
BEHIND
1070
     0
1002
}
1002
{
1000
OTHER
1070
     0
1002
}
1002
{
1000
REACTOR
1002
}
  0
LINE
  5
5E3
330
1F
100
AcDbEntity
  8
0
100
AcDbLine
 10
303.3749994119588
 20
135.374999718059
 30
0.0
 11
303.3749994119591
 21
68.374999718059
 31
0.0
  0
ARC
  5
5E4
330
1F
100
AcDbEntity
  8
0
100
AcDbCircle
 10
299.8749994119591
 20
68.37499971805897
 30
0.0
 40
3.5
100
AcDbArc
 50
270.0
 51
0.0
1001
GENIUS_GENODEF_13
1002
{
1000
HIER
1070
     0
1002
}
1002
{
1000
MANEDIT
1070
     0
1002
}
1002
{
1000
NOSEL
1070
     0
1002
}
1002
{
1000
BEHIND
1070
     0
1002
}
1002
{
1000
OTHER
1070
     0
1002
}
1002
{
1000
REACTOR
1002
}
1001
GENIUS_GENOBJ-N-FIL_13
1002
{
1000
OWNER
1000
GEN
1002
}
  0
ARC
  5
5E6
330
1F
100
AcDbEntity
  8
0
100
AcDbCircle
 10
299.8749994119588
 20
135.374999718059
 30
0.0
 40
3.5
100
AcDbArc
 50
0.0
 51
90.0
1001
GENIUS_GENODEF_13
1002
{
1000
HIER
1070
     0
1002
}
1002
{
1000
MANEDIT
1070
     0
1002
}
1002
{
1000
NOSEL
1070
     0
1002
}
1002
{
1000
BEHIND
1070
     0
1002
}
1002
{
1000
OTHER
1070
     0
1002
}
1002
{
1000
REACTOR
1002
}
1001
GENIUS_GENOBJ-N-FIL_13
1002
{
1000
OWNER
1000
GEN
1002
}
  0
LINE
  5
5E9
330
1F
100
AcDbEntity
  8
0
100
AcDbLine
 10
219.624999411959
 20
134.3749997180591
 30
0.0
 11
219.624999411959
 21
107.4749997180593
 31
0.0
  0
LINE
  5
5EA
330
1F
100
AcDbEntity
  8
0
100
AcDbLine
 10
219.624999411959
 20
106.2749997180593
 30
0.0
 11
219.624999411959
 21
104.9749997180593
 31
0.0
  0
LINE
  5
5EB
330
1F
100
AcDbEntity
  8
0
100
AcDbLine
 10
219.624999411959
 20
103.7749997180593
 30
0.0
 11
219.624999411959
 21
102.4749997180593
 31
0.0
  0
LINE
  5
5EC
330
1F
100
AcDbEntity
  8
0
100
AcDbLine
 10
219.624999411959
 20
101.2749997180593
 30
0.0
 11
219.624999411959
 21
99.97499971805936
 31
0.0
  0
LINE
  5
5ED
330
1F
100
AcDbEntity
  8
0
100
AcDbLine
 10
219.624999411959
 20
98.7749997180593
 30
0.0
 11
219.624999411959
 21
97.47499971805936
 31
0.0
  0
LINE
  5
5EE
330
1F
100
AcDbEntity
  8
0
100
AcDbLine
 10
219.624999411959
 20
96.2749997180593
 30
0.0
 11
219.624999411959
 21
94.97499971805934
 31
0.0
  0
LINE
  5
5EF
330
1F
100
AcDbEntity
  8
0
100
AcDbLine
 10
219.624999411959
 20
93.7749997180593
 30
0.0
 11
219.624999411959
 21
92.47499971805934
 31
0.0
  0
LINE
  5
5F0
330
1F
100
AcDbEntity
  8
0
100
AcDbLine
 10
219.624999411959
 20
91.2749997180593
 30
0.0
 11
219.624999411959
 21
89.97499971805934
 31
0.0
  0
LINE
  5
5F1
330
1F
100
AcDbEntity
  8
0
100
AcDbLine
 10
219.624999411959
 20
88.7749997180593
 30
0.0
 11
219.6249994119592
 21
69.37499971805897
 31
0.0
  0
ARC
  5
5F2
330
1F
100
AcDbEntity
  8
0
100
AcDbCircle
 10
221.124999411959
 20
134.3749997180591
 30
0.0
 40
1.5
100
AcDbArc
 50
90.0
 51
180.0
1001
GENIUS_GENODEF_13
1002
{
1000
HIER
1070
     0
1002
}
1002
{
1000
MANEDIT
1070
     0
1002
}
1002
{
1000
NOSEL
1070
     0
1002
}
1002
{
1000
BEHIND
1070
     0
1002
}
1002
{
1000
OTHER
1070
     0
1002
}
1002
{
1000
REACTOR
1002
}
1001
GENIUS_GENOBJ-N-FIL_13
1002
{
1000
OWNER
1000
GEN
1002
}
  0
CIRCLE
  5
5FC
330
1F
100
AcDbEntity
  8
0
100
AcDbCircle
 10
296.3749994119588
 20
131.8749997180592
 30
0.0
 40
2.5
  0
LINE
  5
605
330
1F
100
AcDbEntity
  8
0
100
AcDbLine
 10
233.1249994119588
 20
131.3749997180591
 30
0.0
 11
233.1249994119588
 21
130.1136125055848
 31
0.0
  0
LINE
  5
606
330
1F
100
AcDbEntity
  8
0
100
AcDbLine
 10
229.6249994119589
 20
131.3749997180591
 30
0.0
 11
229.6249994119589
 21
130.1136125055849
 31
0.0
  0
ARC
  5
607
330
1F
100
AcDbEntity
  8
0
100
AcDbCircle
 10
231.3749994119588
 20
127.374999718059
 30
0.0
 40
3.25
100
AcDbArc
 50
122.578970392805
 51
57.42102960719492
  0
ARC
  5
608
330
1F
100
AcDbEntity
  8
0
100
AcDbCircle
 10
231.3749994119589
 20
131.374999718059
 30
0.0
 40
1.75
100
AcDbArc
 50
0.0000000000032569
 51
180.0
1001
GENIUS_GENODEF_13
1002
{
1000
HIER
1070
     0
1002
}
1002
{
1000
MANEDIT
1070
     0
1002
}
1002
{
1000
NOSEL
1070
     0
1002
}
1002
{
1000
BEHIND
1070
     0
1002
}
1002
{
1000
OTHER
1070
     0
1002
}
1002
{
1000
REACTOR
1002
}
1001
GENIUS_GENOBJ-N-FIL_13
1002
{
1000
OWNER
1000
GEN
1002
}
  0
LINE
  5
609
330
1F
100
AcDbEntity
  8
0
100
AcDbLine
 10
299.8749994119591
 20
64.87499971805897
 30
0.0
 11
212.8749994119589
 21
64.87499971805897
 31
0.0
  0
LINE
  5
60A
330
1F
100
AcDbEntity
  8
0
100
AcDbLine
 10
291.6249994119586
 20
135.8749997180591
 30
0.0
 11
221.124999411959
 21
135.8749997180591
 31
0.0
  0
ARC
  5
60C
330
1F
100
AcDbEntity
  8
0
100
AcDbCircle
 10
291.6249994119586
 20
134.3749997180591
 30
0.0
 40
1.5
100
AcDbArc
 50
0.0
 51
90.0
1001
GENIUS_GENODEF_13
1002
{
1000
HIER
1070
     0
1002
}
1002
{
1000
MANEDIT
1070
     0
1002
}
1002
{
1000
NOSEL
1070
     0
1002
}
1002
{
1000
BEHIND
1070
     0
1002
}
1002
{
1000
OTHER
1070
     0
1002
}
1002
{
1000
REACTOR
1002
}
1001
GENIUS_GENOBJ-N-FIL_13
1002
{
1000
OWNER
1000
GEN
1002
}
  0
ARC
  5
60D
330
1F
100
AcDbEntity
  8
0
100
AcDbCircle
 10
212.8749994119589
 20
68.37499971805897
 30
0.0
 40
3.5
100
AcDbArc
 50
180.0
 51
270.0
1001
GENIUS_GENOBJ-N-FIL_13
1002
{
1000
OWNER
1000
GEN
1002
}
1001
GENIUS_GENODEF_13
1002
{
1000
HIER
1070
     0
1002
}
1002
{
1000
MANEDIT
1070
     0
1002
}
1002
{
1000
NOSEL
1070
     0
1002
}
1002
{
1000
BEHIND
1070
     0
1002
}
1002
{
1000
OTHER
1070
     0
1002
}
1002
{
1000
REACTOR
1002
}
  0
LINE
  5
60F
330
1F
100
AcDbEntity
  8
0
100
AcDbLine
 10
293.1249994119586
 20
134.3749997180591
 30
0.0
 11
293.1249994119586
 21
107.4749997180594
 31
0.0
  0
LINE
  5
610
330
1F
100
AcDbEntity
  8
0
100
AcDbLine
 10
293.1249994119586
 20
106.2749997180594
 30
0.0
 11
293.1249994119586
 21
104.9749997180594
 31
0.0
  0
LINE
  5
611
330
1F
100
AcDbEntity
  8
0
100
AcDbLine
 10
293.1249994119586
 20
103.7749997180594
 30
0.0
 11
293.1249994119586
 21
102.4749997180594
 31
0.0
  0
LINE
  5
612
330
1F
100
AcDbEntity
  8
0
100
AcDbLine
 10
293.1249994119586
 20
101.2749997180594
 30
0.0
 11
293.1249994119586
 21
99.97499971805945
 31
0.0
  0
LINE
  5
613
330
1F
100
AcDbEntity
  8
0
100
AcDbLine
 10
293.1249994119586
 20
98.7749997180594
 30
0.0
 11
293.1249994119586
 21
97.47499971805945
 31
0.0
  0
LINE
  5
614
330
1F
100
AcDbEntity
  8
0
100
AcDbLine
 10
293.1249994119586
 20
96.2749997180594
 30
0.0
 11
293.1249994119586
 21
94.97499971805945
 31
0.0
  0
LINE
  5
615
330
1F
100
AcDbEntity
  8
0
100
AcDbLine
 10
293.1249994119586
 20
93.7749997180594
 30
0.0
 11
293.1249994119586
 21
92.47499971805945
 31
0.0
  0
LINE
  5
616
330
1F
100
AcDbEntity
  8
0
100
AcDbLine
 10
293.1249994119586
 20
91.2749997180594
 30
0.0
 11
293.1249994119586
 21
89.97499971805945
 31
0.0
  0
LINE
  5
617
330
1F
100
AcDbEntity
  8
0
100
AcDbLine
 10
293.1249994119586
 20
88.7749997180594
 30
0.0
 11
293.1249994119586
 21
69.37499971805891
 31
0.0
  0
LINE
  5
621
330
1F
100
AcDbEntity
  8
0
100
AcDbLine
 10
279.6249994119589
 20
131.3749997180591
 30
0.0
 11
279.6249994119589
 21
130.1136125055848
 31
0.0
  0
LINE
  5
622
330
1F
100
AcDbEntity
  8
0
100
AcDbLine
 10
283.1249994119588
 20
131.3749997180591
 30
0.0
 11
283.1249994119588
 21
130.1136125055849
 31
0.0
  0
ARC
  5
623
330
1F
100
AcDbEntity
  8
0
100
AcDbCircle
 10
281.374999411959
 20
127.374999718059
 30
0.0
 40
3.25
100
AcDbArc
 50
122.578970392805
 51
57.42102960719492
  0
ARC
  5
624
330
1F
100
AcDbEntity
  8
0
100
AcDbCircle
 10
281.3749994119589
 20
131.374999718059
 30
0.0
 40
1.75
100
AcDbArc
 50
0.0
 51
179.9999999999966
1001
GENIUS_GENODEF_13
1002
{
1000
HIER
1070
     0
1002
}
1002
{
1000
MANEDIT
1070
     0
1002
}
1002
{
1000
NOSEL
1070
     0
1002
}
1002
{
1000
BEHIND
1070
     0
1002
}
1002
{
1000
OTHER
1070
     0
1002
}
1002
{
1000
REACTOR
1002
}
1001
GENIUS_GENOBJ-N-FIL_13
1002
{
1000
OWNER
1000
GEN
1002
}
  0
LINE
  5
625
330
1F
100
AcDbEntity
  8
0
100
AcDbLine
 10
223.8749994119588
 20
66.37499971805903
 30
0.0
 11
223.8749994119588
 21
67.87499971805897
 31
0.0
  0
ARC
  5
626
330
1F
100
AcDbEntity
  8
0
100
AcDbCircle
 10
221.124999411959
 20
69.37499971805897
 30
0.0
 40
1.5
100
AcDbArc
 50
179.9999999999984
 51
270.0
1001
GENIUS_GENODEF_13
1002
{
1000
HIER
1070
     0
1002
}
1002
{
1000
MANEDIT
1070
     0
1002
}
1002
{
1000
NOSEL
1070
     0
1002
}
1002
{
1000
BEHIND
1070
     0
1002
}
1002
{
1000
OTHER
1070
     0
1002
}
1002
{
1000
REACTOR
1002
}
1001
GENIUS_GENOBJ-N-FIL_13
1002
{
1000
OWNER
1000
GEN
1002
}
  0
LINE
  5
627
330
1F
100
AcDbEntity
  8
0
100
AcDbLine
 10
223.8749994119588
 20
67.87499971805897
 30
0.0
 11
221.124999411959
 21
67.87499971805903
 31
0.0
  0
ARC
  5
629
330
1F
100
AcDbEntity
  8
0
100
AcDbCircle
 10
291.6249994119588
 20
69.37499971805891
 30
0.0
 40
1.5
100
AcDbArc
 50
270.0
 51
0.0
1001
GENIUS_GENODEF_13
1002
{
1000
HIER
1070
     0
1002
}
1002
{
1000
MANEDIT
1070
     0
1002
}
1002
{
1000
NOSEL
1070
     0
1002
}
1002
{
1000
BEHIND
1070
     0
1002
}
1002
{
1000
OTHER
1070
     0
1002
}
1002
{
1000
REACTOR
1002
}
1001
GENIUS_GENOBJ-N-FIL_13
1002
{
1000
OWNER
1000
GEN
1002
}
  0
LINE
  5
62A
330
1F
100
AcDbEntity
  8
0
100
AcDbLine
 10
288.874999411959
 20
67.87499971805892
 30
0.0
 11
291.6249994119588
 21
67.87499971805892
 31
0.0
  0
LINE
  5
62C
330
1F
100
AcDbEntity
  8
0
100
AcDbLine
 10
288.874999411959
 20
66.37499971805903
 30
0.0
 11
288.874999411959
 21
67.87499971805892
 31
0.0
  0
ARC
  5
62D
330
1F
100
AcDbEntity
  8
0
100
AcDbCircle
 10
287.374999411959
 20
66.37499971805908
 30
0.0
 40
1.5
100
AcDbArc
 50
270.0
 51
359.9999999999984
1001
GENIUS_GENODEF_13
1002
{
1000
HIER
1070
     0
1002
}
1002
{
1000
MANEDIT
1070
     0
1002
}
1002
{
1000
NOSEL
1070
     0
1002
}
1002
{
1000
BEHIND
1070
     0
1002
}
1002
{
1000
OTHER
1070
     0
1002
}
1002
{
1000
REACTOR
1002
}
1001
GENIUS_GENOBJ-N-FIL_13
1002
{
1000
OWNER
1000
GEN
1002
}
  0
LINE
  5
632
330
1F
100
AcDbEntity
  8
0
100
AcDbLine
 10
211.3749994119595
 20
119.7483968904635
 30
0.0
 11
219.624999411959
 21
119.7483968904635
 31
0.0
  0
LINE
  5
633
330
1F
100
AcDbEntity
  8
0
100
AcDbLine
 10
211.3749994119584
 20
110.0016025456546
 30
0.0
 11
219.624999411959
 21
110.0016025456546
 31
0.0
  0
ARC
  5
634
330
1F
100
AcDbEntity
  8
0
100
AcDbCircle
 10
207.8749994119592
 20
114.8749997180598
 30
0.0
 40
5.999999999999487
100
AcDbArc
 50
54.31466528734897
 51
75.52248781406935
  0
ARC
  5
635
330
1F
100
AcDbEntity
  8
0
100
AcDbCircle
 10
207.874999411957
 20
114.8749997180648
 30
0.0
 40
6.000000000005804
100
AcDbArc
 50
284.4775121859342
 51
305.6853347126347
  0
LINE
  5
636
330
1F
100
AcDbEntity
  8
0
100
AcDbLine
 10
82.24999941195902
 20
-0.000000281941027
 30
0.0
 11
11.74999941195881
 21
-0.0000002819409133
 31
0.0
1001
GENIUS_GENODEF_13
1002
{
1000
HIER
1070
     0
1002
}
1002
{
1000
MANEDIT
1070
     0
1002
}
1002
{
1000
NOSEL
1070
     0
1002
}
1002
{
1000
BEHIND
1070
     0
1002
}
1002
{
1000
OTHER
1070
     0
1002
}
1002
{
1000
REACTOR
1002
}
1001
GENIUS_GENOBJ-N-CEN_13
1002
{
1000
OWNER
1000
GEN
1002
}
1001
GENIUS_GENCEN_19
1002
{
1040
2.793999999999999
1002
}
  0
LINE
  5
637
330
1F
100
AcDbEntity
  8
0
100
AcDbLine
 10
93.99999941195938
 20
8.499999718058916
 30
0.0
 11
83.74999941195905
 21
8.499999718058944
 31
0.0
1001
GENIUS_GENODEF_13
1002
{
1000
HIER
1070
     0
1002
}
1002
{
1000
MANEDIT
1070
     0
1002
}
1002
{
1000
NOSEL
1070
     0
1002
}
1002
{
1000
BEHIND
1070
     0
1002
}
1002
{
1000
OTHER
1070
     0
1002
}
1002
{
1000
REACTOR
1002
}
1001
GENIUS_GENOBJ-N-CEN_13
1002
{
1000
OWNER
1000
GEN
1002
}
1001
GENIUS_GENCEN_19
1002
{
1040
2.793999999999999
1002
}
  0
ARC
  5
638
330
1F
100
AcDbEntity
  8
0
100
AcDbCircle
 10
15.99999941195892
 20
1.499999718059028
 30
0.0
 40
1.5
100
AcDbArc
 50
180.0
 51
270.0
1001
GENIUS_GENOBJ-N-CEN_13
1002
{
1000
OWNER
1000
GEN
1002
}
1001
GENIUS_GENCEN_19
1002
{
1040
2.793999999999999
1002
}
1001
GENIUS_GENOBJ-N-FIL_13
1002
{
1000
OWNER
1000
GEN
1002
}
1001
GENIUS_GENODEF_13
1002
{
1000
HIER
1070
     0
1002
}
1002
{
1000
MANEDIT
1070
     0
1002
}
1002
{
1000
NOSEL
1070
     0
1002
}
1002
{
1000
BEHIND
1070
     0
1002
}
1002
{
1000
OTHER
1070
     0
1002
}
1002
{
1000
REACTOR
1002
}
  0
ARC
  5
639
330
1F
100
AcDbEntity
  8
0
100
AcDbCircle
 10
77.99999941195892
 20
1.499999718058973
 30
0.0
 40
1.5
100
AcDbArc
 50
270.0
 51
0.0
1001
GENIUS_GENOBJ-N-CEN_13
1002
{
1000
OWNER
1000
GEN
1002
}
1001
GENIUS_GENCEN_19
1002
{
1040
2.793999999999999
1002
}
1001
GENIUS_GENODEF_13
1002
{
1000
HIER
1070
     0
1002
}
1002
{
1000
MANEDIT
1070
     0
1002
}
1002
{
1000
NOSEL
1070
     0
1002
}
1002
{
1000
BEHIND
1070
     0
1002
}
1002
{
1000
OTHER
1070
     0
1002
}
1002
{
1000
REACTOR
1002
}
1001
GENIUS_GENOBJ-N-FIL_13
1002
{
1000
OWNER
1000
GEN
1002
}
  0
ARC
  5
63A
330
1F
100
AcDbEntity
  8
0
100
AcDbCircle
 10
82.24999941195902
 20
1.499999718058973
 30
0.0
 40
1.5
100
AcDbArc
 50
270.0
 51
0.0
1001
GENIUS_GENOBJ-N-CEN_13
1002
{
1000
OWNER
1000
GEN
1002
}
1001
GENIUS_GENCEN_19
1002
{
1040
2.793999999999999
1002
}
1001
GENIUS_GENODEF_13
1002
{
1000
HIER
1070
     0
1002
}
1002
{
1000
MANEDIT
1070
     0
1002
}
1002
{
1000
NOSEL
1070
     0
1002
}
1002
{
1000
BEHIND
1070
     0
1002
}
1002
{
1000
OTHER
1070
     0
1002
}
1002
{
1000
REACTOR
1002
}
1001
GENIUS_GENOBJ-N-FIL_13
1002
{
1000
OWNER
1000
GEN
1002
}
  0
LINE
  5
63B
330
1F
100
AcDbEntity
  8
0
100
AcDbLine
 10
91.99999941195926
 20
10.99999971805909
 30
0.0
 11
79.49999941195892
 21
10.99999971805914
 31
0.0
1001
GENIUS_GENODEF_13
1002
{
1000
HIER
1070
     0
1002
}
1002
{
1000
MANEDIT
1070
     0
1002
}
1002
{
1000
NOSEL
1070
     0
1002
}
1002
{
1000
BEHIND
1070
     0
1002
}
1002
{
1000
OTHER
1070
     0
1002
}
1002
{
1000
REACTOR
1002
}
1001
GENIUS_GENOBJ-N-CEN_13
1002
{
1000
OWNER
1000
GEN
1002
}
1001
GENIUS_GENCEN_19
1002
{
1040
2.793999999999999
1002
}
  0
LINE
  5
63C
330
1F
100
AcDbEntity
  8
0
100
AcDbLine
 10
14.49999941195892
 20
10.99999971805903
 30
0.0
 11
1.999999411958923
 21
10.99999971805903
 31
0.0
1001
GENIUS_GENODEF_13
1002
{
1000
HIER
1070
     0
1002
}
1002
{
1000
MANEDIT
1070
     0
1002
}
1002
{
1000
NOSEL
1070
     0
1002
}
1002
{
1000
BEHIND
1070
     0
1002
}
1002
{
1000
OTHER
1070
     0
1002
}
1002
{
1000
REACTOR
1002
}
1001
GENIUS_GENOBJ-N-CEN_13
1002
{
1000
OWNER
1000
GEN
1002
}
1001
GENIUS_GENCEN_19
1002
{
1040
2.793999999999999
1002
}
  0
LINE
  5
63D
330
1F
100
AcDbEntity
  8
0
100
AcDbLine
 10
93.99999941195927
 20
12.99999971805891
 30
0.0
 11
91.99999941195915
 21
10.99999971805897
 31
0.0
1001
GENIUS_GENFIL_13
1070
     0
1040
2.0
1040
2.0
1040
20.0
1040
0.0
1002
{
1002
}
1001
GENIUS_GENOBJ-N-CEN_13
1002
{
1000
OWNER
1000
GEN
1002
}
1001
GENIUS_GENCEN_19
1002
{
1040
2.793999999999999
1002
}
1001
GENIUS_GENODEF_13
1002
{
1000
HIER
1070
     0
1002
}
1002
{
1000
MANEDIT
1070
     0
1002
}
1002
{
1000
NOSEL
1070
     0
1002
}
1002
{
1000
BEHIND
1070
     0
1002
}
1002
{
1000
OTHER
1070
     0
1002
}
1002
{
1000
REACTOR
1002
}
1001
GENIUS_GENOBJ-N-CHA_13
1002
{
1000
OWNER
1000
GEN
1002
}
  0
LINE
  5
63E
330
1F
100
AcDbEntity
  8
0
100
AcDbLine
 10
92.99999941195915
 20
20.74999971805892
 30
0.0
 11
92.99999941195915
 21
20.24999971805891
 31
0.0
  0
LINE
  5
63F
330
1F
100
AcDbEntity
  8
0
100
AcDbLine
 10
83.74999941195905
 20
1.499999718058973
 30
0.0
 11
83.74999941195905
 21
10.99999971805897
 31
0.0
  0
LINE
  5
640
330
1F
100
AcDbEntity
  8
0
100
AcDbLine
 10
10.24999941195881
 20
1.499999718059085
 30
0.0
 11
10.24999941195892
 21
10.99999971805903
 31
0.0
  0
ARC
  5
641
330
1F
100
AcDbEntity
  8
0
100
AcDbCircle
 10
11.74999941195892
 20
1.499999718059199
 30
0.0
 40
1.5
100
AcDbArc
 50
180.0
 51
270.0
1001
GENIUS_GENOBJ-N-FIL_13
1002
{
1000
OWNER
1000
GEN
1002
}
1001
GENIUS_GENODEF_13
1002
{
1000
HIER
1070
     0
1002
}
1002
{
1000
MANEDIT
1070
     0
1002
}
1002
{
1000
NOSEL
1070
     0
1002
}
1002
{
1000
BEHIND
1070
     0
1002
}
1002
{
1000
OTHER
1070
     0
1002
}
1002
{
1000
REACTOR
1002
}
  0
LINE
  5
642
330
1F
100
AcDbEntity
  8
0
100
AcDbLine
 10
-0.0000005880410754
 20
20.24999971805897
 30
0.0
 11
-0.0000005880410754
 21
12.99999971805903
 31
0.0
  0
LINE
  5
643
330
1F
100
AcDbEntity
  8
0
100
AcDbLine
 10
1.999999411958923
 20
10.99999971805903
 30
0.0
 11
-0.0000005880410754
 21
12.99999971805903
 31
0.0
1001
GENIUS_GENFIL_13
1070
     0
1040
2.0
1040
2.0
1040
2.0
1040
44.9999999999996
1000
~T
  0
LINE
  5
64B
330
1F
100
AcDbEntity
  8
0
100
AcDbLine
 10
93.99999941195915
 20
20.24999971805891
 30
0.0
 11
66.69999941195897
 21
20.24999971805891
 31
0.0
  0
LINE
  5
64C
330
1F
100
AcDbEntity
  8
0
100
AcDbLine
 10
28.54999941195939
 20
20.24999971805897
 30
0.0
 11
34.69999941195903
 21
20.24999971805897
 31
0.0
  0
LINE
  5
64D
330
1F
100
AcDbEntity
  8
0
100
AcDbLine
 10
20.44999941195925
 20
20.24999971805891
 30
0.0
 11
-0.0000005880410754
 21
20.24999971805897
 31
0.0
  0
LINE
  5
64E
330
1F
100
AcDbEntity
  8
0
100
AcDbLine
 10
34.69999941195903
 20
11.89999971805906
 30
0.0
 11
66.69999941195889
 21
11.89999971805892
 31
0.0
  0
LINE
  5
64F
330
1F
100
AcDbEntity
  8
0
100
AcDbLine
 10
0.9999994119588107
 20
20.74999971805892
 30
0.0
 11
0.9999994119588107
 21
20.24999971805891
 31
0.0
  0
LINE
  5
650
330
1F
100
AcDbEntity
  8
0
100
AcDbLine
 10
14.49999941195892
 20
1.499999718059028
 30
0.0
 11
14.49999941195892
 21
10.99999971805903
 31
0.0
  0
LINE
  5
651
330
1F
100
AcDbEntity
  8
0
100
AcDbLine
 10
79.49999941195892
 20
1.499999718058973
 30
0.0
 11
79.49999941195892
 21
10.99999971805914
 31
0.0
  0
LINE
  5
652
330
1F
100
AcDbEntity
  8
0
100
AcDbLine
 10
34.69999941195903
 20
20.74999971805892
 30
0.0
 11
34.69999941195903
 21
11.89999971805906
 31
0.0
  0
LINE
  5
653
330
1F
100
AcDbEntity
  8
0
100
AcDbLine
 10
66.69999941195897
 20
20.74999971805892
 30
0.0
 11
66.69999941195889
 21
11.89999971805892
 31
0.0
  0
LINE
  5
654
330
1F
100
AcDbEntity
  8
0
100
AcDbLine
 10
28.54999941195945
 20
20.74999971805892
 30
0.0
 11
28.54999941195956
 21
15.94999971806004
 31
0.0
  0
CIRCLE
  5
655
330
1F
100
AcDbEntity
  8
0
100
AcDbCircle
 10
72.79999941195922
 20
13.59999971805882
 30
0.0
 40
4.5
  0
LINE
  5
658
330
1F
100
AcDbEntity
  8
0
100
AcDbLine
 10
20.44999941195931
 20
20.74999971805892
 30
0.0
 11
20.44999941195937
 21
15.9499997180601
 31
0.0
  0
LINE
  5
659
330
1F
100
AcDbEntity
  8
0
100
AcDbLine
 10
28.54999941195956
 20
15.94999971806004
 30
0.0
 11
20.44999941195937
 21
15.9499997180601
 31
0.0
  0
LINE
  5
65E
330
1F
100
AcDbEntity
  8
0
100
AcDbLine
 10
219.6249994119589
 20
107.4749997180593
 30
0.0
 11
222.1249994119589
 21
107.4749997180593
 31
0.0
  0
LINE
  5
65F
330
1F
100
AcDbEntity
  8
0
100
AcDbLine
 10
222.1249994119589
 20
107.4749997180593
 30
0.0
 11
222.1249994119589
 21
106.2749997180593
 31
0.0
  0
LINE
  5
660
330
1F
100
AcDbEntity
  8
0
100
AcDbLine
 10
222.1249994119589
 20
106.2749997180593
 30
0.0
 11
219.6249994119589
 21
106.2749997180593
 31
0.0
  0
LINE
  5
661
330
1F
100
AcDbEntity
  8
0
100
AcDbLine
 10
221.6249994119589
 20
107.4749997180593
 30
0.0
 11
221.6249994119589
 21
106.2749997180593
 31
0.0
  0
LINE
  5
662
330
1F
100
AcDbEntity
  8
0
100
AcDbLine
 10
219.6249994119589
 20
104.9749997180593
 30
0.0
 11
222.1249994119589
 21
104.9749997180593
 31
0.0
  0
LINE
  5
663
330
1F
100
AcDbEntity
  8
0
100
AcDbLine
 10
222.1249994119589
 20
104.9749997180593
 30
0.0
 11
222.1249994119589
 21
103.7749997180593
 31
0.0
  0
LINE
  5
664
330
1F
100
AcDbEntity
  8
0
100
AcDbLine
 10
222.1249994119589
 20
103.7749997180593
 30
0.0
 11
219.6249994119589
 21
103.7749997180593
 31
0.0
  0
LINE
  5
665
330
1F
100
AcDbEntity
  8
0
100
AcDbLine
 10
221.6249994119589
 20
104.9749997180593
 30
0.0
 11
221.6249994119589
 21
103.7749997180593
 31
0.0
  0
LINE
  5
666
330
1F
100
AcDbEntity
  8
0
100
AcDbLine
 10
219.6249994119589
 20
102.4749997180593
 30
0.0
 11
222.1249994119589
 21
102.4749997180593
 31
0.0
  0
LINE
  5
667
330
1F
100
AcDbEntity
  8
0
100
AcDbLine
 10
222.1249994119589
 20
102.4749997180593
 30
0.0
 11
222.1249994119589
 21
101.2749997180593
 31
0.0
  0
LINE
  5
668
330
1F
100
AcDbEntity
  8
0
100
AcDbLine
 10
222.1249994119589
 20
101.2749997180593
 30
0.0
 11
219.6249994119589
 21
101.2749997180593
 31
0.0
  0
LINE
  5
669
330
1F
100
AcDbEntity
  8
0
100
AcDbLine
 10
221.6249994119589
 20
102.4749997180593
 30
0.0
 11
221.6249994119589
 21
101.2749997180593
 31
0.0
  0
LINE
  5
66A
330
1F
100
AcDbEntity
  8
0
100
AcDbLine
 10
219.6249994119589
 20
99.97499971805936
 30
0.0
 11
222.1249994119589
 21
99.97499971805936
 31
0.0
  0
LINE
  5
66B
330
1F
100
AcDbEntity
  8
0
100
AcDbLine
 10
222.1249994119589
 20
99.97499971805936
 30
0.0
 11
222.1249994119589
 21
98.7749997180593
 31
0.0
  0
LINE
  5
66C
330
1F
100
AcDbEntity
  8
0
100
AcDbLine
 10
222.1249994119589
 20
98.7749997180593
 30
0.0
 11
219.6249994119589
 21
98.7749997180593
 31
0.0
  0
LINE
  5
66D
330
1F
100
AcDbEntity
  8
0
100
AcDbLine
 10
221.6249994119589
 20
99.97499971805936
 30
0.0
 11
221.6249994119589
 21
98.7749997180593
 31
0.0
  0
LINE
  5
66E
330
1F
100
AcDbEntity
  8
0
100
AcDbLine
 10
219.6249994119589
 20
97.47499971805936
 30
0.0
 11
222.1249994119589
 21
97.47499971805936
 31
0.0
  0
LINE
  5
66F
330
1F
100
AcDbEntity
  8
0
100
AcDbLine
 10
222.1249994119589
 20
97.47499971805936
 30
0.0
 11
222.1249994119589
 21
96.2749997180593
 31
0.0
  0
LINE
  5
670
330
1F
100
AcDbEntity
  8
0
100
AcDbLine
 10
222.1249994119589
 20
96.2749997180593
 30
0.0
 11
219.6249994119589
 21
96.2749997180593
 31
0.0
  0
LINE
  5
671
330
1F
100
AcDbEntity
  8
0
100
AcDbLine
 10
221.6249994119589
 20
97.47499971805936
 30
0.0
 11
221.6249994119589
 21
96.2749997180593
 31
0.0
  0
LINE
  5
672
330
1F
100
AcDbEntity
  8
0
100
AcDbLine
 10
219.6249994119589
 20
94.97499971805934
 30
0.0
 11
222.1249994119589
 21
94.97499971805934
 31
0.0
  0
LINE
  5
673
330
1F
100
AcDbEntity
  8
0
100
AcDbLine
 10
222.1249994119589
 20
94.97499971805934
 30
0.0
 11
222.1249994119589
 21
93.7749997180593
 31
0.0
  0
LINE
  5
674
330
1F
100
AcDbEntity
  8
0
100
AcDbLine
 10
222.1249994119589
 20
93.7749997180593
 30
0.0
 11
219.6249994119589
 21
93.7749997180593
 31
0.0
  0
LINE
  5
675
330
1F
100
AcDbEntity
  8
0
100
AcDbLine
 10
221.6249994119589
 20
94.97499971805934
 30
0.0
 11
221.6249994119589
 21
93.7749997180593
 31
0.0
  0
LINE
  5
676
330
1F
100
AcDbEntity
  8
0
100
AcDbLine
 10
219.6249994119589
 20
92.47499971805934
 30
0.0
 11
222.1249994119589
 21
92.47499971805934
 31
0.0
  0
LINE
  5
677
330
1F
100
AcDbEntity
  8
0
100
AcDbLine
 10
222.1249994119589
 20
92.47499971805934
 30
0.0
 11
222.1249994119589
 21
91.2749997180593
 31
0.0
  0
LINE
  5
678
330
1F
100
AcDbEntity
  8
0
100
AcDbLine
 10
222.1249994119589
 20
91.2749997180593
 30
0.0
 11
219.6249994119589
 21
91.2749997180593
 31
0.0
  0
LINE
  5
679
330
1F
100
AcDbEntity
  8
0
100
AcDbLine
 10
221.6249994119589
 20
92.47499971805934
 30
0.0
 11
221.6249994119589
 21
91.2749997180593
 31
0.0
  0
LINE
  5
67A
330
1F
100
AcDbEntity
  8
0
100
AcDbLine
 10
219.6249994119589
 20
89.97499971805934
 30
0.0
 11
222.1249994119589
 21
89.97499971805934
 31
0.0
  0
LINE
  5
67B
330
1F
100
AcDbEntity
  8
0
100
AcDbLine
 10
222.1249994119589
 20
89.97499971805934
 30
0.0
 11
222.1249994119589
 21
88.7749997180593
 31
0.0
  0
LINE
  5
67C
330
1F
100
AcDbEntity
  8
0
100
AcDbLine
 10
222.1249994119589
 20
88.7749997180593
 30
0.0
 11
219.6249994119589
 21
88.7749997180593
 31
0.0
  0
LINE
  5
67D
330
1F
100
AcDbEntity
  8
0
100
AcDbLine
 10
221.6249994119589
 20
89.97499971805934
 30
0.0
 11
221.6249994119589
 21
88.7749997180593
 31
0.0
  0
LINE
  5
67E
330
1F
100
AcDbEntity
  8
0
100
AcDbLine
 10
293.1249994119587
 20
106.2749997180594
 30
0.0
 11
293.1249994119587
 21
104.9749997180594
 31
0.0
  0
LINE
  5
67F
330
1F
100
AcDbEntity
  8
0
100
AcDbLine
 10
293.1249994119587
 20
103.7749997180594
 30
0.0
 11
293.1249994119587
 21
102.4749997180594
 31
0.0
  0
LINE
  5
680
330
1F
100
AcDbEntity
  8
0
100
AcDbLine
 10
293.1249994119587
 20
101.2749997180594
 30
0.0
 11
293.1249994119587
 21
99.97499971805945
 31
0.0
  0
LINE
  5
681
330
1F
100
AcDbEntity
  8
0
100
AcDbLine
 10
293.1249994119587
 20
98.7749997180594
 30
0.0
 11
293.1249994119588
 21
97.47499971805945
 31
0.0
  0
LINE
  5
682
330
1F
100
AcDbEntity
  8
0
100
AcDbLine
 10
293.1249994119588
 20
96.2749997180594
 30
0.0
 11
293.1249994119588
 21
94.97499971805945
 31
0.0
  0
LINE
  5
683
330
1F
100
AcDbEntity
  8
0
100
AcDbLine
 10
293.1249994119588
 20
93.7749997180594
 30
0.0
 11
293.1249994119588
 21
92.47499971805945
 31
0.0
  0
LINE
  5
684
330
1F
100
AcDbEntity
  8
0
100
AcDbLine
 10
293.1249994119588
 20
91.2749997180594
 30
0.0
 11
293.1249994119588
 21
89.97499971805945
 31
0.0
  0
LINE
  5
68C
330
1F
100
AcDbEntity
  8
0
100
AcDbLine
 10
293.1249994119589
 20
107.4749997180594
 30
0.0
 11
290.6249994119589
 21
107.4749997180594
 31
0.0
  0
LINE
  5
68D
330
1F
100
AcDbEntity
  8
0
100
AcDbLine
 10
290.6249994119589
 20
107.4749997180594
 30
0.0
 11
290.6249994119589
 21
106.2749997180594
 31
0.0
  0
LINE
  5
68E
330
1F
100
AcDbEntity
  8
0
100
AcDbLine
 10
290.6249994119589
 20
106.2749997180594
 30
0.0
 11
293.1249994119589
 21
106.2749997180594
 31
0.0
  0
LINE
  5
68F
330
1F
100
AcDbEntity
  8
0
100
AcDbLine
 10
291.1249994119589
 20
107.4749997180594
 30
0.0
 11
291.1249994119589
 21
106.2749997180594
 31
0.0
  0
LINE
  5
690
330
1F
100
AcDbEntity
  8
0
100
AcDbLine
 10
293.1249994119589
 20
104.9749997180594
 30
0.0
 11
290.6249994119589
 21
104.9749997180594
 31
0.0
  0
LINE
  5
691
330
1F
100
AcDbEntity
  8
0
100
AcDbLine
 10
290.6249994119589
 20
104.9749997180594
 30
0.0
 11
290.6249994119589
 21
103.7749997180594
 31
0.0
  0
LINE
  5
692
330
1F
100
AcDbEntity
  8
0
100
AcDbLine
 10
290.6249994119589
 20
103.7749997180594
 30
0.0
 11
293.1249994119589
 21
103.7749997180594
 31
0.0
  0
LINE
  5
693
330
1F
100
AcDbEntity
  8
0
100
AcDbLine
 10
291.1249994119589
 20
104.9749997180594
 30
0.0
 11
291.1249994119589
 21
103.7749997180594
 31
0.0
  0
LINE
  5
694
330
1F
100
AcDbEntity
  8
0
100
AcDbLine
 10
293.1249994119589
 20
102.4749997180594
 30
0.0
 11
290.6249994119589
 21
102.4749997180594
 31
0.0
  0
LINE
  5
695
330
1F
100
AcDbEntity
  8
0
100
AcDbLine
 10
290.6249994119589
 20
102.4749997180594
 30
0.0
 11
290.6249994119589
 21
101.2749997180594
 31
0.0
  0
LINE
  5
696
330
1F
100
AcDbEntity
  8
0
100
AcDbLine
 10
290.6249994119589
 20
101.2749997180594
 30
0.0
 11
293.1249994119589
 21
101.2749997180594
 31
0.0
  0
LINE
  5
697
330
1F
100
AcDbEntity
  8
0
100
AcDbLine
 10
291.1249994119589
 20
102.4749997180594
 30
0.0
 11
291.1249994119589
 21
101.2749997180594
 31
0.0
  0
LINE
  5
698
330
1F
100
AcDbEntity
  8
0
100
AcDbLine
 10
293.1249994119589
 20
99.97499971805945
 30
0.0
 11
290.6249994119589
 21
99.97499971805945
 31
0.0
  0
LINE
  5
699
330
1F
100
AcDbEntity
  8
0
100
AcDbLine
 10
290.6249994119589
 20
99.97499971805945
 30
0.0
 11
290.6249994119589
 21
98.7749997180594
 31
0.0
  0
LINE
  5
69A
330
1F
100
AcDbEntity
  8
0
100
AcDbLine
 10
290.6249994119589
 20
98.7749997180594
 30
0.0
 11
293.1249994119589
 21
98.7749997180594
 31
0.0
  0
LINE
  5
69B
330
1F
100
AcDbEntity
  8
0
100
AcDbLine
 10
291.1249994119589
 20
99.97499971805945
 30
0.0
 11
291.1249994119589
 21
98.7749997180594
 31
0.0
  0
LINE
  5
69C
330
1F
100
AcDbEntity
  8
0
100
AcDbLine
 10
293.124999411959
 20
97.47499971805945
 30
0.0
 11
290.624999411959
 21
97.47499971805945
 31
0.0
  0
LINE
  5
69D
330
1F
100
AcDbEntity
  8
0
100
AcDbLine
 10
290.624999411959
 20
97.47499971805945
 30
0.0
 11
290.624999411959
 21
96.2749997180594
 31
0.0
  0
LINE
  5
69E
330
1F
100
AcDbEntity
  8
0
100
AcDbLine
 10
290.624999411959
 20
96.2749997180594
 30
0.0
 11
293.124999411959
 21
96.2749997180594
 31
0.0
  0
LINE
  5
69F
330
1F
100
AcDbEntity
  8
0
100
AcDbLine
 10
291.124999411959
 20
97.47499971805945
 30
0.0
 11
291.124999411959
 21
96.2749997180594
 31
0.0
  0
LINE
  5
6A0
330
1F
100
AcDbEntity
  8
0
100
AcDbLine
 10
293.124999411959
 20
94.97499971805945
 30
0.0
 11
290.624999411959
 21
94.97499971805945
 31
0.0
  0
LINE
  5
6A1
330
1F
100
AcDbEntity
  8
0
100
AcDbLine
 10
290.624999411959
 20
94.97499971805945
 30
0.0
 11
290.624999411959
 21
93.7749997180594
 31
0.0
  0
LINE
  5
6A2
330
1F
100
AcDbEntity
  8
0
100
AcDbLine
 10
290.624999411959
 20
93.7749997180594
 30
0.0
 11
293.124999411959
 21
93.7749997180594
 31
0.0
  0
LINE
  5
6A3
330
1F
100
AcDbEntity
  8
0
100
AcDbLine
 10
291.124999411959
 20
94.97499971805945
 30
0.0
 11
291.124999411959
 21
93.7749997180594
 31
0.0
  0
LINE
  5
6A4
330
1F
100
AcDbEntity
  8
0
100
AcDbLine
 10
293.124999411959
 20
92.47499971805945
 30
0.0
 11
290.624999411959
 21
92.47499971805945
 31
0.0
  0
LINE
  5
6A5
330
1F
100
AcDbEntity
  8
0
100
AcDbLine
 10
290.624999411959
 20
92.47499971805945
 30
0.0
 11
290.624999411959
 21
91.2749997180594
 31
0.0
  0
LINE
  5
6A6
330
1F
100
AcDbEntity
  8
0
100
AcDbLine
 10
290.624999411959
 20
91.2749997180594
 30
0.0
 11
293.124999411959
 21
91.2749997180594
 31
0.0
  0
LINE
  5
6A7
330
1F
100
AcDbEntity
  8
0
100
AcDbLine
 10
291.124999411959
 20
92.47499971805945
 30
0.0
 11
291.124999411959
 21
91.2749997180594
 31
0.0
  0
LINE
  5
6A8
330
1F
100
AcDbEntity
  8
0
100
AcDbLine
 10
293.124999411959
 20
89.97499971805945
 30
0.0
 11
290.624999411959
 21
89.97499971805945
 31
0.0
  0
LINE
  5
6A9
330
1F
100
AcDbEntity
  8
0
100
AcDbLine
 10
290.624999411959
 20
89.97499971805945
 30
0.0
 11
290.624999411959
 21
88.7749997180594
 31
0.0
  0
LINE
  5
6AA
330
1F
100
AcDbEntity
  8
0
100
AcDbLine
 10
290.624999411959
 20
88.7749997180594
 30
0.0
 11
293.124999411959
 21
88.7749997180594
 31
0.0
  0
LINE
  5
6AB
330
1F
100
AcDbEntity
  8
0
100
AcDbLine
 10
291.124999411959
 20
89.97499971805945
 30
0.0
 11
291.124999411959
 21
88.7749997180594
 31
0.0
  0
LINE
  5
6AC
330
1F
100
AcDbEntity
  8
0
100
AcDbLine
 10
94.0999994119589
 20
119.8749997180586
 30
0.0
 11
94.0999994119589
 21
109.8749997180588
 31
0.0
  0
LINE
  5
6AD
330
1F
100
AcDbEntity
  8
0
100
AcDbLine
 10
95.19999941195791
 20
102.8749997180587
 30
0.0
 11
105.199999411958
 21
102.8749997180587
 31
0.0
  0
LINE
  5
6AE
330
1F
100
AcDbEntity
  8
0
100
AcDbLine
 10
94.0999994119589
 20
119.8749997180586
 30
0.0
 11
95.19999941195791
 21
119.8749997180587
 31
0.0
  0
LINE
  5
6AF
330
1F
100
AcDbEntity
  8
0
100
AcDbLine
 10
93.99999941195886
 20
118.0749997180588
 30
0.0
 11
94.09999941195946
 21
118.0749997180588
 31
0.0
  0
LINE
  5
6B0
330
1F
100
AcDbEntity
  8
0
100
AcDbLine
 10
93.99999941195886
 20
111.6749997180586
 30
0.0
 11
94.09999941195946
 21
111.6749997180586
 31
0.0
  0
LINE
  5
6B1
330
1F
100
AcDbEntity
  8
0
100
AcDbLine
 10
94.0999994119589
 20
109.8749997180588
 30
0.0
 11
95.19999941195775
 21
109.8749997180585
 31
0.0
  0
LINE
  5
6B2
330
1F
100
AcDbEntity
  8
0
100
AcDbLine
 10
98.99999941195794
 20
106.2749997180587
 30
0.0
 11
101.399999411958
 21
106.2749997180587
 31
0.0
1001
GENIUS_GENREC_14
1002
{
1000
PYDIR
1011
99.19999941195792
1021
108.4749997180582
1031
0.0
1002
}
1002
{
1000
PXDIR
1011
101.199999411958
1021
106.4749997180587
1031
0.0
1002
}
1002
{
1000
PORI
1011
99.19999941195792
1021
106.4749997180587
1031
0.0
1002
}
1002
{
1000
PINS
1011
99.19999941195792
1021
106.4749997180587
1031
0.0
1002
}
1002
{
1000
PINS2
1011
101.199999411958
1021
108.4749997180582
1031
0.0
1002
}
1002
{
1000
C
1070
     1
1002
}
1001
GENIUS_GENODEF_13
1002
{
1000
HIER
1070
     0
1002
}
1002
{
1000
MANEDIT
1070
     0
1002
}
1002
{
1000
NOSEL
1070
     0
1002
}
1002
{
1000
BEHIND
1070
     0
1002
}
1002
{
1000
OTHER
1070
     0
1002
}
1002
{
1000
REACTOR
1002
}
1001
GENIUS_GENOBJ-N-REC_13
1002
{
1000
OWNER
1000
GEN
1002
}
  0
LINE
  5
6B3
330
1F
100
AcDbEntity
  8
0
100
AcDbLine
 10
101.399999411958
 20
106.2749997180587
 30
0.0
 11
101.399999411958
 21
108.4749997180582
 31
0.0
1001
GENIUS_GENREC_14
1002
{
1000
PYDIR
1011
99.19999941195792
1021
108.2749997180582
1031
0.0
1002
}
1002
{
1000
PXDIR
1011
101.199999411958
1021
106.4749997180587
1031
0.0
1002
}
1002
{
1000
PORI
1011
99.19999941195792
1021
106.4749997180587
1031
0.0
1002
}
1002
{
1000
PINS
1011
99.19999941195792
1021
106.4749997180587
1031
0.0
1002
}
1002
{
1000
PINS2
1011
101.199999411958
1021
108.2749997180582
1031
0.0
1002
}
1002
{
1000
C
1070
     1
1002
}
1001
GENIUS_GENODEF_13
1002
{
1000
HIER
1070
     0
1002
}
1002
{
1000
MANEDIT
1070
     0
1002
}
1002
{
1000
NOSEL
1070
     0
1002
}
1002
{
1000
BEHIND
1070
     0
1002
}
1002
{
1000
OTHER
1070
     0
1002
}
1002
{
1000
REACTOR
1002
}
1001
GENIUS_GENOBJ-N-REC_13
1002
{
1000
OWNER
1000
GEN
1002
}
  0
LINE
  5
6B4
330
1F
100
AcDbEntity
  8
0
100
AcDbLine
 10
101.399999411958
 20
108.4749997180582
 30
0.0
 11
98.99999941195794
 21
108.4749997180582
 31
0.0
1001
GENIUS_GENREC_14
1002
{
1000
PYDIR
1011
99.19999941195792
1021
108.2749997180582
1031
0.0
1002
}
1002
{
1000
PXDIR
1011
101.199999411958
1021
106.4749997180587
1031
0.0
1002
}
1002
{
1000
PORI
1011
99.19999941195792
1021
106.4749997180587
1031
0.0
1002
}
1002
{
1000
PINS
1011
99.19999941195792
1021
106.4749997180587
1031
0.0
1002
}
1002
{
1000
PINS2
1011
101.199999411958
1021
108.2749997180582
1031
0.0
1002
}
1002
{
1000
C
1070
     1
1002
}
1001
GENIUS_GENODEF_13
1002
{
1000
HIER
1070
     0
1002
}
1002
{
1000
MANEDIT
1070
     0
1002
}
1002
{
1000
NOSEL
1070
     0
1002
}
1002
{
1000
BEHIND
1070
     0
1002
}
1002
{
1000
OTHER
1070
     0
1002
}
1002
{
1000
REACTOR
1002
}
1001
GENIUS_GENOBJ-N-REC_13
1002
{
1000
OWNER
1000
GEN
1002
}
  0
LINE
  5
6B5
330
1F
100
AcDbEntity
  8
0
100
AcDbLine
 10
98.99999941195794
 20
108.4749997180582
 30
0.0
 11
98.99999941195794
 21
106.2749997180587
 31
0.0
1001
GENIUS_GENREC_14
1002
{
1000
PYDIR
1011
99.19999941195792
1021
108.2749997180582
1031
0.0
1002
}
1002
{
1000
PXDIR
1011
101.199999411958
1021
106.4749997180587
1031
0.0
1002
}
1002
{
1000
PORI
1011
99.19999941195792
1021
106.4749997180587
1031
0.0
1002
}
1002
{
1000
PINS
1011
99.19999941195792
1021
106.4749997180587
1031
0.0
1002
}
1002
{
1000
PINS2
1011
101.199999411958
1021
108.2749997180582
1031
0.0
1002
}
1002
{
1000
C
1070
     1
1002
}
1001
GENIUS_GENODEF_13
1002
{
1000
HIER
1070
     0
1002
}
1002
{
1000
MANEDIT
1070
     0
1002
}
1002
{
1000
NOSEL
1070
     0
1002
}
1002
{
1000
BEHIND
1070
     0
1002
}
1002
{
1000
OTHER
1070
     0
1002
}
1002
{
1000
REACTOR
1002
}
1001
GENIUS_GENOBJ-N-REC_13
1002
{
1000
OWNER
1000
GEN
1002
}
  0
LINE
  5
6B6
330
1F
100
AcDbEntity
  8
0
100
AcDbLine
 10
105.1999994119579
 20
102.8749997180684
 30
0.0
 11
105.1999994119579
 21
126.8749997180588
 31
0.0
  0
LINE
  5
6B7
330
1F
100
AcDbEntity
  8
0
100
AcDbLine
 10
95.19999941195775
 20
102.8749997180684
 30
0.0
 11
95.19999941195775
 21
109.8749997180585
 31
0.0
  0
LINE
  5
6B8
330
1F
100
AcDbEntity
  8
0
100
AcDbLine
 10
95.19999941195791
 20
119.8749997180587
 30
0.0
 11
95.19999941195791
 21
126.8749997180588
 31
0.0
  0
LINE
  5
6B9
330
1F
100
AcDbEntity
  8
0
100
AcDbLine
 10
95.19999941195791
 20
119.8749997180587
 30
0.0
 11
100.199999411958
 21
114.8749997180588
 31
0.0
  0
LINE
  5
6BA
330
1F
100
AcDbEntity
  8
0
100
AcDbLine
 10
100.199999411958
 20
114.8749997180588
 30
0.0
 11
95.199999411958
 21
109.8749997180587
 31
0.0
  0
LINE
  5
6BB
330
1F
100
AcDbEntity
  8
0
100
AcDbLine
 10
104.1999994119581
 20
179.8749997180589
 30
0.0
 11
96.19999941195787
 21
179.8749997180588
 31
0.0
  0
LINE
  5
6BD
330
1F
100
AcDbEntity
  8
0
100
AcDbLine
 10
95.199999411958
 20
126.8749997180588
 30
0.0
 11
96.19999941195787
 21
179.8749997180588
 31
0.0
  0
LINE
  5
6BE
330
1F
100
AcDbEntity
  8
0
100
AcDbLine
 10
105.199999411958
 20
126.8749997180588
 30
0.0
 11
104.1999994119581
 21
179.8749997180589
 31
0.0
  0
LINE
  5
6BF
330
1F
100
AcDbEntity
  8
0
100
AcDbLine
 10
96.29999941195757
 20
179.8749997180588
 30
0.0
 11
96.35579754514671
 21
181.7765026438975
 31
0.0
  0
LINE
  5
6C0
330
1F
100
AcDbEntity
  8
0
100
AcDbLine
 10
104.0999994119574
 20
179.8749997180588
 30
0.0
 11
104.0442012787683
 21
181.7765026438973
 31
0.0
  0
ARC
  5
6C1
330
1F
100
AcDbEntity
  8
0
100
AcDbCircle
 10
103.5442937087534
 20
181.7668890367816
 30
0.0
 40
0.5
100
AcDbArc
 50
1.101706115201059
 51
69.38841074338546
1001
GENIUS_GENODEF_13
1002
{
1000
HIER
1070
     0
1002
}
1002
{
1000
MANEDIT
1070
     0
1002
}
1002
{
1000
NOSEL
1070
     0
1002
}
1002
{
1000
BEHIND
1070
     0
1002
}
1002
{
1000
OTHER
1070
     0
1002
}
1002
{
1000
REACTOR
1002
}
1001
GENIUS_GENOBJ-N-FIL_13
1002
{
1000
OWNER
1000
GEN
1002
}
  0
ARC
  5
6C2
330
1F
100
AcDbEntity
  8
0
100
AcDbCircle
 10
96.85570511516171
 20
181.7668890367819
 30
0.0
 40
0.5
100
AcDbArc
 50
110.6115892566115
 51
178.8982938847924
1001
GENIUS_GENOBJ-N-FIL_13
1002
{
1000
OWNER
1000
GEN
1002
}
1001
GENIUS_GENODEF_13
1002
{
1000
HIER
1070
     0
1002
}
1002
{
1000
MANEDIT
1070
     0
1002
}
1002
{
1000
NOSEL
1070
     0
1002
}
1002
{
1000
BEHIND
1070
     0
1002
}
1002
{
1000
OTHER
1070
     0
1002
}
1002
{
1000
REACTOR
1002
}
  0
ARC
  5
6C3
330
1F
100
AcDbEntity
  8
0
100
AcDbCircle
 10
100.1999994119572
 20
172.8749997180588
 30
0.0
 40
10.0
100
AcDbArc
 50
69.38841074338546
 51
81.37307343471126
  0
ARC
  5
6C4
330
1F
100
AcDbEntity
  8
0
100
AcDbCircle
 10
100.1999994119572
 20
172.8749997180588
 30
0.0
 40
10.0
100
AcDbArc
 50
98.62692656528871
 51
110.6115892566115
  0
LINE
  5
6C5
330
1F
100
AcDbEntity
  8
0
100
AcDbLine
 10
101.699999413098
 20
182.7618596845283
 30
0.0
 11
98.69999941081658
 21
182.7618596845283
 31
0.0
  0
LINE
  5
6C6
330
1F
100
AcDbEntity
  8
0
100
AcDbLine
 10
101.199999411958
 20
106.7749997180588
 30
0.0
 11
99.19999941195801
 21
106.7749997180587
 31
0.0
  0
LINE
  5
6C7
330
1F
100
AcDbEntity
  8
0
100
AcDbLine
 10
104.6999994119582
 20
101.3749997180588
 30
0.0
 11
95.69999941195778
 21
101.3749997180587
 31
0.0
  0
LINE
  5
6C8
330
1F
100
AcDbEntity
  8
0
100
AcDbLine
 10
95.19999941195791
 20
101.8749997180588
 30
0.0
 11
95.69999941195778
 21
101.3749997180587
 31
0.0
1001
GENIUS_GENFIL_13
1070
     0
1040
0.5
1040
0.5
1040
20.0
1040
0.0
1002
{
1002
}
1001
GENIUS_GENODEF_13
1002
{
1000
HIER
1070
     0
1002
}
1002
{
1000
MANEDIT
1070
     0
1002
}
1002
{
1000
NOSEL
1070
     0
1002
}
1002
{
1000
BEHIND
1070
     0
1002
}
1002
{
1000
OTHER
1070
     0
1002
}
1002
{
1000
REACTOR
1002
}
1001
GENIUS_GENOBJ-N-CHA_13
1002
{
1000
OWNER
1000
GEN
1002
}
  0
LINE
  5
6C9
330
1F
100
AcDbEntity
  8
0
100
AcDbLine
 10
105.199999411958
 20
102.8749997180588
 30
0.0
 11
105.1999994119581
 21
101.8749997180588
 31
0.0
  0
LINE
  5
6CA
330
1F
100
AcDbEntity
  8
0
100
AcDbLine
 10
104.6999994119582
 20
101.3749997180588
 30
0.0
 11
105.1999994119581
 21
101.8749997180588
 31
0.0
1001
GENIUS_GENFIL_13
1070
     0
1040
0.5
1040
0.5
1040
0.4999999999999787
1040
45.00000000000446
1000
~T
  0
LINE
  5
6CB
330
1F
100
AcDbEntity
  8
0
100
AcDbLine
 10
95.19999941195823
 20
102.8749997180588
 30
0.0
 11
95.19999941195791
 21
101.8749997180588
 31
0.0
  0
LINE
  5
6CC
330
1F
100
AcDbEntity
  8
0
100
AcDbLine
 10
105.1999994119582
 20
101.8749997180593
 30
0.0
 11
95.19999941195791
 21
101.8749997180587
 31
0.0
  0
LINE
  5
6CD
330
1F
100
AcDbEntity
  8
0
100
AcDbLine
 10
101.199999411958
 20
108.2749997180582
 30
0.0
 11
99.19999941195801
 21
108.2749997180582
 31
0.0
  0
LINE
  5
6CE
330
1F
100
AcDbEntity
  8
0
100
AcDbLine
 10
99.19999941195792
 20
106.2749997180587
 30
0.0
 11
99.19999941195801
 21
108.2749997180582
 31
0.0
  0
LINE
  5
6CF
330
1F
100
AcDbEntity
  8
0
100
AcDbLine
 10
101.199999411958
 20
106.2749997180587
 30
0.0
 11
101.199999411958
 21
108.2749997180582
 31
0.0
  0
LINE
  5
6D0
330
1F
100
AcDbEntity
  8
0
100
AcDbLine
 10
209.274999411959
 20
119.8749997180589
 30
0.0
 11
209.274999411959
 21
109.8749997180591
 31
0.0
  0
LINE
  5
6D1
330
1F
100
AcDbEntity
  8
0
100
AcDbLine
 10
208.17499941196
 20
102.8749997180591
 30
0.0
 11
198.1749994119598
 21
102.874999718059
 31
0.0
  0
LINE
  5
6D2
330
1F
100
AcDbEntity
  8
0
100
AcDbLine
 10
209.274999411959
 20
119.8749997180589
 30
0.0
 11
208.17499941196
 21
119.8749997180589
 31
0.0
  0
LINE
  5
6D3
330
1F
100
AcDbEntity
  8
0
100
AcDbLine
 10
209.374999411959
 20
118.0749997180591
 30
0.0
 11
209.2749994119584
 21
118.0749997180591
 31
0.0
  0
LINE
  5
6D4
330
1F
100
AcDbEntity
  8
0
100
AcDbLine
 10
209.374999411959
 20
111.6749997180589
 30
0.0
 11
209.2749994119584
 21
111.6749997180589
 31
0.0
  0
LINE
  5
6D5
330
1F
100
AcDbEntity
  8
0
100
AcDbLine
 10
209.274999411959
 20
109.8749997180591
 30
0.0
 11
208.1749994119601
 21
109.8749997180588
 31
0.0
  0
LINE
  5
6D6
330
1F
100
AcDbEntity
  8
0
100
AcDbLine
 10
204.3749994119599
 20
106.274999718059
 30
0.0
 11
201.9749994119598
 21
106.274999718059
 31
0.0
1001
GENIUS_GENREC_14
1002
{
1000
PYDIR
1011
204.17499941196
1021
108.4749997180585
1031
0.0
1002
}
1002
{
1000
PXDIR
1011
202.1749994119598
1021
106.474999718059
1031
0.0
1002
}
1002
{
1000
PORI
1011
204.17499941196
1021
106.474999718059
1031
0.0
1002
}
1002
{
1000
PINS
1011
204.17499941196
1021
106.474999718059
1031
0.0
1002
}
1002
{
1000
PINS2
1011
202.1749994119598
1021
108.4749997180585
1031
0.0
1002
}
1002
{
1000
C
1070
     1
1002
}
1001
GENIUS_GENODEF_13
1002
{
1000
HIER
1070
     0
1002
}
1002
{
1000
MANEDIT
1070
     0
1002
}
1002
{
1000
NOSEL
1070
     0
1002
}
1002
{
1000
BEHIND
1070
     0
1002
}
1002
{
1000
OTHER
1070
     0
1002
}
1002
{
1000
REACTOR
1002
}
1001
GENIUS_GENOBJ-N-REC_13
1002
{
1000
OWNER
1000
GEN
1002
}
  0
LINE
  5
6D7
330
1F
100
AcDbEntity
  8
0
100
AcDbLine
 10
201.9749994119598
 20
106.274999718059
 30
0.0
 11
201.9749994119598
 21
108.4749997180585
 31
0.0
1001
GENIUS_GENREC_14
1002
{
1000
PYDIR
1011
204.17499941196
1021
108.2749997180585
1031
0.0
1002
}
1002
{
1000
PXDIR
1011
202.1749994119598
1021
106.474999718059
1031
0.0
1002
}
1002
{
1000
PORI
1011
204.17499941196
1021
106.474999718059
1031
0.0
1002
}
1002
{
1000
PINS
1011
204.17499941196
1021
106.474999718059
1031
0.0
1002
}
1002
{
1000
PINS2
1011
202.1749994119598
1021
108.2749997180585
1031
0.0
1002
}
1002
{
1000
C
1070
     1
1002
}
1001
GENIUS_GENODEF_13
1002
{
1000
HIER
1070
     0
1002
}
1002
{
1000
MANEDIT
1070
     0
1002
}
1002
{
1000
NOSEL
1070
     0
1002
}
1002
{
1000
BEHIND
1070
     0
1002
}
1002
{
1000
OTHER
1070
     0
1002
}
1002
{
1000
REACTOR
1002
}
1001
GENIUS_GENOBJ-N-REC_13
1002
{
1000
OWNER
1000
GEN
1002
}
  0
LINE
  5
6D8
330
1F
100
AcDbEntity
  8
0
100
AcDbLine
 10
201.9749994119598
 20
108.4749997180585
 30
0.0
 11
204.3749994119599
 21
108.4749997180585
 31
0.0
1001
GENIUS_GENREC_14
1002
{
1000
PYDIR
1011
204.17499941196
1021
108.2749997180585
1031
0.0
1002
}
1002
{
1000
PXDIR
1011
202.1749994119598
1021
106.474999718059
1031
0.0
1002
}
1002
{
1000
PORI
1011
204.17499941196
1021
106.474999718059
1031
0.0
1002
}
1002
{
1000
PINS
1011
204.17499941196
1021
106.474999718059
1031
0.0
1002
}
1002
{
1000
PINS2
1011
202.1749994119598
1021
108.2749997180585
1031
0.0
1002
}
1002
{
1000
C
1070
     1
1002
}
1001
GENIUS_GENODEF_13
1002
{
1000
HIER
1070
     0
1002
}
1002
{
1000
MANEDIT
1070
     0
1002
}
1002
{
1000
NOSEL
1070
     0
1002
}
1002
{
1000
BEHIND
1070
     0
1002
}
1002
{
1000
OTHER
1070
     0
1002
}
1002
{
1000
REACTOR
1002
}
1001
GENIUS_GENOBJ-N-REC_13
1002
{
1000
OWNER
1000
GEN
1002
}
  0
LINE
  5
6D9
330
1F
100
AcDbEntity
  8
0
100
AcDbLine
 10
204.3749994119599
 20
108.4749997180585
 30
0.0
 11
204.3749994119599
 21
106.274999718059
 31
0.0
1001
GENIUS_GENREC_14
1002
{
1000
PYDIR
1011
204.17499941196
1021
108.2749997180585
1031
0.0
1002
}
1002
{
1000
PXDIR
1011
202.1749994119598
1021
106.474999718059
1031
0.0
1002
}
1002
{
1000
PORI
1011
204.17499941196
1021
106.474999718059
1031
0.0
1002
}
1002
{
1000
PINS
1011
204.17499941196
1021
106.474999718059
1031
0.0
1002
}
1002
{
1000
PINS2
1011
202.1749994119598
1021
108.2749997180585
1031
0.0
1002
}
1002
{
1000
C
1070
     1
1002
}
1001
GENIUS_GENODEF_13
1002
{
1000
HIER
1070
     0
1002
}
1002
{
1000
MANEDIT
1070
     0
1002
}
1002
{
1000
NOSEL
1070
     0
1002
}
1002
{
1000
BEHIND
1070
     0
1002
}
1002
{
1000
OTHER
1070
     0
1002
}
1002
{
1000
REACTOR
1002
}
1001
GENIUS_GENOBJ-N-REC_13
1002
{
1000
OWNER
1000
GEN
1002
}
  0
LINE
  5
6DA
330
1F
100
AcDbEntity
  8
0
100
AcDbLine
 10
198.1749994119599
 20
102.8749997180687
 30
0.0
 11
198.1749994119599
 21
126.8749997180591
 31
0.0
  0
LINE
  5
6DB
330
1F
100
AcDbEntity
  8
0
100
AcDbLine
 10
208.1749994119601
 20
102.8749997180687
 30
0.0
 11
208.1749994119601
 21
109.8749997180588
 31
0.0
  0
LINE
  5
6DC
330
1F
100
AcDbEntity
  8
0
100
AcDbLine
 10
208.17499941196
 20
119.8749997180589
 30
0.0
 11
208.17499941196
 21
126.8749997180591
 31
0.0
  0
LINE
  5
6DD
330
1F
100
AcDbEntity
  8
0
100
AcDbLine
 10
208.17499941196
 20
119.874999718059
 30
0.0
 11
203.1749994119599
 21
114.8749997180591
 31
0.0
  0
LINE
  5
6DE
330
1F
100
AcDbEntity
  8
0
100
AcDbLine
 10
203.1749994119599
 20
114.8749997180591
 30
0.0
 11
208.1749994119598
 21
109.8749997180591
 31
0.0
  0
LINE
  5
6E0
330
1F
100
AcDbEntity
  8
0
100
AcDbLine
 10
199.1749994119597
 20
179.8749997180592
 30
0.0
 11
207.17499941196
 21
179.8749997180591
 31
0.0
  0
LINE
  5
6E2
330
1F
100
AcDbEntity
  8
0
100
AcDbLine
 10
208.1749994119598
 20
126.8749997180591
 30
0.0
 11
207.17499941196
 21
179.8749997180591
 31
0.0
  0
LINE
  5
6E3
330
1F
100
AcDbEntity
  8
0
100
AcDbLine
 10
198.1749994119598
 20
126.8749997180591
 30
0.0
 11
199.1749994119597
 21
179.8749997180592
 31
0.0
  0
LINE
  5
6E4
330
1F
100
AcDbEntity
  8
0
100
AcDbLine
 10
207.0749994119603
 20
179.8749997180591
 30
0.0
 11
207.0192012787712
 21
181.7765026438978
 31
0.0
  0
LINE
  5
6E5
330
1F
100
AcDbEntity
  8
0
100
AcDbLine
 10
199.2749994119604
 20
179.8749997180591
 30
0.0
 11
199.3307975451495
 21
181.7765026438975
 31
0.0
  0
ARC
  5
6E6
330
1F
100
AcDbEntity
  8
0
100
AcDbCircle
 10
199.8307051151644
 20
181.7668890367819
 30
0.0
 40
0.5
100
AcDbArc
 50
110.6115892566145
 51
178.8982938847989
1001
GENIUS_GENODEF_13
1002
{
1000
HIER
1070
     0
1002
}
1002
{
1000
MANEDIT
1070
     0
1002
}
1002
{
1000
NOSEL
1070
     0
1002
}
1002
{
1000
BEHIND
1070
     0
1002
}
1002
{
1000
OTHER
1070
     0
1002
}
1002
{
1000
REACTOR
1002
}
1001
GENIUS_GENOBJ-N-FIL_13
1002
{
1000
OWNER
1000
GEN
1002
}
  0
ARC
  5
6E7
330
1F
100
AcDbEntity
  8
0
100
AcDbCircle
 10
206.5192937087561
 20
181.7668890367821
 30
0.0
 40
0.5
100
AcDbArc
 50
1.101706115207572
 51
69.3884107433885
1001
GENIUS_GENOBJ-N-FIL_13
1002
{
1000
OWNER
1000
GEN
1002
}
1001
GENIUS_GENODEF_13
1002
{
1000
HIER
1070
     0
1002
}
1002
{
1000
MANEDIT
1070
     0
1002
}
1002
{
1000
NOSEL
1070
     0
1002
}
1002
{
1000
BEHIND
1070
     0
1002
}
1002
{
1000
OTHER
1070
     0
1002
}
1002
{
1000
REACTOR
1002
}
  0
ARC
  5
6E8
330
1F
100
AcDbEntity
  8
0
100
AcDbCircle
 10
203.1749994119607
 20
172.8749997180591
 30
0.0
 40
10.0
100
AcDbArc
 50
98.62692656528871
 51
110.6115892566145
  0
ARC
  5
6E9
330
1F
100
AcDbEntity
  8
0
100
AcDbCircle
 10
203.1749994119607
 20
172.8749997180591
 30
0.0
 40
10.0
100
AcDbArc
 50
81.37307343471126
 51
98.62692656528871
  0
ARC
  5
6EA
330
1F
100
AcDbEntity
  8
0
100
AcDbCircle
 10
203.1749994119607
 20
172.8749997180591
 30
0.0
 40
10.0
100
AcDbArc
 50
69.3884107433885
 51
81.37307343471126
  0
LINE
  5
6EB
330
1F
100
AcDbEntity
  8
0
100
AcDbLine
 10
201.6749994108198
 20
182.7618596845286
 30
0.0
 11
204.6749994131013
 21
182.7618596845286
 31
0.0
  0
LINE
  5
6EC
330
1F
100
AcDbEntity
  8
0
100
AcDbLine
 10
202.1749994119598
 20
106.7749997180591
 30
0.0
 11
204.1749994119598
 21
106.774999718059
 31
0.0
  0
LINE
  5
6ED
330
1F
100
AcDbEntity
  8
0
100
AcDbLine
 10
198.6749994119596
 20
101.3749997180591
 30
0.0
 11
207.6749994119601
 21
101.374999718059
 31
0.0
  0
LINE
  5
6EE
330
1F
100
AcDbEntity
  8
0
100
AcDbLine
 10
208.17499941196
 20
101.874999718059
 30
0.0
 11
207.6749994119601
 21
101.374999718059
 31
0.0
1001
GENIUS_GENFIL_13
1070
     0
1040
0.5
1040
0.5
1040
20.0
1040
0.0
1002
{
1002
}
1001
GENIUS_GENODEF_13
1002
{
1000
HIER
1070
     0
1002
}
1002
{
1000
MANEDIT
1070
     0
1002
}
1002
{
1000
NOSEL
1070
     0
1002
}
1002
{
1000
BEHIND
1070
     0
1002
}
1002
{
1000
OTHER
1070
     0
1002
}
1002
{
1000
REACTOR
1002
}
1001
GENIUS_GENOBJ-N-CHA_13
1002
{
1000
OWNER
1000
GEN
1002
}
  0
LINE
  5
6EF
330
1F
100
AcDbEntity
  8
0
100
AcDbLine
 10
198.1749994119598
 20
102.8749997180591
 30
0.0
 11
198.1749994119597
 21
101.8749997180591
 31
0.0
  0
LINE
  5
6F0
330
1F
100
AcDbEntity
  8
0
100
AcDbLine
 10
198.6749994119596
 20
101.3749997180591
 30
0.0
 11
198.1749994119597
 21
101.8749997180591
 31
0.0
1001
GENIUS_GENFIL_13
1070
     0
1040
0.5
1040
0.5
1040
0.4999999999999787
1040
45.00000000000446
1000
~T
  0
LINE
  5
6F1
330
1F
100
AcDbEntity
  8
0
100
AcDbLine
 10
208.1749994119596
 20
102.874999718059
 30
0.0
 11
208.17499941196
 21
101.874999718059
 31
0.0
  0
LINE
  5
6F2
330
1F
100
AcDbEntity
  8
0
100
AcDbLine
 10
198.1749994119596
 20
101.8749997180596
 30
0.0
 11
208.17499941196
 21
101.874999718059
 31
0.0
  0
LINE
  5
6F3
330
1F
100
AcDbEntity
  8
0
100
AcDbLine
 10
202.1749994119598
 20
108.2749997180585
 30
0.0
 11
204.1749994119598
 21
108.2749997180586
 31
0.0
  0
LINE
  5
6F4
330
1F
100
AcDbEntity
  8
0
100
AcDbLine
 10
204.17499941196
 20
106.274999718059
 30
0.0
 11
204.1749994119598
 21
108.2749997180586
 31
0.0
  0
LINE
  5
6F5
330
1F
100
AcDbEntity
  8
0
100
AcDbLine
 10
202.1749994119598
 20
106.274999718059
 30
0.0
 11
202.1749994119598
 21
108.2749997180585
 31
0.0
  0
LINE
  5
6F6
330
1F
100
AcDbEntity
  8
0
100
AcDbLine
 10
94.09999941195962
 20
17.98084950857424
 30
0.0
 11
93.99999941195904
 21
17.98084950857424
 31
0.0
  0
LINE
  5
6F7
330
1F
100
AcDbEntity
  8
0
100
AcDbLine
 10
94.09999941195962
 20
11.58084950857409
 30
0.0
 11
93.99999941195904
 21
11.58084950857409
 31
0.0
  0
LINE
  5
6F8
330
1F
100
AcDbEntity
  8
0
100
AcDbLine
 10
1.999999411959436
 20
29.99999971805886
 30
0.0
 11
-0.0000005880405638
 21
27.99999971805886
 31
0.0
1001
GENIUS_GENFIL_13
1070
     0
1040
2.0
1040
2.0
1040
1.999999999999981
1040
44.99999999999918
1002
{
1002
}
1001
GENIUS_GENOBJ-N-CHA_13
1002
{
1000
OWNER
1000
GEN
1002
}
1001
GENIUS_GENODEF_13
1002
{
1000
HIER
1070
     0
1002
}
1002
{
1000
MANEDIT
1070
     0
1002
}
1002
{
1000
NOSEL
1070
     0
1002
}
1002
{
1000
BEHIND
1070
     0
1002
}
1002
{
1000
OTHER
1070
     0
1002
}
1002
{
1000
REACTOR
1002
}
  0
LINE
  5
6F9
330
1F
100
AcDbEntity
  8
0
100
AcDbLine
 10
93.99999941195943
 20
27.99999971805883
 30
0.0
 11
93.99999941195938
 21
20.74999971805892
 31
0.0
  0
LINE
  5
6FA
330
1F
100
AcDbEntity
  8
0
100
AcDbLine
 10
1.999999411959436
 20
29.99999971805886
 30
0.0
 11
91.99999941195944
 21
29.99999971805883
 31
0.0
  0
LINE
  5
6FB
330
1F
100
AcDbEntity
  8
0
100
AcDbLine
 10
93.99999941195943
 20
27.99999971805883
 30
0.0
 11
91.99999941195944
 21
29.99999971805883
 31
0.0
1001
GENIUS_GENFIL_13
1070
     0
1040
2.0
1040
2.0
1040
1.999999999999981
1040
44.99999999999918
1000
~T
1001
GENIUS_GENOREF_13
1005
89F
  0
LINE
  5
6FD
330
1F
100
AcDbEntity
  8
0
100
AcDbLine
 10
49.36602481574396
 20
30.49499971805878
 30
0.0
 11
63.63397400817514
 21
30.49499971805872
 31
0.0
  0
ARC
  5
6FE
330
1F
100
AcDbEntity
  8
0
100
AcDbCircle
 10
48.49999941195954
 20
30.49499971805878
 30
0.0
 40
0.5
100
AcDbArc
 50
270.0
 51
329.9999999999999
  0
ARC
  5
6FF
330
1F
100
AcDbEntity
  8
0
100
AcDbCircle
 10
49.36602481574396
 20
29.99499971805878
 30
0.0
 40
0.5
100
AcDbArc
 50
90.0
 51
149.9999999999998
  0
ARC
  5
700
330
1F
100
AcDbEntity
  8
0
100
AcDbCircle
 10
64.49999941195954
 20
30.49499971805878
 30
0.0
 40
0.5
100
AcDbArc
 50
210.0000000000001
 51
270.0
  0
ARC
  5
701
330
1F
100
AcDbEntity
  8
0
100
AcDbCircle
 10
63.63397400817514
 20
29.99499971805878
 30
0.0
 40
0.5
100
AcDbArc
 50
30.00000000000014
 51
90.0
  0
LINE
  5
702
330
1F
100
AcDbEntity
  8
0
100
AcDbLine
 10
68.36602481574397
 20
30.49499971805878
 30
0.0
 11
82.63397400817513
 21
30.49499971805872
 31
0.0
  0
ARC
  5
703
330
1F
100
AcDbEntity
  8
0
100
AcDbCircle
 10
67.49999941195955
 20
30.49499971805878
 30
0.0
 40
0.5
100
AcDbArc
 50
270.0
 51
329.9999999999999
  0
ARC
  5
704
330
1F
100
AcDbEntity
  8
0
100
AcDbCircle
 10
68.36602481574397
 20
29.99499971805878
 30
0.0
 40
0.5
100
AcDbArc
 50
90.0
 51
149.9999999999998
  0
ARC
  5
705
330
1F
100
AcDbEntity
  8
0
100
AcDbCircle
 10
83.49999941195955
 20
30.49499971805878
 30
0.0
 40
0.5
100
AcDbArc
 50
210.0000000000001
 51
270.0
  0
ARC
  5
706
330
1F
100
AcDbEntity
  8
0
100
AcDbCircle
 10
82.63397400817513
 20
29.99499971805878
 30
0.0
 40
0.5
100
AcDbArc
 50
30.00000000000014
 51
90.0
  0
LINE
  5
707
330
1F
100
AcDbEntity
  8
0
100
AcDbLine
 10
93.99999941195915
 20
20.24999971805891
 30
0.0
 11
93.99999941195938
 21
8.499999718058916
 31
0.0
  0
LINE
  5
708
330
1F
100
AcDbEntity
  8
0
100
AcDbLine
 10
-0.0000005880405638
 20
27.99999971805886
 30
0.0
 11
-0.0000005880405638
 21
20.74999971805892
 31
0.0
  0
LINE
  5
709
330
1F
100
AcDbEntity
  8
0
100
AcDbLine
 10
93.99999941195938
 20
20.74999971805892
 30
0.0
 11
-0.0000005880405638
 21
20.74999971805892
 31
0.0
  0
LINE
  5
70A
330
1F
100
AcDbEntity
  8
0
100
AcDbLine
 10
100.1999994119601
 20
9.499999718058916
 30
0.0
 11
94.09999941196019
 21
9.499999718058916
 31
0.0
  0
LINE
  5
70B
330
1F
100
AcDbEntity
  8
0
100
AcDbLine
 10
100.1999994119601
 20
19.49999971805891
 30
0.0
 11
94.09999941196019
 21
19.49999971805891
 31
0.0
  0
CIRCLE
  5
70C
330
1F
100
AcDbEntity
  8
0
100
AcDbCircle
 10
100.1999994119596
 20
14.49999971805891
 30
0.0
 40
4.5
  0
ARC
  5
70D
330
1F
100
AcDbEntity
  8
0
100
AcDbCircle
 10
100.1999994119596
 20
14.49999971805891
 30
0.0
 40
2.049999999999998
100
AcDbArc
 50
119.196404409633
 51
240.803595590367
  0
ARC
  5
70E
330
1F
100
AcDbEntity
  8
0
100
AcDbCircle
 10
100.1999994119596
 20
14.49999971805891
 30
0.0
 40
2.049999999999998
100
AcDbArc
 50
299.1964044096326
 51
60.80359559036699
  0
CIRCLE
  5
70F
330
1F
100
AcDbEntity
  8
0
100
AcDbCircle
 10
100.1999994119596
 20
14.49999971805891
 30
0.0
 40
5.0
  0
LINE
  5
710
330
1F
100
AcDbEntity
  8
0
100
AcDbLine
 10
101.1999994119596
 20
16.79999971805887
 30
0.0
 11
101.1999994119596
 21
16.28955273487622
 31
0.0
  0
LINE
  5
711
330
1F
100
AcDbEntity
  8
0
100
AcDbLine
 10
101.1999994119596
 20
12.71044670124155
 30
0.0
 11
101.1999994119596
 21
12.19999971805885
 31
0.0
  0
LINE
  5
712
330
1F
100
AcDbEntity
  8
0
100
AcDbLine
 10
99.19999941195966
 20
16.28955273487622
 30
0.0
 11
99.19999941195966
 21
16.79999971805887
 31
0.0
  0
LINE
  5
713
330
1F
100
AcDbEntity
  8
0
100
AcDbLine
 10
99.19999941195966
 20
12.1999997180589
 30
0.0
 11
99.19999941195966
 21
12.71044670124161
 31
0.0
  0
LINE
  5
714
330
1F
100
AcDbEntity
  8
0
100
AcDbLine
 10
99.19999941195966
 20
16.79999971805887
 30
0.0
 11
101.1999994119596
 21
16.79999971805887
 31
0.0
  0
LINE
  5
715
330
1F
100
AcDbEntity
  8
0
100
AcDbLine
 10
101.1999994119596
 20
12.1999997180589
 30
0.0
 11
99.19999941195966
 21
12.1999997180589
 31
0.0
  0
LINE
  5
716
330
1F
100
AcDbEntity
  8
0
100
AcDbLine
 10
94.09999941196019
 20
19.49999971805891
 30
0.0
 11
94.09999941196019
 21
9.499999718058916
 31
0.0
  0
LINE
  5
717
330
1F
100
AcDbEntity
  8
0
100
AcDbLine
 10
28.34999941195946
 20
16.14999971806009
 30
0.0
 11
20.64999941195936
 21
16.1499997180602
 31
0.0
1001
GENIUS_GENREC_14
1002
{
1000
PYDIR
1011
-33.35000058803912
1021
125.2499997180609
1031
0.0
1002
}
1002
{
1000
PXDIR
1011
28.64999941195987
1021
50.2499997180601
1031
0.0
1002
}
1002
{
1000
PORI
1011
28.64999941196089
1021
125.2499997180601
1031
0.0
1002
}
1002
{
1000
PINS
1011
28.64999941196089
1021
125.2499997180601
1031
0.0
1002
}
1002
{
1000
HVAL
1000
70
1002
}
1002
{
1000
H
1070
     2
1002
}
1002
{
1000
WVAL
1000
70
1002
}
1002
{
1000
W
1070
     2
1002
}
1002
{
1000
C
1070
     1
1002
}
1001
GENIUS_GENOBJ-N-REC_13
1002
{
1000
OWNER
1000
GEN
1002
}
1001
GENIUS_GENODEF_13
1002
{
1000
HIER
1070
     0
1002
}
1002
{
1000
MANEDIT
1070
     0
1002
}
1002
{
1000
NOSEL
1070
     0
1002
}
1002
{
1000
BEHIND
1070
     0
1002
}
1002
{
1000
OTHER
1070
     0
1002
}
1002
{
1000
REACTOR
1002
}
  0
LINE
  5
718
330
1F
100
AcDbEntity
  8
0
100
AcDbLine
 10
20.64999941195947
 20
20.09999971806019
 30
0.0
 11
20.64999941195936
 21
16.1499997180602
 31
0.0
  0
LINE
  5
719
330
1F
100
AcDbEntity
  8
0
100
AcDbLine
 10
28.34999941195952
 20
20.09999971805942
 30
0.0
 11
28.34999941195946
 21
16.14999971806009
 31
0.0
  0
CIRCLE
  5
71A
330
1F
100
AcDbEntity
  8
0
100
AcDbCircle
 10
72.79999941195922
 20
13.59999971805882
 30
0.0
 40
4.0
  0
CIRCLE
  5
71B
330
1F
100
AcDbEntity
  8
0
100
AcDbCircle
 10
72.79999941195922
 20
13.59999971805882
 30
0.0
 40
3.5
  0
LINE
  5
71C
330
1F
100
AcDbEntity
  8
0
100
AcDbLine
 10
20.44999941195931
 20
20.09999971805954
 30
0.0
 11
28.54999941195945
 21
20.09999971805942
 31
0.0
  0
LINE
  5
71D
330
1F
100
AcDbEntity
  8
0
100
AcDbLine
 10
34.69999941195903
 20
20.09999971805934
 30
0.0
 11
66.69999941195897
 21
20.09999971805888
 31
0.0
  0
LINE
  5
71E
330
1F
100
AcDbEntity
  8
0
100
AcDbLine
 10
56.49999941195813
 20
20.0999997180607
 30
0.0
 11
56.49999941195825
 21
11.89999971805895
 31
0.0
  0
LINE
  5
71F
330
1F
100
AcDbEntity
  8
0
100
AcDbLine
 10
54.89999941195822
 20
14.09999971806058
 30
0.0
 11
54.89999941195822
 21
12.09999971806059
 31
0.0
  0
LINE
  5
720
330
1F
100
AcDbEntity
  8
0
100
AcDbLine
 10
54.59999941195815
 20
13.74999971806045
 30
0.0
 11
54.59999941195825
 21
12.69999971806047
 31
0.0
  0
LINE
  5
721
330
1F
100
AcDbEntity
  8
0
100
AcDbLine
 10
51.49999941195813
 20
20.09999971805931
 30
0.0
 11
51.49999941195825
 21
11.89999971805898
 31
0.0
  0
CIRCLE
  5
722
330
1F
100
AcDbEntity
  8
0
100
AcDbCircle
 10
53.99999941195825
 20
16.39999971805952
 30
0.0
 40
1.7
  0
LINE
  5
723
330
1F
100
AcDbEntity
  8
0
100
AcDbLine
 10
53.69999941195822
 20
12.39999971806048
 30
0.0
 11
52.69999941195816
 21
12.39999971806048
 31
0.0
  0
LINE
  5
724
330
1F
100
AcDbEntity
  8
0
100
AcDbLine
 10
54.59999941195825
 20
12.69999971806047
 30
0.0
 11
53.69999941195818
 21
12.69999971806047
 31
0.0
  0
LINE
  5
725
330
1F
100
AcDbEntity
  8
0
100
AcDbLine
 10
52.69999941195816
 20
12.69999971806047
 30
0.0
 11
51.7999994119582
 21
12.69999971806044
 31
0.0
  0
LINE
  5
726
330
1F
100
AcDbEntity
  8
0
100
AcDbLine
 10
51.7999994119582
 20
13.74999971806045
 30
0.0
 11
51.7999994119582
 21
12.69999971806044
 31
0.0
  0
LINE
  5
727
330
1F
100
AcDbEntity
  8
0
100
AcDbLine
 10
54.59999941195815
 20
13.74999971806045
 30
0.0
 11
51.7999994119582
 21
13.74999971806045
 31
0.0
  0
LINE
  5
728
330
1F
100
AcDbEntity
  8
0
100
AcDbLine
 10
51.49999941195813
 20
20.09999971805965
 30
0.0
 11
51.49999941195825
 21
11.89999971805898
 31
0.0
  0
LINE
  5
729
330
1F
100
AcDbEntity
  8
0
100
AcDbLine
 10
46.49999941195813
 20
20.09999971805922
 30
0.0
 11
46.49999941195825
 21
11.899999718059
 31
0.0
  0
CIRCLE
  5
72A
330
1F
100
AcDbEntity
  8
0
100
AcDbCircle
 10
48.99999941195825
 20
16.39999971805946
 30
0.0
 40
1.7
  0
LINE
  5
72B
330
1F
100
AcDbEntity
  8
0
100
AcDbLine
 10
46.49999941195813
 20
20.09999971805957
 30
0.0
 11
46.49999941195825
 21
11.899999718059
 31
0.0
  0
LINE
  5
72C
330
1F
100
AcDbEntity
  8
0
100
AcDbLine
 10
41.49999941195813
 20
20.09999971805918
 30
0.0
 11
41.49999941195824
 21
11.899999718059
 31
0.0
  0
CIRCLE
  5
72D
330
1F
100
AcDbEntity
  8
0
100
AcDbCircle
 10
43.99999941195825
 20
16.3999997180594
 30
0.0
 40
1.7
  0
LINE
  5
72E
330
1F
100
AcDbEntity
  8
0
100
AcDbLine
 10
41.49999941195813
 20
20.09999971805951
 30
0.0
 11
41.49999941195824
 21
11.899999718059
 31
0.0
  0
LINE
  5
72F
330
1F
100
AcDbEntity
  8
0
100
AcDbLine
 10
36.49999941195813
 20
20.09999971805911
 30
0.0
 11
36.49999941195825
 21
11.89999971805903
 31
0.0
  0
LINE
  5
730
330
1F
100
AcDbEntity
  8
0
100
AcDbLine
 10
34.89999941195811
 20
20.099999718059
 30
0.0
 11
34.89999941195822
 21
11.89999971805906
 31
0.0
  0
LINE
  5
731
330
1F
100
AcDbEntity
  8
0
100
AcDbLine
 10
34.89999941195856
 20
14.09999971805899
 30
0.0
 11
66.49999941195819
 21
14.0999997180615
 31
0.0
  0
LINE
  5
732
330
1F
100
AcDbEntity
  8
0
100
AcDbLine
 10
34.89999941195873
 20
12.09999971805899
 30
0.0
 11
66.49999941195824
 21
12.0999997180615
 31
0.0
  0
CIRCLE
  5
733
330
1F
100
AcDbEntity
  8
0
100
AcDbCircle
 10
38.99999941195824
 20
16.39999971805932
 30
0.0
 40
1.7
  0
CIRCLE
  5
734
330
1F
100
AcDbEntity
  8
0
100
AcDbCircle
 10
53.99999941195825
 20
16.39999971805952
 30
0.0
 40
1.0
  0
CIRCLE
  5
735
330
1F
100
AcDbEntity
  8
0
100
AcDbCircle
 10
48.99999941195825
 20
16.39999971805946
 30
0.0
 40
1.0
  0
CIRCLE
  5
736
330
1F
100
AcDbEntity
  8
0
100
AcDbCircle
 10
43.99999941195825
 20
16.3999997180594
 30
0.0
 40
1.0
  0
CIRCLE
  5
737
330
1F
100
AcDbEntity
  8
0
100
AcDbCircle
 10
38.99999941195824
 20
16.39999971805932
 30
0.0
 40
1.0
  0
LINE
  5
738
330
1F
100
AcDbEntity
  8
0
100
AcDbLine
 10
53.69999941195818
 20
12.69999971806047
 30
0.0
 11
53.69999941195822
 21
12.39999971806048
 31
0.0
  0
LINE
  5
739
330
1F
100
AcDbEntity
  8
0
100
AcDbLine
 10
52.69999941195816
 20
12.69999971806047
 30
0.0
 11
52.69999941195816
 21
12.39999971806048
 31
0.0
  0
LINE
  5
73A
330
1F
100
AcDbEntity
  8
0
100
AcDbLine
 10
49.89999941195822
 20
14.0999997180605
 30
0.0
 11
49.89999941195822
 21
12.0999997180605
 31
0.0
  0
LINE
  5
73B
330
1F
100
AcDbEntity
  8
0
100
AcDbLine
 10
44.8999994119582
 20
14.09999971806044
 30
0.0
 11
44.8999994119582
 21
12.09999971806044
 31
0.0
  0
LINE
  5
73C
330
1F
100
AcDbEntity
  8
0
100
AcDbLine
 10
39.89999941195822
 20
14.09999971806039
 30
0.0
 11
39.89999941195822
 21
12.09999971806039
 31
0.0
  0
LINE
  5
73D
330
1F
100
AcDbEntity
  8
0
100
AcDbLine
 10
49.59999941195815
 20
13.74999971806036
 30
0.0
 11
49.59999941195825
 21
12.69999971806038
 31
0.0
  0
LINE
  5
73E
330
1F
100
AcDbEntity
  8
0
100
AcDbLine
 10
48.69999941195822
 20
12.39999971806043
 30
0.0
 11
47.69999941195816
 21
12.3999997180604
 31
0.0
  0
LINE
  5
73F
330
1F
100
AcDbEntity
  8
0
100
AcDbLine
 10
49.59999941195825
 20
12.69999971806038
 30
0.0
 11
48.69999941195818
 21
12.69999971806041
 31
0.0
  0
LINE
  5
740
330
1F
100
AcDbEntity
  8
0
100
AcDbLine
 10
47.69999941195816
 20
12.69999971806038
 30
0.0
 11
46.79999941195819
 21
12.69999971806038
 31
0.0
  0
LINE
  5
741
330
1F
100
AcDbEntity
  8
0
100
AcDbLine
 10
46.79999941195819
 20
13.74999971806039
 30
0.0
 11
46.79999941195819
 21
12.69999971806038
 31
0.0
  0
LINE
  5
742
330
1F
100
AcDbEntity
  8
0
100
AcDbLine
 10
49.59999941195815
 20
13.74999971806036
 30
0.0
 11
46.79999941195819
 21
13.74999971806039
 31
0.0
  0
LINE
  5
743
330
1F
100
AcDbEntity
  8
0
100
AcDbLine
 10
48.69999941195818
 20
12.69999971806041
 30
0.0
 11
48.69999941195822
 21
12.39999971806043
 31
0.0
  0
LINE
  5
744
330
1F
100
AcDbEntity
  8
0
100
AcDbLine
 10
47.69999941195816
 20
12.69999971806038
 30
0.0
 11
47.69999941195816
 21
12.3999997180604
 31
0.0
  0
LINE
  5
745
330
1F
100
AcDbEntity
  8
0
100
AcDbLine
 10
44.59999941195815
 20
13.74999971806031
 30
0.0
 11
44.59999941195825
 21
12.69999971806032
 31
0.0
  0
LINE
  5
746
330
1F
100
AcDbEntity
  8
0
100
AcDbLine
 10
43.69999941195822
 20
12.39999971806034
 30
0.0
 11
42.69999941195816
 21
12.39999971806034
 31
0.0
  0
LINE
  5
747
330
1F
100
AcDbEntity
  8
0
100
AcDbLine
 10
44.59999941195825
 20
12.69999971806032
 30
0.0
 11
43.69999941195817
 21
12.69999971806032
 31
0.0
  0
LINE
  5
748
330
1F
100
AcDbEntity
  8
0
100
AcDbLine
 10
42.69999941195816
 20
12.69999971806032
 30
0.0
 11
41.79999941195819
 21
12.69999971806029
 31
0.0
  0
LINE
  5
749
330
1F
100
AcDbEntity
  8
0
100
AcDbLine
 10
41.79999941195819
 20
13.74999971806031
 30
0.0
 11
41.79999941195819
 21
12.69999971806029
 31
0.0
  0
LINE
  5
74A
330
1F
100
AcDbEntity
  8
0
100
AcDbLine
 10
44.59999941195815
 20
13.74999971806031
 30
0.0
 11
41.79999941195819
 21
13.74999971806031
 31
0.0
  0
LINE
  5
74B
330
1F
100
AcDbEntity
  8
0
100
AcDbLine
 10
43.69999941195817
 20
12.69999971806032
 30
0.0
 11
43.69999941195822
 21
12.39999971806034
 31
0.0
  0
LINE
  5
74C
330
1F
100
AcDbEntity
  8
0
100
AcDbLine
 10
42.69999941195816
 20
12.69999971806032
 30
0.0
 11
42.69999941195816
 21
12.39999971806034
 31
0.0
  0
LINE
  5
74D
330
1F
100
AcDbEntity
  8
0
100
AcDbLine
 10
39.59999941195814
 20
13.74999971806022
 30
0.0
 11
39.59999941195827
 21
12.69999971806024
 31
0.0
  0
LINE
  5
74E
330
1F
100
AcDbEntity
  8
0
100
AcDbLine
 10
38.69999941195823
 20
12.39999971806028
 30
0.0
 11
37.69999941195818
 21
12.39999971806026
 31
0.0
  0
LINE
  5
74F
330
1F
100
AcDbEntity
  8
0
100
AcDbLine
 10
39.59999941195827
 20
12.69999971806024
 30
0.0
 11
38.69999941195818
 21
12.69999971806027
 31
0.0
  0
LINE
  5
750
330
1F
100
AcDbEntity
  8
0
100
AcDbLine
 10
37.69999941195818
 20
12.69999971806024
 30
0.0
 11
36.7999994119582
 21
12.69999971806024
 31
0.0
  0
LINE
  5
751
330
1F
100
AcDbEntity
  8
0
100
AcDbLine
 10
36.7999994119582
 20
13.74999971806025
 30
0.0
 11
36.7999994119582
 21
12.69999971806024
 31
0.0
  0
LINE
  5
752
330
1F
100
AcDbEntity
  8
0
100
AcDbLine
 10
39.59999941195814
 20
13.74999971806022
 30
0.0
 11
36.7999994119582
 21
13.74999971806025
 31
0.0
  0
LINE
  5
753
330
1F
100
AcDbEntity
  8
0
100
AcDbLine
 10
38.69999941195818
 20
12.69999971806027
 30
0.0
 11
38.69999941195823
 21
12.39999971806028
 31
0.0
  0
LINE
  5
754
330
1F
100
AcDbEntity
  8
0
100
AcDbLine
 10
37.69999941195818
 20
12.69999971806024
 30
0.0
 11
37.69999941195818
 21
12.39999971806026
 31
0.0
  0
LINE
  5
755
330
1F
100
AcDbEntity
  8
0
100
AcDbLine
 10
66.49999941195813
 20
20.09999971806184
 30
0.0
 11
66.49999941195824
 21
11.89999971805892
 31
0.0
  0
LINE
  5
756
330
1F
100
AcDbEntity
  8
0
100
AcDbLine
 10
64.89999941195822
 20
14.09999971806172
 30
0.0
 11
64.89999941195822
 21
12.09999971806172
 31
0.0
  0
LINE
  5
757
330
1F
100
AcDbEntity
  8
0
100
AcDbLine
 10
64.59999941195815
 20
13.74999971806156
 30
0.0
 11
64.59999941195825
 21
12.69999971806157
 31
0.0
  0
LINE
  5
758
330
1F
100
AcDbEntity
  8
0
100
AcDbLine
 10
61.49999941195813
 20
20.09999971806045
 30
0.0
 11
61.49999941195825
 21
11.89999971805895
 31
0.0
  0
CIRCLE
  5
759
330
1F
100
AcDbEntity
  8
0
100
AcDbCircle
 10
63.99999941195825
 20
16.39999971806065
 30
0.0
 40
1.7
  0
LINE
  5
75A
330
1F
100
AcDbEntity
  8
0
100
AcDbLine
 10
63.69999941195822
 20
12.39999971806162
 30
0.0
 11
62.69999941195816
 21
12.39999971806162
 31
0.0
  0
LINE
  5
75B
330
1F
100
AcDbEntity
  8
0
100
AcDbLine
 10
64.59999941195825
 20
12.69999971806157
 30
0.0
 11
63.69999941195818
 21
12.6999997180616
 31
0.0
  0
LINE
  5
75C
330
1F
100
AcDbEntity
  8
0
100
AcDbLine
 10
62.69999941195816
 20
12.6999997180616
 30
0.0
 11
61.7999994119582
 21
12.69999971806157
 31
0.0
  0
LINE
  5
75D
330
1F
100
AcDbEntity
  8
0
100
AcDbLine
 10
61.7999994119582
 20
13.74999971806159
 30
0.0
 11
61.7999994119582
 21
12.69999971806157
 31
0.0
  0
LINE
  5
75E
330
1F
100
AcDbEntity
  8
0
100
AcDbLine
 10
64.59999941195815
 20
13.74999971806156
 30
0.0
 11
61.7999994119582
 21
13.74999971806159
 31
0.0
  0
LINE
  5
75F
330
1F
100
AcDbEntity
  8
0
100
AcDbLine
 10
61.49999941195813
 20
20.09999971806079
 30
0.0
 11
61.49999941195825
 21
11.89999971805895
 31
0.0
  0
LINE
  5
760
330
1F
100
AcDbEntity
  8
0
100
AcDbLine
 10
56.49999941195813
 20
20.09999971806036
 30
0.0
 11
56.49999941195825
 21
11.89999971805895
 31
0.0
  0
CIRCLE
  5
761
330
1F
100
AcDbEntity
  8
0
100
AcDbCircle
 10
58.99999941195825
 20
16.3999997180606
 30
0.0
 40
1.7
  0
LINE
  5
762
330
1F
100
AcDbEntity
  8
0
100
AcDbLine
 10
56.49999941195813
 20
20.0999997180607
 30
0.0
 11
56.49999941195825
 21
11.89999971805895
 31
0.0
  0
CIRCLE
  5
763
330
1F
100
AcDbEntity
  8
0
100
AcDbCircle
 10
63.99999941195825
 20
16.39999971806065
 30
0.0
 40
1.0
  0
CIRCLE
  5
764
330
1F
100
AcDbEntity
  8
0
100
AcDbCircle
 10
58.99999941195825
 20
16.3999997180606
 30
0.0
 40
1.0
  0
LINE
  5
765
330
1F
100
AcDbEntity
  8
0
100
AcDbLine
 10
63.69999941195818
 20
12.6999997180616
 30
0.0
 11
63.69999941195822
 21
12.39999971806162
 31
0.0
  0
LINE
  5
766
330
1F
100
AcDbEntity
  8
0
100
AcDbLine
 10
62.69999941195816
 20
12.6999997180616
 30
0.0
 11
62.69999941195816
 21
12.39999971806162
 31
0.0
  0
LINE
  5
767
330
1F
100
AcDbEntity
  8
0
100
AcDbLine
 10
59.89999941195822
 20
14.09999971806164
 30
0.0
 11
59.89999941195822
 21
12.09999971806164
 31
0.0
  0
LINE
  5
768
330
1F
100
AcDbEntity
  8
0
100
AcDbLine
 10
59.59999941195815
 20
13.7499997180615
 30
0.0
 11
59.59999941195825
 21
12.69999971806152
 31
0.0
  0
LINE
  5
769
330
1F
100
AcDbEntity
  8
0
100
AcDbLine
 10
58.69999941195822
 20
12.39999971806156
 30
0.0
 11
57.69999941195816
 21
12.39999971806154
 31
0.0
  0
LINE
  5
76A
330
1F
100
AcDbEntity
  8
0
100
AcDbLine
 10
59.59999941195825
 20
12.69999971806152
 30
0.0
 11
58.69999941195818
 21
12.69999971806155
 31
0.0
  0
LINE
  5
76B
330
1F
100
AcDbEntity
  8
0
100
AcDbLine
 10
57.69999941195816
 20
12.69999971806152
 30
0.0
 11
56.7999994119582
 21
12.69999971806152
 31
0.0
  0
LINE
  5
76C
330
1F
100
AcDbEntity
  8
0
100
AcDbLine
 10
56.7999994119582
 20
13.74999971806152
 30
0.0
 11
56.7999994119582
 21
12.69999971806152
 31
0.0
  0
LINE
  5
76D
330
1F
100
AcDbEntity
  8
0
100
AcDbLine
 10
59.59999941195815
 20
13.7499997180615
 30
0.0
 11
56.7999994119582
 21
13.74999971806152
 31
0.0
  0
LINE
  5
76E
330
1F
100
AcDbEntity
  8
0
100
AcDbLine
 10
58.69999941195818
 20
12.69999971806155
 30
0.0
 11
58.69999941195822
 21
12.39999971806156
 31
0.0
  0
LINE
  5
76F
330
1F
100
AcDbEntity
  8
0
100
AcDbLine
 10
57.69999941195816
 20
12.69999971806152
 30
0.0
 11
57.69999941195816
 21
12.39999971806154
 31
0.0
  0
CIRCLE
  5
770
330
1F
100
AcDbEntity
  8
0
100
AcDbCircle
 10
216.3749994119588
 20
131.8749997180592
 30
0.0
 40
2.5
  0
CIRCLE
  5
771
330
1F
100
AcDbEntity
  8
0
100
AcDbCircle
 10
296.3749994119588
 20
71.8749997180592
 30
0.0
 40
2.5
  0
CIRCLE
  5
772
330
1F
100
AcDbEntity
  8
0
100
AcDbCircle
 10
216.3749994119588
 20
71.8749997180592
 30
0.0
 40
2.5
  0
CIRCLE
  5
773
330
1F
100
AcDbEntity
  8
0
100
AcDbCircle
 10
216.3749994119588
 20
71.87499971805914
 30
0.0
 40
1.75
  0
CIRCLE
  5
774
330
1F
100
AcDbEntity
  8
0
100
AcDbCircle
 10
216.3749994119588
 20
71.87499971805914
 30
0.0
 40
1.55
  0
ARC
  5
775
330
1F
100
AcDbEntity
  8
0
100
AcDbCircle
 10
216.3749994119588
 20
71.87499971805914
 30
0.0
 40
0.9
100
AcDbArc
 50
233.556464310091
 51
246.4435356902448
  0
ARC
  5
776
330
1F
100
AcDbEntity
  8
0
100
AcDbCircle
 10
216.3749994119588
 20
71.87499971805914
 30
0.0
 40
0.9
100
AcDbArc
 50
293.5564643097552
 51
306.4435356906985
  0
ARC
  5
777
330
1F
100
AcDbEntity
  8
0
100
AcDbCircle
 10
216.3749994119588
 20
71.87499971805914
 30
0.0
 40
0.9
100
AcDbArc
 50
353.5564643093067
 51
6.443535690336171
  0
ARC
  5
778
330
1F
100
AcDbEntity
  8
0
100
AcDbCircle
 10
216.3749994119588
 20
71.87499971805914
 30
0.0
 40
0.9
100
AcDbArc
 50
53.55646430967412
 51
66.44353569082787
  0
ARC
  5
779
330
1F
100
AcDbEntity
  8
0
100
AcDbCircle
 10
216.3749994119588
 20
71.87499971805914
 30
0.0
 40
0.9
100
AcDbArc
 50
113.5564643091721
 51
126.4435356899555
  0
ARC
  5
77A
330
1F
100
AcDbEntity
  8
0
100
AcDbCircle
 10
216.3749994119588
 20
71.87499971805914
 30
0.0
 40
0.9
100
AcDbArc
 50
173.5564643100506
 51
186.4435356899035
  0
ARC
  5
77B
330
1F
100
AcDbEntity
  8
0
100
AcDbCircle
 10
216.3749994119588
 20
72.87499971805914
 30
0.0
 40
0.4
100
AcDbArc
 50
205.9444797720023
 51
334.0555202279977
  0
ARC
  5
77C
330
1F
100
AcDbEntity
  8
0
100
AcDbCircle
 10
215.5089740081744
 20
72.37499971805914
 30
0.0
 40
0.4
100
AcDbArc
 50
265.9444797725357
 51
34.05552022747285
  0
ARC
  5
77D
330
1F
100
AcDbEntity
  8
0
100
AcDbCircle
 10
215.5089740081745
 20
71.37499971805926
 30
0.0
 40
0.4
100
AcDbArc
 50
325.944479772036
 51
94.05552022796376
  0
ARC
  5
77E
330
1F
100
AcDbEntity
  8
0
100
AcDbCircle
 10
216.3749994119588
 20
70.8749997180592
 30
0.0
 40
0.4
100
AcDbArc
 50
25.94447977135941
 51
154.0555202286406
  0
ARC
  5
77F
330
1F
100
AcDbEntity
  8
0
100
AcDbCircle
 10
217.2410248157432
 20
71.37499971805926
 30
0.0
 40
0.4
100
AcDbArc
 50
85.94447977219287
 51
214.0555202278109
  0
ARC
  5
780
330
1F
100
AcDbEntity
  8
0
100
AcDbCircle
 10
217.2410248157432
 20
72.37499971805926
 30
0.0
 40
0.4
100
AcDbArc
 50
145.944479771407
 51
274.0555202286006
  0
CIRCLE
  5
781
330
1F
100
AcDbEntity
  8
0
100
AcDbCircle
 10
216.3749994119588
 20
131.8749997180591
 30
0.0
 40
1.75
  0
CIRCLE
  5
782
330
1F
100
AcDbEntity
  8
0
100
AcDbCircle
 10
216.3749994119588
 20
131.8749997180591
 30
0.0
 40
1.55
  0
ARC
  5
783
330
1F
100
AcDbEntity
  8
0
100
AcDbCircle
 10
216.3749994119588
 20
131.8749997180591
 30
0.0
 40
0.9
100
AcDbArc
 50
233.556464310091
 51
246.4435356902448
  0
ARC
  5
784
330
1F
100
AcDbEntity
  8
0
100
AcDbCircle
 10
216.3749994119588
 20
131.8749997180591
 30
0.0
 40
0.9
100
AcDbArc
 50
293.5564643097552
 51
306.4435356906985
  0
ARC
  5
785
330
1F
100
AcDbEntity
  8
0
100
AcDbCircle
 10
216.3749994119588
 20
131.8749997180591
 30
0.0
 40
0.9
100
AcDbArc
 50
353.5564643093067
 51
6.443535690336171
  0
ARC
  5
786
330
1F
100
AcDbEntity
  8
0
100
AcDbCircle
 10
216.3749994119588
 20
131.8749997180591
 30
0.0
 40
0.9
100
AcDbArc
 50
53.55646430967412
 51
66.44353569082787
  0
ARC
  5
787
330
1F
100
AcDbEntity
  8
0
100
AcDbCircle
 10
216.3749994119588
 20
131.8749997180591
 30
0.0
 40
0.9
100
AcDbArc
 50
113.5564643091721
 51
126.4435356899555
  0
ARC
  5
788
330
1F
100
AcDbEntity
  8
0
100
AcDbCircle
 10
216.3749994119588
 20
131.8749997180591
 30
0.0
 40
0.9
100
AcDbArc
 50
173.5564643100506
 51
186.4435356899035
  0
ARC
  5
789
330
1F
100
AcDbEntity
  8
0
100
AcDbCircle
 10
216.3749994119588
 20
132.8749997180591
 30
0.0
 40
0.4
100
AcDbArc
 50
205.9444797720023
 51
334.0555202279977
  0
ARC
  5
78A
330
1F
100
AcDbEntity
  8
0
100
AcDbCircle
 10
215.5089740081744
 20
132.3749997180591
 30
0.0
 40
0.4
100
AcDbArc
 50
265.9444797725357
 51
34.05552022747285
  0
ARC
  5
78B
330
1F
100
AcDbEntity
  8
0
100
AcDbCircle
 10
215.5089740081745
 20
131.3749997180592
 30
0.0
 40
0.4
100
AcDbArc
 50
325.944479772036
 51
94.05552022796376
  0
ARC
  5
78C
330
1F
100
AcDbEntity
  8
0
100
AcDbCircle
 10
216.3749994119588
 20
130.8749997180592
 30
0.0
 40
0.4
100
AcDbArc
 50
25.94447977135941
 51
154.0555202286406
  0
ARC
  5
78D
330
1F
100
AcDbEntity
  8
0
100
AcDbCircle
 10
217.2410248157432
 20
131.3749997180592
 30
0.0
 40
0.4
100
AcDbArc
 50
85.94447977219287
 51
214.0555202278109
  0
ARC
  5
78E
330
1F
100
AcDbEntity
  8
0
100
AcDbCircle
 10
217.2410248157432
 20
132.3749997180592
 30
0.0
 40
0.4
100
AcDbArc
 50
145.944479771407
 51
274.0555202286006
  0
CIRCLE
  5
78F
330
1F
100
AcDbEntity
  8
0
100
AcDbCircle
 10
296.3749994119588
 20
131.8749997180591
 30
0.0
 40
1.75
  0
CIRCLE
  5
790
330
1F
100
AcDbEntity
  8
0
100
AcDbCircle
 10
296.3749994119588
 20
131.8749997180591
 30
0.0
 40
1.55
  0
ARC
  5
791
330
1F
100
AcDbEntity
  8
0
100
AcDbCircle
 10
296.3749994119588
 20
131.8749997180591
 30
0.0
 40
0.9
100
AcDbArc
 50
233.556464310091
 51
246.4435356902448
  0
ARC
  5
792
330
1F
100
AcDbEntity
  8
0
100
AcDbCircle
 10
296.3749994119588
 20
131.8749997180591
 30
0.0
 40
0.9
100
AcDbArc
 50
293.5564643097552
 51
306.4435356906985
  0
ARC
  5
793
330
1F
100
AcDbEntity
  8
0
100
AcDbCircle
 10
296.3749994119588
 20
131.8749997180591
 30
0.0
 40
0.9
100
AcDbArc
 50
353.5564643093067
 51
6.443535690336171
  0
ARC
  5
794
330
1F
100
AcDbEntity
  8
0
100
AcDbCircle
 10
296.3749994119588
 20
131.8749997180591
 30
0.0
 40
0.9
100
AcDbArc
 50
53.55646430967412
 51
66.44353569082787
  0
ARC
  5
795
330
1F
100
AcDbEntity
  8
0
100
AcDbCircle
 10
296.3749994119588
 20
131.8749997180591
 30
0.0
 40
0.9
100
AcDbArc
 50
113.5564643091721
 51
126.4435356899555
  0
ARC
  5
796
330
1F
100
AcDbEntity
  8
0
100
AcDbCircle
 10
296.3749994119588
 20
131.8749997180591
 30
0.0
 40
0.9
100
AcDbArc
 50
173.5564643100506
 51
186.4435356899035
  0
ARC
  5
797
330
1F
100
AcDbEntity
  8
0
100
AcDbCircle
 10
296.3749994119588
 20
132.8749997180591
 30
0.0
 40
0.4
100
AcDbArc
 50
205.9444797720023
 51
334.0555202279977
  0
ARC
  5
798
330
1F
100
AcDbEntity
  8
0
100
AcDbCircle
 10
295.5089740081744
 20
132.3749997180591
 30
0.0
 40
0.4
100
AcDbArc
 50
265.9444797725357
 51
34.05552022747285
  0
ARC
  5
799
330
1F
100
AcDbEntity
  8
0
100
AcDbCircle
 10
295.5089740081744
 20
131.3749997180592
 30
0.0
 40
0.4
100
AcDbArc
 50
325.944479772036
 51
94.05552022796376
  0
ARC
  5
79A
330
1F
100
AcDbEntity
  8
0
100
AcDbCircle
 10
296.3749994119588
 20
130.8749997180592
 30
0.0
 40
0.4
100
AcDbArc
 50
25.94447977135941
 51
154.0555202286406
  0
ARC
  5
79B
330
1F
100
AcDbEntity
  8
0
100
AcDbCircle
 10
297.2410248157432
 20
131.3749997180592
 30
0.0
 40
0.4
100
AcDbArc
 50
85.94447977219287
 51
214.0555202278109
  0
ARC
  5
79C
330
1F
100
AcDbEntity
  8
0
100
AcDbCircle
 10
297.2410248157432
 20
132.3749997180592
 30
0.0
 40
0.4
100
AcDbArc
 50
145.944479771407
 51
274.0555202286006
  0
CIRCLE
  5
79D
330
1F
100
AcDbEntity
  8
0
100
AcDbCircle
 10
296.3749994119588
 20
71.87499971805914
 30
0.0
 40
1.75
  0
CIRCLE
  5
79E
330
1F
100
AcDbEntity
  8
0
100
AcDbCircle
 10
296.3749994119588
 20
71.87499971805914
 30
0.0
 40
1.55
  0
ARC
  5
79F
330
1F
100
AcDbEntity
  8
0
100
AcDbCircle
 10
296.3749994119588
 20
71.87499971805914
 30
0.0
 40
0.9
100
AcDbArc
 50
233.556464310091
 51
246.4435356902448
  0
ARC
  5
7A0
330
1F
100
AcDbEntity
  8
0
100
AcDbCircle
 10
296.3749994119588
 20
71.87499971805914
 30
0.0
 40
0.9
100
AcDbArc
 50
293.5564643097552
 51
306.4435356906985
  0
ARC
  5
7A1
330
1F
100
AcDbEntity
  8
0
100
AcDbCircle
 10
296.3749994119588
 20
71.87499971805914
 30
0.0
 40
0.9
100
AcDbArc
 50
353.5564643093067
 51
6.443535690336171
  0
ARC
  5
7A2
330
1F
100
AcDbEntity
  8
0
100
AcDbCircle
 10
296.3749994119588
 20
71.87499971805914
 30
0.0
 40
0.9
100
AcDbArc
 50
53.55646430967412
 51
66.44353569082787
  0
ARC
  5
7A3
330
1F
100
AcDbEntity
  8
0
100
AcDbCircle
 10
296.3749994119588
 20
71.87499971805914
 30
0.0
 40
0.9
100
AcDbArc
 50
113.5564643091721
 51
126.4435356899555
  0
ARC
  5
7A4
330
1F
100
AcDbEntity
  8
0
100
AcDbCircle
 10
296.3749994119588
 20
71.87499971805914
 30
0.0
 40
0.9
100
AcDbArc
 50
173.5564643100506
 51
186.4435356899035
  0
ARC
  5
7A5
330
1F
100
AcDbEntity
  8
0
100
AcDbCircle
 10
296.3749994119588
 20
72.87499971805914
 30
0.0
 40
0.4
100
AcDbArc
 50
205.9444797720023
 51
334.0555202279977
  0
ARC
  5
7A6
330
1F
100
AcDbEntity
  8
0
100
AcDbCircle
 10
295.5089740081744
 20
72.37499971805914
 30
0.0
 40
0.4
100
AcDbArc
 50
265.9444797725357
 51
34.05552022747285
  0
ARC
  5
7A7
330
1F
100
AcDbEntity
  8
0
100
AcDbCircle
 10
295.5089740081744
 20
71.37499971805926
 30
0.0
 40
0.4
100
AcDbArc
 50
325.944479772036
 51
94.05552022796376
  0
ARC
  5
7A8
330
1F
100
AcDbEntity
  8
0
100
AcDbCircle
 10
296.3749994119588
 20
70.8749997180592
 30
0.0
 40
0.4
100
AcDbArc
 50
25.94447977135941
 51
154.0555202286406
  0
ARC
  5
7A9
330
1F
100
AcDbEntity
  8
0
100
AcDbCircle
 10
297.2410248157432
 20
71.37499971805926
 30
0.0
 40
0.4
100
AcDbArc
 50
85.94447977219287
 51
214.0555202278109
  0
ARC
  5
7AA
330
1F
100
AcDbEntity
  8
0
100
AcDbCircle
 10
297.2410248157432
 20
72.37499971805926
 30
0.0
 40
0.4
100
AcDbArc
 50
145.944479771407
 51
274.0555202286006
  0
LINE
  5
7AB
330
1F
100
AcDbEntity
  8
0
100
AcDbLine
 10
138.3749994119592
 20
138.8749997180594
 30
0.0
 11
145.6249994119591
 21
138.8749997180592
 31
0.0
  0
LINE
  5
7AC
330
1F
100
AcDbEntity
  8
0
100
AcDbLine
 10
139.38450620611
 20
64.87499971805914
 30
0.0
 11
145.624999411959
 21
64.8749997180592
 31
0.0
  0
LINE
  5
7AD
330
1F
100
AcDbEntity
  8
0
100
AcDbLine
 10
136.3749994119592
 20
136.8749997180594
 30
0.0
 11
136.3749994119591
 21
76.374999718059
 31
0.0
  0
LINE
  5
7AE
330
1F
100
AcDbEntity
  8
0
100
AcDbLine
 10
138.3749994119592
 20
138.8749997180594
 30
0.0
 11
136.3749994119592
 21
136.8749997180594
 31
0.0
1001
GENIUS_GENFIL_13
1070
     0
1040
2.0
1040
2.0
1040
2.0
1040
45.00000000000041
1000
~T
  0
LINE
  5
7AF
330
1F
100
AcDbEntity
  8
0
100
AcDbLine
 10
145.6249994119591
 20
138.8749997180592
 30
0.0
 11
145.624999411959
 21
64.8749997180592
 31
0.0
  0
LINE
  5
7B2
330
1F
100
AcDbEntity
  8
0
100
AcDbLine
 10
136.3749994119591
 20
76.37499971805908
 30
0.0
 11
137.3954624153739
 21
66.66594279151971
 31
0.0
  0
LINE
  5
7B6
330
1F
100
AcDbEntity
  8
0
100
AcDbLine
 10
139.38450620611
 20
64.8749997180592
 30
0.0
 11
137.3954624153739
 21
66.66594279151971
 31
0.0
  0
LINE
  5
7B7
330
1F
100
AcDbEntity
  8
0
100
AcDbLine
 10
166.374999411959
 20
134.3749997180591
 30
0.0
 11
166.3749994119588
 21
66.37499971805898
 31
0.0
1001
GENIUS_GENODEF_13
1002
{
1000
HIER
1070
     0
1002
}
1002
{
1000
MANEDIT
1070
     0
1002
}
1002
{
1000
NOSEL
1070
     0
1002
}
1002
{
1000
BEHIND
1070
     0
1002
}
1002
{
1000
OTHER
1070
     0
1002
}
1002
{
1000
REACTOR
1002
}
1001
GENIUS_GENOBJ-N-CEN_13
1002
{
1000
OWNER
1000
GEN
1002
}
1001
GENIUS_GENCEN_19
1002
{
1040
2.793999999999999
1002
}
  0
ARC
  5
7B8
330
1F
100
AcDbEntity
  8
0
100
AcDbCircle
 10
164.8749994119591
 20
134.3749997180591
 30
0.0
 40
1.5
100
AcDbArc
 50
0.0
 51
90.0
1001
GENIUS_GENOBJ-N-CEN_13
1002
{
1000
OWNER
1000
GEN
1002
}
1001
GENIUS_GENCEN_19
1002
{
1040
2.793999999999999
1002
}
1001
GENIUS_GENODEF_13
1002
{
1000
HIER
1070
     0
1002
}
1002
{
1000
MANEDIT
1070
     0
1002
}
1002
{
1000
NOSEL
1070
     0
1002
}
1002
{
1000
BEHIND
1070
     0
1002
}
1002
{
1000
OTHER
1070
     0
1002
}
1002
{
1000
REACTOR
1002
}
1001
GENIUS_GENOBJ-N-FIL_13
1002
{
1000
OWNER
1000
GEN
1002
}
  0
LINE
  5
7B9
330
1F
100
AcDbEntity
  8
0
100
AcDbLine
 10
153.3749994119589
 20
138.8749997180592
 30
0.0
 11
155.3749994119589
 21
136.8749997180592
 31
0.0
1001
GENIUS_GENFIL_13
1070
     0
1040
2.0
1040
2.0
1040
1.999999999999971
1040
45.00000000000041
1000
~T
1001
GENIUS_GENODEF_13
1002
{
1000
HIER
1070
     0
1002
}
1002
{
1000
MANEDIT
1070
     0
1002
}
1002
{
1000
NOSEL
1070
     0
1002
}
1002
{
1000
BEHIND
1070
     0
1002
}
1002
{
1000
OTHER
1070
     0
1002
}
1002
{
1000
REACTOR
1002
}
1001
GENIUS_GENOBJ-N-CEN_13
1002
{
1000
OWNER
1000
GEN
1002
}
1001
GENIUS_GENCEN_19
1002
{
1040
2.793999999999999
1002
}
1001
GENIUS_GENOREF_13
1005
8A0
  0
LINE
  5
7BA
330
1F
100
AcDbEntity
  8
0
100
AcDbLine
 10
155.3749994119588
 20
136.8749997180593
 30
0.0
 11
155.374999411959
 21
66.87499971805914
 31
0.0
1001
GENIUS_GENODEF_13
1002
{
1000
HIER
1070
     0
1002
}
1002
{
1000
MANEDIT
1070
     0
1002
}
1002
{
1000
NOSEL
1070
     0
1002
}
1002
{
1000
BEHIND
1070
     0
1002
}
1002
{
1000
OTHER
1070
     0
1002
}
1002
{
1000
REACTOR
1002
}
1001
GENIUS_GENOBJ-N-CEN_13
1002
{
1000
OWNER
1000
GEN
1002
}
1001
GENIUS_GENCEN_19
1002
{
1040
2.793999999999999
1002
}
  0
LINE
  5
7BB
330
1F
100
AcDbEntity
  8
0
100
AcDbLine
 10
155.3749994119588
 20
66.87499971805897
 30
0.0
 11
153.3749994119588
 21
64.87499971805902
 31
0.0
1001
GENIUS_GENFIL_13
1070
     0
1040
2.0
1040
2.0
1040
20.0
1040
0.0
1002
{
1002
}
1001
GENIUS_GENOBJ-N-CHA_13
1002
{
1000
OWNER
1000
GEN
1002
}
1001
GENIUS_GENODEF_13
1002
{
1000
HIER
1070
     0
1002
}
1002
{
1000
MANEDIT
1070
     0
1002
}
1002
{
1000
NOSEL
1070
     0
1002
}
1002
{
1000
BEHIND
1070
     0
1002
}
1002
{
1000
OTHER
1070
     0
1002
}
1002
{
1000
REACTOR
1002
}
  0
LINE
  5
7BC
330
1F
100
AcDbEntity
  8
0
100
AcDbLine
 10
164.8749994119591
 20
135.8749997180591
 30
0.0
 11
155.374999411959
 21
135.8749997180591
 31
0.0
  0
LINE
  5
7BD
330
1F
100
AcDbEntity
  8
0
100
AcDbLine
 10
164.8749994119588
 20
67.87499971805892
 30
0.0
 11
155.3749994119588
 21
67.87024109827497
 31
0.0
  0
ARC
  5
7BE
330
1F
100
AcDbEntity
  8
0
100
AcDbCircle
 10
164.8749994119588
 20
69.37499971805891
 30
0.0
 40
1.5
100
AcDbArc
 50
270.0
 51
0.0
1001
GENIUS_GENOBJ-N-FIL_13
1002
{
1000
OWNER
1000
GEN
1002
}
1001
GENIUS_GENODEF_13
1002
{
1000
HIER
1070
     0
1002
}
1002
{
1000
MANEDIT
1070
     0
1002
}
1002
{
1000
NOSEL
1070
     0
1002
}
1002
{
1000
BEHIND
1070
     0
1002
}
1002
{
1000
OTHER
1070
     0
1002
}
1002
{
1000
REACTOR
1002
}
  0
LINE
  5
7BF
330
1F
100
AcDbEntity
  8
0
100
AcDbLine
 10
153.3749994119588
 20
64.87499971805906
 30
0.0
 11
155.3749994119588
 21
66.874999718059
 31
0.0
1001
GENIUS_GENFIL_13
1070
     0
1040
2.0
1040
2.0
1040
20.0
1040
0.0
1002
{
1002
}
1001
GENIUS_GENOBJ-N-CEN_13
1002
{
1000
OWNER
1000
GEN
1002
}
1001
GENIUS_GENCEN_19
1002
{
1040
2.793999999999999
1002
}
1001
GENIUS_GENODEF_13
1002
{
1000
HIER
1070
     0
1002
}
1002
{
1000
MANEDIT
1070
     0
1002
}
1002
{
1000
NOSEL
1070
     0
1002
}
1002
{
1000
BEHIND
1070
     0
1002
}
1002
{
1000
OTHER
1070
     0
1002
}
1002
{
1000
REACTOR
1002
}
1001
GENIUS_GENOBJ-N-CHA_13
1002
{
1000
OWNER
1000
GEN
1002
}
  0
LINE
  5
7C0
330
1F
100
AcDbEntity
  8
0
100
AcDbLine
 10
145.624999411959
 20
65.87499971805906
 30
0.0
 11
146.1249994119589
 21
65.87499971805906
 31
0.0
  0
LINE
  5
7CB
330
1F
100
AcDbEntity
  8
0
100
AcDbLine
 10
146.1249994119591
 20
138.8749997180592
 30
0.0
 11
146.1249994119589
 21
64.87499971805906
 31
0.0
  0
LINE
  5
7CC
330
1F
100
AcDbEntity
  8
0
100
AcDbLine
 10
145.6249994119591
 20
137.8749997180592
 30
0.0
 11
146.124999411959
 21
137.8749997180592
 31
0.0
  0
ARC
  5
7CE
330
1F
100
AcDbEntity
  8
0
100
AcDbCircle
 10
164.8749994119589
 20
66.37499971805898
 30
0.0
 40
1.5
100
AcDbArc
 50
270.0
 51
0.0
1001
GENIUS_GENOBJ-N-CEN_13
1002
{
1000
OWNER
1000
GEN
1002
}
1001
GENIUS_GENCEN_19
1002
{
1040
2.793999999999999
1002
}
1001
GENIUS_GENODEF_13
1002
{
1000
HIER
1070
     0
1002
}
1002
{
1000
MANEDIT
1070
     0
1002
}
1002
{
1000
NOSEL
1070
     0
1002
}
1002
{
1000
BEHIND
1070
     0
1002
}
1002
{
1000
OTHER
1070
     0
1002
}
1002
{
1000
REACTOR
1002
}
1001
GENIUS_GENOBJ-N-FIL_13
1002
{
1000
OWNER
1000
GEN
1002
}
  0
LINE
  5
7D1
330
1F
100
AcDbEntity
  8
0
100
AcDbLine
 10
146.1249994119591
 20
138.8749997180592
 30
0.0
 11
153.3749994119589
 21
138.8749997180592
 31
0.0
  0
LINE
  5
7D3
330
1F
100
AcDbEntity
  8
0
100
AcDbLine
 10
155.3749994119588
 20
107.4749997180591
 30
0.0
 11
166.374999411959
 21
107.4749997180591
 31
0.0
  0
LINE
  5
7D4
330
1F
100
AcDbEntity
  8
0
100
AcDbLine
 10
155.3749994119588
 20
106.2749997180591
 30
0.0
 11
166.3749994119589
 21
106.2749997180591
 31
0.0
  0
LINE
  5
7D5
330
1F
100
AcDbEntity
  8
0
100
AcDbLine
 10
164.3749994119588
 20
107.474999718059
 30
0.0
 11
164.3749994119588
 21
106.2749997180591
 31
0.0
  0
LINE
  5
7D6
330
1F
100
AcDbEntity
  8
0
100
AcDbLine
 10
155.3749994119588
 20
104.9749997180591
 30
0.0
 11
166.374999411959
 21
104.9749997180591
 31
0.0
  0
LINE
  5
7D7
330
1F
100
AcDbEntity
  8
0
100
AcDbLine
 10
155.3749994119588
 20
103.7749997180591
 30
0.0
 11
166.3749994119589
 21
103.7749997180591
 31
0.0
  0
LINE
  5
7D8
330
1F
100
AcDbEntity
  8
0
100
AcDbLine
 10
164.3749994119588
 20
104.974999718059
 30
0.0
 11
164.3749994119588
 21
103.7749997180591
 31
0.0
  0
LINE
  5
7D9
330
1F
100
AcDbEntity
  8
0
100
AcDbLine
 10
155.3749994119588
 20
102.4749997180591
 30
0.0
 11
166.3749994119589
 21
102.4749997180591
 31
0.0
  0
LINE
  5
7DA
330
1F
100
AcDbEntity
  8
0
100
AcDbLine
 10
155.3749994119588
 20
101.2749997180591
 30
0.0
 11
166.3749994119588
 21
101.2749997180591
 31
0.0
  0
LINE
  5
7DB
330
1F
100
AcDbEntity
  8
0
100
AcDbLine
 10
164.3749994119588
 20
102.474999718059
 30
0.0
 11
164.3749994119588
 21
101.2749997180591
 31
0.0
  0
LINE
  5
7DC
330
1F
100
AcDbEntity
  8
0
100
AcDbLine
 10
155.3749994119588
 20
99.97499971805915
 30
0.0
 11
166.3749994119589
 21
99.97499971805915
 31
0.0
  0
LINE
  5
7DD
330
1F
100
AcDbEntity
  8
0
100
AcDbLine
 10
155.3749994119588
 20
98.7749997180591
 30
0.0
 11
166.3749994119588
 21
98.7749997180591
 31
0.0
  0
LINE
  5
7DE
330
1F
100
AcDbEntity
  8
0
100
AcDbLine
 10
164.3749994119588
 20
99.97499971805902
 30
0.0
 11
164.3749994119588
 21
98.7749997180591
 31
0.0
  0
LINE
  5
7DF
330
1F
100
AcDbEntity
  8
0
100
AcDbLine
 10
155.3749994119588
 20
97.47499971805915
 30
0.0
 11
166.3749994119589
 21
97.47499971805915
 31
0.0
  0
LINE
  5
7E0
330
1F
100
AcDbEntity
  8
0
100
AcDbLine
 10
155.3749994119587
 20
96.2749997180591
 30
0.0
 11
166.3749994119587
 21
96.2749997180591
 31
0.0
  0
LINE
  5
7E1
330
1F
100
AcDbEntity
  8
0
100
AcDbLine
 10
164.3749994119588
 20
97.47499971805902
 30
0.0
 11
164.3749994119587
 21
96.2749997180591
 31
0.0
  0
LINE
  5
7E2
330
1F
100
AcDbEntity
  8
0
100
AcDbLine
 10
155.3749994119587
 20
94.97499971805913
 30
0.0
 11
166.3749994119589
 21
94.97499971805913
 31
0.0
  0
LINE
  5
7E3
330
1F
100
AcDbEntity
  8
0
100
AcDbLine
 10
155.3749994119587
 20
93.77499971805908
 30
0.0
 11
166.3749994119587
 21
93.77499971805908
 31
0.0
  0
LINE
  5
7E4
330
1F
100
AcDbEntity
  8
0
100
AcDbLine
 10
164.3749994119587
 20
94.97499971805902
 30
0.0
 11
164.3749994119587
 21
93.77499971805908
 31
0.0
  0
LINE
  5
7E5
330
1F
100
AcDbEntity
  8
0
100
AcDbLine
 10
155.3749994119587
 20
92.47499971805902
 30
0.0
 11
166.3749994119589
 21
92.47499971805902
 31
0.0
  0
LINE
  5
7E6
330
1F
100
AcDbEntity
  8
0
100
AcDbLine
 10
155.3749994119587
 20
91.274999718059
 30
0.0
 11
166.3749994119587
 21
91.274999718059
 31
0.0
  0
LINE
  5
7E7
330
1F
100
AcDbEntity
  8
0
100
AcDbLine
 10
164.3749994119587
 20
92.47499971805892
 30
0.0
 11
164.3749994119587
 21
91.274999718059
 31
0.0
  0
LINE
  5
7E8
330
1F
100
AcDbEntity
  8
0
100
AcDbLine
 10
155.3749994119587
 20
89.97499971805913
 30
0.0
 11
166.3749994119589
 21
89.97499971805913
 31
0.0
  0
LINE
  5
7E9
330
1F
100
AcDbEntity
  8
0
100
AcDbLine
 10
155.3749994119587
 20
88.77499971805908
 30
0.0
 11
166.3749994119587
 21
88.77499971805908
 31
0.0
  0
LINE
  5
7EA
330
1F
100
AcDbEntity
  8
0
100
AcDbLine
 10
164.3749994119587
 20
89.97499971805902
 30
0.0
 11
164.3749994119587
 21
88.77499971805908
 31
0.0
  0
LINE
  5
7ED
330
1F
100
AcDbEntity
  8
0
100
AcDbLine
 10
155.8749994119591
 20
179.8749997180592
 30
0.0
 11
147.8749994119589
 21
179.8749997180591
 31
0.0
  0
LINE
  5
7EF
330
1F
100
AcDbEntity
  8
0
100
AcDbLine
 10
147.1014145062986
 20
138.8749997180592
 30
0.0
 11
147.8749994119589
 21
179.8749997180591
 31
0.0
  0
LINE
  5
7F0
330
1F
100
AcDbEntity
  8
0
100
AcDbLine
 10
156.7051880912041
 20
135.8749997180591
 30
0.0
 11
155.8749994119591
 21
179.8749997180592
 31
0.0
  0
LINE
  5
7F1
330
1F
100
AcDbEntity
  8
0
100
AcDbLine
 10
147.9749994119586
 20
179.8749997180591
 30
0.0
 11
148.0307975451477
 21
181.7765026438978
 31
0.0
  0
LINE
  5
7F2
330
1F
100
AcDbEntity
  8
0
100
AcDbLine
 10
155.7749994119584
 20
179.8749997180591
 30
0.0
 11
155.7192012787693
 21
181.7765026438975
 31
0.0
  0
ARC
  5
7F3
330
1F
100
AcDbEntity
  8
0
100
AcDbCircle
 10
155.2192937087543
 20
181.7668890367819
 30
0.0
 40
0.5
100
AcDbArc
 50
1.101706115201059
 51
69.38841074338546
1001
GENIUS_GENODEF_13
1002
{
1000
HIER
1070
     0
1002
}
1002
{
1000
MANEDIT
1070
     0
1002
}
1002
{
1000
NOSEL
1070
     0
1002
}
1002
{
1000
BEHIND
1070
     0
1002
}
1002
{
1000
OTHER
1070
     0
1002
}
1002
{
1000
REACTOR
1002
}
1001
GENIUS_GENOBJ-N-FIL_13
1002
{
1000
OWNER
1000
GEN
1002
}
  0
ARC
  5
7F4
330
1F
100
AcDbEntity
  8
0
100
AcDbCircle
 10
155.2192937087543
 20
181.7668890367819
 30
0.0
 40
0.5
100
AcDbArc
 50
69.38841074338546
 51
69.38841074338546
1001
GENIUS_GENODEF_13
1002
{
1000
HIER
1070
     0
1002
}
1002
{
1000
MANEDIT
1070
     0
1002
}
1002
{
1000
NOSEL
1070
     0
1002
}
1002
{
1000
BEHIND
1070
     0
1002
}
1002
{
1000
OTHER
1070
     0
1002
}
1002
{
1000
REACTOR
1002
}
1001
GENIUS_GENOBJ-N-FIL_13
1002
{
1000
OWNER
1000
GEN
1002
}
  0
ARC
  5
7F5
330
1F
100
AcDbEntity
  8
0
100
AcDbCircle
 10
148.5307051151627
 20
181.766889036782
 30
0.0
 40
0.5
100
AcDbArc
 50
110.611589256611
 51
178.8982938847924
1001
GENIUS_GENOBJ-N-FIL_13
1002
{
1000
OWNER
1000
GEN
1002
}
1001
GENIUS_GENODEF_13
1002
{
1000
HIER
1070
     0
1002
}
1002
{
1000
MANEDIT
1070
     0
1002
}
1002
{
1000
NOSEL
1070
     0
1002
}
1002
{
1000
BEHIND
1070
     0
1002
}
1002
{
1000
OTHER
1070
     0
1002
}
1002
{
1000
REACTOR
1002
}
  0
ARC
  5
7F6
330
1F
100
AcDbEntity
  8
0
100
AcDbCircle
 10
151.8749994119582
 20
172.8749997180591
 30
0.0
 40
10.0
100
AcDbArc
 50
69.38841074338546
 51
81.37307343471126
  0
ARC
  5
7F7
330
1F
100
AcDbEntity
  8
0
100
AcDbCircle
 10
151.8749994119582
 20
172.8749997180591
 30
0.0
 40
10.0
100
AcDbArc
 50
98.62692656528871
 51
110.6115892566115
  0
LINE
  5
7F8
330
1F
100
AcDbEntity
  8
0
100
AcDbLine
 10
153.374999413099
 20
182.7618596845286
 30
0.0
 11
150.3749994108175
 21
182.7618596845286
 31
0.0
  0
LINE
  5
7F9
330
1F
100
AcDbEntity
  8
0
100
AcDbLine
 10
135.8749994119591
 20
83.79102512184351
 30
0.0
 11
135.8749994119592
 21
88.05897431427467
 31
0.0
  0
ARC
  5
7FA
330
1F
100
AcDbEntity
  8
0
100
AcDbCircle
 10
135.8749994119591
 20
82.92499971805909
 30
0.0
 40
0.5
100
AcDbArc
 50
0.0
 51
60.00000000000028
  0
ARC
  5
7FB
330
1F
100
AcDbEntity
  8
0
100
AcDbCircle
 10
136.3749994119591
 20
83.79102512184351
 30
0.0
 40
0.5
100
AcDbArc
 50
180.0
 51
240.0000000000002
  0
ARC
  5
7FC
330
1F
100
AcDbEntity
  8
0
100
AcDbCircle
 10
135.8749994119591
 20
88.92499971805909
 30
0.0
 40
0.5
100
AcDbArc
 50
299.9999999999997
 51
0.0
  0
ARC
  5
7FD
330
1F
100
AcDbEntity
  8
0
100
AcDbCircle
 10
136.3749994119591
 20
88.05897431427467
 30
0.0
 40
0.5
100
AcDbArc
 50
119.9999999999997
 51
180.0
  0
LINE
  5
7FE
330
1F
100
AcDbEntity
  8
0
100
AcDbLine
 10
164.8749994119589
 20
64.87499971805897
 30
0.0
 11
146.1249994119589
 21
64.87499971805906
 31
0.0
  0
LINE
  5
7FF
330
1F
100
AcDbEntity
  8
0
100
AcDbLine
 10
73.99999941195885
 20
97.62499971805894
 30
0.0
 11
73.99999941195885
 21
96.12499971805894
 31
0.0
1001
GENIUS_GENREC_14
1002
{
1000
PYDIR
1011
73.99999941195885
1021
97.62499971805894
1031
0.0
1002
}
1002
{
1000
PXDIR
1011
77.49999941195888
1021
96.12499971805894
1031
0.0
1002
}
1002
{
1000
PORI
1011
73.99999941195885
1021
96.12499971805894
1031
0.0
1002
}
1002
{
1000
PINS
1011
73.99999941195885
1021
96.12499971805894
1031
0.0
1002
}
1002
{
1000
PINS2
1011
77.49999941195888
1021
97.62499971805894
1031
0.0
1002
}
1002
{
1000
C
1070
     1
1002
}
1001
GENIUS_GENODEF_13
1002
{
1000
HIER
1070
     0
1002
}
1002
{
1000
MANEDIT
1070
     0
1002
}
1002
{
1000
NOSEL
1070
     0
1002
}
1002
{
1000
BEHIND
1070
     0
1002
}
1002
{
1000
OTHER
1070
     0
1002
}
1002
{
1000
REACTOR
1002
}
1001
GENIUS_GENOBJ-N-REC_13
1002
{
1000
OWNER
1000
GEN
1002
}
  0
LINE
  5
800
330
1F
100
AcDbEntity
  8
0
100
AcDbLine
 10
16.99999941195887
 20
123.624999718059
 30
0.0
 11
16.99999941195887
 21
122.1249997180589
 31
0.0
  0
LINE
  5
801
330
1F
100
AcDbEntity
  8
0
100
AcDbLine
 10
19.99999941195887
 20
123.624999718059
 30
0.0
 11
19.99999941195887
 21
122.1249997180589
 31
0.0
  0
LINE
  5
802
330
1F
100
AcDbEntity
  8
0
100
AcDbLine
 10
19.99999941195887
 20
122.1249997180589
 30
0.0
 11
16.99999941195887
 21
122.1249997180589
 31
0.0
  0
LINE
  5
803
330
1F
100
AcDbEntity
  8
0
100
AcDbLine
 10
19.99999941195887
 20
123.624999718059
 30
0.0
 11
16.99999941195887
 21
123.624999718059
 31
0.0
  0
LINE
  5
804
330
1F
100
AcDbEntity
  8
0
100
AcDbLine
 10
16.99999941195887
 20
122.1249997180589
 30
0.0
 11
19.99999941195887
 21
122.1249997180589
 31
0.0
1001
GENIUS_GENREC_14
1002
{
1000
PYDIR
1011
16.99999941195887
1021
123.374999718059
1031
0.0
1002
}
1002
{
1000
PXDIR
1011
19.99999941195887
1021
122.1249997180589
1031
0.0
1002
}
1002
{
1000
PORI
1011
16.99999941195887
1021
122.1249997180589
1031
0.0
1002
}
1002
{
1000
PINS
1011
16.99999941195887
1021
122.1249997180589
1031
0.0
1002
}
1002
{
1000
PINS2
1011
19.99999941195887
1021
123.374999718059
1031
0.0
1002
}
1002
{
1000
C
1070
     1
1002
}
1001
GENIUS_GENODEF_13
1002
{
1000
HIER
1070
     0
1002
}
1002
{
1000
MANEDIT
1070
     0
1002
}
1002
{
1000
NOSEL
1070
     0
1002
}
1002
{
1000
BEHIND
1070
     0
1002
}
1002
{
1000
OTHER
1070
     0
1002
}
1002
{
1000
REACTOR
1002
}
1001
GENIUS_GENOBJ-N-REC_13
1002
{
1000
OWNER
1000
GEN
1002
}
  0
LINE
  5
805
330
1F
100
AcDbEntity
  8
0
100
AcDbLine
 10
19.99999941195887
 20
122.1249997180589
 30
0.0
 11
19.99999941195887
 21
123.624999718059
 31
0.0
1001
GENIUS_GENREC_14
1002
{
1000
PYDIR
1011
16.49999941195886
1021
123.624999718059
1031
0.0
1002
}
1002
{
1000
PXDIR
1011
19.99999941195887
1021
122.1249997180589
1031
0.0
1002
}
1002
{
1000
PORI
1011
16.49999941195886
1021
122.1249997180589
1031
0.0
1002
}
1002
{
1000
PINS
1011
16.49999941195886
1021
122.1249997180589
1031
0.0
1002
}
1002
{
1000
PINS2
1011
19.99999941195887
1021
123.624999718059
1031
0.0
1002
}
1002
{
1000
C
1070
     1
1002
}
1001
GENIUS_GENODEF_13
1002
{
1000
HIER
1070
     0
1002
}
1002
{
1000
MANEDIT
1070
     0
1002
}
1002
{
1000
NOSEL
1070
     0
1002
}
1002
{
1000
BEHIND
1070
     0
1002
}
1002
{
1000
OTHER
1070
     0
1002
}
1002
{
1000
REACTOR
1002
}
1001
GENIUS_GENOBJ-N-REC_13
1002
{
1000
OWNER
1000
GEN
1002
}
  0
LINE
  5
806
330
1F
100
AcDbEntity
  8
0
100
AcDbLine
 10
19.99999941195887
 20
123.624999718059
 30
0.0
 11
16.99999941195887
 21
123.624999718059
 31
0.0
1001
GENIUS_GENREC_14
1002
{
1000
PYDIR
1011
16.99999941195887
1021
123.624999718059
1031
0.0
1002
}
1002
{
1000
PXDIR
1011
19.99999941195887
1021
122.374999718059
1031
0.0
1002
}
1002
{
1000
PORI
1011
16.99999941195887
1021
122.374999718059
1031
0.0
1002
}
1002
{
1000
PINS
1011
16.99999941195887
1021
122.374999718059
1031
0.0
1002
}
1002
{
1000
PINS2
1011
19.99999941195887
1021
123.624999718059
1031
0.0
1002
}
1002
{
1000
C
1070
     1
1002
}
1001
GENIUS_GENODEF_13
1002
{
1000
HIER
1070
     0
1002
}
1002
{
1000
MANEDIT
1070
     0
1002
}
1002
{
1000
NOSEL
1070
     0
1002
}
1002
{
1000
BEHIND
1070
     0
1002
}
1002
{
1000
OTHER
1070
     0
1002
}
1002
{
1000
REACTOR
1002
}
1001
GENIUS_GENOBJ-N-REC_13
1002
{
1000
OWNER
1000
GEN
1002
}
  0
LINE
  5
807
330
1F
100
AcDbEntity
  8
0
100
AcDbLine
 10
16.99999941195887
 20
123.624999718059
 30
0.0
 11
16.99999941195887
 21
122.1249997180589
 31
0.0
1001
GENIUS_GENREC_14
1002
{
1000
PYDIR
1011
16.99999941195887
1021
123.624999718059
1031
0.0
1002
}
1002
{
1000
PXDIR
1011
20.49999941195887
1021
122.1249997180589
1031
0.0
1002
}
1002
{
1000
PORI
1011
16.99999941195887
1021
122.1249997180589
1031
0.0
1002
}
1002
{
1000
PINS
1011
16.99999941195887
1021
122.1249997180589
1031
0.0
1002
}
1002
{
1000
PINS2
1011
20.49999941195887
1021
123.624999718059
1031
0.0
1002
}
1002
{
1000
C
1070
     1
1002
}
1001
GENIUS_GENODEF_13
1002
{
1000
HIER
1070
     0
1002
}
1002
{
1000
MANEDIT
1070
     0
1002
}
1002
{
1000
NOSEL
1070
     0
1002
}
1002
{
1000
BEHIND
1070
     0
1002
}
1002
{
1000
OTHER
1070
     0
1002
}
1002
{
1000
REACTOR
1002
}
1001
GENIUS_GENOBJ-N-REC_13
1002
{
1000
OWNER
1000
GEN
1002
}
  0
LINE
  5
808
330
1F
100
AcDbEntity
  8
0
100
AcDbLine
 10
16.99999941195887
 20
105.6249997180589
 30
0.0
 11
16.99999941195887
 21
104.1249997180589
 31
0.0
  0
LINE
  5
809
330
1F
100
AcDbEntity
  8
0
100
AcDbLine
 10
19.99999941195887
 20
105.6249997180589
 30
0.0
 11
19.99999941195887
 21
104.1249997180589
 31
0.0
  0
LINE
  5
80A
330
1F
100
AcDbEntity
  8
0
100
AcDbLine
 10
19.99999941195887
 20
104.1249997180589
 30
0.0
 11
16.99999941195887
 21
104.1249997180589
 31
0.0
  0
LINE
  5
80B
330
1F
100
AcDbEntity
  8
0
100
AcDbLine
 10
19.99999941195887
 20
105.6249997180589
 30
0.0
 11
16.99999941195887
 21
105.6249997180589
 31
0.0
  0
LINE
  5
80C
330
1F
100
AcDbEntity
  8
0
100
AcDbLine
 10
16.99999941195887
 20
104.1249997180589
 30
0.0
 11
19.99999941195887
 21
104.1249997180589
 31
0.0
1001
GENIUS_GENREC_14
1002
{
1000
PYDIR
1011
16.99999941195887
1021
105.3749997180589
1031
0.0
1002
}
1002
{
1000
PXDIR
1011
19.99999941195887
1021
104.1249997180589
1031
0.0
1002
}
1002
{
1000
PORI
1011
16.99999941195887
1021
104.1249997180589
1031
0.0
1002
}
1002
{
1000
PINS
1011
16.99999941195887
1021
104.1249997180589
1031
0.0
1002
}
1002
{
1000
PINS2
1011
19.99999941195887
1021
105.3749997180589
1031
0.0
1002
}
1002
{
1000
C
1070
     1
1002
}
1001
GENIUS_GENODEF_13
1002
{
1000
HIER
1070
     0
1002
}
1002
{
1000
MANEDIT
1070
     0
1002
}
1002
{
1000
NOSEL
1070
     0
1002
}
1002
{
1000
BEHIND
1070
     0
1002
}
1002
{
1000
OTHER
1070
     0
1002
}
1002
{
1000
REACTOR
1002
}
1001
GENIUS_GENOBJ-N-REC_13
1002
{
1000
OWNER
1000
GEN
1002
}
  0
LINE
  5
80D
330
1F
100
AcDbEntity
  8
0
100
AcDbLine
 10
19.99999941195887
 20
104.1249997180589
 30
0.0
 11
19.99999941195887
 21
105.6249997180589
 31
0.0
1001
GENIUS_GENREC_14
1002
{
1000
PYDIR
1011
16.49999941195886
1021
105.6249997180589
1031
0.0
1002
}
1002
{
1000
PXDIR
1011
19.99999941195887
1021
104.1249997180589
1031
0.0
1002
}
1002
{
1000
PORI
1011
16.49999941195886
1021
104.1249997180589
1031
0.0
1002
}
1002
{
1000
PINS
1011
16.49999941195886
1021
104.1249997180589
1031
0.0
1002
}
1002
{
1000
PINS2
1011
19.99999941195887
1021
105.6249997180589
1031
0.0
1002
}
1002
{
1000
C
1070
     1
1002
}
1001
GENIUS_GENODEF_13
1002
{
1000
HIER
1070
     0
1002
}
1002
{
1000
MANEDIT
1070
     0
1002
}
1002
{
1000
NOSEL
1070
     0
1002
}
1002
{
1000
BEHIND
1070
     0
1002
}
1002
{
1000
OTHER
1070
     0
1002
}
1002
{
1000
REACTOR
1002
}
1001
GENIUS_GENOBJ-N-REC_13
1002
{
1000
OWNER
1000
GEN
1002
}
  0
LINE
  5
80E
330
1F
100
AcDbEntity
  8
0
100
AcDbLine
 10
19.99999941195887
 20
105.6249997180589
 30
0.0
 11
16.99999941195887
 21
105.6249997180589
 31
0.0
1001
GENIUS_GENREC_14
1002
{
1000
PYDIR
1011
16.99999941195887
1021
105.6249997180589
1031
0.0
1002
}
1002
{
1000
PXDIR
1011
19.99999941195887
1021
104.3749997180589
1031
0.0
1002
}
1002
{
1000
PORI
1011
16.99999941195887
1021
104.3749997180589
1031
0.0
1002
}
1002
{
1000
PINS
1011
16.99999941195887
1021
104.3749997180589
1031
0.0
1002
}
1002
{
1000
PINS2
1011
19.99999941195887
1021
105.6249997180589
1031
0.0
1002
}
1002
{
1000
C
1070
     1
1002
}
1001
GENIUS_GENODEF_13
1002
{
1000
HIER
1070
     0
1002
}
1002
{
1000
MANEDIT
1070
     0
1002
}
1002
{
1000
NOSEL
1070
     0
1002
}
1002
{
1000
BEHIND
1070
     0
1002
}
1002
{
1000
OTHER
1070
     0
1002
}
1002
{
1000
REACTOR
1002
}
1001
GENIUS_GENOBJ-N-REC_13
1002
{
1000
OWNER
1000
GEN
1002
}
  0
LINE
  5
80F
330
1F
100
AcDbEntity
  8
0
100
AcDbLine
 10
16.99999941195887
 20
105.6249997180589
 30
0.0
 11
16.99999941195887
 21
104.1249997180589
 31
0.0
1001
GENIUS_GENREC_14
1002
{
1000
PYDIR
1011
16.99999941195887
1021
105.6249997180589
1031
0.0
1002
}
1002
{
1000
PXDIR
1011
20.49999941195887
1021
104.1249997180589
1031
0.0
1002
}
1002
{
1000
PORI
1011
16.99999941195887
1021
104.1249997180589
1031
0.0
1002
}
1002
{
1000
PINS
1011
16.99999941195887
1021
104.1249997180589
1031
0.0
1002
}
1002
{
1000
PINS2
1011
20.49999941195887
1021
105.6249997180589
1031
0.0
1002
}
1002
{
1000
C
1070
     1
1002
}
1001
GENIUS_GENODEF_13
1002
{
1000
HIER
1070
     0
1002
}
1002
{
1000
MANEDIT
1070
     0
1002
}
1002
{
1000
NOSEL
1070
     0
1002
}
1002
{
1000
BEHIND
1070
     0
1002
}
1002
{
1000
OTHER
1070
     0
1002
}
1002
{
1000
REACTOR
1002
}
1001
GENIUS_GENOBJ-N-REC_13
1002
{
1000
OWNER
1000
GEN
1002
}
  0
LINE
  5
810
330
1F
100
AcDbEntity
  8
0
100
AcDbLine
 10
16.99999941195887
 20
111.6249997180589
 30
0.0
 11
16.99999941195887
 21
110.124999718059
 31
0.0
  0
LINE
  5
811
330
1F
100
AcDbEntity
  8
0
100
AcDbLine
 10
19.99999941195887
 20
111.6249997180589
 30
0.0
 11
19.99999941195887
 21
110.124999718059
 31
0.0
  0
LINE
  5
812
330
1F
100
AcDbEntity
  8
0
100
AcDbLine
 10
19.99999941195887
 20
110.124999718059
 30
0.0
 11
16.99999941195887
 21
110.124999718059
 31
0.0
  0
LINE
  5
813
330
1F
100
AcDbEntity
  8
0
100
AcDbLine
 10
19.99999941195887
 20
111.6249997180589
 30
0.0
 11
16.99999941195887
 21
111.6249997180589
 31
0.0
  0
LINE
  5
814
330
1F
100
AcDbEntity
  8
0
100
AcDbLine
 10
16.99999941195887
 20
110.124999718059
 30
0.0
 11
19.99999941195887
 21
110.124999718059
 31
0.0
1001
GENIUS_GENREC_14
1002
{
1000
PYDIR
1011
16.99999941195887
1021
111.3749997180589
1031
0.0
1002
}
1002
{
1000
PXDIR
1011
19.99999941195887
1021
110.124999718059
1031
0.0
1002
}
1002
{
1000
PORI
1011
16.99999941195887
1021
110.124999718059
1031
0.0
1002
}
1002
{
1000
PINS
1011
16.99999941195887
1021
110.124999718059
1031
0.0
1002
}
1002
{
1000
PINS2
1011
19.99999941195887
1021
111.3749997180589
1031
0.0
1002
}
1002
{
1000
C
1070
     1
1002
}
1001
GENIUS_GENODEF_13
1002
{
1000
HIER
1070
     0
1002
}
1002
{
1000
MANEDIT
1070
     0
1002
}
1002
{
1000
NOSEL
1070
     0
1002
}
1002
{
1000
BEHIND
1070
     0
1002
}
1002
{
1000
OTHER
1070
     0
1002
}
1002
{
1000
REACTOR
1002
}
1001
GENIUS_GENOBJ-N-REC_13
1002
{
1000
OWNER
1000
GEN
1002
}
  0
LINE
  5
815
330
1F
100
AcDbEntity
  8
0
100
AcDbLine
 10
19.99999941195887
 20
110.124999718059
 30
0.0
 11
19.99999941195887
 21
111.6249997180589
 31
0.0
1001
GENIUS_GENREC_14
1002
{
1000
PYDIR
1011
16.49999941195886
1021
111.6249997180589
1031
0.0
1002
}
1002
{
1000
PXDIR
1011
19.99999941195887
1021
110.124999718059
1031
0.0
1002
}
1002
{
1000
PORI
1011
16.49999941195886
1021
110.124999718059
1031
0.0
1002
}
1002
{
1000
PINS
1011
16.49999941195886
1021
110.124999718059
1031
0.0
1002
}
1002
{
1000
PINS2
1011
19.99999941195887
1021
111.6249997180589
1031
0.0
1002
}
1002
{
1000
C
1070
     1
1002
}
1001
GENIUS_GENODEF_13
1002
{
1000
HIER
1070
     0
1002
}
1002
{
1000
MANEDIT
1070
     0
1002
}
1002
{
1000
NOSEL
1070
     0
1002
}
1002
{
1000
BEHIND
1070
     0
1002
}
1002
{
1000
OTHER
1070
     0
1002
}
1002
{
1000
REACTOR
1002
}
1001
GENIUS_GENOBJ-N-REC_13
1002
{
1000
OWNER
1000
GEN
1002
}
  0
LINE
  5
816
330
1F
100
AcDbEntity
  8
0
100
AcDbLine
 10
19.99999941195887
 20
111.6249997180589
 30
0.0
 11
16.99999941195887
 21
111.6249997180589
 31
0.0
1001
GENIUS_GENREC_14
1002
{
1000
PYDIR
1011
16.99999941195887
1021
111.6249997180589
1031
0.0
1002
}
1002
{
1000
PXDIR
1011
19.99999941195887
1021
110.3749997180589
1031
0.0
1002
}
1002
{
1000
PORI
1011
16.99999941195887
1021
110.3749997180589
1031
0.0
1002
}
1002
{
1000
PINS
1011
16.99999941195887
1021
110.3749997180589
1031
0.0
1002
}
1002
{
1000
PINS2
1011
19.99999941195887
1021
111.6249997180589
1031
0.0
1002
}
1002
{
1000
C
1070
     1
1002
}
1001
GENIUS_GENODEF_13
1002
{
1000
HIER
1070
     0
1002
}
1002
{
1000
MANEDIT
1070
     0
1002
}
1002
{
1000
NOSEL
1070
     0
1002
}
1002
{
1000
BEHIND
1070
     0
1002
}
1002
{
1000
OTHER
1070
     0
1002
}
1002
{
1000
REACTOR
1002
}
1001
GENIUS_GENOBJ-N-REC_13
1002
{
1000
OWNER
1000
GEN
1002
}
  0
LINE
  5
817
330
1F
100
AcDbEntity
  8
0
100
AcDbLine
 10
16.99999941195887
 20
111.6249997180589
 30
0.0
 11
16.99999941195887
 21
110.124999718059
 31
0.0
1001
GENIUS_GENREC_14
1002
{
1000
PYDIR
1011
16.99999941195887
1021
111.6249997180589
1031
0.0
1002
}
1002
{
1000
PXDIR
1011
20.49999941195887
1021
110.124999718059
1031
0.0
1002
}
1002
{
1000
PORI
1011
16.99999941195887
1021
110.124999718059
1031
0.0
1002
}
1002
{
1000
PINS
1011
16.99999941195887
1021
110.124999718059
1031
0.0
1002
}
1002
{
1000
PINS2
1011
20.49999941195887
1021
111.6249997180589
1031
0.0
1002
}
1002
{
1000
C
1070
     1
1002
}
1001
GENIUS_GENODEF_13
1002
{
1000
HIER
1070
     0
1002
}
1002
{
1000
MANEDIT
1070
     0
1002
}
1002
{
1000
NOSEL
1070
     0
1002
}
1002
{
1000
BEHIND
1070
     0
1002
}
1002
{
1000
OTHER
1070
     0
1002
}
1002
{
1000
REACTOR
1002
}
1001
GENIUS_GENOBJ-N-REC_13
1002
{
1000
OWNER
1000
GEN
1002
}
  0
LINE
  5
818
330
1F
100
AcDbEntity
  8
0
100
AcDbLine
 10
16.99999941195887
 20
117.6249997180589
 30
0.0
 11
16.99999941195887
 21
116.124999718059
 31
0.0
  0
LINE
  5
819
330
1F
100
AcDbEntity
  8
0
100
AcDbLine
 10
19.99999941195887
 20
117.6249997180589
 30
0.0
 11
19.99999941195887
 21
116.124999718059
 31
0.0
  0
LINE
  5
81A
330
1F
100
AcDbEntity
  8
0
100
AcDbLine
 10
19.99999941195887
 20
116.124999718059
 30
0.0
 11
16.99999941195887
 21
116.124999718059
 31
0.0
  0
LINE
  5
81B
330
1F
100
AcDbEntity
  8
0
100
AcDbLine
 10
19.99999941195887
 20
117.6249997180589
 30
0.0
 11
16.99999941195887
 21
117.6249997180589
 31
0.0
  0
LINE
  5
81C
330
1F
100
AcDbEntity
  8
0
100
AcDbLine
 10
16.99999941195887
 20
116.124999718059
 30
0.0
 11
19.99999941195887
 21
116.124999718059
 31
0.0
1001
GENIUS_GENREC_14
1002
{
1000
PYDIR
1011
16.99999941195887
1021
117.374999718059
1031
0.0
1002
}
1002
{
1000
PXDIR
1011
19.99999941195887
1021
116.124999718059
1031
0.0
1002
}
1002
{
1000
PORI
1011
16.99999941195887
1021
116.124999718059
1031
0.0
1002
}
1002
{
1000
PINS
1011
16.99999941195887
1021
116.124999718059
1031
0.0
1002
}
1002
{
1000
PINS2
1011
19.99999941195887
1021
117.374999718059
1031
0.0
1002
}
1002
{
1000
C
1070
     1
1002
}
1001
GENIUS_GENODEF_13
1002
{
1000
HIER
1070
     0
1002
}
1002
{
1000
MANEDIT
1070
     0
1002
}
1002
{
1000
NOSEL
1070
     0
1002
}
1002
{
1000
BEHIND
1070
     0
1002
}
1002
{
1000
OTHER
1070
     0
1002
}
1002
{
1000
REACTOR
1002
}
1001
GENIUS_GENOBJ-N-REC_13
1002
{
1000
OWNER
1000
GEN
1002
}
  0
LINE
  5
81D
330
1F
100
AcDbEntity
  8
0
100
AcDbLine
 10
19.99999941195887
 20
116.124999718059
 30
0.0
 11
19.99999941195887
 21
117.6249997180589
 31
0.0
1001
GENIUS_GENREC_14
1002
{
1000
PYDIR
1011
16.49999941195886
1021
117.6249997180589
1031
0.0
1002
}
1002
{
1000
PXDIR
1011
19.99999941195887
1021
116.124999718059
1031
0.0
1002
}
1002
{
1000
PORI
1011
16.49999941195886
1021
116.124999718059
1031
0.0
1002
}
1002
{
1000
PINS
1011
16.49999941195886
1021
116.124999718059
1031
0.0
1002
}
1002
{
1000
PINS2
1011
19.99999941195887
1021
117.6249997180589
1031
0.0
1002
}
1002
{
1000
C
1070
     1
1002
}
1001
GENIUS_GENODEF_13
1002
{
1000
HIER
1070
     0
1002
}
1002
{
1000
MANEDIT
1070
     0
1002
}
1002
{
1000
NOSEL
1070
     0
1002
}
1002
{
1000
BEHIND
1070
     0
1002
}
1002
{
1000
OTHER
1070
     0
1002
}
1002
{
1000
REACTOR
1002
}
1001
GENIUS_GENOBJ-N-REC_13
1002
{
1000
OWNER
1000
GEN
1002
}
  0
LINE
  5
81E
330
1F
100
AcDbEntity
  8
0
100
AcDbLine
 10
19.99999941195887
 20
117.6249997180589
 30
0.0
 11
16.99999941195887
 21
117.6249997180589
 31
0.0
1001
GENIUS_GENREC_14
1002
{
1000
PYDIR
1011
16.99999941195887
1021
117.6249997180589
1031
0.0
1002
}
1002
{
1000
PXDIR
1011
19.99999941195887
1021
116.374999718059
1031
0.0
1002
}
1002
{
1000
PORI
1011
16.99999941195887
1021
116.374999718059
1031
0.0
1002
}
1002
{
1000
PINS
1011
16.99999941195887
1021
116.374999718059
1031
0.0
1002
}
1002
{
1000
PINS2
1011
19.99999941195887
1021
117.6249997180589
1031
0.0
1002
}
1002
{
1000
C
1070
     1
1002
}
1001
GENIUS_GENODEF_13
1002
{
1000
HIER
1070
     0
1002
}
1002
{
1000
MANEDIT
1070
     0
1002
}
1002
{
1000
NOSEL
1070
     0
1002
}
1002
{
1000
BEHIND
1070
     0
1002
}
1002
{
1000
OTHER
1070
     0
1002
}
1002
{
1000
REACTOR
1002
}
1001
GENIUS_GENOBJ-N-REC_13
1002
{
1000
OWNER
1000
GEN
1002
}
  0
LINE
  5
81F
330
1F
100
AcDbEntity
  8
0
100
AcDbLine
 10
16.99999941195887
 20
117.6249997180589
 30
0.0
 11
16.99999941195887
 21
116.124999718059
 31
0.0
1001
GENIUS_GENREC_14
1002
{
1000
PYDIR
1011
16.99999941195887
1021
117.6249997180589
1031
0.0
1002
}
1002
{
1000
PXDIR
1011
20.49999941195887
1021
116.124999718059
1031
0.0
1002
}
1002
{
1000
PORI
1011
16.99999941195887
1021
116.124999718059
1031
0.0
1002
}
1002
{
1000
PINS
1011
16.99999941195887
1021
116.124999718059
1031
0.0
1002
}
1002
{
1000
PINS2
1011
20.49999941195887
1021
117.6249997180589
1031
0.0
1002
}
1002
{
1000
C
1070
     1
1002
}
1001
GENIUS_GENODEF_13
1002
{
1000
HIER
1070
     0
1002
}
1002
{
1000
MANEDIT
1070
     0
1002
}
1002
{
1000
NOSEL
1070
     0
1002
}
1002
{
1000
BEHIND
1070
     0
1002
}
1002
{
1000
OTHER
1070
     0
1002
}
1002
{
1000
REACTOR
1002
}
1001
GENIUS_GENOBJ-N-REC_13
1002
{
1000
OWNER
1000
GEN
1002
}
  0
LINE
  5
820
330
1F
100
AcDbEntity
  8
0
100
AcDbLine
 10
3.549999411958849
 20
100.4749997180589
 30
0.0
 11
90.44999941195907
 21
100.4749997180589
 31
0.0
1001
GENIUS_GENOBJ-N-CEN_13
1002
{
1000
OWNER
1000
GEN
1002
}
1001
GENIUS_GENODEF_13
1002
{
1000
HIER
1070
     0
1002
}
1002
{
1000
MANEDIT
1070
     0
1002
}
1002
{
1000
NOSEL
1070
     0
1002
}
1002
{
1000
BEHIND
1070
     0
1002
}
1002
{
1000
OTHER
1070
     0
1002
}
1002
{
1000
REACTOR
1002
}
1001
GENIUS_GENCEN_19
1002
{
1040
2.793999999999999
1002
}
  0
LINE
  5
821
330
1F
100
AcDbEntity
  8
0
100
AcDbLine
 10
3.549999411958849
 20
93.47499971805893
 30
0.0
 11
90.44999941195907
 21
93.47499971805893
 31
0.0
1001
GENIUS_GENOBJ-N-CEN_13
1002
{
1000
OWNER
1000
GEN
1002
}
1001
GENIUS_GENODEF_13
1002
{
1000
HIER
1070
     0
1002
}
1002
{
1000
MANEDIT
1070
     0
1002
}
1002
{
1000
NOSEL
1070
     0
1002
}
1002
{
1000
BEHIND
1070
     0
1002
}
1002
{
1000
OTHER
1070
     0
1002
}
1002
{
1000
REACTOR
1002
}
1001
GENIUS_GENCEN_19
1002
{
1040
2.793999999999999
1002
}
  0
LINE
  5
822
330
1F
100
AcDbEntity
  8
0
100
AcDbLine
 10
73.99999941195885
 20
123.624999718059
 30
0.0
 11
73.99999941195885
 21
122.1249997180589
 31
0.0
  0
LINE
  5
823
330
1F
100
AcDbEntity
  8
0
100
AcDbLine
 10
76.99999941195888
 20
123.624999718059
 30
0.0
 11
76.99999941195888
 21
122.1249997180589
 31
0.0
  0
LINE
  5
824
330
1F
100
AcDbEntity
  8
0
100
AcDbLine
 10
76.99999941195888
 20
122.1249997180589
 30
0.0
 11
73.99999941195885
 21
122.1249997180589
 31
0.0
  0
LINE
  5
825
330
1F
100
AcDbEntity
  8
0
100
AcDbLine
 10
76.99999941195888
 20
123.624999718059
 30
0.0
 11
73.99999941195885
 21
123.624999718059
 31
0.0
  0
LINE
  5
826
330
1F
100
AcDbEntity
  8
0
100
AcDbLine
 10
73.99999941195885
 20
122.1249997180589
 30
0.0
 11
76.99999941195888
 21
122.1249997180589
 31
0.0
1001
GENIUS_GENREC_14
1002
{
1000
PYDIR
1011
73.99999941195885
1021
123.374999718059
1031
0.0
1002
}
1002
{
1000
PXDIR
1011
76.99999941195888
1021
122.1249997180589
1031
0.0
1002
}
1002
{
1000
PORI
1011
73.99999941195885
1021
122.1249997180589
1031
0.0
1002
}
1002
{
1000
PINS
1011
73.99999941195885
1021
122.1249997180589
1031
0.0
1002
}
1002
{
1000
PINS2
1011
76.99999941195888
1021
123.374999718059
1031
0.0
1002
}
1002
{
1000
C
1070
     1
1002
}
1001
GENIUS_GENODEF_13
1002
{
1000
HIER
1070
     0
1002
}
1002
{
1000
MANEDIT
1070
     0
1002
}
1002
{
1000
NOSEL
1070
     0
1002
}
1002
{
1000
BEHIND
1070
     0
1002
}
1002
{
1000
OTHER
1070
     0
1002
}
1002
{
1000
REACTOR
1002
}
1001
GENIUS_GENOBJ-N-REC_13
1002
{
1000
OWNER
1000
GEN
1002
}
  0
LINE
  5
827
330
1F
100
AcDbEntity
  8
0
100
AcDbLine
 10
76.99999941195888
 20
122.1249997180589
 30
0.0
 11
76.99999941195888
 21
123.624999718059
 31
0.0
1001
GENIUS_GENREC_14
1002
{
1000
PYDIR
1011
73.49999941195886
1021
123.624999718059
1031
0.0
1002
}
1002
{
1000
PXDIR
1011
76.99999941195888
1021
122.1249997180589
1031
0.0
1002
}
1002
{
1000
PORI
1011
73.49999941195886
1021
122.1249997180589
1031
0.0
1002
}
1002
{
1000
PINS
1011
73.49999941195886
1021
122.1249997180589
1031
0.0
1002
}
1002
{
1000
PINS2
1011
76.99999941195888
1021
123.624999718059
1031
0.0
1002
}
1002
{
1000
C
1070
     1
1002
}
1001
GENIUS_GENODEF_13
1002
{
1000
HIER
1070
     0
1002
}
1002
{
1000
MANEDIT
1070
     0
1002
}
1002
{
1000
NOSEL
1070
     0
1002
}
1002
{
1000
BEHIND
1070
     0
1002
}
1002
{
1000
OTHER
1070
     0
1002
}
1002
{
1000
REACTOR
1002
}
1001
GENIUS_GENOBJ-N-REC_13
1002
{
1000
OWNER
1000
GEN
1002
}
  0
LINE
  5
828
330
1F
100
AcDbEntity
  8
0
100
AcDbLine
 10
76.99999941195888
 20
123.624999718059
 30
0.0
 11
73.99999941195885
 21
123.624999718059
 31
0.0
1001
GENIUS_GENREC_14
1002
{
1000
PYDIR
1011
73.99999941195885
1021
123.624999718059
1031
0.0
1002
}
1002
{
1000
PXDIR
1011
76.99999941195888
1021
122.374999718059
1031
0.0
1002
}
1002
{
1000
PORI
1011
73.99999941195885
1021
122.374999718059
1031
0.0
1002
}
1002
{
1000
PINS
1011
73.99999941195885
1021
122.374999718059
1031
0.0
1002
}
1002
{
1000
PINS2
1011
76.99999941195888
1021
123.624999718059
1031
0.0
1002
}
1002
{
1000
C
1070
     1
1002
}
1001
GENIUS_GENODEF_13
1002
{
1000
HIER
1070
     0
1002
}
1002
{
1000
MANEDIT
1070
     0
1002
}
1002
{
1000
NOSEL
1070
     0
1002
}
1002
{
1000
BEHIND
1070
     0
1002
}
1002
{
1000
OTHER
1070
     0
1002
}
1002
{
1000
REACTOR
1002
}
1001
GENIUS_GENOBJ-N-REC_13
1002
{
1000
OWNER
1000
GEN
1002
}
  0
LINE
  5
829
330
1F
100
AcDbEntity
  8
0
100
AcDbLine
 10
73.99999941195885
 20
123.624999718059
 30
0.0
 11
73.99999941195885
 21
122.1249997180589
 31
0.0
1001
GENIUS_GENREC_14
1002
{
1000
PYDIR
1011
73.99999941195885
1021
123.624999718059
1031
0.0
1002
}
1002
{
1000
PXDIR
1011
77.49999941195888
1021
122.1249997180589
1031
0.0
1002
}
1002
{
1000
PORI
1011
73.99999941195885
1021
122.1249997180589
1031
0.0
1002
}
1002
{
1000
PINS
1011
73.99999941195885
1021
122.1249997180589
1031
0.0
1002
}
1002
{
1000
PINS2
1011
77.49999941195888
1021
123.624999718059
1031
0.0
1002
}
1002
{
1000
C
1070
     1
1002
}
1001
GENIUS_GENODEF_13
1002
{
1000
HIER
1070
     0
1002
}
1002
{
1000
MANEDIT
1070
     0
1002
}
1002
{
1000
NOSEL
1070
     0
1002
}
1002
{
1000
BEHIND
1070
     0
1002
}
1002
{
1000
OTHER
1070
     0
1002
}
1002
{
1000
REACTOR
1002
}
1001
GENIUS_GENOBJ-N-REC_13
1002
{
1000
OWNER
1000
GEN
1002
}
  0
LINE
  5
82A
330
1F
100
AcDbEntity
  8
0
100
AcDbLine
 10
73.99999941195885
 20
97.62499971805894
 30
0.0
 11
73.99999941195885
 21
96.12499971805894
 31
0.0
  0
LINE
  5
82B
330
1F
100
AcDbEntity
  8
0
100
AcDbLine
 10
76.99999941195888
 20
97.62499971805894
 30
0.0
 11
76.99999941195888
 21
96.12499971805894
 31
0.0
  0
LINE
  5
82C
330
1F
100
AcDbEntity
  8
0
100
AcDbLine
 10
76.99999941195888
 20
96.12499971805894
 30
0.0
 11
73.99999941195885
 21
96.12499971805894
 31
0.0
  0
LINE
  5
82D
330
1F
100
AcDbEntity
  8
0
100
AcDbLine
 10
76.99999941195888
 20
97.62499971805894
 30
0.0
 11
73.99999941195885
 21
97.62499971805894
 31
0.0
  0
LINE
  5
82E
330
1F
100
AcDbEntity
  8
0
100
AcDbLine
 10
73.99999941195885
 20
96.12499971805894
 30
0.0
 11
76.99999941195888
 21
96.12499971805894
 31
0.0
1001
GENIUS_GENREC_14
1002
{
1000
PYDIR
1011
73.99999941195885
1021
97.37499971805894
1031
0.0
1002
}
1002
{
1000
PXDIR
1011
76.99999941195888
1021
96.12499971805894
1031
0.0
1002
}
1002
{
1000
PORI
1011
73.99999941195885
1021
96.12499971805894
1031
0.0
1002
}
1002
{
1000
PINS
1011
73.99999941195885
1021
96.12499971805894
1031
0.0
1002
}
1002
{
1000
PINS2
1011
76.99999941195888
1021
97.37499971805894
1031
0.0
1002
}
1002
{
1000
C
1070
     1
1002
}
1001
GENIUS_GENODEF_13
1002
{
1000
HIER
1070
     0
1002
}
1002
{
1000
MANEDIT
1070
     0
1002
}
1002
{
1000
NOSEL
1070
     0
1002
}
1002
{
1000
BEHIND
1070
     0
1002
}
1002
{
1000
OTHER
1070
     0
1002
}
1002
{
1000
REACTOR
1002
}
1001
GENIUS_GENOBJ-N-REC_13
1002
{
1000
OWNER
1000
GEN
1002
}
  0
LINE
  5
82F
330
1F
100
AcDbEntity
  8
0
100
AcDbLine
 10
76.99999941195888
 20
96.12499971805894
 30
0.0
 11
76.99999941195888
 21
97.62499971805894
 31
0.0
1001
GENIUS_GENREC_14
1002
{
1000
PYDIR
1011
73.49999941195886
1021
97.62499971805894
1031
0.0
1002
}
1002
{
1000
PXDIR
1011
76.99999941195888
1021
96.12499971805894
1031
0.0
1002
}
1002
{
1000
PORI
1011
73.49999941195886
1021
96.12499971805894
1031
0.0
1002
}
1002
{
1000
PINS
1011
73.49999941195886
1021
96.12499971805894
1031
0.0
1002
}
1002
{
1000
PINS2
1011
76.99999941195888
1021
97.62499971805894
1031
0.0
1002
}
1002
{
1000
C
1070
     1
1002
}
1001
GENIUS_GENODEF_13
1002
{
1000
HIER
1070
     0
1002
}
1002
{
1000
MANEDIT
1070
     0
1002
}
1002
{
1000
NOSEL
1070
     0
1002
}
1002
{
1000
BEHIND
1070
     0
1002
}
1002
{
1000
OTHER
1070
     0
1002
}
1002
{
1000
REACTOR
1002
}
1001
GENIUS_GENOBJ-N-REC_13
1002
{
1000
OWNER
1000
GEN
1002
}
  0
LINE
  5
830
330
1F
100
AcDbEntity
  8
0
100
AcDbLine
 10
76.99999941195888
 20
97.62499971805894
 30
0.0
 11
73.99999941195885
 21
97.62499971805894
 31
0.0
1001
GENIUS_GENREC_14
1002
{
1000
PYDIR
1011
73.99999941195885
1021
97.62499971805894
1031
0.0
1002
}
1002
{
1000
PXDIR
1011
76.99999941195888
1021
96.37499971805894
1031
0.0
1002
}
1002
{
1000
PORI
1011
73.99999941195885
1021
96.37499971805894
1031
0.0
1002
}
1002
{
1000
PINS
1011
73.99999941195885
1021
96.37499971805894
1031
0.0
1002
}
1002
{
1000
PINS2
1011
76.99999941195888
1021
97.62499971805894
1031
0.0
1002
}
1002
{
1000
C
1070
     1
1002
}
1001
GENIUS_GENODEF_13
1002
{
1000
HIER
1070
     0
1002
}
1002
{
1000
MANEDIT
1070
     0
1002
}
1002
{
1000
NOSEL
1070
     0
1002
}
1002
{
1000
BEHIND
1070
     0
1002
}
1002
{
1000
OTHER
1070
     0
1002
}
1002
{
1000
REACTOR
1002
}
1001
GENIUS_GENOBJ-N-REC_13
1002
{
1000
OWNER
1000
GEN
1002
}
  0
LINE
  5
831
330
1F
100
AcDbEntity
  8
0
100
AcDbLine
 10
90.44999941195907
 20
134.324999718059
 30
0.0
 11
3.549999411958821
 21
134.3249997180589
 31
0.0
  0
LINE
  5
832
330
1F
100
AcDbEntity
  8
0
100
AcDbLine
 10
90.44999941195907
 20
133.324999718059
 30
0.0
 11
3.549999411958821
 21
133.3249997180589
 31
0.0
  0
LINE
  5
833
330
1F
100
AcDbEntity
  8
0
100
AcDbLine
 10
90.44999941195907
 20
132.324999718059
 30
0.0
 11
3.549999411958821
 21
132.3249997180589
 31
0.0
  0
LINE
  5
834
330
1F
100
AcDbEntity
  8
0
100
AcDbLine
 10
90.44999941195907
 20
131.324999718059
 30
0.0
 11
3.549999411958821
 21
131.3249997180589
 31
0.0
  0
LINE
  5
835
330
1F
100
AcDbEntity
  8
0
100
AcDbLine
 10
90.44999941195907
 20
130.324999718059
 30
0.0
 11
3.549999411958821
 21
130.3249997180589
 31
0.0
  0
LINE
  5
836
330
1F
100
AcDbEntity
  8
0
100
AcDbLine
 10
90.44999941195907
 20
129.324999718059
 30
0.0
 11
3.549999411958821
 21
129.3249997180589
 31
0.0
  0
LINE
  5
837
330
1F
100
AcDbEntity
  8
0
100
AcDbLine
 10
90.44999941195907
 20
128.324999718059
 30
0.0
 11
3.549999411958821
 21
128.3249997180589
 31
0.0
  0
LINE
  5
838
330
1F
100
AcDbEntity
  8
0
100
AcDbLine
 10
90.44999941195907
 20
127.324999718059
 30
0.0
 11
3.549999411958821
 21
127.3249997180589
 31
0.0
  0
LINE
  5
839
330
1F
100
AcDbEntity
  8
0
100
AcDbLine
 10
90.44999941195907
 20
126.324999718059
 30
0.0
 11
3.549999411958821
 21
126.3249997180589
 31
0.0
  0
LINE
  5
83C
330
1F
100
AcDbEntity
  8
0
100
AcDbLine
 10
78.99999941195885
 20
124.3749997180589
 30
0.0
 11
78.99999941195885
 21
121.374999718059
 31
0.0
1001
GENIUS_GENOBJ-N-CEN_13
1002
{
1000
OWNER
1000
GEN
1002
}
1001
GENIUS_GENODEF_13
1002
{
1000
HIER
1070
     0
1002
}
1002
{
1000
MANEDIT
1070
     0
1002
}
1002
{
1000
NOSEL
1070
     0
1002
}
1002
{
1000
BEHIND
1070
     0
1002
}
1002
{
1000
OTHER
1070
     0
1002
}
1002
{
1000
REACTOR
1002
}
1001
GENIUS_GENCEN_19
1002
{
1040
2.793999999999999
1002
}
  0
LINE
  5
83D
330
1F
100
AcDbEntity
  8
0
100
AcDbLine
 10
71.99999941195888
 20
124.374999718059
 30
0.0
 11
71.99999941195888
 21
121.374999718059
 31
0.0
1001
GENIUS_GENOBJ-N-CEN_13
1002
{
1000
OWNER
1000
GEN
1002
}
1001
GENIUS_GENODEF_13
1002
{
1000
HIER
1070
     0
1002
}
1002
{
1000
MANEDIT
1070
     0
1002
}
1002
{
1000
NOSEL
1070
     0
1002
}
1002
{
1000
BEHIND
1070
     0
1002
}
1002
{
1000
OTHER
1070
     0
1002
}
1002
{
1000
REACTOR
1002
}
1001
GENIUS_GENCEN_19
1002
{
1040
2.793999999999999
1002
}
  0
LINE
  5
83E
330
1F
100
AcDbEntity
  8
0
100
AcDbLine
 10
71.99999941195888
 20
121.374999718059
 30
0.0
 11
78.99999941195885
 21
121.374999718059
 31
0.0
1001
GENIUS_GENREC_14
1002
{
1000
PYDIR
1011
71.99987046159705
1021
124.3749997180589
1031
0.0
1002
}
1002
{
1000
PXDIR
1011
78.99987046159703
1021
121.374999718059
1031
0.0
1002
}
1002
{
1000
PORI
1011
71.99987046159705
1021
121.374999718059
1031
0.0
1002
}
1002
{
1000
PINS
1011
71.99987046159705
1021
121.374999718059
1031
0.0
1002
}
1002
{
1000
PINS2
1011
78.99987046159703
1021
124.3749997180589
1031
0.0
1002
}
1002
{
1000
C
1070
     1
1002
}
1001
GENIUS_GENODEF_13
1002
{
1000
HIER
1070
     0
1002
}
1002
{
1000
MANEDIT
1070
     0
1002
}
1002
{
1000
NOSEL
1070
     0
1002
}
1002
{
1000
BEHIND
1070
     0
1002
}
1002
{
1000
OTHER
1070
     0
1002
}
1002
{
1000
REACTOR
1002
}
1001
GENIUS_GENOBJ-N-REC_13
1002
{
1000
OWNER
1000
GEN
1002
}
  0
LINE
  5
83F
330
1F
100
AcDbEntity
  8
0
100
AcDbLine
 10
78.99999941195885
 20
124.3749997180589
 30
0.0
 11
71.99999941195888
 21
124.374999718059
 31
0.0
1001
GENIUS_GENREC_14
1002
{
1000
PYDIR
1011
71.99987046159705
1021
124.3749997180589
1031
0.0
1002
}
1002
{
1000
PXDIR
1011
78.99987046159703
1021
121.374999718059
1031
0.0
1002
}
1002
{
1000
PORI
1011
71.99987046159705
1021
121.374999718059
1031
0.0
1002
}
1002
{
1000
PINS
1011
71.99987046159705
1021
121.374999718059
1031
0.0
1002
}
1002
{
1000
PINS2
1011
78.99987046159703
1021
124.3749997180589
1031
0.0
1002
}
1002
{
1000
C
1070
     1
1002
}
1001
GENIUS_GENODEF_13
1002
{
1000
HIER
1070
     0
1002
}
1002
{
1000
MANEDIT
1070
     0
1002
}
1002
{
1000
NOSEL
1070
     0
1002
}
1002
{
1000
BEHIND
1070
     0
1002
}
1002
{
1000
OTHER
1070
     0
1002
}
1002
{
1000
REACTOR
1002
}
1001
GENIUS_GENOBJ-N-REC_13
1002
{
1000
OWNER
1000
GEN
1002
}
  0
LINE
  5
840
330
1F
100
AcDbEntity
  8
0
100
AcDbLine
 10
16.99999941195887
 20
97.62499971805894
 30
0.0
 11
16.99999941195887
 21
96.12499971805894
 31
0.0
  0
LINE
  5
841
330
1F
100
AcDbEntity
  8
0
100
AcDbLine
 10
19.99999941195887
 20
97.62499971805894
 30
0.0
 11
19.99999941195887
 21
96.12499971805894
 31
0.0
  0
LINE
  5
842
330
1F
100
AcDbEntity
  8
0
100
AcDbLine
 10
19.99999941195887
 20
96.12499971805894
 30
0.0
 11
16.99999941195887
 21
96.12499971805894
 31
0.0
  0
LINE
  5
843
330
1F
100
AcDbEntity
  8
0
100
AcDbLine
 10
19.99999941195887
 20
97.62499971805894
 30
0.0
 11
16.99999941195887
 21
97.62499971805894
 31
0.0
  0
LINE
  5
844
330
1F
100
AcDbEntity
  8
0
100
AcDbLine
 10
16.99999941195887
 20
96.12499971805894
 30
0.0
 11
19.99999941195887
 21
96.12499971805894
 31
0.0
1001
GENIUS_GENREC_14
1002
{
1000
PYDIR
1011
16.99999941195887
1021
97.37499971805894
1031
0.0
1002
}
1002
{
1000
PXDIR
1011
19.99999941195887
1021
96.12499971805894
1031
0.0
1002
}
1002
{
1000
PORI
1011
16.99999941195887
1021
96.12499971805894
1031
0.0
1002
}
1002
{
1000
PINS
1011
16.99999941195887
1021
96.12499971805894
1031
0.0
1002
}
1002
{
1000
PINS2
1011
19.99999941195887
1021
97.37499971805894
1031
0.0
1002
}
1002
{
1000
C
1070
     1
1002
}
1001
GENIUS_GENODEF_13
1002
{
1000
HIER
1070
     0
1002
}
1002
{
1000
MANEDIT
1070
     0
1002
}
1002
{
1000
NOSEL
1070
     0
1002
}
1002
{
1000
BEHIND
1070
     0
1002
}
1002
{
1000
OTHER
1070
     0
1002
}
1002
{
1000
REACTOR
1002
}
1001
GENIUS_GENOBJ-N-REC_13
1002
{
1000
OWNER
1000
GEN
1002
}
  0
LINE
  5
845
330
1F
100
AcDbEntity
  8
0
100
AcDbLine
 10
19.99999941195887
 20
96.12499971805894
 30
0.0
 11
19.99999941195887
 21
97.62499971805894
 31
0.0
1001
GENIUS_GENREC_14
1002
{
1000
PYDIR
1011
16.49999941195886
1021
97.62499971805894
1031
0.0
1002
}
1002
{
1000
PXDIR
1011
19.99999941195887
1021
96.12499971805894
1031
0.0
1002
}
1002
{
1000
PORI
1011
16.49999941195886
1021
96.12499971805894
1031
0.0
1002
}
1002
{
1000
PINS
1011
16.49999941195886
1021
96.12499971805894
1031
0.0
1002
}
1002
{
1000
PINS2
1011
19.99999941195887
1021
97.62499971805894
1031
0.0
1002
}
1002
{
1000
C
1070
     1
1002
}
1001
GENIUS_GENODEF_13
1002
{
1000
HIER
1070
     0
1002
}
1002
{
1000
MANEDIT
1070
     0
1002
}
1002
{
1000
NOSEL
1070
     0
1002
}
1002
{
1000
BEHIND
1070
     0
1002
}
1002
{
1000
OTHER
1070
     0
1002
}
1002
{
1000
REACTOR
1002
}
1001
GENIUS_GENOBJ-N-REC_13
1002
{
1000
OWNER
1000
GEN
1002
}
  0
LINE
  5
846
330
1F
100
AcDbEntity
  8
0
100
AcDbLine
 10
19.99999941195887
 20
97.62499971805894
 30
0.0
 11
16.99999941195887
 21
97.62499971805894
 31
0.0
1001
GENIUS_GENREC_14
1002
{
1000
PYDIR
1011
16.99999941195887
1021
97.62499971805894
1031
0.0
1002
}
1002
{
1000
PXDIR
1011
19.99999941195887
1021
96.37499971805894
1031
0.0
1002
}
1002
{
1000
PORI
1011
16.99999941195887
1021
96.37499971805894
1031
0.0
1002
}
1002
{
1000
PINS
1011
16.99999941195887
1021
96.37499971805894
1031
0.0
1002
}
1002
{
1000
PINS2
1011
19.99999941195887
1021
97.62499971805894
1031
0.0
1002
}
1002
{
1000
C
1070
     1
1002
}
1001
GENIUS_GENODEF_13
1002
{
1000
HIER
1070
     0
1002
}
1002
{
1000
MANEDIT
1070
     0
1002
}
1002
{
1000
NOSEL
1070
     0
1002
}
1002
{
1000
BEHIND
1070
     0
1002
}
1002
{
1000
OTHER
1070
     0
1002
}
1002
{
1000
REACTOR
1002
}
1001
GENIUS_GENOBJ-N-REC_13
1002
{
1000
OWNER
1000
GEN
1002
}
  0
LINE
  5
847
330
1F
100
AcDbEntity
  8
0
100
AcDbLine
 10
16.99999941195887
 20
97.62499971805894
 30
0.0
 11
16.99999941195887
 21
96.12499971805894
 31
0.0
1001
GENIUS_GENREC_14
1002
{
1000
PYDIR
1011
16.99999941195887
1021
97.62499971805894
1031
0.0
1002
}
1002
{
1000
PXDIR
1011
20.49999941195887
1021
96.12499971805894
1031
0.0
1002
}
1002
{
1000
PORI
1011
16.99999941195887
1021
96.12499971805894
1031
0.0
1002
}
1002
{
1000
PINS
1011
16.99999941195887
1021
96.12499971805894
1031
0.0
1002
}
1002
{
1000
PINS2
1011
20.49999941195887
1021
97.62499971805894
1031
0.0
1002
}
1002
{
1000
C
1070
     1
1002
}
1001
GENIUS_GENODEF_13
1002
{
1000
HIER
1070
     0
1002
}
1002
{
1000
MANEDIT
1070
     0
1002
}
1002
{
1000
NOSEL
1070
     0
1002
}
1002
{
1000
BEHIND
1070
     0
1002
}
1002
{
1000
OTHER
1070
     0
1002
}
1002
{
1000
REACTOR
1002
}
1001
GENIUS_GENOBJ-N-REC_13
1002
{
1000
OWNER
1000
GEN
1002
}
  0
LINE
  5
848
330
1F
100
AcDbEntity
  8
0
100
AcDbLine
 10
15.74999941195888
 20
124.374999718059
 30
0.0
 11
15.74999941195887
 21
121.374999718059
 31
0.0
1001
GENIUS_GENOBJ-N-CEN_13
1002
{
1000
OWNER
1000
GEN
1002
}
1001
GENIUS_GENODEF_13
1002
{
1000
HIER
1070
     0
1002
}
1002
{
1000
MANEDIT
1070
     0
1002
}
1002
{
1000
NOSEL
1070
     0
1002
}
1002
{
1000
BEHIND
1070
     0
1002
}
1002
{
1000
OTHER
1070
     0
1002
}
1002
{
1000
REACTOR
1002
}
1001
GENIUS_GENCEN_19
1002
{
1040
2.793999999999999
1002
}
  0
LINE
  5
849
330
1F
100
AcDbEntity
  8
0
100
AcDbLine
 10
15.74999941195887
 20
121.374999718059
 30
0.0
 11
21.24999941195884
 21
121.374999718059
 31
0.0
1001
GENIUS_GENREC_14
1002
{
1000
PYDIR
1011
15.74987046159705
1021
124.3749997180589
1031
0.0
1002
}
1002
{
1000
PXDIR
1011
21.24987046159701
1021
121.374999718059
1031
0.0
1002
}
1002
{
1000
PORI
1011
15.74987046159705
1021
121.374999718059
1031
0.0
1002
}
1002
{
1000
PINS
1011
15.74987046159705
1021
121.374999718059
1031
0.0
1002
}
1002
{
1000
PINS2
1011
21.24987046159701
1021
124.3749997180589
1031
0.0
1002
}
1002
{
1000
C
1070
     1
1002
}
1001
GENIUS_GENODEF_13
1002
{
1000
HIER
1070
     0
1002
}
1002
{
1000
MANEDIT
1070
     0
1002
}
1002
{
1000
NOSEL
1070
     0
1002
}
1002
{
1000
BEHIND
1070
     0
1002
}
1002
{
1000
OTHER
1070
     0
1002
}
1002
{
1000
REACTOR
1002
}
1001
GENIUS_GENOBJ-N-REC_13
1002
{
1000
OWNER
1000
GEN
1002
}
  0
LINE
  5
84A
330
1F
100
AcDbEntity
  8
0
100
AcDbLine
 10
21.24999941195884
 20
124.3749997180589
 30
0.0
 11
15.74999941195888
 21
124.374999718059
 31
0.0
1001
GENIUS_GENREC_14
1002
{
1000
PYDIR
1011
15.74987046159705
1021
124.3749997180589
1031
0.0
1002
}
1002
{
1000
PXDIR
1011
21.24987046159701
1021
121.374999718059
1031
0.0
1002
}
1002
{
1000
PORI
1011
15.74987046159705
1021
121.374999718059
1031
0.0
1002
}
1002
{
1000
PINS
1011
15.74987046159705
1021
121.374999718059
1031
0.0
1002
}
1002
{
1000
PINS2
1011
21.24987046159701
1021
124.3749997180589
1031
0.0
1002
}
1002
{
1000
C
1070
     1
1002
}
1001
GENIUS_GENODEF_13
1002
{
1000
HIER
1070
     0
1002
}
1002
{
1000
MANEDIT
1070
     0
1002
}
1002
{
1000
NOSEL
1070
     0
1002
}
1002
{
1000
BEHIND
1070
     0
1002
}
1002
{
1000
OTHER
1070
     0
1002
}
1002
{
1000
REACTOR
1002
}
1001
GENIUS_GENOBJ-N-REC_13
1002
{
1000
OWNER
1000
GEN
1002
}
  0
LINE
  5
84B
330
1F
100
AcDbEntity
  8
0
100
AcDbLine
 10
15.74999941195888
 20
118.374999718059
 30
0.0
 11
15.74999941195887
 21
115.374999718059
 31
0.0
1001
GENIUS_GENOBJ-N-CEN_13
1002
{
1000
OWNER
1000
GEN
1002
}
1001
GENIUS_GENODEF_13
1002
{
1000
HIER
1070
     0
1002
}
1002
{
1000
MANEDIT
1070
     0
1002
}
1002
{
1000
NOSEL
1070
     0
1002
}
1002
{
1000
BEHIND
1070
     0
1002
}
1002
{
1000
OTHER
1070
     0
1002
}
1002
{
1000
REACTOR
1002
}
1001
GENIUS_GENCEN_19
1002
{
1040
2.793999999999999
1002
}
  0
LINE
  5
84C
330
1F
100
AcDbEntity
  8
0
100
AcDbLine
 10
15.74999941195887
 20
115.374999718059
 30
0.0
 11
21.24999941195884
 21
115.374999718059
 31
0.0
1001
GENIUS_GENREC_14
1002
{
1000
PYDIR
1011
15.74987046159705
1021
118.3749997180589
1031
0.0
1002
}
1002
{
1000
PXDIR
1011
21.24987046159701
1021
115.374999718059
1031
0.0
1002
}
1002
{
1000
PORI
1011
15.74987046159705
1021
115.374999718059
1031
0.0
1002
}
1002
{
1000
PINS
1011
15.74987046159705
1021
115.374999718059
1031
0.0
1002
}
1002
{
1000
PINS2
1011
21.24987046159701
1021
118.3749997180589
1031
0.0
1002
}
1002
{
1000
C
1070
     1
1002
}
1001
GENIUS_GENODEF_13
1002
{
1000
HIER
1070
     0
1002
}
1002
{
1000
MANEDIT
1070
     0
1002
}
1002
{
1000
NOSEL
1070
     0
1002
}
1002
{
1000
BEHIND
1070
     0
1002
}
1002
{
1000
OTHER
1070
     0
1002
}
1002
{
1000
REACTOR
1002
}
1001
GENIUS_GENOBJ-N-REC_13
1002
{
1000
OWNER
1000
GEN
1002
}
  0
LINE
  5
84D
330
1F
100
AcDbEntity
  8
0
100
AcDbLine
 10
21.24999941195884
 20
118.3749997180589
 30
0.0
 11
15.74999941195888
 21
118.374999718059
 31
0.0
1001
GENIUS_GENREC_14
1002
{
1000
PYDIR
1011
15.74987046159705
1021
118.3749997180589
1031
0.0
1002
}
1002
{
1000
PXDIR
1011
21.24987046159701
1021
115.374999718059
1031
0.0
1002
}
1002
{
1000
PORI
1011
15.74987046159705
1021
115.374999718059
1031
0.0
1002
}
1002
{
1000
PINS
1011
15.74987046159705
1021
115.374999718059
1031
0.0
1002
}
1002
{
1000
PINS2
1011
21.24987046159701
1021
118.3749997180589
1031
0.0
1002
}
1002
{
1000
C
1070
     1
1002
}
1001
GENIUS_GENODEF_13
1002
{
1000
HIER
1070
     0
1002
}
1002
{
1000
MANEDIT
1070
     0
1002
}
1002
{
1000
NOSEL
1070
     0
1002
}
1002
{
1000
BEHIND
1070
     0
1002
}
1002
{
1000
OTHER
1070
     0
1002
}
1002
{
1000
REACTOR
1002
}
1001
GENIUS_GENOBJ-N-REC_13
1002
{
1000
OWNER
1000
GEN
1002
}
  0
LINE
  5
84E
330
1F
100
AcDbEntity
  8
0
100
AcDbLine
 10
15.74999941195888
 20
112.374999718059
 30
0.0
 11
15.74999941195887
 21
109.3749997180589
 31
0.0
1001
GENIUS_GENOBJ-N-CEN_13
1002
{
1000
OWNER
1000
GEN
1002
}
1001
GENIUS_GENODEF_13
1002
{
1000
HIER
1070
     0
1002
}
1002
{
1000
MANEDIT
1070
     0
1002
}
1002
{
1000
NOSEL
1070
     0
1002
}
1002
{
1000
BEHIND
1070
     0
1002
}
1002
{
1000
OTHER
1070
     0
1002
}
1002
{
1000
REACTOR
1002
}
1001
GENIUS_GENCEN_19
1002
{
1040
2.793999999999999
1002
}
  0
LINE
  5
84F
330
1F
100
AcDbEntity
  8
0
100
AcDbLine
 10
15.74999941195887
 20
109.3749997180589
 30
0.0
 11
21.24999941195884
 21
109.3749997180589
 31
0.0
1001
GENIUS_GENREC_14
1002
{
1000
PYDIR
1011
15.74987046159705
1021
112.3749997180589
1031
0.0
1002
}
1002
{
1000
PXDIR
1011
21.24987046159701
1021
109.3749997180589
1031
0.0
1002
}
1002
{
1000
PORI
1011
15.74987046159705
1021
109.3749997180589
1031
0.0
1002
}
1002
{
1000
PINS
1011
15.74987046159705
1021
109.3749997180589
1031
0.0
1002
}
1002
{
1000
PINS2
1011
21.24987046159701
1021
112.3749997180589
1031
0.0
1002
}
1002
{
1000
C
1070
     1
1002
}
1001
GENIUS_GENODEF_13
1002
{
1000
HIER
1070
     0
1002
}
1002
{
1000
MANEDIT
1070
     0
1002
}
1002
{
1000
NOSEL
1070
     0
1002
}
1002
{
1000
BEHIND
1070
     0
1002
}
1002
{
1000
OTHER
1070
     0
1002
}
1002
{
1000
REACTOR
1002
}
1001
GENIUS_GENOBJ-N-REC_13
1002
{
1000
OWNER
1000
GEN
1002
}
  0
LINE
  5
850
330
1F
100
AcDbEntity
  8
0
100
AcDbLine
 10
21.24999941195884
 20
112.3749997180589
 30
0.0
 11
15.74999941195888
 21
112.374999718059
 31
0.0
1001
GENIUS_GENREC_14
1002
{
1000
PYDIR
1011
15.74987046159705
1021
112.3749997180589
1031
0.0
1002
}
1002
{
1000
PXDIR
1011
21.24987046159701
1021
109.3749997180589
1031
0.0
1002
}
1002
{
1000
PORI
1011
15.74987046159705
1021
109.3749997180589
1031
0.0
1002
}
1002
{
1000
PINS
1011
15.74987046159705
1021
109.3749997180589
1031
0.0
1002
}
1002
{
1000
PINS2
1011
21.24987046159701
1021
112.3749997180589
1031
0.0
1002
}
1002
{
1000
C
1070
     1
1002
}
1001
GENIUS_GENODEF_13
1002
{
1000
HIER
1070
     0
1002
}
1002
{
1000
MANEDIT
1070
     0
1002
}
1002
{
1000
NOSEL
1070
     0
1002
}
1002
{
1000
BEHIND
1070
     0
1002
}
1002
{
1000
OTHER
1070
     0
1002
}
1002
{
1000
REACTOR
1002
}
1001
GENIUS_GENOBJ-N-REC_13
1002
{
1000
OWNER
1000
GEN
1002
}
  0
LINE
  5
851
330
1F
100
AcDbEntity
  8
0
100
AcDbLine
 10
15.74999941195888
 20
106.3749997180589
 30
0.0
 11
15.74999941195887
 21
103.3749997180589
 31
0.0
1001
GENIUS_GENOBJ-N-CEN_13
1002
{
1000
OWNER
1000
GEN
1002
}
1001
GENIUS_GENODEF_13
1002
{
1000
HIER
1070
     0
1002
}
1002
{
1000
MANEDIT
1070
     0
1002
}
1002
{
1000
NOSEL
1070
     0
1002
}
1002
{
1000
BEHIND
1070
     0
1002
}
1002
{
1000
OTHER
1070
     0
1002
}
1002
{
1000
REACTOR
1002
}
1001
GENIUS_GENCEN_19
1002
{
1040
2.793999999999999
1002
}
  0
LINE
  5
852
330
1F
100
AcDbEntity
  8
0
100
AcDbLine
 10
15.74999941195887
 20
103.3749997180589
 30
0.0
 11
21.24999941195884
 21
103.3749997180589
 31
0.0
1001
GENIUS_GENREC_14
1002
{
1000
PYDIR
1011
15.74987046159705
1021
106.3749997180589
1031
0.0
1002
}
1002
{
1000
PXDIR
1011
21.24987046159701
1021
103.3749997180589
1031
0.0
1002
}
1002
{
1000
PORI
1011
15.74987046159705
1021
103.3749997180589
1031
0.0
1002
}
1002
{
1000
PINS
1011
15.74987046159705
1021
103.3749997180589
1031
0.0
1002
}
1002
{
1000
PINS2
1011
21.24987046159701
1021
106.3749997180589
1031
0.0
1002
}
1002
{
1000
C
1070
     1
1002
}
1001
GENIUS_GENODEF_13
1002
{
1000
HIER
1070
     0
1002
}
1002
{
1000
MANEDIT
1070
     0
1002
}
1002
{
1000
NOSEL
1070
     0
1002
}
1002
{
1000
BEHIND
1070
     0
1002
}
1002
{
1000
OTHER
1070
     0
1002
}
1002
{
1000
REACTOR
1002
}
1001
GENIUS_GENOBJ-N-REC_13
1002
{
1000
OWNER
1000
GEN
1002
}
  0
LINE
  5
853
330
1F
100
AcDbEntity
  8
0
100
AcDbLine
 10
21.24999941195884
 20
106.3749997180588
 30
0.0
 11
15.74999941195888
 21
106.3749997180589
 31
0.0
1001
GENIUS_GENREC_14
1002
{
1000
PYDIR
1011
15.74987046159705
1021
106.3749997180589
1031
0.0
1002
}
1002
{
1000
PXDIR
1011
21.24987046159701
1021
103.3749997180589
1031
0.0
1002
}
1002
{
1000
PORI
1011
15.74987046159705
1021
103.3749997180589
1031
0.0
1002
}
1002
{
1000
PINS
1011
15.74987046159705
1021
103.3749997180589
1031
0.0
1002
}
1002
{
1000
PINS2
1011
21.24987046159701
1021
106.3749997180589
1031
0.0
1002
}
1002
{
1000
C
1070
     1
1002
}
1001
GENIUS_GENODEF_13
1002
{
1000
HIER
1070
     0
1002
}
1002
{
1000
MANEDIT
1070
     0
1002
}
1002
{
1000
NOSEL
1070
     0
1002
}
1002
{
1000
BEHIND
1070
     0
1002
}
1002
{
1000
OTHER
1070
     0
1002
}
1002
{
1000
REACTOR
1002
}
1001
GENIUS_GENOBJ-N-REC_13
1002
{
1000
OWNER
1000
GEN
1002
}
  0
LINE
  5
854
330
1F
100
AcDbEntity
  8
0
100
AcDbLine
 10
21.24999941195884
 20
124.3749997180589
 30
0.0
 11
21.24999941195882
 21
121.3749997180588
 31
0.0
1001
GENIUS_GENOBJ-N-CEN_13
1002
{
1000
OWNER
1000
GEN
1002
}
1001
GENIUS_GENODEF_13
1002
{
1000
HIER
1070
     0
1002
}
1002
{
1000
MANEDIT
1070
     0
1002
}
1002
{
1000
NOSEL
1070
     0
1002
}
1002
{
1000
BEHIND
1070
     0
1002
}
1002
{
1000
OTHER
1070
     0
1002
}
1002
{
1000
REACTOR
1002
}
1001
GENIUS_GENCEN_19
1002
{
1040
2.793999999999999
1002
}
  0
LINE
  5
855
330
1F
100
AcDbEntity
  8
0
100
AcDbLine
 10
21.24999941195884
 20
118.3749997180589
 30
0.0
 11
21.24999941195882
 21
115.3749997180588
 31
0.0
1001
GENIUS_GENOBJ-N-CEN_13
1002
{
1000
OWNER
1000
GEN
1002
}
1001
GENIUS_GENODEF_13
1002
{
1000
HIER
1070
     0
1002
}
1002
{
1000
MANEDIT
1070
     0
1002
}
1002
{
1000
NOSEL
1070
     0
1002
}
1002
{
1000
BEHIND
1070
     0
1002
}
1002
{
1000
OTHER
1070
     0
1002
}
1002
{
1000
REACTOR
1002
}
1001
GENIUS_GENCEN_19
1002
{
1040
2.793999999999999
1002
}
  0
LINE
  5
856
330
1F
100
AcDbEntity
  8
0
100
AcDbLine
 10
21.24999941195884
 20
112.3749997180589
 30
0.0
 11
21.24999941195882
 21
109.3749997180588
 31
0.0
1001
GENIUS_GENOBJ-N-CEN_13
1002
{
1000
OWNER
1000
GEN
1002
}
1001
GENIUS_GENODEF_13
1002
{
1000
HIER
1070
     0
1002
}
1002
{
1000
MANEDIT
1070
     0
1002
}
1002
{
1000
NOSEL
1070
     0
1002
}
1002
{
1000
BEHIND
1070
     0
1002
}
1002
{
1000
OTHER
1070
     0
1002
}
1002
{
1000
REACTOR
1002
}
1001
GENIUS_GENCEN_19
1002
{
1040
2.793999999999999
1002
}
  0
LINE
  5
857
330
1F
100
AcDbEntity
  8
0
100
AcDbLine
 10
21.24999941195884
 20
106.3749997180588
 30
0.0
 11
21.24999941195882
 21
103.3749997180588
 31
0.0
1001
GENIUS_GENOBJ-N-CEN_13
1002
{
1000
OWNER
1000
GEN
1002
}
1001
GENIUS_GENODEF_13
1002
{
1000
HIER
1070
     0
1002
}
1002
{
1000
MANEDIT
1070
     0
1002
}
1002
{
1000
NOSEL
1070
     0
1002
}
1002
{
1000
BEHIND
1070
     0
1002
}
1002
{
1000
OTHER
1070
     0
1002
}
1002
{
1000
REACTOR
1002
}
1001
GENIUS_GENCEN_19
1002
{
1040
2.793999999999999
1002
}
  0
LINE
  5
858
330
1F
100
AcDbEntity
  8
0
100
AcDbLine
 10
90.44999941195907
 20
125.324999718059
 30
0.0
 11
3.549999411958821
 21
125.3249997180589
 31
0.0
  0
LINE
  5
859
330
1F
100
AcDbEntity
  8
0
100
AcDbLine
 10
90.44999941195907
 20
124.324999718059
 30
0.0
 11
78.99999941195885
 21
124.324999718059
 31
0.0
  0
LINE
  5
85A
330
1F
100
AcDbEntity
  8
0
100
AcDbLine
 10
71.99999941195888
 20
124.324999718059
 30
0.0
 11
21.24999941195884
 21
124.3249997180589
 31
0.0
  0
LINE
  5
85B
330
1F
100
AcDbEntity
  8
0
100
AcDbLine
 10
15.74999941195888
 20
124.3249997180589
 30
0.0
 11
3.549999411958821
 21
124.3249997180589
 31
0.0
  0
LINE
  5
85C
330
1F
100
AcDbEntity
  8
0
100
AcDbLine
 10
90.44999941195907
 20
123.324999718059
 30
0.0
 11
78.99999941195885
 21
123.324999718059
 31
0.0
  0
LINE
  5
85D
330
1F
100
AcDbEntity
  8
0
100
AcDbLine
 10
71.99999941195888
 20
123.324999718059
 30
0.0
 11
21.24999941195882
 21
123.324999718059
 31
0.0
  0
LINE
  5
85E
330
1F
100
AcDbEntity
  8
0
100
AcDbLine
 10
15.74999941195887
 20
123.3249997180589
 30
0.0
 11
3.549999411958821
 21
123.3249997180589
 31
0.0
  0
LINE
  5
85F
330
1F
100
AcDbEntity
  8
0
100
AcDbLine
 10
90.44999941195907
 20
122.324999718059
 30
0.0
 11
78.99999941195885
 21
122.324999718059
 31
0.0
  0
LINE
  5
860
330
1F
100
AcDbEntity
  8
0
100
AcDbLine
 10
71.99999941195888
 20
122.324999718059
 30
0.0
 11
21.24999941195884
 21
122.324999718059
 31
0.0
  0
LINE
  5
861
330
1F
100
AcDbEntity
  8
0
100
AcDbLine
 10
15.74999941195887
 20
122.3249997180589
 30
0.0
 11
3.549999411958821
 21
122.3249997180589
 31
0.0
  0
LINE
  5
862
330
1F
100
AcDbEntity
  8
0
100
AcDbLine
 10
90.44999941195907
 20
121.324999718059
 30
0.0
 11
3.549999411958821
 21
121.3249997180589
 31
0.0
  0
LINE
  5
863
330
1F
100
AcDbEntity
  8
0
100
AcDbLine
 10
90.44999941195907
 20
120.324999718059
 30
0.0
 11
3.549999411958821
 21
120.3249997180589
 31
0.0
  0
LINE
  5
864
330
1F
100
AcDbEntity
  8
0
100
AcDbLine
 10
90.44999941195907
 20
119.324999718059
 30
0.0
 11
3.549999411958821
 21
119.3249997180589
 31
0.0
  0
LINE
  5
865
330
1F
100
AcDbEntity
  8
0
100
AcDbLine
 10
90.44999941195907
 20
118.324999718059
 30
0.0
 11
21.24999941195884
 21
118.3249997180589
 31
0.0
  0
LINE
  5
866
330
1F
100
AcDbEntity
  8
0
100
AcDbLine
 10
15.74999941195888
 20
118.3249997180589
 30
0.0
 11
3.549999411958821
 21
118.3249997180589
 31
0.0
  0
LINE
  5
867
330
1F
100
AcDbEntity
  8
0
100
AcDbLine
 10
90.44999941195907
 20
117.324999718059
 30
0.0
 11
21.24999941195884
 21
117.3249997180589
 31
0.0
  0
LINE
  5
868
330
1F
100
AcDbEntity
  8
0
100
AcDbLine
 10
15.74999941195888
 20
117.3249997180589
 30
0.0
 11
3.549999411958821
 21
117.3249997180589
 31
0.0
  0
LINE
  5
869
330
1F
100
AcDbEntity
  8
0
100
AcDbLine
 10
90.44999941195907
 20
116.324999718059
 30
0.0
 11
21.24999941195882
 21
116.3249997180589
 31
0.0
  0
LINE
  5
86A
330
1F
100
AcDbEntity
  8
0
100
AcDbLine
 10
15.74999941195887
 20
116.3249997180589
 30
0.0
 11
3.549999411958821
 21
116.3249997180589
 31
0.0
  0
LINE
  5
86B
330
1F
100
AcDbEntity
  8
0
100
AcDbLine
 10
90.44999941195907
 20
115.324999718059
 30
0.0
 11
3.549999411958821
 21
115.3249997180589
 31
0.0
  0
LINE
  5
86C
330
1F
100
AcDbEntity
  8
0
100
AcDbLine
 10
90.44999941195907
 20
114.324999718059
 30
0.0
 11
3.549999411958821
 21
114.3249997180589
 31
0.0
  0
LINE
  5
86D
330
1F
100
AcDbEntity
  8
0
100
AcDbLine
 10
90.44999941195907
 20
113.324999718059
 30
0.0
 11
3.549999411958821
 21
113.3249997180589
 31
0.0
  0
LINE
  5
86E
330
1F
100
AcDbEntity
  8
0
100
AcDbLine
 10
90.44999941195907
 20
112.324999718059
 30
0.0
 11
21.24999941195884
 21
112.3249997180589
 31
0.0
  0
LINE
  5
86F
330
1F
100
AcDbEntity
  8
0
100
AcDbLine
 10
15.74999941195888
 20
112.3249997180589
 30
0.0
 11
3.549999411958821
 21
112.3249997180589
 31
0.0
  0
LINE
  5
870
330
1F
100
AcDbEntity
  8
0
100
AcDbLine
 10
90.44999941195907
 20
111.324999718059
 30
0.0
 11
21.24999941195884
 21
111.3249997180589
 31
0.0
  0
LINE
  5
871
330
1F
100
AcDbEntity
  8
0
100
AcDbLine
 10
15.74999941195888
 20
111.3249997180589
 30
0.0
 11
3.549999411958821
 21
111.3249997180589
 31
0.0
  0
LINE
  5
872
330
1F
100
AcDbEntity
  8
0
100
AcDbLine
 10
90.44999941195907
 20
110.324999718059
 30
0.0
 11
21.24999941195882
 21
110.3249997180589
 31
0.0
  0
LINE
  5
873
330
1F
100
AcDbEntity
  8
0
100
AcDbLine
 10
15.74999941195887
 20
110.3249997180589
 30
0.0
 11
3.549999411958821
 21
110.3249997180589
 31
0.0
  0
LINE
  5
874
330
1F
100
AcDbEntity
  8
0
100
AcDbLine
 10
90.44999941195907
 20
109.324999718059
 30
0.0
 11
3.549999411958821
 21
109.3249997180589
 31
0.0
  0
LINE
  5
875
330
1F
100
AcDbEntity
  8
0
100
AcDbLine
 10
90.44999941195907
 20
108.324999718059
 30
0.0
 11
3.549999411958821
 21
108.3249997180589
 31
0.0
  0
LINE
  5
876
330
1F
100
AcDbEntity
  8
0
100
AcDbLine
 10
90.44999941195907
 20
107.324999718059
 30
0.0
 11
3.549999411958821
 21
107.3249997180589
 31
0.0
  0
LINE
  5
877
330
1F
100
AcDbEntity
  8
0
100
AcDbLine
 10
90.44999941195907
 20
106.324999718059
 30
0.0
 11
21.24999941195884
 21
106.3249997180589
 31
0.0
  0
LINE
  5
878
330
1F
100
AcDbEntity
  8
0
100
AcDbLine
 10
15.74999941195888
 20
106.3249997180589
 30
0.0
 11
3.549999411958821
 21
106.3249997180589
 31
0.0
  0
LINE
  5
879
330
1F
100
AcDbEntity
  8
0
100
AcDbLine
 10
90.44999941195907
 20
105.324999718059
 30
0.0
 11
21.24999941195884
 21
105.3249997180589
 31
0.0
  0
LINE
  5
87A
330
1F
100
AcDbEntity
  8
0
100
AcDbLine
 10
15.74999941195888
 20
105.3249997180589
 30
0.0
 11
3.549999411958821
 21
105.3249997180589
 31
0.0
  0
LINE
  5
87B
330
1F
100
AcDbEntity
  8
0
100
AcDbLine
 10
90.44999941195907
 20
104.324999718059
 30
0.0
 11
21.24999941195882
 21
104.3249997180589
 31
0.0
  0
LINE
  5
87C
330
1F
100
AcDbEntity
  8
0
100
AcDbLine
 10
15.74999941195887
 20
104.3249997180589
 30
0.0
 11
3.549999411958821
 21
104.3249997180589
 31
0.0
  0
LINE
  5
87D
330
1F
100
AcDbEntity
  8
0
100
AcDbLine
 10
90.44999941195907
 20
103.324999718059
 30
0.0
 11
3.549999411958821
 21
103.3249997180589
 31
0.0
  0
LINE
  5
87E
330
1F
100
AcDbEntity
  8
0
100
AcDbLine
 10
90.44999941195907
 20
102.324999718059
 30
0.0
 11
3.549999411958821
 21
102.3249997180589
 31
0.0
  0
LINE
  5
87F
330
1F
100
AcDbEntity
  8
0
100
AcDbLine
 10
90.44999941195907
 20
101.324999718059
 30
0.0
 11
3.549999411958821
 21
101.3249997180589
 31
0.0
  0
LINE
  5
880
330
1F
100
AcDbEntity
  8
0
100
AcDbLine
 10
276.3749994119589
 20
123.624999718059
 30
0.0
 11
236.3749994119589
 21
123.624999718059
 31
0.0
  0
LINE
  5
881
330
1F
100
AcDbEntity
  8
0
100
AcDbLine
 10
236.3749994119589
 20
133.6249997180591
 30
0.0
 11
236.3749994119589
 21
123.624999718059
 31
0.0
  0
LINE
  5
882
330
1F
100
AcDbEntity
  8
0
100
AcDbLine
 10
276.3749994119589
 20
133.624999718059
 30
0.0
 11
276.3749994119589
 21
123.624999718059
 31
0.0
  0
LINE
  5
883
330
1F
100
AcDbEntity
  8
0
100
AcDbLine
 10
276.3749994119589
 20
133.624999718059
 30
0.0
 11
236.3749994119589
 21
133.6249997180591
 31
0.0
  0
ARC
  5
885
330
1F
100
AcDbEntity
  8
0
100
AcDbCircle
 10
264.9333327452922
 20
126.8749997180591
 30
0.0
 40
2.5
100
AcDbArc
 50
15.98866499138059
 51
340.5287793655104
  0
ARC
  5
886
330
1F
100
AcDbEntity
  8
0
100
AcDbCircle
 10
264.9333327452922
 20
126.8749997180591
 30
0.0
 40
2.166666666666666
100
AcDbArc
 50
25.00623305001834
 51
161.4936568715903
  0
ARC
  5
887
330
1F
100
AcDbEntity
  8
0
100
AcDbCircle
 10
264.9333327452922
 20
126.8749997180591
 30
0.0
 40
2.166666666666666
100
AcDbArc
 50
171.5353527878993
 51
337.3801350519577
  0
LINE
  5
888
330
1F
100
AcDbEntity
  8
0
100
AcDbLine
 10
265.0999994119589
 20
128.1579139517047
 30
0.0
 11
265.0999994119589
 21
127.3094081756728
 31
0.0
  0
LINE
  5
889
330
1F
100
AcDbEntity
  8
0
100
AcDbLine
 10
264.7666660786256
 20
127.7235054940909
 30
0.0
 11
264.7666660786256
 21
126.8749997180591
 31
0.0
  0
LINE
  5
88A
330
1F
100
AcDbEntity
  8
0
100
AcDbLine
 10
263.599999411959
 20
126.0416663847258
 30
0.0
 11
266.2666660786256
 21
126.0416663847258
 31
0.0
  0
LINE
  5
88B
330
1F
100
AcDbEntity
  8
0
100
AcDbLine
 10
263.599999411959
 20
125.6249997180591
 30
0.0
 11
264.6833327452922
 21
125.6249997180591
 31
0.0
  0
LINE
  5
88C
330
1F
100
AcDbEntity
  8
0
100
AcDbLine
 10
265.1833327452923
 20
125.6249997180591
 30
0.0
 11
266.2666660786256
 21
125.6249997180591
 31
0.0
  0
LINE
  5
88D
330
1F
100
AcDbEntity
  8
0
100
AcDbLine
 10
264.6833327452922
 20
124.9583330513924
 30
0.0
 11
265.1833327452923
 21
124.9583330513924
 31
0.0
  0
LINE
  5
88E
330
1F
100
AcDbEntity
  8
0
100
AcDbLine
 10
264.7666660786256
 20
126.8749997180591
 30
0.0
 11
267.3366232636748
 21
127.5636176703756
 31
0.0
  0
LINE
  5
88F
330
1F
100
AcDbEntity
  8
0
100
AcDbLine
 10
265.0999994119589
 20
127.3094081756728
 30
0.0
 11
266.8968999920531
 21
127.7908862349881
 31
0.0
  0
LINE
  5
890
330
1F
100
AcDbEntity
  8
0
100
AcDbLine
 10
262.7902678454978
 20
127.1939311836021
 30
0.0
 11
264.7666660786256
 21
127.7235054940909
 31
0.0
  0
LINE
  5
891
330
1F
100
AcDbEntity
  8
0
100
AcDbLine
 10
262.8787076162857
 20
127.5627206089001
 30
0.0
 11
265.0999994119589
 21
128.1579139517047
 31
0.0
  0
LINE
  5
892
330
1F
100
AcDbEntity
  8
0
100
AcDbLine
 10
265.1833327452923
 20
125.6249997180591
 30
0.0
 11
265.1833327452923
 21
124.9583330513924
 31
0.0
  0
LINE
  5
893
330
1F
100
AcDbEntity
  8
0
100
AcDbLine
 10
264.6833327452922
 20
125.6249997180591
 30
0.0
 11
264.6833327452922
 21
124.9583330513924
 31
0.0
  0
LINE
  5
894
330
1F
100
AcDbEntity
  8
0
100
AcDbLine
 10
266.2666660786256
 20
126.0416663847258
 30
0.0
 11
266.2666660786256
 21
125.6249997180591
 31
0.0
  0
LINE
  5
895
330
1F
100
AcDbEntity
  8
0
100
AcDbLine
 10
263.599999411959
 20
126.0416663847258
 30
0.0
 11
263.599999411959
 21
125.6249997180591
 31
0.0
  0
LINE
  5
896
330
1F
100
AcDbEntity
  8
0
100
AcDbLine
 10
263.599999411959
 20
126.7083330513924
 30
0.0
 11
266.2666660786256
 21
126.7083330513924
 31
0.0
  0
LINE
  5
897
330
1F
100
AcDbEntity
  8
0
100
AcDbLine
 10
263.599999411959
 20
126.2916663847257
 30
0.0
 11
266.2666660786256
 21
126.2916663847257
 31
0.0
  0
LINE
  5
898
330
1F
100
AcDbEntity
  8
0
100
AcDbLine
 10
266.2666660786256
 20
126.7083330513924
 30
0.0
 11
266.2666660786256
 21
126.2916663847257
 31
0.0
  0
LINE
  5
899
330
1F
100
AcDbEntity
  8
0
100
AcDbLine
 10
263.599999411959
 20
126.7083330513924
 30
0.0
 11
263.599999411959
 21
126.2916663847257
 31
0.0
  0
LINE
  5
89A
330
1F
100
AcDbEntity
  8
0
100
AcDbLine
 10
266.9333327452922
 20
126.0416663847258
 30
0.0
 11
267.2903553492474
 21
126.0416663847258
 31
0.0
  0
LINE
  5
89B
330
1F
100
AcDbEntity
  8
0
100
AcDbLine
 10
273.6249994119589
 20
124.8749997180591
 30
0.0
 11
273.6249994119589
 21
128.8749997180591
 31
0.0
1001
GENIUS_GENREC_14
1002
{
1000
PYDIR
1011
269.6249994119589
1021
124.8749997180591
1031
0.0
1002
}
1002
{
1000
PXDIR
1011
273.6249994119589
1021
128.8749997180591
1031
0.0
1002
}
1002
{
1000
PORI
1011
273.6249994119589
1021
124.8749997180591
1031
0.0
1002
}
1002
{
1000
PINS
1011
273.6249994119589
1021
124.8749997180591
1031
0.0
1002
}
1002
{
1000
HVAL
1000
4
1002
}
1002
{
1000
H
1070
     2
1002
}
1002
{
1000
WVAL
1000
4
1002
}
1002
{
1000
W
1070
     2
1002
}
1002
{
1000
C
1070
     1
1002
}
1001
GENIUS_GENOBJ-N-REC_13
1002
{
1000
OWNER
1000
GEN
1002
}
1001
GENIUS_GENODEF_13
1002
{
1000
HIER
1070
     0
1002
}
1002
{
1000
MANEDIT
1070
     0
1002
}
1002
{
1000
NOSEL
1070
     0
1002
}
1002
{
1000
BEHIND
1070
     0
1002
}
1002
{
1000
OTHER
1070
     0
1002
}
1002
{
1000
REACTOR
1002
}
  0
LINE
  5
89C
330
1F
100
AcDbEntity
  8
0
100
AcDbLine
 10
273.6249994119589
 20
128.8749997180591
 30
0.0
 11
269.6249994119589
 21
128.8749997180591
 31
0.0
1001
GENIUS_GENREC_14
1002
{
1000
PYDIR
1011
269.6249994119589
1021
124.8749997180591
1031
0.0
1002
}
1002
{
1000
PXDIR
1011
273.6249994119589
1021
128.8749997180591
1031
0.0
1002
}
1002
{
1000
PORI
1011
273.6249994119589
1021
124.8749997180591
1031
0.0
1002
}
1002
{
1000
PINS
1011
273.6249994119589
1021
124.8749997180591
1031
0.0
1002
}
1002
{
1000
HVAL
1000
4
1002
}
1002
{
1000
H
1070
     2
1002
}
1002
{
1000
WVAL
1000
4
1002
}
1002
{
1000
W
1070
     2
1002
}
1002
{
1000
C
1070
     1
1002
}
1001
GENIUS_GENOBJ-N-REC_13
1002
{
1000
OWNER
1000
GEN
1002
}
1001
GENIUS_GENODEF_13
1002
{
1000
HIER
1070
     0
1002
}
1002
{
1000
MANEDIT
1070
     0
1002
}
1002
{
1000
NOSEL
1070
     0
1002
}
1002
{
1000
BEHIND
1070
     0
1002
}
1002
{
1000
OTHER
1070
     0
1002
}
1002
{
1000
REACTOR
1002
}
  0
LINE
  5
89D
330
1F
100
AcDbEntity
  8
0
100
AcDbLine
 10
269.6249994119589
 20
128.8749997180591
 30
0.0
 11
269.6249994119589
 21
124.8749997180591
 31
0.0
1001
GENIUS_GENREC_14
1002
{
1000
PYDIR
1011
269.6249994119589
1021
124.8749997180591
1031
0.0
1002
}
1002
{
1000
PXDIR
1011
273.6249994119589
1021
128.8749997180591
1031
0.0
1002
}
1002
{
1000
PORI
1011
273.6249994119589
1021
124.8749997180591
1031
0.0
1002
}
1002
{
1000
PINS
1011
273.6249994119589
1021
124.8749997180591
1031
0.0
1002
}
1002
{
1000
HVAL
1000
4
1002
}
1002
{
1000
H
1070
     2
1002
}
1002
{
1000
WVAL
1000
4
1002
}
1002
{
1000
W
1070
     2
1002
}
1002
{
1000
C
1070
     1
1002
}
1001
GENIUS_GENOBJ-N-REC_13
1002
{
1000
OWNER
1000
GEN
1002
}
1001
GENIUS_GENODEF_13
1002
{
1000
HIER
1070
     0
1002
}
1002
{
1000
MANEDIT
1070
     0
1002
}
1002
{
1000
NOSEL
1070
     0
1002
}
1002
{
1000
BEHIND
1070
     0
1002
}
1002
{
1000
OTHER
1070
     0
1002
}
1002
{
1000
REACTOR
1002
}
  0
LINE
  5
89E
330
1F
100
AcDbEntity
  8
0
100
AcDbLine
 10
269.6249994119589
 20
124.8749997180591
 30
0.0
 11
273.6249994119589
 21
124.8749997180591
 31
0.0
1001
GENIUS_GENREC_14
1002
{
1000
PYDIR
1011
269.6249994119589
1021
124.8749997180591
1031
0.0
1002
}
1002
{
1000
PXDIR
1011
273.6249994119589
1021
128.8749997180591
1031
0.0
1002
}
1002
{
1000
PORI
1011
273.6249994119589
1021
124.8749997180591
1031
0.0
1002
}
1002
{
1000
PINS
1011
273.6249994119589
1021
124.8749997180591
1031
0.0
1002
}
1002
{
1000
HVAL
1000
4
1002
}
1002
{
1000
H
1070
     2
1002
}
1002
{
1000
WVAL
1000
4
1002
}
1002
{
1000
W
1070
     2
1002
}
1002
{
1000
C
1070
     1
1002
}
1001
GENIUS_GENOBJ-N-REC_13
1002
{
1000
OWNER
1000
GEN
1002
}
1001
GENIUS_GENODEF_13
1002
{
1000
HIER
1070
     0
1002
}
1002
{
1000
MANEDIT
1070
     0
1002
}
1002
{
1000
NOSEL
1070
     0
1002
}
1002
{
1000
BEHIND
1070
     0
1002
}
1002
{
1000
OTHER
1070
     0
1002
}
1002
{
1000
REACTOR
1002
}
  0
POINT
  5
89F
330
1F
100
AcDbEntity
  8
0
 60
     1
100
AcDbPoint
 10
103.6799989234625
 20
119.5279959829783
 30
0.0
1001
GENIUS_GENOLIS_13
1002
{
1000
ENT
1005
0
1005
6FB
1002
}
1001
GENIUS_GENOENT_13
1002
{
1000
MYREF
1005
89F
1002
}
1002
{
1000
GRP
1005
0
1002
}
1001
GENIUS_GENOBJ-N-CHA_13
1002
{
1000
OWNER
1000
GEN
1002
}
1001
GENIUS_GENODEF_13
1002
{
1000
HIER
1070
     1
1002
}
1002
{
1000
MANEDIT
1070
     1
1002
}
1002
{
1000
NOSEL
1070
     0
1002
}
1002
{
1000
BEHIND
1070
     0
1002
}
1002
{
1000
OTHER
1070
     0
1002
}
1002
{
1000
REACTOR
1002
}
  0
POINT
  5
8A0
330
1F
100
AcDbEntity
  8
0
 60
     1
100
AcDbPoint
 10
-104.847159716713
 20
-88.83388614674023
 30
0.0
1001
GENIUS_GENOLIS_13
1002
{
1000
ENT
1005
0
1005
7B9
1002
}
1001
GENIUS_GENOENT_13
1002
{
1000
MYREF
1005
8A0
1002
}
1002
{
1000
GRP
1005
0
1002
}
1001
GENIUS_GENOBJ-N-CHA_13
1002
{
1000
OWNER
1000
GEN
1002
}
1001
GENIUS_GENODEF_13
1002
{
1000
HIER
1070
     1
1002
}
1002
{
1000
MANEDIT
1070
     1
1002
}
1002
{
1000
NOSEL
1070
     0
1002
}
1002
{
1000
BEHIND
1070
     0
1002
}
1002
{
1000
OTHER
1070
     0
1002
}
1002
{
1000
REACTOR
1002
}
  0
LINE
  5
952
330
1F
100
AcDbEntity
  8
0
100
AcDbLine
 10
237.1249994119589
 20
123.874999718059
 30
0.0
 11
275.6249994119589
 21
123.874999718059
 31
0.0
1001
GENIUS_GENREC_14
1002
{
1000
PYDIR
1011
236.3749994119589
1021
133.624999718059
1031
0.0
1002
}
1002
{
1000
PXDIR
1011
276.3749994119589
1021
123.624999718059
1031
0.0
1002
}
1002
{
1000
PORI
1011
236.3749994119589
1021
123.624999718059
1031
0.0
1002
}
1002
{
1000
PINS
1011
236.3749994119589
1021
123.624999718059
1031
0.0
1002
}
1002
{
1000
PINS2
1011
276.3749994119589
1021
133.624999718059
1031
0.0
1002
}
1002
{
1000
C
1070
     1
1002
}
1001
GENIUS_GENOBJ-N-REC_13
1002
{
1000
OWNER
1000
GEN
1002
}
1001
GENIUS_GENODEF_13
1002
{
1000
HIER
1070
     0
1002
}
1002
{
1000
MANEDIT
1070
     0
1002
}
1002
{
1000
NOSEL
1070
     0
1002
}
1002
{
1000
BEHIND
1070
     0
1002
}
1002
{
1000
OTHER
1070
     0
1002
}
1002
{
1000
REACTOR
1002
}
  0
ARC
  5
953
330
1F
100
AcDbEntity
  8
0
100
AcDbCircle
 10
275.6249994119589
 20
124.374999718059
 30
0.0
 40
0.5
100
AcDbArc
 50
270.0
 51
0.0
1001
GENIUS_GENREC_14
1002
{
1000
PYDIR
1011
236.3749994119589
1021
133.624999718059
1031
0.0
1002
}
1002
{
1000
PXDIR
1011
276.3749994119589
1021
123.624999718059
1031
0.0
1002
}
1002
{
1000
PORI
1011
236.3749994119589
1021
123.624999718059
1031
0.0
1002
}
1002
{
1000
PINS
1011
236.3749994119589
1021
123.624999718059
1031
0.0
1002
}
1002
{
1000
PINS2
1011
276.3749994119589
1021
133.624999718059
1031
0.0
1002
}
1002
{
1000
C
1070
     1
1002
}
1001
GENIUS_GENOBJ-N-REC_13
1002
{
1000
OWNER
1000
GEN
1002
}
1001
GENIUS_GENODEF_13
1002
{
1000
HIER
1070
     0
1002
}
1002
{
1000
MANEDIT
1070
     0
1002
}
1002
{
1000
NOSEL
1070
     0
1002
}
1002
{
1000
BEHIND
1070
     0
1002
}
1002
{
1000
OTHER
1070
     0
1002
}
1002
{
1000
REACTOR
1002
}
  0
LINE
  5
954
330
1F
100
AcDbEntity
  8
0
100
AcDbLine
 10
276.1249994119589
 20
124.374999718059
 30
0.0
 11
276.1249994119589
 21
132.874999718059
 31
0.0
1001
GENIUS_GENREC_14
1002
{
1000
PYDIR
1011
236.3749994119589
1021
133.624999718059
1031
0.0
1002
}
1002
{
1000
PXDIR
1011
276.3749994119589
1021
123.624999718059
1031
0.0
1002
}
1002
{
1000
PORI
1011
236.3749994119589
1021
123.624999718059
1031
0.0
1002
}
1002
{
1000
PINS
1011
236.3749994119589
1021
123.624999718059
1031
0.0
1002
}
1002
{
1000
PINS2
1011
276.3749994119589
1021
133.624999718059
1031
0.0
1002
}
1002
{
1000
C
1070
     1
1002
}
1001
GENIUS_GENOBJ-N-REC_13
1002
{
1000
OWNER
1000
GEN
1002
}
1001
GENIUS_GENODEF_13
1002
{
1000
HIER
1070
     0
1002
}
1002
{
1000
MANEDIT
1070
     0
1002
}
1002
{
1000
NOSEL
1070
     0
1002
}
1002
{
1000
BEHIND
1070
     0
1002
}
1002
{
1000
OTHER
1070
     0
1002
}
1002
{
1000
REACTOR
1002
}
  0
ARC
  5
955
330
1F
100
AcDbEntity
  8
0
100
AcDbCircle
 10
275.6249994119589
 20
132.874999718059
 30
0.0
 40
0.5
100
AcDbArc
 50
0.0
 51
90.0
1001
GENIUS_GENREC_14
1002
{
1000
PYDIR
1011
236.3749994119589
1021
133.624999718059
1031
0.0
1002
}
1002
{
1000
PXDIR
1011
276.3749994119589
1021
123.624999718059
1031
0.0
1002
}
1002
{
1000
PORI
1011
236.3749994119589
1021
123.624999718059
1031
0.0
1002
}
1002
{
1000
PINS
1011
236.3749994119589
1021
123.624999718059
1031
0.0
1002
}
1002
{
1000
PINS2
1011
276.3749994119589
1021
133.624999718059
1031
0.0
1002
}
1002
{
1000
C
1070
     1
1002
}
1001
GENIUS_GENOBJ-N-REC_13
1002
{
1000
OWNER
1000
GEN
1002
}
1001
GENIUS_GENODEF_13
1002
{
1000
HIER
1070
     0
1002
}
1002
{
1000
MANEDIT
1070
     0
1002
}
1002
{
1000
NOSEL
1070
     0
1002
}
1002
{
1000
BEHIND
1070
     0
1002
}
1002
{
1000
OTHER
1070
     0
1002
}
1002
{
1000
REACTOR
1002
}
  0
LINE
  5
956
330
1F
100
AcDbEntity
  8
0
100
AcDbLine
 10
275.6249994119589
 20
133.374999718059
 30
0.0
 11
237.1249994119589
 21
133.374999718059
 31
0.0
1001
GENIUS_GENREC_14
1002
{
1000
PYDIR
1011
236.3749994119589
1021
133.624999718059
1031
0.0
1002
}
1002
{
1000
PXDIR
1011
276.3749994119589
1021
123.624999718059
1031
0.0
1002
}
1002
{
1000
PORI
1011
236.3749994119589
1021
123.624999718059
1031
0.0
1002
}
1002
{
1000
PINS
1011
236.3749994119589
1021
123.624999718059
1031
0.0
1002
}
1002
{
1000
PINS2
1011
276.3749994119589
1021
133.624999718059
1031
0.0
1002
}
1002
{
1000
C
1070
     1
1002
}
1001
GENIUS_GENOBJ-N-REC_13
1002
{
1000
OWNER
1000
GEN
1002
}
1001
GENIUS_GENODEF_13
1002
{
1000
HIER
1070
     0
1002
}
1002
{
1000
MANEDIT
1070
     0
1002
}
1002
{
1000
NOSEL
1070
     0
1002
}
1002
{
1000
BEHIND
1070
     0
1002
}
1002
{
1000
OTHER
1070
     0
1002
}
1002
{
1000
REACTOR
1002
}
  0
ARC
  5
957
330
1F
100
AcDbEntity
  8
0
100
AcDbCircle
 10
237.1249994119589
 20
132.874999718059
 30
0.0
 40
0.5
100
AcDbArc
 50
90.0
 51
180.0
1001
GENIUS_GENREC_14
1002
{
1000
PYDIR
1011
236.3749994119589
1021
133.624999718059
1031
0.0
1002
}
1002
{
1000
PXDIR
1011
276.3749994119589
1021
123.624999718059
1031
0.0
1002
}
1002
{
1000
PORI
1011
236.3749994119589
1021
123.624999718059
1031
0.0
1002
}
1002
{
1000
PINS
1011
236.3749994119589
1021
123.624999718059
1031
0.0
1002
}
1002
{
1000
PINS2
1011
276.3749994119589
1021
133.624999718059
1031
0.0
1002
}
1002
{
1000
C
1070
     1
1002
}
1001
GENIUS_GENOBJ-N-REC_13
1002
{
1000
OWNER
1000
GEN
1002
}
1001
GENIUS_GENODEF_13
1002
{
1000
HIER
1070
     0
1002
}
1002
{
1000
MANEDIT
1070
     0
1002
}
1002
{
1000
NOSEL
1070
     0
1002
}
1002
{
1000
BEHIND
1070
     0
1002
}
1002
{
1000
OTHER
1070
     0
1002
}
1002
{
1000
REACTOR
1002
}
  0
LINE
  5
958
330
1F
100
AcDbEntity
  8
0
100
AcDbLine
 10
236.6249994119589
 20
132.874999718059
 30
0.0
 11
236.6249994119589
 21
124.374999718059
 31
0.0
1001
GENIUS_GENREC_14
1002
{
1000
PYDIR
1011
236.3749994119589
1021
133.624999718059
1031
0.0
1002
}
1002
{
1000
PXDIR
1011
276.3749994119589
1021
123.624999718059
1031
0.0
1002
}
1002
{
1000
PORI
1011
236.3749994119589
1021
123.624999718059
1031
0.0
1002
}
1002
{
1000
PINS
1011
236.3749994119589
1021
123.624999718059
1031
0.0
1002
}
1002
{
1000
PINS2
1011
276.3749994119589
1021
133.624999718059
1031
0.0
1002
}
1002
{
1000
C
1070
     1
1002
}
1001
GENIUS_GENOBJ-N-REC_13
1002
{
1000
OWNER
1000
GEN
1002
}
1001
GENIUS_GENODEF_13
1002
{
1000
HIER
1070
     0
1002
}
1002
{
1000
MANEDIT
1070
     0
1002
}
1002
{
1000
NOSEL
1070
     0
1002
}
1002
{
1000
BEHIND
1070
     0
1002
}
1002
{
1000
OTHER
1070
     0
1002
}
1002
{
1000
REACTOR
1002
}
  0
ARC
  5
959
330
1F
100
AcDbEntity
  8
0
100
AcDbCircle
 10
237.1249994119589
 20
124.374999718059
 30
0.0
 40
0.5
100
AcDbArc
 50
180.0
 51
270.0
1001
GENIUS_GENREC_14
1002
{
1000
PYDIR
1011
236.3749994119589
1021
133.624999718059
1031
0.0
1002
}
1002
{
1000
PXDIR
1011
276.3749994119589
1021
123.624999718059
1031
0.0
1002
}
1002
{
1000
PORI
1011
236.3749994119589
1021
123.624999718059
1031
0.0
1002
}
1002
{
1000
PINS
1011
236.3749994119589
1021
123.624999718059
1031
0.0
1002
}
1002
{
1000
PINS2
1011
276.3749994119589
1021
133.624999718059
1031
0.0
1002
}
1002
{
1000
C
1070
     1
1002
}
1001
GENIUS_GENOBJ-N-REC_13
1002
{
1000
OWNER
1000
GEN
1002
}
1001
GENIUS_GENODEF_13
1002
{
1000
HIER
1070
     0
1002
}
1002
{
1000
MANEDIT
1070
     0
1002
}
1002
{
1000
NOSEL
1070
     0
1002
}
1002
{
1000
BEHIND
1070
     0
1002
}
1002
{
1000
OTHER
1070
     0
1002
}
1002
{
1000
REACTOR
1002
}
  0
ENDSEC
  0
SECTION
  2
OBJECTS
  0
DICTIONARY
  5
C
330
0
100
AcDbDictionary
281
     1
  3
ACAD_COLOR
350
BE
  3
ACAD_GROUP
350
D
  3
ACAD_LAYOUT
350
1A
  3
ACAD_MATERIAL
350
BD
  3
ACAD_MLINESTYLE
350
17
  3
ACAD_PLOTSETTINGS
350
19
  3
ACAD_PLOTSTYLENAME
350
E
  3
ACAD_TABLESTYLE
350
11A
  3
ACDBHEADERROUNDTRIPXREC
350
95D
  3
AcDbVariableDictionary
350
94
  3
AcmDictionary
350
5B
  3
AMG
350
41
  3
AMGSNAPSETTINGS
350
1B8
  3
DWGPROPS
350
95C
  0
DICTIONARY
  5
21D
330
2
100
AcDbDictionary
280
     1
281
     1
  3
ACAD_LAYERSTATES
360
21E
  0
DICTIONARY
  5
8F
330
1F
100
AcDbDictionary
280
     1
281
     1
  3
ACAD_SORTENTS
360
95A
  0
DICTIONARY
  5
BE
102
{ACAD_REACTORS
330
C
102
}
330
C
100
AcDbDictionary
281
     1
  0
DICTIONARY
  5
D
102
{ACAD_REACTORS
330
C
102
}
330
C
100
AcDbDictionary
281
     1
  0
DICTIONARY
  5
1A
102
{ACAD_REACTORS
330
C
102
}
330
C
100
AcDbDictionary
281
     1
  3
Model
350
22
  3
レイアウト1
350
1E
  3
レイアウト2
350
26
  0
DICTIONARY
  5
BD
102
{ACAD_REACTORS
330
C
102
}
330
C
100
AcDbDictionary
281
     1
  0
DICTIONARY
  5
17
102
{ACAD_REACTORS
330
C
102
}
330
C
100
AcDbDictionary
281
     1
  3
Standard
350
18
  0
DICTIONARY
  5
19
102
{ACAD_REACTORS
330
C
102
}
330
C
100
AcDbDictionary
281
     1
  0
ACDBDICTIONARYWDFLT
  5
E
102
{ACAD_REACTORS
330
C
102
}
330
C
100
AcDbDictionary
281
     1
  3
Normal
350
F
100
AcDbDictionaryWithDefault
340
F
  0
DICTIONARY
  5
11A
102
{ACAD_REACTORS
330
C
102
}
330
C
100
AcDbDictionary
281
     1
  3
Standard
350
11B
  0
DICTIONARY
  5
95D
102
{ACAD_REACTORS
330
C
102
}
330
C
100
AcDbDictionary
281
     1
  0
DICTIONARY
  5
94
102
{ACAD_REACTORS
330
C
102
}
330
C
100
AcDbDictionary
281
     1
  3
CTABLESTYLE
350
138
  3
DIMASSOC
350
96
  3
INDEXCTL
350
95
  3
PROJECTNAME
350
8AF
  0
DICTIONARY
  5
5B
102
{ACAD_REACTORS
330
C
102
}
330
C
100
AcDbDictionary
281
     1
  3
AcmBOM
350
1B5
  3
AcmStdDictionary
350
61
  3
AMDTSECTSYM_ARROWCOLOR
350
123
  0
DICTIONARY
  5
41
102
{ACAD_REACTORS
330
C
102
}
330
C
100
AcDbDictionary
281
     1
  0
DICTIONARY
  5
1B8
102
{ACAD_REACTORS
330
C
102
}
330
C
100
AcDbDictionary
281
     1
  0
XRECORD
  5
95C
102
{ACAD_REACTORS
330
C
102
}
330
C
100
AcDbXrecord
280
     1
  1
DWGPROPS COOKIE
  2

  3

  4

  6

  7

  8

  9

300
AmdtFileType=84
301
=
302
=
303
=
304
=
305
=
306
=
307
=
308
=
309
=
 40
0.0029260185185185
 41
2456406.601094699
 42
2456406.639740382
  1

 90
        1
  0
DICTIONARY
  5
21E
102
{ACAD_REACTORS
330
21D
102
}
330
21D
100
AcDbDictionary
281
     1
  0
SORTENTSTABLE
  5
95A
102
{ACAD_REACTORS
330
8F
102
}
330
8F
100
AcDbSortentsTable
330
1F
331
828
  5
828
331
739
  5
739
331
84A
  5
84A
331
75B
  5
75B
331
60A
  5
60A
331
86C
  5
86C
331
77D
  5
77D
331
887
  5
88F
331
797
  5
797
331
6A8
  5
6A8
331
7B9
  5
7B9
331
6CA
  5
6CA
331
7DB
  5
7DB
331
7FD
  5
7FD
331
6EC
  5
6EC
331
692
  5
692
331
670
  5
670
331
64E
  5
64E
331
62C
  5
62C
331
817
  5
817
331
70E
  5
70E
331
839
  5
839
331
74A
  5
74A
331
728
  5
728
331
5D7
  5
5D7
331
5B5
  5
5B5
331
593
  5
593
331
953
  5
886
331
85B
  5
85B
331
76C
  5
76C
331
623
  5
623
331
87D
  5
87D
331
78E
  5
78E
331
898
  5
953
331
7A8
  5
7A8
331
6B9
  5
6B9
331
6FD
  5
6FD
331
6DB
  5
6DB
331
681
  5
681
331
65F
  5
65F
331
63D
  5
63D
331
5C6
  5
5C6
331
5A4
  5
5A4
331
582
  5
582
331
571
  5
571
331
848
  5
848
331
759
  5
759
331
608
  5
608
331
86A
  5
86A
331
77B
  5
77B
331
885
  5
88D
331
795
  5
795
331
6A6
  5
6A6
331
7B7
  5
7B7
331
6C8
  5
6C8
331
7D9
  5
7D9
331
7FB
  5
7FB
331
6EA
  5
6EA
331
690
  5
690
331
66E
  5
66E
331
64C
  5
64C
331
62A
  5
62A
331
815
  5
815
331
70C
  5
70C
331
837
  5
837
331
748
  5
748
331
726
  5
726
331
5D5
  5
5D5
331
5B3
  5
5B3
331
591
  5
591
331
859
  5
859
331
76A
  5
76A
331
621
  5
621
331
87B
  5
87B
331
896
  5
89E
331
7A6
  5
7A6
331
78C
  5
78C
331
6B7
  5
6B7
331
7EA
  5
7EA
331
6FB
  5
6FB
331
6D9
  5
6D9
331
67F
  5
67F
331
63B
  5
63B
331
826
  5
826
331
737
  5
737
331
5E6
  5
5E6
331
5C4
  5
5C4
331
5A2
  5
5A2
331
580
  5
580
331
868
  5
868
331
883
  5
883
331
793
  5
793
331
779
  5
779
331
6A4
  5
6A4
331
6C6
  5
6C6
331
7D7
  5
7D7
331
7F9
  5
7F9
331
6E8
  5
6E8
331
68E
  5
68E
331
66C
  5
66C
331
813
  5
813
331
70A
  5
70A
331
835
  5
835
331
746
  5
746
331
724
  5
724
331
5D3
  5
5D3
331
5B1
  5
5B1
331
857
  5
857
331
768
  5
768
331
617
  5
617
331
879
  5
879
331
894
  5
89C
331
7A4
  5
7A4
331
78A
  5
78A
331
6B5
  5
6B5
331
6D7
  5
6D7
331
7E8
  5
7E8
331
6F9
  5
6F9
331
69F
  5
69F
331
67D
  5
67D
331
639
  5
639
331
824
  5
824
331
846
  5
846
331
735
  5
735
331
757
  5
757
331
606
  5
606
331
5E4
  5
5E4
331
5C2
  5
5C2
331
5A0
  5
5A0
331
58F
  5
58F
331
57E
  5
57E
331
881
  5
881
331
791
  5
791
331
6A2
  5
6A2
331
6C4
  5
6C4
331
7D5
  5
7D5
331
7F7
  5
7F7
331
6E6
  5
6E6
331
68C
  5
68C
331
66A
  5
66A
331
811
  5
811
331
708
  5
708
331
833
  5
833
331
744
  5
744
331
722
  5
722
331
5D1
  5
5D1
331
5AF
  5
5AF
331
855
  5
855
331
766
  5
766
331
615
  5
615
331
877
  5
877
331
788
  5
788
331
892
  5
89A
331
7A2
  5
7A2
331
6B3
  5
6B3
331
6D5
  5
6D5
331
7E6
  5
7E6
331
6F7
  5
6F7
331
69D
  5
69D
331
67B
  5
67B
331
659
  5
659
331
637
  5
637
331
822
  5
822
331
844
  5
844
331
755
  5
755
331
733
  5
733
331
5C0
  5
5C0
331
59E
  5
59E
331
866
  5
866
331
777
  5
777
331
58D
  5
58D
331
57C
  5
57C
331
6A0
  5
6A0
331
7D3
  5
7D3
331
7F5
  5
7F5
331
6E4
  5
6E4
331
6C2
  5
6C2
331
668
  5
668
331
80F
  5
80F
331
706
  5
706
331
831
  5
831
331
720
  5
720
331
742
  5
742
331
5F1
  5
5F1
331
5CF
  5
5CF
331
5AD
  5
5AD
331
853
  5
853
331
764
  5
764
331
613
  5
613
331
875
  5
875
331
890
  5
898
331
7A0
  5
7A0
331
786
  5
786
331
6B1
  5
6B1
331
6D3
  5
6D3
331
7E4
  5
7E4
331
806
  5
806
331
6F5
  5
6F5
331
69B
  5
69B
331
679
  5
679
331
635
  5
635
331
820
  5
820
331
842
  5
842
331
753
  5
753
331
731
  5
731
331
717
  5
717
331
5BE
  5
5BE
331
59C
  5
59C
331
864
  5
864
331
775
  5
775
331
58B
  5
58B
331
57A
  5
57A
331
7D1
  5
7D1
331
7F3
  5
7F3
331
6E2
  5
6E2
331
6C0
  5
6C0
331
80D
  5
80D
331
704
  5
704
331
82F
  5
82F
331
71E
  5
71E
331
740
  5
740
331
5EF
  5
5EF
331
5CD
  5
5CD
331
5AB
  5
5AB
331
851
  5
851
331
762
  5
762
331
611
  5
611
331
873
  5
873
331
784
  5
784
331
88E
  5
896
331
79E
  5
79E
331
6AF
  5
6AF
331
7C0
  5
7C0
331
6D1
  5
6D1
331
7E2
  5
7E2
331
804
  5
804
331
6F3
  5
6F3
331
699
  5
699
331
677
  5
677
331
655
  5
655
331
633
  5
633
331
81E
  5
81E
331
715
  5
715
331
840
  5
840
331
751
  5
751
331
72F
  5
72F
331
5DE
  5
5DE
331
5BC
  5
5BC
331
59A
  5
59A
331
862
  5
862
331
773
  5
773
331
7AF
  5
7AF
331
666
  5
666
331
589
  5
589
331
578
  5
578
331
7F1
  5
7F1
331
6E0
  5
6E0
331
80B
  5
80B
331
702
  5
702
331
82D
  5
82D
331
71C
  5
71C
331
73E
  5
73E
331
5ED
  5
5ED
331
5CB
  5
5CB
331
5A9
  5
5A9
331
84F
  5
84F
331
760
  5
760
331
60F
  5
60F
331
871
  5
871
331
782
  5
782
331
88C
  5
894
331
79C
  5
79C
331
6AD
  5
6AD
331
7BE
  5
7BE
331
6CF
  5
6CF
331
7E0
  5
7E0
331
802
  5
802
331
6F1
  5
6F1
331
697
  5
697
331
675
  5
675
331
653
  5
653
331
81C
  5
81C
331
83E
  5
83E
331
74F
  5
74F
331
72D
  5
72D
331
713
  5
713
331
5BA
  5
5BA
331
598
  5
598
331
958
  5
88B
331
860
  5
860
331
771
  5
771
331
89D
  5
958
331
7AD
  5
7AD
331
6BE
  5
6BE
331
664
  5
664
331
642
  5
642
331
587
  5
587
331
576
  5
576
331
809
  5
809
331
700
  5
700
331
82B
  5
82B
331
71A
  5
71A
331
73C
  5
73C
331
5EB
  5
5EB
331
5C9
  5
5C9
331
84D
  5
84D
331
75E
  5
75E
331
60D
  5
60D
331
86F
  5
86F
331
780
  5
780
331
88A
  5
892
331
79A
  5
79A
331
6AB
  5
6AB
331
7BC
  5
7BC
331
6CD
  5
6CD
331
7DE
  5
7DE
331
800
  5
800
331
6EF
  5
6EF
331
695
  5
695
331
673
  5
673
331
651
  5
651
331
81A
  5
81A
331
83C
  5
83C
331
72B
  5
72B
331
711
  5
711
331
74D
  5
74D
331
5FC
  5
5FC
331
5B8
  5
5B8
331
596
  5
596
331
956
  5
889
331
85E
  5
85E
331
76F
  5
76F
331
626
  5
626
331
89B
  5
956
331
7AB
  5
7AB
331
7EF
  5
7EF
331
6DE
  5
6DE
331
684
  5
684
331
662
  5
662
331
640
  5
640
331
5A7
  5
5A7
331
585
  5
585
331
574
  5
574
331
829
  5
829
331
718
  5
718
331
73A
  5
73A
331
5E9
  5
5E9
331
84B
  5
84B
331
75C
  5
75C
331
86D
  5
86D
331
77E
  5
77E
331
888
  5
890
331
798
  5
798
331
6A9
  5
6A9
331
7BA
  5
7BA
331
6CB
  5
6CB
331
7DC
  5
7DC
331
7FE
  5
7FE
331
6ED
  5
6ED
331
693
  5
693
331
671
  5
671
331
64F
  5
64F
331
62D
  5
62D
331
818
  5
818
331
70F
  5
70F
331
74B
  5
74B
331
729
  5
729
331
5D8
  5
5D8
331
5B6
  5
5B6
331
594
  5
594
331
954
  5
887
331
85C
  5
85C
331
76D
  5
76D
331
624
  5
624
331
87E
  5
87E
331
78F
  5
78F
331
899
  5
954
331
7A9
  5
7A9
331
6BA
  5
6BA
331
7CB
  5
7CB
331
7ED
  5
7ED
331
6FE
  5
6FE
331
6DC
  5
6DC
331
682
  5
682
331
660
  5
660
331
63E
  5
63E
331
5C7
  5
5C7
331
5A5
  5
5A5
331
583
  5
583
331
572
  5
572
331
849
  5
849
331
738
  5
738
331
75A
  5
75A
331
609
  5
609
331
86B
  5
86B
331
77C
  5
77C
331
886
  5
88E
331
796
  5
796
331
6A7
  5
6A7
331
7B8
  5
7B8
331
6C9
  5
6C9
331
7DA
  5
7DA
331
7FC
  5
7FC
331
6EB
  5
6EB
331
691
  5
691
331
66F
  5
66F
331
64D
  5
64D
331
816
  5
816
331
70D
  5
70D
331
838
  5
838
331
749
  5
749
331
727
  5
727
331
5D6
  5
5D6
331
5B4
  5
5B4
331
592
  5
592
331
952
  5
885
331
85A
  5
85A
331
76B
  5
76B
331
622
  5
622
331
87C
  5
87C
331
78D
  5
78D
331
897
  5
952
331
7A7
  5
7A7
331
6B8
  5
6B8
331
6DA
  5
6DA
331
680
  5
680
331
65E
  5
65E
331
63C
  5
63C
331
827
  5
827
331
5C5
  5
5C5
331
5A3
  5
5A3
331
581
  5
581
331
758
  5
758
331
869
  5
869
331
77A
  5
77A
331
794
  5
794
331
6A5
  5
6A5
331
7B6
  5
7B6
331
6C7
  5
6C7
331
7D8
  5
7D8
331
7FA
  5
7FA
331
6E9
  5
6E9
331
68F
  5
68F
331
66D
  5
66D
331
64B
  5
64B
331
629
  5
629
331
814
  5
814
331
70B
  5
70B
331
836
  5
836
331
747
  5
747
331
725
  5
725
331
5D4
  5
5D4
331
5B2
  5
5B2
331
590
  5
590
331
858
  5
858
331
769
  5
769
331
87A
  5
87A
331
895
  5
89D
331
7A5
  5
7A5
331
78B
  5
78B
331
6B6
  5
6B6
331
7E9
  5
7E9
331
6FA
  5
6FA
331
6D8
  5
6D8
331
67E
  5
67E
331
63A
  5
63A
331
825
  5
825
331
847
  5
847
331
736
  5
736
331
607
  5
607
331
5C3
  5
5C3
331
5A1
  5
5A1
331
57F
  5
57F
331
882
  5
882
331
792
  5
792
331
778
  5
778
331
6A3
  5
6A3
331
6C5
  5
6C5
331
7D6
  5
7D6
331
7F8
  5
7F8
331
6E7
  5
6E7
331
68D
  5
68D
331
66B
  5
66B
331
812
  5
812
331
709
  5
709
331
834
  5
834
331
745
  5
745
331
723
  5
723
331
5D2
  5
5D2
331
5B0
  5
5B0
331
856
  5
856
331
767
  5
767
331
616
  5
616
331
878
  5
878
331
893
  5
89B
331
7A3
  5
7A3
331
789
  5
789
331
6B4
  5
6B4
331
6D6
  5
6D6
331
7E7
  5
7E7
331
6F8
  5
6F8
331
69E
  5
69E
331
67C
  5
67C
331
638
  5
638
331
823
  5
823
331
845
  5
845
331
734
  5
734
331
756
  5
756
331
605
  5
605
331
5E3
  5
5E3
331
5C1
  5
5C1
331
59F
  5
59F
331
867
  5
867
331
58E
  5
58E
331
57D
  5
57D
331
880
  5
880
331
790
  5
790
331
6A1
  5
6A1
331
7B2
  5
7B2
331
7D4
  5
7D4
331
7F6
  5
7F6
331
6E5
  5
6E5
331
6C3
  5
6C3
331
669
  5
669
331
810
  5
810
331
707
  5
707
331
832
  5
832
331
721
  5
721
331
743
  5
743
331
5F2
  5
5F2
331
5D0
  5
5D0
331
5AE
  5
5AE
331
854
  5
854
331
765
  5
765
331
614
  5
614
331
876
  5
876
331
787
  5
787
331
891
  5
899
331
7A1
  5
7A1
331
6B2
  5
6B2
331
6D4
  5
6D4
331
7E5
  5
7E5
331
807
  5
807
331
6F6
  5
6F6
331
69C
  5
69C
331
67A
  5
67A
331
658
  5
658
331
636
  5
636
331
821
  5
821
331
843
  5
843
331
754
  5
754
331
732
  5
732
331
5BF
  5
5BF
331
59D
  5
59D
331
865
  5
865
331
776
  5
776
331
58C
  5
58C
331
57B
  5
57B
331
7F4
  5
7F4
331
6E3
  5
6E3
331
6C1
  5
6C1
331
80E
  5
80E
331
705
  5
705
331
830
  5
830
331
71F
  5
71F
331
741
  5
741
331
5F0
  5
5F0
331
5CE
  5
5CE
331
5AC
  5
5AC
331
852
  5
852
331
763
  5
763
331
612
  5
612
331
874
  5
874
331
88F
  5
897
331
79F
  5
79F
331
785
  5
785
331
6B0
  5
6B0
331
6D2
  5
6D2
331
7E3
  5
7E3
331
805
  5
805
331
6F4
  5
6F4
331
69A
  5
69A
331
678
  5
678
331
634
  5
634
331
81F
  5
81F
331
716
  5
716
331
841
  5
841
331
752
  5
752
331
730
  5
730
331
5DF
  5
5DF
331
5BD
  5
5BD
331
59B
  5
59B
331
863
  5
863
331
774
  5
774
331
667
  5
667
331
58A
  5
58A
331
579
  5
579
331
7F2
  5
7F2
331
80C
  5
80C
331
703
  5
703
331
82E
  5
82E
331
71D
  5
71D
331
73F
  5
73F
331
5EE
  5
5EE
331
5CC
  5
5CC
331
5AA
  5
5AA
331
850
  5
850
331
761
  5
761
331
610
  5
610
331
872
  5
872
331
783
  5
783
331
88D
  5
895
331
79D
  5
79D
331
6AE
  5
6AE
331
7BF
  5
7BF
331
6D0
  5
6D0
331
7E1
  5
7E1
331
803
  5
803
331
6F2
  5
6F2
331
698
  5
698
331
676
  5
676
331
654
  5
654
331
632
  5
632
331
81D
  5
81D
331
83F
  5
83F
331
750
  5
750
331
72E
  5
72E
331
714
  5
714
331
5BB
  5
5BB
331
599
  5
599
331
959
  5
88C
331
861
  5
861
331
772
  5
772
331
89E
  5
959
331
7AE
  5
7AE
331
6BF
  5
6BF
331
665
  5
665
331
643
  5
643
331
588
  5
588
331
577
  5
577
331
7F0
  5
7F0
331
80A
  5
80A
331
701
  5
701
331
82C
  5
82C
331
71B
  5
71B
331
73D
  5
73D
331
5EC
  5
5EC
331
5CA
  5
5CA
331
5A8
  5
5A8
331
84E
  5
84E
331
75F
  5
75F
331
870
  5
870
331
781
  5
781
331
88B
  5
893
331
79B
  5
79B
331
6AC
  5
6AC
331
7BD
  5
7BD
331
6CE
  5
6CE
331
7DF
  5
7DF
331
801
  5
801
331
6F0
  5
6F0
331
696
  5
696
331
674
  5
674
331
652
  5
652
331
81B
  5
81B
331
83D
  5
83D
331
74E
  5
74E
331
72C
  5
72C
331
712
  5
712
331
5B9
  5
5B9
331
597
  5
597
331
957
  5
88A
331
85F
  5
85F
331
770
  5
770
331
89C
  5
957
331
7AC
  5
7AC
331
7CE
  5
7CE
331
6BD
  5
6BD
331
663
  5
663
331
641
  5
641
331
627
  5
627
331
586
  5
586
331
575
  5
575
331
808
  5
808
331
82A
  5
82A
331
719
  5
719
331
73B
  5
73B
331
5EA
  5
5EA
331
5C8
  5
5C8
331
84C
  5
84C
331
75D
  5
75D
331
60C
  5
60C
331
86E
  5
86E
331
77F
  5
77F
331
889
  5
891
331
799
  5
799
331
6AA
  5
6AA
331
7BB
  5
7BB
331
6CC
  5
6CC
331
7DD
  5
7DD
331
7FF
  5
7FF
331
6EE
  5
6EE
331
694
  5
694
331
672
  5
672
331
650
  5
650
331
819
  5
819
331
710
  5
710
331
74C
  5
74C
331
72A
  5
72A
331
5D9
  5
5D9
331
5B7
  5
5B7
331
595
  5
595
331
955
  5
888
331
85D
  5
85D
331
76E
  5
76E
331
625
  5
625
331
87F
  5
87F
331
89A
  5
955
331
7AA
  5
7AA
331
6BB
  5
6BB
331
7CC
  5
7CC
331
6FF
  5
6FF
331
6DD
  5
6DD
331
683
  5
683
331
661
  5
661
331
63F
  5
63F
331
5A6
  5
5A6
331
584
  5
584
331
573
  5
573
  0
LAYOUT
  5
22
102
{ACAD_XDICTIONARY
360
960
102
}
102
{ACAD_REACTORS
330
1A
102
}
330
1A
100
AcDbPlotSettings
  1

  2

  4

  6

 40
0.0
 41
0.0
 42
0.0
 43
0.0
 44
0.0
 45
0.0
 46
0.0
 47
0.0
 48
0.0
 49
0.0
140
0.0
141
0.0
142
1.0
143
1.0
 70
  1712
 72
     0
 73
     0
 74
     0
  7

 75
     0
147
1.0
148
0.0
149
0.0
100
AcDbLayout
  1
Model
 70
     1
 71
     0
 10
0.0
 20
0.0
 11
12.0
 21
9.0
 12
0.0
 22
0.0
 32
0.0
 14
0.0
 24
0.0
 34
0.0
 15
0.0
 25
0.0
 35
0.0
146
0.0
 13
0.0
 23
0.0
 33
0.0
 16
1.0
 26
0.0
 36
0.0
 17
0.0
 27
1.0
 37
0.0
 76
     0
330
1F
  0
LAYOUT
  5
1E
102
{ACAD_XDICTIONARY
360
95E
102
}
102
{ACAD_REACTORS
330
1A
102
}
330
1A
100
AcDbPlotSettings
  1

  2

  4

  6

 40
0.0
 41
0.0
 42
0.0
 43
0.0
 44
0.0
 45
0.0
 46
0.0
 47
0.0
 48
0.0
 49
0.0
140
0.0
141
0.0
142
1.0
143
1.0
 70
   688
 72
     0
 73
     0
 74
     5
  7

 75
    16
147
1.0
148
0.0
149
0.0
100
AcDbLayout
  1
レイアウト1
 70
     1
 71
     1
 10
0.0
 20
0.0
 11
420.0
 21
297.0
 12
0.0
 22
0.0
 32
0.0
 14
1.000000000000000E+20
 24
1.000000000000000E+20
 34
1.000000000000000E+20
 15
-1.000000000000000E+20
 25
-1.000000000000000E+20
 35
-1.000000000000000E+20
146
0.0
 13
0.0
 23
0.0
 33
0.0
 16
1.0
 26
0.0
 36
0.0
 17
0.0
 27
1.0
 37
0.0
 76
     0
330
1B
  0
LAYOUT
  5
26
102
{ACAD_XDICTIONARY
360
962
102
}
102
{ACAD_REACTORS
330
1A
102
}
330
1A
100
AcDbPlotSettings
  1

  2

  4

  6

 40
0.0
 41
0.0
 42
0.0
 43
0.0
 44
0.0
 45
0.0
 46
0.0
 47
0.0
 48
0.0
 49
0.0
140
0.0
141
0.0
142
1.0
143
1.0
 70
   688
 72
     0
 73
     0
 74
     5
  7

 75
    16
147
1.0
148
0.0
149
0.0
100
AcDbLayout
  1
レイアウト2
 70
     1
 71
     2
 10
0.0
 20
0.0
 11
12.0
 21
9.0
 12
0.0
 22
0.0
 32
0.0
 14
0.0
 24
0.0
 34
0.0
 15
0.0
 25
0.0
 35
0.0
146
0.0
 13
0.0
 23
0.0
 33
0.0
 16
1.0
 26
0.0
 36
0.0
 17
0.0
 27
1.0
 37
0.0
 76
     0
330
23
  0
MLINESTYLE
  5
18
102
{ACAD_REACTORS
330
17
102
}
330
17
100
AcDbMlineStyle
  2
STANDARD
 70
     0
  3

 62
   256
 51
90.0
 52
90.0
 71
     2
 49
0.5
 62
   256
  6
BYLAYER
 49
-0.5
 62
   256
  6
BYLAYER
  0
ACDBPLACEHOLDER
  5
F
102
{ACAD_REACTORS
330
E
102
}
330
E
  0
TABLESTYLE
  5
11B
102
{ACAD_REACTORS
330
11A
102
}
330
11A
100
AcDbTableStyle
  3
Standard
 70
     0
 71
     0
 40
1.5
 41
1.5
280
     0
281
     0
  7
STANDARD
140
4.5
170
     2
 62
     0
 63
     7
283
     0
274
    -2
284
     1
 64
     0
275
    -2
285
     1
 65
     0
276
    -2
286
     1
 66
     0
277
    -2
287
     1
 67
     0
278
    -2
288
     1
 68
     0
279
    -2
289
     1
 69
     0
  7
STANDARD
140
6.0
170
     5
 62
     0
 63
     7
283
     0
274
    -2
284
     1
 64
     0
275
    -2
285
     1
 65
     0
276
    -2
286
     1
 66
     0
277
    -2
287
     1
 67
     0
278
    -2
288
     1
 68
     0
279
    -2
289
     1
 69
     0
  7
STANDARD
140
4.5
170
     5
 62
     0
 63
     7
283
     0
274
    -2
284
     1
 64
     0
275
    -2
285
     1
 65
     0
276
    -2
286
     1
 66
     0
277
    -2
287
     1
 67
     0
278
    -2
288
     1
 68
     0
279
    -2
289
     1
 69
     0
  0
DICTIONARYVAR
  5
138
102
{ACAD_REACTORS
330
94
102
}
330
94
100
DictionaryVariables
280
     0
  1
STANDARD
  0
DICTIONARYVAR
  5
96
102
{ACAD_REACTORS
330
94
102
}
330
94
100
DictionaryVariables
280
     0
  1
2
  0
DICTIONARYVAR
  5
95
102
{ACAD_REACTORS
330
94
102
}
330
94
100
DictionaryVariables
280
     0
  1
0
  0
DICTIONARYVAR
  5
8AF
102
{ACAD_REACTORS
330
94
102
}
330
94
100
DictionaryVariables
280
     0
  1

  0
DICTIONARY
  5
1B5
102
{ACAD_REACTORS
330
5B
102
}
330
5B
100
AcDbDictionary
281
     1
  0
DICTIONARY
  5
61
102
{ACAD_REACTORS
330
5B
102
}
330
5B
100
AcDbDictionary
281
     1
  0
XRECORD
  5
123
102
{ACAD_REACTORS
330
5B
102
}
330
5B
100
AcDbXrecord
280
     1
 90
-1023410169
  0
DICTIONARY
  5
960
330
22
100
AcDbDictionary
280
     1
281
     1
  3
ACAD_XREC_ROUNDTRIP
360
961
  0
DICTIONARY
  5
95E
330
1E
100
AcDbDictionary
280
     1
281
     1
  3
ACAD_XREC_ROUNDTRIP
360
95F
  0
DICTIONARY
  5
962
330
26
100
AcDbDictionary
280
     1
281
     1
  3
ACAD_XREC_ROUNDTRIP
360
963
  0
XRECORD
  5
961
102
{ACAD_REACTORS
330
960
102
}
330
960
100
AcDbXrecord
280
     1
102
SHADEPLOT
 70
     0
102
SHADEPLOTRESLEVEL
 70
     2
102
SHADEPLOTCUSTOMDPI
 70
   300
  0
XRECORD
  5
95F
102
{ACAD_REACTORS
330
95E
102
}
330
95E
100
AcDbXrecord
280
     1
102
SHADEPLOT
 70
     0
102
SHADEPLOTRESLEVEL
 70
     2
102
SHADEPLOTCUSTOMDPI
 70
   300
  0
XRECORD
  5
963
102
{ACAD_REACTORS
330
962
102
}
330
962
100
AcDbXrecord
280
     1
102
SHADEPLOT
 70
     0
102
SHADEPLOTRESLEVEL
 70
     2
102
SHADEPLOTCUSTOMDPI
 70
   300
  0
ENDSEC
  0
EOF
