  0
SECTION
  2
HEADER
  9
$ACADVER
  1
AC1015
  9
$ACADMAINTVER
 70
    20
  9
$DWGCODEPAGE
  3
ANSI_932
  9
$INSBASE
 10
0.0
 20
0.0
 30
0.0
  9
$EXTMIN
 10
-0.3140086676994542
 20
-0.0181263349739993
 30
-0.0000000349181948
  9
$EXTMAX
 10
380.2153458450414
 20
208.3178511535424
 30
0.0000000814935747
  9
$LIMMIN
 10
0.0
 20
0.0
  9
$LIMMAX
 10
420.0
 20
297.0
  9
$ORTHOMODE
 70
     0
  9
$REGENMODE
 70
     1
  9
$FILLMODE
 70
     1
  9
$QTEXTMODE
 70
     0
  9
$MIRRTEXT
 70
     1
  9
$LTSCALE
 40
1.0
  9
$ATTMODE
 70
     1
  9
$TEXTSIZE
 40
1.0
  9
$TRACEWID
 40
1.0
  9
$TEXTSTYLE
  7
ACISOTS
  9
$CLAYER
  8
AM_0
  9
$CELTYPE
  6
ByLayer
  9
$CECOLOR
 62
   256
  9
$CELTSCALE
 40
1.0
  9
$DISPSILH
 70
     0
  9
$DIMSCALE
 40
1.0
  9
$DIMASZ
 40
2.5
  9
$DIMEXO
 40
1.0
  9
$DIMDLI
 40
10.0
  9
$DIMRND
 40
0.0
  9
$DIMDLE
 40
0.0
  9
$DIMEXE
 40
1.0
  9
$DIMTP
 40
0.1
  9
$DIMTM
 40
0.1
  9
$DIMTXT
 40
3.5
  9
$DIMCEN
 40
0.0
  9
$DIMTSZ
 40
0.0
  9
$DIMTOL
 70
     0
  9
$DIMLIM
 70
     0
  9
$DIMTIH
 70
     0
  9
$DIMTOH
 70
     0
  9
$DIMSE1
 70
     0
  9
$DIMSE2
 70
     0
  9
$DIMTAD
 70
     1
  9
$DIMZIN
 70
     8
  9
$DIMBLK
  1

  9
$DIMASO
 70
     1
  9
$DIMSHO
 70
     1
  9
$DIMPOST
  1

  9
$DIMAPOST
  1
"
  9
$DIMALT
 70
     0
  9
$DIMALTD
 70
     2
  9
$DIMALTF
 40
0.0393701
  9
$DIMLFAC
 40
1.0
  9
$DIMTOFL
 70
     1
  9
$DIMTVP
 40
0.0
  9
$DIMTIX
 70
     0
  9
$DIMSOXD
 70
     0
  9
$DIMSAH
 70
     0
  9
$DIMBLK1
  1

  9
$DIMBLK2
  1

  9
$DIMSTYLE
  2
AM_ISO
  9
$DIMCLRD
 70
   256
  9
$DIMCLRE
 70
   256
  9
$DIMCLRT
 70
     2
  9
$DIMTFAC
 40
0.71
  9
$DIMGAP
 40
1.5
  9
$DIMJUST
 70
     0
  9
$DIMSD1
 70
     0
  9
$DIMSD2
 70
     0
  9
$DIMTOLJ
 70
     0
  9
$DIMTZIN
 70
     8
  9
$DIMALTZ
 70
     0
  9
$DIMALTTZ
 70
     0
  9
$DIMUPT
 70
     0
  9
$DIMDEC
 70
     2
  9
$DIMTDEC
 70
     3
  9
$DIMALTU
 70
     2
  9
$DIMALTTD
 70
     4
  9
$DIMTXSTY
  7
STANDARD
  9
$DIMAUNIT
 70
     0
  9
$DIMADEC
 70
     0
  9
$DIMALTRND
 40
0.0
  9
$DIMAZIN
 70
     2
  9
$DIMDSEP
 70
    46
  9
$DIMATFIT
 70
     3
  9
$DIMFRAC
 70
     0
  9
$DIMLDRBLK
  1

  9
$DIMLUNIT
 70
     2
  9
$DIMLWD
 70
    -1
  9
$DIMLWE
 70
    -1
  9
$DIMTMOVE
 70
     0
  9
$LUNITS
 70
     2
  9
$LUPREC
 70
     2
  9
$SKETCHINC
 40
1.0
  9
$FILLETRAD
 40
2.5
  9
$AUNITS
 70
     0
  9
$AUPREC
 70
     0
  9
$MENU
  1
.
  9
$ELEVATION
 40
0.0
  9
$PELEVATION
 40
0.0
  9
$THICKNESS
 40
0.0
  9
$LIMCHECK
 70
     0
  9
$CHAMFERA
 40
2.5
  9
$CHAMFERB
 40
2.5
  9
$CHAMFERC
 40
20.0
  9
$CHAMFERD
 40
0.0
  9
$SKPOLY
 70
     0
  9
$TDCREATE
 40
2456406.667290648
  9
$TDUCREATE
 40
2456406.292290648
  9
$TDUPDATE
 40
2456406.678245301
  9
$TDUUPDATE
 40
2456406.303245301
  9
$TDINDWG
 40
0.0033795718
  9
$TDUSRTIMER
 40
0.0033741435
  9
$USRTIMER
 70
     1
  9
$ANGBASE
 50
0.0
  9
$ANGDIR
 70
     0
  9
$PDMODE
 70
     0
  9
$PDSIZE
 40
0.0
  9
$PLINEWID
 40
0.0
  9
$SPLFRAME
 70
     0
  9
$SPLINETYPE
 70
     6
  9
$SPLINESEGS
 70
     8
  9
$HANDSEED
  5
85A
  9
$SURFTAB1
 70
     6
  9
$SURFTAB2
 70
     6
  9
$SURFTYPE
 70
     6
  9
$SURFU
 70
     6
  9
$SURFV
 70
     6
  9
$UCSBASE
  2

  9
$UCSNAME
  2

  9
$UCSORG
 10
0.0
 20
0.0
 30
0.0
  9
$UCSXDIR
 10
1.0
 20
0.0
 30
0.0
  9
$UCSYDIR
 10
0.0
 20
1.0
 30
0.0
  9
$UCSORTHOREF
  2

  9
$UCSORTHOVIEW
 70
     0
  9
$UCSORGTOP
 10
0.0
 20
0.0
 30
0.0
  9
$UCSORGBOTTOM
 10
0.0
 20
0.0
 30
0.0
  9
$UCSORGLEFT
 10
0.0
 20
0.0
 30
0.0
  9
$UCSORGRIGHT
 10
0.0
 20
0.0
 30
0.0
  9
$UCSORGFRONT
 10
0.0
 20
0.0
 30
0.0
  9
$UCSORGBACK
 10
0.0
 20
0.0
 30
0.0
  9
$PUCSBASE
  2

  9
$PUCSNAME
  2

  9
$PUCSORG
 10
0.0
 20
0.0
 30
0.0
  9
$PUCSXDIR
 10
1.0
 20
0.0
 30
0.0
  9
$PUCSYDIR
 10
0.0
 20
1.0
 30
0.0
  9
$PUCSORTHOREF
  2

  9
$PUCSORTHOVIEW
 70
     0
  9
$PUCSORGTOP
 10
0.0
 20
0.0
 30
0.0
  9
$PUCSORGBOTTOM
 10
0.0
 20
0.0
 30
0.0
  9
$PUCSORGLEFT
 10
0.0
 20
0.0
 30
0.0
  9
$PUCSORGRIGHT
 10
0.0
 20
0.0
 30
0.0
  9
$PUCSORGFRONT
 10
0.0
 20
0.0
 30
0.0
  9
$PUCSORGBACK
 10
0.0
 20
0.0
 30
0.0
  9
$USERI1
 70
     0
  9
$USERI2
 70
     0
  9
$USERI3
 70
     0
  9
$USERI4
 70
     0
  9
$USERI5
 70
     0
  9
$USERR1
 40
0.0
  9
$USERR2
 40
0.0
  9
$USERR3
 40
0.0
  9
$USERR4
 40
0.0
  9
$USERR5
 40
0.0
  9
$WORLDVIEW
 70
     1
  9
$SHADEDGE
 70
     3
  9
$SHADEDIF
 70
    70
  9
$TILEMODE
 70
     1
  9
$MAXACTVP
 70
    64
  9
$PINSBASE
 10
0.0
 20
0.0
 30
0.0
  9
$PLIMCHECK
 70
     0
  9
$PEXTMIN
 10
1.000000000000000E+20
 20
1.000000000000000E+20
 30
1.000000000000000E+20
  9
$PEXTMAX
 10
-1.000000000000000E+20
 20
-1.000000000000000E+20
 30
-1.000000000000000E+20
  9
$PLIMMIN
 10
0.0
 20
0.0
  9
$PLIMMAX
 10
420.0
 20
297.0
  9
$UNITMODE
 70
     0
  9
$VISRETAIN
 70
     1
  9
$PLINEGEN
 70
     0
  9
$PSLTSCALE
 70
     1
  9
$TREEDEPTH
 70
  3020
  9
$CMLSTYLE
  2
Standard
  9
$CMLJUST
 70
     0
  9
$CMLSCALE
 40
20.0
  9
$PROXYGRAPHICS
 70
     1
  9
$MEASUREMENT
 70
     1
  9
$CELWEIGHT
370
    -1
  9
$ENDCAPS
280
     0
  9
$JOINSTYLE
280
     0
  9
$LWDISPLAY
290
     0
  9
$INSUNITS
 70
     4
  9
$HYPERLINKBASE
  1

  9
$STYLESHEET
  1

  9
$XEDIT
290
     1
  9
$CEPSNTYPE
380
     0
  9
$PSTYLEMODE
290
     1
  9
$FINGERPRINTGUID
  2
{7E1E414B-2914-43DF-B772-DFD56953C2F8}
  9
$VERSIONGUID
  2
{FE8F3C63-1EB2-4409-889E-DA64E88CC6BC}
  9
$EXTNAMES
290
     1
  9
$PSVPSCALE
 40
0.0
  9
$OLESTARTUP
290
     0
  0
ENDSEC
  0
SECTION
  2
CLASSES
  0
CLASS
  1
ACDBDICTIONARYWDFLT
  2
AcDbDictionaryWithDefault
  3
ObjectDBX Classes
 90
        0
280
     0
281
     0
  0
CLASS
  1
ACDBPLACEHOLDER
  2
AcDbPlaceHolder
  3
ObjectDBX Classes
 90
        0
280
     0
281
     0
  0
CLASS
  1
LAYOUT
  2
AcDbLayout
  3
ObjectDBX Classes
 90
        0
280
     0
281
     0
  0
CLASS
  1
ACME_DOCUMENT
  2
AcMeDbDoc
  3
AcMeServices
 90
        0
280
     0
281
     0
  0
CLASS
  1
AMGSETTINGSOBJ
  2
AmgSettingsObj
  3
"AcadM|Product Description: AutoCAD Mechanical 2000|Company: Autodesk"
 90
        0
280
     0
281
     0
  0
CLASS
  1
ACMESCOPE
  2
AcMeScope
  3
AcMeServices
 90
        0
280
     0
281
     0
  0
CLASS
  1
ACMECOMMANDHISTORY
  2
AcMeCommandHistory
  3
AcMeServices
 90
        0
280
     0
281
     0
  0
CLASS
  1
ACIMSYSVARMAN
  2
AcImSysVarManager
  3
AcMeServices
 90
        0
280
     0
281
     0
  0
CLASS
  1
ACIMREALSYSVAR
  2
AcImRealSysVar
  3
AcMeServices
 90
        0
280
     0
281
     0
  0
CLASS
  1
ACIMINTSYSVAR
  2
AcImIntSysVar
  3
AcMeServices
 90
        0
280
     0
281
     0
  0
CLASS
  1
ACMEDRAWINGMAN
  2
AcMeDrawingMan
  3
AcMeServices
 90
        0
280
     0
281
     0
  0
CLASS
  1
ACMEVIEW
  2
AcMeView
  3
AcMeServices
 90
        0
280
     0
281
     0
  0
CLASS
  1
ACDBENTITYCACHE
  2
AcMeEntityCache
  3
AcMeServices
 90
        0
280
     0
281
     0
  0
CLASS
  1
GSMANAGER
  2
AcMeGSManager
  3
AcMeServices
 90
        0
280
     0
281
     0
  0
CLASS
  1
AMDTINTERNALREACTOR
  2
AmdtInternalReactor
  3
AcMeServices
 90
        0
280
     0
281
     0
  0
CLASS
  1
ACMESTATEMGR
  2
AcMeStateMgr
  3
AcMeServices
 90
        0
280
     0
281
     0
  0
CLASS
  1
ACGREFMASTER
  2
AcGrefMaster
  3
AcAttribServices
 90
        0
280
     0
281
     0
  0
CLASS
  1
ACME_DATABASE
  2
AcMeDbDatabase
  3
AcMeServices
 90
        0
280
     0
281
     0
  0
CLASS
  1
ACRFINSADJUSTERMGR
  2
AcRfInsAdjusterMgr
  3
AcMeServices
 90
        0
280
     0
281
     0
  0
CLASS
  1
ACGREFACADMASTER
  2
AcGrefacadMaster
  3
AcGrefServices
 90
        0
280
     0
281
     0
  0
CLASS
  1
AMIMASTER
  2
AmiMaster
  3
AmiServices
 90
        0
280
     0
281
     0
  0
CLASS
  1
ACMDATADICTIONARY
  2
AcmDataDictionary
  3
"AcmSymBB|Product Description: AutoCAD Mechanical 2004 DX|Company: Autodesk"
 90
        0
280
     0
281
     0
  0
CLASS
  1
ACMDATAENTRYBLOCK
  2
AcmDataEntryBlock
  3
"AcmSymBB|Product Description: AutoCAD Mechanical 2004 DX|Company: Autodesk"
 90
    32768
280
     0
281
     0
  0
CLASS
  1
ACIMSTRSYSVAR
  2
AcImStrSysVar
  3
AcMeServices
 90
        0
280
     0
281
     0
  0
CLASS
  1
ACMSTANDARDISO
  2
AcmStandardISO
  3
"Amdt_StdImp|Product Description: AutoCAD Mechanical 2004 DX|Company: Autodesk"
 90
    32768
280
     0
281
     0
  0
CLASS
  1
AMGOBJPROPCFG
  2
AmgObjPropCfg
  3
"AmgLay|Product Description: AutoCAD Mechanical 2000|Company: Autodesk"
 90
        1
280
     0
281
     0
  0
CLASS
  1
AMDTEDGESTANDARDISO
  2
AmdtEdgeStdISO
  3
"Amdt_StdImp|Product Description: AutoCAD Mechanical 2004 DX|Company: Autodesk"
 90
    32768
280
     0
281
     0
  0
CLASS
  1
ACMSURFSTANDARDISO
  2
AcmSurfTextStdISO
  3
"Amdt_StdImp|Product Description: AutoCAD Mechanical 2004 DX|Company: Autodesk"
 90
    32768
280
     0
281
     0
  0
CLASS
  1
ACMFCFSTANDARDISO
  2
AcmFCFStdISO
  3
"Amdt_StdImp|Product Description: AutoCAD Mechanical 2004 DX|Company: Autodesk"
 90
    32768
280
     0
281
     0
  0
CLASS
  1
ACMWELDSTANDARDISO
  2
AcmWeldingStdISO
  3
"Amdt_StdImp|Product Description: AutoCAD Mechanical 2004 DX|Company: Autodesk"
 90
    32768
280
     0
281
     0
  0
CLASS
  1
ACMIDSTANDARDISO
  2
AcmIdStdISO
  3
"Amdt_StdImp|Product Description: AutoCAD Mechanical 2004 DX|Company: Autodesk"
 90
    32768
280
     0
281
     0
  0
CLASS
  1
ACMDATUMSTANDARDISO
  2
AcmDatumStdISO
  3
"Amdt_StdImp|Product Description: AutoCAD Mechanical 2004 DX|Company: Autodesk"
 90
    32768
280
     0
281
     0
  0
CLASS
  1
ACMBOMSTANDARDISO
  2
AcmBOMStdISO
  3
"Amdt_StdImp|Product Description: AutoCAD Mechanical 2004 DX|Company: Autodesk"
 90
    32768
280
     0
281
     0
  0
CLASS
  1
ACMDETAILSTANDARDISO
  2
AmdtDetailSymStdISO
  3
"Amdt_StdImp|Product Description: AutoCAD Mechanical 2004 DX|Company: Autodesk"
 90
    32768
280
     0
281
     0
  0
CLASS
  1
ACMSECTIONSTANDARDISO
  2
AmdtSectionSymStdISO
  3
"Amdt_StdImp|Product Description: AutoCAD Mechanical 2004 DX|Company: Autodesk"
 90
    32768
280
     0
281
     0
  0
CLASS
  1
ACMCENTERLINESTANDARDISO
  2
AmdtCenterLineStdISO
  3
"Amdt_StdImp|Product Description: AutoCAD Mechanical 2004 DX|Company: Autodesk"
 90
    32768
280
     0
281
     0
  0
CLASS
  1
ACMNOTESTANDARDISO
  2
AmdtNoteStdISO
  3
"Amdt_StdImp|Product Description: AutoCAD Mechanical 2004 DX|Company: Autodesk"
 90
    32768
280
     0
281
     0
  0
CLASS
  1
ACAMGLAYSTD
  2
AcAmgLayStd
  3
"AcAmgLayStd|Product Description: AutoCAD Mechanical 2000|Company: Autodesk"
 90
        0
280
     0
281
     0
  0
CLASS
  1
ACAMGDIMSTD
  2
AcAmgDimStd
  3
"AcAmgDimStd|Product Description: AutoCAD Mechanical 2000|Company: Autodesk"
 90
        0
280
     0
281
     0
  0
CLASS
  1
ACAMGHOLECHARTSTDISO
  2
AcAmgHoleChartStdISO
  3
ACMSYMBB_MODULE_NAME
 90
    32768
280
     0
281
     0
  0
CLASS
  1
ACAMGTITLESTD
  2
AcAmgTitleStd
  3
"TITLEAPP"
 90
        0
280
     0
281
     0
  0
CLASS
  1
LAYER_INDEX
  2
AcDbLayerIndex
  3
ObjectDBX Classes
 90
    32768
280
     0
281
     0
  0
CLASS
  1
IDBUFFER
  2
AcDbIdBuffer
  3
ObjectDBX Classes
 90
    32768
280
     0
281
     0
  0
CLASS
  1
DICTIONARYVAR
  2
AcDbDictionaryVar
  3
ObjectDBX Classes
 90
        0
280
     0
281
     0
  0
CLASS
  1
AM_DRAWING_MGR
  2
AcDmDwgMgr
  3
AcMechDwgViewMgmt
 90
        0
280
     0
281
     0
  0
CLASS
  1
AM_DWG_DOCUMENT
  2
AcDmDwgDocument
  3
AcMechDwgViewMgmt
 90
        0
280
     0
281
     0
  0
CLASS
  1
AM_DWG_SHEET
  2
AcDmSheet
  3
AcMechDwgViewMgmt
 90
        0
280
     0
281
     0
  0
CLASS
  1
AM_VIEWDIMPARMAP
  2
AcDmViewDimParMap
  3
AcMechDwgViewMgmt
 90
        0
280
     0
281
     0
  0
CLASS
  1
AM_DWGMGR_NAME
  2
AcDmDwgMgrName
  3
AcMechDwgViewMgmt
 90
        0
280
     0
281
     0
  0
CLASS
  1
AMDTMENUSTATEMGR
  2
AmdtMenuStateMgr
  3
McadcomServices
 90
        0
280
     0
281
     0
  0
CLASS
  1
AMDTMCOMMENUSTATE
  2
AmdtMcomMenuState
  3
McadcomServices
 90
        0
280
     0
281
     0
  0
CLASS
  1
MAPIAMMOUDLE
  2
MApiAmModule
  3
MApiAmServices
 90
        0
280
     0
281
     0
  0
CLASS
  1
AMDTADMENUSTATE
  2
AmdtAdMenuState
  3
DesignerServices
 90
        0
280
     0
281
     0
  0
CLASS
  1
ADAPPL
  2
AcAdAppl
  3
DesignerServices
 90
        0
280
     0
281
     0
  0
CLASS
  1
DEPMGR
  2
AcAdDepMgr
  3
DesignerServices
 90
        0
280
     0
281
     0
  0
CLASS
  1
PARAMMGR
  2
AcAdParamMgr
  3
DesignerServices
 90
        0
280
     0
281
     0
  0
CLASS
  1
PARAMSCOPE
  2
AcAdParamScope
  3
DesignerServices
 90
        0
280
     0
281
     0
  0
CLASS
  1
NAMEDAPPL
  2
AcAdNamedAppl
  3
DesignerServices
 90
        0
280
     0
281
     0
  0
CLASS
  1
AMDTDMMENUSTATE
  2
AmdtDmMenuState
  3
AcMechDwgViewMgmt
 90
        0
280
     0
281
     0
  0
CLASS
  1
AMDTAMMENUSTATE
  2
AmdtAmMenuState
  3
DesignerAssemblies
 90
        0
280
     0
281
     0
  0
CLASS
  1
ACAMPROJECT
  2
AcAmProject
  3
DesignerAssemblies
 90
        0
280
     0
281
     0
  0
CLASS
  1
ACAMGRCOMPDEF
  2
AcAmGrCompDef
  3
DesignerAssemblies
 90
        0
280
     0
281
     0
  0
CLASS
  1
ACCMCONTEXT
  2
AcCmContext
  3
DesignerAssemblies
 90
        0
280
     0
281
     0
  0
CLASS
  1
ACAMCOMPDEF
  2
AcAmCompDef
  3
DesignerAssemblies
 90
        0
280
     0
281
     0
  0
CLASS
  1
ACAMCOMPDEFMGR
  2
AcAmCompDefMgr
  3
DesignerAssemblies
 90
        0
280
     0
281
     0
  0
CLASS
  1
AMCONTEXTMGR
  2
AcAmContextMgr
  3
DesignerAssemblies
 90
        0
280
     0
281
     0
  0
CLASS
  1
ACAMCONTEXTMODELER
  2
AcAmContextModeler
  3
DesignerAssemblies
 90
        0
280
     0
281
     0
  0
CLASS
  1
ACMTHREADLINESTANDARDISO
  2
AmdtThreadLineStdISO
  3
"Amdt_StdImp|Product Description: AutoCAD Mechanical 2004 DX|Company: Autodesk"
 90
    32768
280
     0
281
     0
  0
CLASS
  1
CATALOGSTATE
  2
AcAmCatalogState
  3
DesignerAssemblies
 90
        0
280
     0
281
     0
  0
CLASS
  1
ACAMGRCOMPDEFSET
  2
AcAmGrCompDefSet
  3
DesignerAssemblies
 90
        0
280
     0
281
     0
  0
CLASS
  1
AMDTBROWSERDBTAB
  2
AmdtBrowserDbTab
  3
McadcomServices
 90
        0
280
     0
281
     0
  0
CLASS
  1
CBROWSERAPPOBJECT
  2
CBrowserAppObject
  3
McadcomServices
 90
        0
280
     0
281
     0
  0
CLASS
  1
DM_PLACEHOLDER
  2
AcDmSelsetPlaceholder
  3
AcMechDwgViewMgmt
 90
        0
280
     0
281
     0
  0
CLASS
  1
TABLESTYLE
  2
AcDbTableStyle
  3
ObjectDBX Classes
 90
     2047
280
     0
281
     0
  0
CLASS
  1
VAACXREFPANELOBJECT
  2
VaAcXREFPanelObject
  3
VAAC_ADDIN
 90
    32768
280
     0
281
     0
  0
CLASS
  1
VAACIMAGEINVENTORY
  2
VaAcImageInventory
  3
VAAC_ADDIN
 90
    32768
280
     0
281
     0
  0
CLASS
  1
AMDTNOTETEMPLATEDB
  2
AmdtNoteTemplateDB
  3
AMDT_STDIMP_MODULE_NAME
 90
        0
280
     0
281
     0
  0
CLASS
  1
ACMBOM
  2
AcmBom
  3
"AcmSymBB|Product Description: AutoCAD Mechanical 2004 DX|Company: Autodesk"
 90
    32768
280
     0
281
     0
  0
CLASS
  1
AMDTFORMULAUPDATEDISPATCHER
  2
AmdtFormulaUpdateDispatcher
  3
AcMeServices
 90
    32768
280
     0
281
     0
  0
CLASS
  1
ACMPARTLIST
  2
AcmPartList
  3
"AcmSymBB|Product Description: AutoCAD Mechanical 2004 DX|Company: Autodesk"
 90
    33791
280
     0
281
     1
  0
CLASS
  1
ACAMGFILTERDAT
  2
AcAmgFilterDat
  3
"AcadM|Product Description: AutoCAD Mechanical 2000|Company: Autodesk"
 90
    32768
280
     0
281
     0
  0
CLASS
  1
SORTENTSTABLE
  2
AcDbSortentsTable
  3
ObjectDBX Classes
 90
        0
280
     0
281
     0
  0
CLASS
  1
ACMSTANDARDJIS
  2
AcmStandardJIS
  3
"Amdt_StdImp|Product Description: AutoCAD Mechanical 2004 DX|Company: Autodesk"
 90
        0
280
     0
281
     0
  0
CLASS
  1
ACMSURFSTANDARDJIS
  2
AcmSurfTextStdJIS
  3
"Amdt_StdImp|Product Description: AutoCAD Mechanical 2004 DX|Company: Autodesk"
 90
        0
280
     0
281
     0
  0
CLASS
  1
ACMFCFSTANDARDJIS
  2
AcmFCFStdJIS
  3
"Amdt_StdImp|Product Description: AutoCAD Mechanical 2004 DX|Company: Autodesk"
 90
        0
280
     0
281
     0
  0
CLASS
  1
ACMWELDSTANDARDJIS
  2
AcmWeldingStdJIS
  3
"Amdt_StdImp|Product Description: AutoCAD Mechanical 2004 DX|Company: Autodesk"
 90
        0
280
     0
281
     0
  0
CLASS
  1
ACMIDSTANDARDJIS
  2
AcmIdStdJIS
  3
"Amdt_StdImp|Product Description: AutoCAD Mechanical 2004 DX|Company: Autodesk"
 90
        0
280
     0
281
     0
  0
CLASS
  1
ACMDATUMSTANDARDJIS
  2
AcmDatumStdJIS
  3
"Amdt_StdImp|Product Description: AutoCAD Mechanical 2004 DX|Company: Autodesk"
 90
        0
280
     0
281
     0
  0
CLASS
  1
ACMBOMSTANDARDJIS
  2
AcmBOMStdJIS
  3
"Amdt_StdImp|Product Description: AutoCAD Mechanical 2004 DX|Company: Autodesk"
 90
        0
280
     0
281
     0
  0
CLASS
  1
ACMDETAILSTANDARDJIS
  2
AmdtDetailSymStdJIS
  3
"Amdt_StdImp|Product Description: AutoCAD Mechanical 2004 DX|Company: Autodesk"
 90
        0
280
     0
281
     0
  0
CLASS
  1
ACMSECTIONSTANDARDJIS
  2
AmdtSectionSymStdJIS
  3
"Amdt_StdImp|Product Description: AutoCAD Mechanical 2004 DX|Company: Autodesk"
 90
        0
280
     0
281
     0
  0
CLASS
  1
ACMCENTERLINESTANDARDJIS
  2
AmdtCenterLineStdJIS
  3
"Amdt_StdImp|Product Description: AutoCAD Mechanical 2004 DX|Company: Autodesk"
 90
        0
280
     0
281
     0
  0
CLASS
  1
ACMTHREADLINESTANDARDJIS
  2
AmdtThreadLineStdJIS
  3
"Amdt_StdImp|Product Description: AutoCAD Mechanical 2004 DX|Company: Autodesk"
 90
        0
280
     0
281
     0
  0
CLASS
  1
ACMNOTESTANDARDJIS
  2
AmdtNoteStdJIS
  3
"Amdt_StdImp|Product Description: AutoCAD Mechanical 2004 DX|Company: Autodesk"
 90
        0
280
     0
281
     0
  0
CLASS
  1
ACAMGHOLECHARTSTDJIS
  2
AcAmgHoleChartStdJIS
  3
ACMSYMBB_MODULE_NAME
 90
        0
280
     0
281
     0
  0
CLASS
  1
ACRFATTGENMGR
  2
AcRfAttGeneralMgr
  3
AcAttribServices
 90
    32768
280
     0
281
     0
  0
ENDSEC
  0
SECTION
  2
TABLES
  0
TABLE
  2
VPORT
  5
8
330
0
100
AcDbSymbolTable
 70
     3
  0
VPORT
  5
851
330
8
100
AcDbSymbolTableRecord
100
AcDbViewportTableRecord
  2
*Active
 70
     0
 10
0.0
 20
0.0
 11
1.0
 21
1.0
 12
189.9506685886709
 22
104.1498624092842
 13
0.0
 23
0.0
 14
2.5
 24
2.5
 15
10.0
 25
10.0
 16
0.0
 26
0.0
 36
1.0
 17
0.0
 27
0.0
 37
0.0
 40
419.2788702323634
 41
1.954070981210855
 42
50.0
 43
0.0
 44
0.0
 50
0.0
 51
0.0
 71
     0
 72
   100
 73
     1
 74
     3
 75
     0
 76
     0
 77
     0
 78
     0
281
     0
 65
     1
110
0.0
120
0.0
130
0.0
111
1.0
121
0.0
131
0.0
112
0.0
122
1.0
132
0.0
 79
     0
146
0.0
  0
ENDTAB
  0
TABLE
  2
LTYPE
  5
5
330
0
100
AcDbSymbolTable
 70
    16
  0
LTYPE
  5
14
330
5
100
AcDbSymbolTableRecord
100
AcDbLinetypeTableRecord
  2
ByBlock
 70
     0
  3

 72
    65
 73
     0
 40
0.0
  0
LTYPE
  5
15
330
5
100
AcDbSymbolTableRecord
100
AcDbLinetypeTableRecord
  2
ByLayer
 70
     0
  3

 72
    65
 73
     0
 40
0.0
  0
LTYPE
  5
16
330
5
100
AcDbSymbolTableRecord
100
AcDbLinetypeTableRecord
  2
Continuous
 70
     0
  3
Solid line
 72
    65
 73
     0
 40
0.0
  0
LTYPE
  5
64
330
5
100
AcDbSymbolTableRecord
100
AcDbLinetypeTableRecord
  2
AM_ISO02W050
 70
     0
  3
__ __ __ __ __ __ __ __ __ __ __ __ __ __ __
 72
    65
 73
     2
 40
7.5
 49
6.0
 74
     0
 49
-1.5
 74
     0
  0
LTYPE
  5
65
330
5
100
AcDbSymbolTableRecord
100
AcDbLinetypeTableRecord
  2
AM_ISO08W050
 70
     0
  3
____ . ____ . ____ . ____ . ____ . ____ . ____
 72
    65
 73
     4
 40
18.0
 49
12.0
 74
     0
 49
-1.5
 74
     0
 49
3.0
 74
     0
 49
-1.5
 74
     0
  0
LTYPE
  5
66
330
5
100
AcDbSymbolTableRecord
100
AcDbLinetypeTableRecord
  2
AM_ISO09W050
 70
     0
  3
_____ . . _____ . . _____ . . ____ .. ____
 72
    65
 73
     6
 40
22.5
 49
12.0
 74
     0
 49
-1.5
 74
     0
 49
3.0
 74
     0
 49
-1.5
 74
     0
 49
3.0
 74
     0
 49
-1.5
 74
     0
  0
LTYPE
  5
67
330
5
100
AcDbSymbolTableRecord
100
AcDbLinetypeTableRecord
  2
Amconstr
 70
     0
  3
_______________________
 72
    65
 73
     2
 40
9999.0
 49
9999.0
 74
     0
 49
0.0
 74
     0
  0
LTYPE
  5
68
330
5
100
AcDbSymbolTableRecord
100
AcDbLinetypeTableRecord
  2
AM_ISO08W050x2
 70
     0
  3
__ . __ . __ . __ . __ . __
 72
    65
 73
     4
 40
9.0
 49
6.0
 74
     0
 49
-0.75
 74
     0
 49
1.5
 74
     0
 49
-0.75
 74
     0
  0
LTYPE
  5
69
330
5
100
AcDbSymbolTableRecord
100
AcDbLinetypeTableRecord
  2
AM_ISO02W050x2
 70
     0
  3
 _ _ _ _ _ _ _ _ _ _ _ _
 72
    65
 73
     2
 40
3.75
 49
3.0
 74
     0
 49
-0.75
 74
     0
  0
LTYPE
  5
6C
330
5
100
AcDbSymbolTableRecord
100
AcDbLinetypeTableRecord
  2
Amzigzag
 70
     0
  3
/\/-/\/-/\/-/\/-/\/-/\/
 72
    65
 73
     2
 40
11.0001
 49
0.0001
 74
     4
 75
   135
340
6B
 46
0.04
 50
0.0
 44
0.0
 45
0.0
 49
-11.0
 74
     0
  0
LTYPE
  5
7A
330
5
100
AcDbSymbolTableRecord
100
AcDbLinetypeTableRecord
  2
ACISOWELD
 70
     0
  3
_ _ _ _ _
 72
    65
 73
     2
 40
2.0
 49
2.0
 74
     0
 49
-1.0
 74
     0
  0
LTYPE
  5
7B
330
5
100
AcDbSymbolTableRecord
100
AcDbLinetypeTableRecord
  2
ACISOTGB
 70
     0
  3
__ . . __ . .
 72
    65
 73
     6
 40
9.0
 49
4.0
 74
     0
 49
-1.0
 74
     0
 49
1.0
 74
     0
 49
-1.0
 74
     0
 49
1.0
 74
     0
 49
-1.0
 74
     0
  0
LTYPE
  5
7C
330
5
100
AcDbSymbolTableRecord
100
AcDbLinetypeTableRecord
  2
ACISOTGL
 70
     0
  3
_ _ _ _ _
 72
    65
 73
     2
 40
3.0
 49
2.0
 74
     0
 49
-1.0
 74
     0
  0
LTYPE
  5
7E
330
5
100
AcDbSymbolTableRecord
100
AcDbLinetypeTableRecord
  2
CENTER
 70
     0
  3
__ . __
 72
    65
 73
     4
 40
7.0
 49
4.0
 74
     0
 49
-1.0
 74
     0
 49
1.0
 74
     0
 49
-1.0
 74
     0
  0
LTYPE
  5
D8
330
5
100
AcDbSymbolTableRecord
100
AcDbLinetypeTableRecord
  2
HIDDEN
 70
     0
  3
Hidden __ __ __ __ __ __ __ __ __ __ __ __ __ _
 72
    65
 73
     2
 40
9.524999999999996
 49
6.349999999999998
 74
     0
 49
-3.174999999999998
 74
     0
  0
LTYPE
  5
D9
330
5
100
AcDbSymbolTableRecord
100
AcDbLinetypeTableRecord
  2
PHANTOM2
 70
     0
  3
Phantom (.5x) ___ _ _ ___ _ _ ___ _ _ ___ _ _
 72
    65
 73
     6
 40
31.75
 49
15.875
 74
     0
 49
-3.174999999999998
 74
     0
 49
3.174999999999998
 74
     0
 49
-3.174999999999998
 74
     0
 49
3.174999999999998
 74
     0
 49
-3.174999999999998
 74
     0
  0
LTYPE
  5
207
330
5
100
AcDbSymbolTableRecord
100
AcDbLinetypeTableRecord
  2
ACJISTGB
 70
     0
  3
__ . . __ . .
 72
    65
 73
     6
 40
9.0
 49
4.0
 74
     0
 49
-1.0
 74
     0
 49
1.0
 74
     0
 49
-1.0
 74
     0
 49
1.0
 74
     0
 49
-1.0
 74
     0
  0
LTYPE
  5
208
330
5
100
AcDbSymbolTableRecord
100
AcDbLinetypeTableRecord
  2
ACJISTGL
 70
     0
  3
_ _ _ _ _
 72
    65
 73
     2
 40
3.0
 49
2.0
 74
     0
 49
-1.0
 74
     0
  0
ENDTAB
  0
TABLE
  2
LAYER
  5
2
102
{ACAD_XDICTIONARY
360
219
102
}
330
0
100
AcDbSymbolTable
 70
     3
  0
LAYER
  5
10
330
2
100
AcDbSymbolTableRecord
100
AcDbLayerTableRecord
  2
0
 70
     0
 62
     7
  6
Continuous
370
    -3
390
F
  0
LAYER
  5
1B0
330
2
100
AcDbSymbolTableRecord
100
AcDbLayerTableRecord
  2
AM_5
 70
     0
 62
     3
  6
Continuous
370
    25
390
F
  0
LAYER
  5
1FD
330
2
100
AcDbSymbolTableRecord
100
AcDbLayerTableRecord
  2
AM_0
 70
     0
 62
     7
  6
Continuous
370
    50
390
F
  0
ENDTAB
  0
TABLE
  2
STYLE
  5
3
330
0
100
AcDbSymbolTable
 70
     9
  0
STYLE
  5
11
330
3
100
AcDbSymbolTableRecord
100
AcDbTextStyleTableRecord
  2
STANDARD
 70
     0
 40
0.0
 41
1.0
 50
0.0
 71
     0
 42
2.5
  3
ISOCP.SHX
  4
extfont.shx
  0
STYLE
  5
6B
330
3
100
AcDbSymbolTableRecord
100
AcDbTextStyleTableRecord
  2

 70
     1
 40
0.0
 41
1.0
 50
0.0
 71
     0
 42
2.5
  3
ltypeshp.shx
  4

  0
STYLE
  5
6D
330
3
100
AcDbSymbolTableRecord
100
AcDbTextStyleTableRecord
  2
ACISOTS
 70
     0
 40
1.0
 41
1.0
 50
0.0
 71
     0
 42
1.0
  3
isocp.shx
  4
extfont.shx
  0
STYLE
  5
79
330
3
100
AcDbSymbolTableRecord
100
AcDbTextStyleTableRecord
  2
ACISOGDT
 70
     0
 40
0.0
 41
1.0
 50
0.0
 71
     0
 42
2.5
  3
amgdt.shx
  4
extfont.shx
  0
STYLE
  5
1F8
330
3
100
AcDbSymbolTableRecord
100
AcDbTextStyleTableRecord
  2
USER1
 70
     0
 40
0.0
 41
1.0
 50
0.0
 71
     0
 42
1.0
  3
TXT.SHX
  4

  0
STYLE
  5
1F9
330
3
100
AcDbSymbolTableRecord
100
AcDbTextStyleTableRecord
  2
USER2
 70
     0
 40
0.0
 41
1.0
 50
0.0
 71
     0
 42
1.0
  3
SIMPLEX.SHX
  4

  0
STYLE
  5
1FA
330
3
100
AcDbSymbolTableRecord
100
AcDbTextStyleTableRecord
  2
USER3
 70
     0
 40
0.0
 41
1.0
 50
0.0
 71
     0
 42
1.0
  3
ITALIC.SHX
  4

  0
STYLE
  5
1FB
330
3
100
AcDbSymbolTableRecord
100
AcDbTextStyleTableRecord
  2
ACJISTS
 70
     0
 40
1.0
 41
1.0
 50
0.0
 71
     0
 42
2.5
  3
isocp.shx
  4
extfont.shx
  0
STYLE
  5
1FC
330
3
100
AcDbSymbolTableRecord
100
AcDbTextStyleTableRecord
  2
ACJISGDT
 70
     0
 40
0.0
 41
1.0
 50
0.0
 71
     0
 42
2.5
  3
amgdt.shx
  4
extfont.shx
  0
ENDTAB
  0
TABLE
  2
VIEW
  5
6
330
0
100
AcDbSymbolTable
 70
     0
  0
ENDTAB
  0
TABLE
  2
UCS
  5
7
330
0
100
AcDbSymbolTable
 70
     0
  0
ENDTAB
  0
TABLE
  2
APPID
  5
9
330
0
100
AcDbSymbolTable
 70
    17
  0
APPID
  5
12
330
9
100
AcDbSymbolTableRecord
100
AcDbRegAppTableRecord
  2
ACAD
 70
     0
  0
APPID
  5
46
330
9
100
AcDbSymbolTableRecord
100
AcDbRegAppTableRecord
  2
MCAD_NO_VIS
 70
     0
  0
APPID
  5
47
330
9
100
AcDbSymbolTableRecord
100
AcDbRegAppTableRecord
  2
ACAD_TEMP_GRAPHIC
 70
     0
  0
APPID
  5
58
330
9
100
AcDbSymbolTableRecord
100
AcDbRegAppTableRecord
  2
ACATTRIBSERVICES
 70
     0
  0
APPID
  5
EE
330
9
100
AcDbSymbolTableRecord
100
AcDbRegAppTableRecord
  2
AD_DRAW
 70
     0
  0
APPID
  5
10C
330
9
100
AcDbSymbolTableRecord
100
AcDbRegAppTableRecord
  2
DESIGNERASSEMBLIES
 70
     0
  0
APPID
  5
111
330
9
100
AcDbSymbolTableRecord
100
AcDbRegAppTableRecord
  2
ACADM_DIM_EDIT
 70
     0
  0
APPID
  5
112
330
9
100
AcDbSymbolTableRecord
100
AcDbRegAppTableRecord
  2
AMDT_DM_ADJ
 70
     0
  0
APPID
  5
210
330
9
100
AcDbSymbolTableRecord
100
AcDbRegAppTableRecord
  2
GENIUS_GENREC_14
 70
     0
  0
APPID
  5
211
330
9
100
AcDbSymbolTableRecord
100
AcDbRegAppTableRecord
  2
GENIUS_GENODEF_13
 70
     0
  0
APPID
  5
212
330
9
100
AcDbSymbolTableRecord
100
AcDbRegAppTableRecord
  2
GENIUS_GENOBJ-N-REC_13
 70
     0
  0
APPID
  5
213
330
9
100
AcDbSymbolTableRecord
100
AcDbRegAppTableRecord
  2
GENIUS_GENOBJ-N-FIL_13
 70
     0
  0
APPID
  5
214
330
9
100
AcDbSymbolTableRecord
100
AcDbRegAppTableRecord
  2
GENIUS_GENOREF_13
 70
     0
  0
APPID
  5
215
330
9
100
AcDbSymbolTableRecord
100
AcDbRegAppTableRecord
  2
GENIUS_GENOBJ-N-CEN_13
 70
     0
  0
APPID
  5
216
330
9
100
AcDbSymbolTableRecord
100
AcDbRegAppTableRecord
  2
GENIUS_GENCEN_19
 70
     0
  0
APPID
  5
217
330
9
100
AcDbSymbolTableRecord
100
AcDbRegAppTableRecord
  2
GENIUS_GENFIL_13
 70
     0
  0
APPID
  5
218
330
9
100
AcDbSymbolTableRecord
100
AcDbRegAppTableRecord
  2
GENIUS_GENOBJ-N-CHA_13
 70
     0
  0
ENDTAB
  0
TABLE
  2
DIMSTYLE
  5
A
330
0
100
AcDbSymbolTable
 70
    16
100
AcDbDimStyleTable
 71
     2
340
81
340
1FE
  0
DIMSTYLE
105
27
330
A
100
AcDbSymbolTableRecord
100
AcDbDimStyleTableRecord
  2
ISO-25
 70
     0
 41
2.5
 42
0.625
 43
3.75
 44
1.25
 73
     0
 74
     0
 77
     1
 78
     8
140
2.5
141
2.5
143
0.03937007874016
147
0.625
171
     3
172
     1
271
     2
272
     2
274
     3
278
    44
283
     0
284
     8
340
11
  0
DIMSTYLE
105
81
330
A
100
AcDbSymbolTableRecord
100
AcDbDimStyleTableRecord
  2
AM_ISO
 70
     0
  4
"
 41
2.5
 42
1.0
 43
10.0
 44
1.0
 47
0.1
 48
0.1
 73
     0
 74
     0
 77
     1
 78
     8
 79
     2
140
3.5
141
0.0
143
0.0393701
146
0.71
147
1.5
172
     1
176
   256
177
   256
178
     2
271
     2
272
     3
274
     4
283
     0
284
     8
340
11
371
    -1
372
    -1
  0
DIMSTYLE
105
82
330
A
100
AcDbSymbolTableRecord
100
AcDbDimStyleTableRecord
  2
AM_ISO$3
 70
     0
  4
"
 41
2.5
 42
1.0
 43
10.0
 44
1.0
 47
0.1
 48
0.1
 73
     0
 77
     1
 78
     8
 79
     2
140
3.5
141
0.0
143
0.0393701
146
0.71
147
1.5
176
   256
177
   256
178
     2
271
     2
272
     3
274
     4
283
     0
284
     8
288
     1
289
     0
340
11
371
    -1
372
    -1
  0
DIMSTYLE
105
83
330
A
100
AcDbSymbolTableRecord
100
AcDbDimStyleTableRecord
  2
AM_ISO$4
 70
     0
  4
"
 41
2.5
 42
1.0
 43
10.0
 44
1.0
 47
0.1
 48
0.1
 73
     0
 77
     1
 78
     8
 79
     2
140
3.5
141
0.0
143
0.0393701
146
0.71
147
1.5
176
   256
177
   256
178
     2
271
     2
272
     3
274
     4
283
     0
284
     8
288
     1
289
     0
340
11
371
    -1
372
    -1
  0
DIMSTYLE
105
84
330
A
100
AcDbSymbolTableRecord
100
AcDbDimStyleTableRecord
  2
AM_ISO$6
 70
     0
  4
"
 41
2.5
 42
1.0
 43
10.0
 44
1.0
 47
0.1
 48
0.1
 73
     0
 74
     0
 78
     8
 79
     2
140
3.5
141
0.0
143
0.0393701
146
0.71
147
1.5
172
     1
176
   256
177
   256
178
     2
271
     2
272
     3
274
     4
283
     0
284
     8
340
11
371
    -1
372
    -1
  0
DIMSTYLE
105
85
330
A
100
AcDbSymbolTableRecord
100
AcDbDimStyleTableRecord
  2
AM_ISO$7
 70
     0
  4
"
 41
2.5
 42
1.0
 43
10.0
 44
1.0
 47
0.1
 48
0.1
 73
     0
 74
     0
 77
     1
 78
     8
 79
     2
140
5.0
141
0.0
143
0.0393701
146
0.71
147
1.5
172
     1
176
   256
177
   256
178
     2
271
     2
272
     3
274
     4
283
     0
284
     8
340
11
371
    -1
372
    -1
  0
DIMSTYLE
105
86
330
A
100
AcDbSymbolTableRecord
100
AcDbDimStyleTableRecord
  2
AM_ISO$SF
 70
     0
  4
"
 41
2.5
 42
1.0
 43
10.0
 44
1.0
 47
0.1
 48
0.1
 73
     0
 74
     0
 75
     1
 76
     1
 77
     1
 78
     8
 79
     2
140
3.5
141
0.0
143
0.0393701
146
0.71
147
1.5
172
     1
176
   256
177
   256
178
     2
271
     2
272
     3
274
     4
283
     0
284
     8
340
11
371
    -1
372
    -1
  0
DIMSTYLE
105
8B
330
A
100
AcDbSymbolTableRecord
100
AcDbDimStyleTableRecord
  2
AM_ISO$SH
 70
     0
  4
"
 41
2.5
 42
1.0
 43
10.0
 44
1.0
 47
0.1
 48
0.1
 73
     0
 74
     0
 75
     1
 76
     1
 77
     1
 78
     8
 79
     2
140
3.5
141
0.0
143
0.0393701
144
2.0
146
0.71
147
1.5
172
     1
173
     1
176
   256
177
   256
178
     2
271
     2
272
     3
274
     4
283
     0
284
     8
340
11
343
87
371
    -1
372
    -1
  0
DIMSTYLE
105
1FE
330
A
100
AcDbSymbolTableRecord
100
AcDbDimStyleTableRecord
  2
AM_JIS
 70
     0
  4
"
 41
2.5
 42
1.0
 43
10.0
 44
1.0
 47
0.1
 48
0.1
 73
     0
 74
     0
 77
     3
 78
     8
 79
     2
140
3.5
141
0.0
143
0.0393701
146
0.71
147
1.5
172
     1
176
   256
177
   256
178
     2
271
     2
272
     3
274
     4
283
     0
284
     8
340
11
341
1FF
342
1FF
343
1FF
344
1FF
371
    -1
372
    -1
  0
DIMSTYLE
105
209
330
A
100
AcDbSymbolTableRecord
100
AcDbDimStyleTableRecord
  2
AM_JIS$3
 70
     0
  4
"
 41
2.5
 42
1.0
 43
10.0
 44
1.0
 47
0.1
 48
0.1
 73
     0
 77
     3
 78
     8
 79
     2
140
3.5
141
0.0
143
0.0393701
146
0.71
147
1.5
176
   256
177
   256
178
     2
271
     2
272
     3
274
     4
283
     0
284
     8
288
     1
289
     0
340
11
341
1FF
342
1FF
343
1FF
344
1FF
371
    -1
372
    -1
  0
DIMSTYLE
105
20A
330
A
100
AcDbSymbolTableRecord
100
AcDbDimStyleTableRecord
  2
AM_JIS$4
 70
     0
  4
"
 41
2.5
 42
1.0
 43
10.0
 44
1.0
 47
0.1
 48
0.1
 73
     0
 77
     3
 78
     8
 79
     2
140
3.5
141
0.0
143
0.0393701
146
0.71
147
1.5
176
   256
177
   256
178
     2
271
     2
272
     3
274
     4
283
     0
284
     8
288
     1
289
     0
340
11
341
1FF
342
1FF
343
1FF
344
1FF
371
    -1
372
    -1
  0
DIMSTYLE
105
20B
330
A
100
AcDbSymbolTableRecord
100
AcDbDimStyleTableRecord
  2
AM_JIS$6
 70
     0
  4
"
 41
2.5
 42
1.0
 43
10.0
 44
1.0
 47
0.1
 48
0.1
 73
     0
 74
     0
 78
     8
 79
     2
140
3.5
141
0.0
143
0.0393701
146
0.71
147
1.5
172
     1
176
   256
177
   256
178
     2
271
     2
272
     3
274
     4
283
     0
284
     8
340
11
341
1FF
342
1FF
343
1FF
344
1FF
371
    -1
372
    -1
  0
DIMSTYLE
105
20C
330
A
100
AcDbSymbolTableRecord
100
AcDbDimStyleTableRecord
  2
AM_JIS$7
 70
     0
  4
"
 41
2.5
 42
1.0
 43
10.0
 44
1.0
 47
0.1
 48
0.1
 73
     0
 74
     0
 77
     3
 78
     8
 79
     2
140
3.5
141
0.0
143
0.0393701
146
0.71
147
1.5
172
     1
176
   256
177
   256
178
     2
271
     2
272
     3
274
     4
283
     0
284
     8
340
11
341
1FF
342
1FF
343
1FF
344
1FF
371
    -1
372
    -1
  0
DIMSTYLE
105
20D
330
A
100
AcDbSymbolTableRecord
100
AcDbDimStyleTableRecord
  2
AM_JIS$SF
 70
     0
  4
"
 41
2.5
 42
1.0
 43
10.0
 44
1.0
 47
0.1
 48
0.1
 73
     0
 74
     0
 75
     1
 76
     1
 77
     3
 78
     8
 79
     2
140
3.5
141
0.0
143
0.0393701
146
0.71
147
1.5
172
     1
176
   256
177
   256
178
     2
271
     2
272
     3
274
     4
283
     0
284
     8
340
11
341
1FF
342
1FF
343
1FF
344
1FF
371
    -1
372
    -1
  0
DIMSTYLE
105
20E
330
A
100
AcDbSymbolTableRecord
100
AcDbDimStyleTableRecord
  2
AM_JIS$SH
 70
     0
  4
"
 41
2.5
 42
1.0
 43
10.0
 44
1.0
 47
0.1
 48
0.1
 73
     0
 74
     0
 75
     1
 76
     1
 77
     3
 78
     8
 79
     2
140
3.5
141
0.0
143
0.0393701
144
2.0
146
0.71
147
1.5
172
     1
173
     1
176
   256
177
   256
178
     2
271
     2
272
     3
274
     4
283
     0
284
     8
340
11
341
1FF
342
1FF
343
87
344
1FF
371
    -1
372
    -1
  0
DIMSTYLE
105
20F
330
A
100
AcDbSymbolTableRecord
100
AcDbDimStyleTableRecord
  2
AM_JIS$0
 70
     0
  4
"
 40
1.25
 41
2.5
 42
1.0
 43
10.0
 44
1.0
 47
0.1
 48
0.1
 73
     0
 74
     0
 77
     3
 78
     8
 79
     2
140
2.799999999999998
141
0.0
143
0.0393701
146
0.71
147
1.0
172
     1
176
   256
177
   256
178
     2
271
     2
272
     2
283
     0
284
     8
289
     1
340
11
341
1FF
342
1FF
371
    -1
372
    -1
  0
ENDTAB
  0
TABLE
  2
BLOCK_RECORD
  5
1
330
0
100
AcDbSymbolTable
 70
     4
  0
BLOCK_RECORD
  5
1F
102
{ACAD_XDICTIONARY
360
8F
102
}
330
1
100
AcDbSymbolTableRecord
100
AcDbBlockTableRecord
  2
*Model_Space
340
22
  0
BLOCK_RECORD
  5
1B
330
1
100
AcDbSymbolTableRecord
100
AcDbBlockTableRecord
  2
*Paper_Space
340
1E
  0
BLOCK_RECORD
  5
23
330
1
100
AcDbSymbolTableRecord
100
AcDbBlockTableRecord
  2
*Paper_Space0
340
26
  0
BLOCK_RECORD
  5
87
330
1
100
AcDbSymbolTableRecord
100
AcDbBlockTableRecord
  2
GENAXEH
340
0
  0
BLOCK_RECORD
  5
1FF
330
1
100
AcDbSymbolTableRecord
100
AcDbBlockTableRecord
  2
_Open30
340
0
  0
ENDTAB
  0
ENDSEC
  0
SECTION
  2
BLOCKS
  0
BLOCK
  5
20
330
1F
100
AcDbEntity
  8
0
100
AcDbBlockBegin
  2
*Model_Space
 70
     0
 10
0.0
 20
0.0
 30
0.0
  3
*Model_Space
  1

  0
ENDBLK
  5
21
330
1F
100
AcDbEntity
  8
0
100
AcDbBlockEnd
  0
BLOCK
  5
1C
330
1B
100
AcDbEntity
 67
     1
  8
0
100
AcDbBlockBegin
  2
*Paper_Space
 70
     0
 10
0.0
 20
0.0
 30
0.0
  3
*Paper_Space
  1

  0
ENDBLK
  5
1D
330
1B
100
AcDbEntity
 67
     1
  8
0
100
AcDbBlockEnd
  0
BLOCK
  5
24
330
23
100
AcDbEntity
  8
0
100
AcDbBlockBegin
  2
*Paper_Space0
 70
     0
 10
0.0
 20
0.0
 30
0.0
  3
*Paper_Space0
  1

  0
ENDBLK
  5
25
330
23
100
AcDbEntity
  8
0
100
AcDbBlockEnd
  0
BLOCK
  5
845
330
87
100
AcDbEntity
  8
0
100
AcDbBlockBegin
  2
GENAXEH
 70
     0
 10
0.0
 20
0.0
 30
0.0
  3
GENAXEH
  1

  0
LINE
  5
846
330
87
100
AcDbEntity
  8
0
100
AcDbLine
 10
-1.0
 20
0.0
 30
0.0
 11
1.0
 21
0.0
 31
0.0
  0
ENDBLK
  5
847
330
87
100
AcDbEntity
  8
0
100
AcDbBlockEnd
  0
BLOCK
  5
839
330
1FF
100
AcDbEntity
  8
0
100
AcDbBlockBegin
  2
_Open30
 70
     0
 10
0.0
 20
0.0
 30
0.0
  3
_Open30
  1

  0
LINE
  5
83A
330
1FF
100
AcDbEntity
  8
0
  6
ByBlock
 62
     0
370
    -2
100
AcDbLine
 10
-1.0
 20
0.26794919
 30
0.0
 11
0.0
 21
0.0
 31
0.0
  0
LINE
  5
83B
330
1FF
100
AcDbEntity
  8
0
  6
ByBlock
 62
     0
370
    -2
100
AcDbLine
 10
0.0
 20
0.0
 30
0.0
 11
-1.0
 21
-0.26794919
 31
0.0
  0
LINE
  5
83C
330
1FF
100
AcDbEntity
  8
0
  6
ByBlock
 62
     0
370
    -2
100
AcDbLine
 10
0.0
 20
0.0
 30
0.0
 11
-1.0
 21
0.0
 31
0.0
  0
ENDBLK
  5
83D
330
1FF
100
AcDbEntity
  8
0
100
AcDbBlockEnd
  0
ENDSEC
  0
SECTION
  2
ENTITIES
  0
LINE
  5
4E8
330
1F
100
AcDbEntity
  8
0
100
AcDbLine
 10
372.1499990878841
 20
32.00000003589221
 30
0.0
 11
372.1499990878841
 21
70.15828515385661
 31
0.0
  0
LINE
  5
4E9
330
1F
100
AcDbEntity
  8
0
100
AcDbLine
 10
376.249999087884
 20
32.00000003589241
 30
0.0
 11
376.249999087884
 21
67.81542801099853
 31
0.0
  0
LINE
  5
4EA
330
1F
100
AcDbEntity
  8
0
100
AcDbLine
 10
376.249999087884
 20
69.81542801099951
 30
0.0
 11
376.249999087884
 21
109.3000000358923
 31
0.0
  0
LINE
  5
4EB
330
1F
100
AcDbEntity
  8
0
100
AcDbLine
 10
376.249999087884
 20
69.81542801099951
 30
0.0
 11
372.1499990878855
 21
72.15828515385581
 31
0.0
  0
LINE
  5
4EC
330
1F
100
AcDbEntity
  8
0
100
AcDbLine
 10
376.2499990878857
 20
67.8154280109986
 30
0.0
 11
372.1499990878855
 21
70.15828515385582
 31
0.0
  0
LINE
  5
4ED
330
1F
100
AcDbEntity
  8
0
100
AcDbLine
 10
372.1499990878855
 20
72.15828515385581
 30
0.0
 11
372.1499990878855
 21
109.3000000358923
 31
0.0
  0
LINE
  5
4EE
330
1F
100
AcDbEntity
  8
0
100
AcDbLine
 10
220.549999087884
 20
32.00000003589393
 30
0.0
 11
220.5499990878841
 21
67.81542801100124
 31
0.0
  0
LINE
  5
4EF
330
1F
100
AcDbEntity
  8
0
100
AcDbLine
 10
216.4499990878841
 20
32.00000003589411
 30
0.0
 11
216.4499990878841
 21
70.15828515385831
 31
0.0
  0
LINE
  5
4F0
330
1F
100
AcDbEntity
  8
0
100
AcDbLine
 10
216.4499990878841
 20
72.15828515385831
 30
0.0
 11
216.4499990878841
 21
100.3000000358923
 31
0.0
  0
LINE
  5
4F1
330
1F
100
AcDbEntity
  8
0
100
AcDbLine
 10
220.5499990878826
 20
69.81542801100201
 30
0.0
 11
220.5499990878826
 21
100.3000000358924
 31
0.0
  0
LINE
  5
4F2
330
1F
100
AcDbEntity
  8
0
100
AcDbLine
 10
220.5499990878826
 20
69.81542801100201
 30
0.0
 11
216.4499990878841
 21
72.15828515385831
 31
0.0
  0
LINE
  5
4F3
330
1F
100
AcDbEntity
  8
0
100
AcDbLine
 10
220.5499990878841
 20
67.81542801100124
 30
0.0
 11
216.4499990878841
 21
70.15828515385831
 31
0.0
  0
LINE
  5
4F4
330
1F
100
AcDbEntity
  8
0
100
AcDbLine
 10
221.499999087884
 20
3.000000035893917
 30
0.0
 11
221.499999087884
 21
32.00000003589393
 31
0.0
  0
LINE
  5
4F5
330
1F
100
AcDbEntity
  8
0
100
AcDbLine
 10
215.4999990878839
 20
3.000000035893917
 30
0.0
 11
215.4999990878839
 21
32.00000003589393
 31
0.0
  0
ARC
  5
4F6
330
1F
100
AcDbEntity
  8
0
100
AcDbCircle
 10
218.4999990878841
 20
3.000000035893917
 30
0.0
 40
2.999999999999998
100
AcDbArc
 50
180.0
 51
0.0
  0
LINE
  5
4F7
330
1F
100
AcDbEntity
  8
0
100
AcDbLine
 10
215.4999990878839
 20
32.00000003589393
 30
0.0
 11
221.499999087884
 21
32.00000003589393
 31
0.0
  0
LINE
  5
4F8
330
1F
100
AcDbEntity
  8
0
100
AcDbLine
 10
377.199999087884
 20
3.00000003589231
 30
0.0
 11
377.199999087884
 21
32.00000003589233
 31
0.0
  0
LINE
  5
4F9
330
1F
100
AcDbEntity
  8
0
100
AcDbLine
 10
371.199999087884
 20
3.00000003589231
 30
0.0
 11
371.199999087884
 21
32.00000003589233
 31
0.0
  0
ARC
  5
4FA
330
1F
100
AcDbEntity
  8
0
100
AcDbCircle
 10
374.199999087884
 20
3.00000003589231
 30
0.0
 40
2.999999999999998
100
AcDbArc
 50
180.0
 51
0.0
  0
LINE
  5
4FB
330
1F
100
AcDbEntity
  8
0
100
AcDbLine
 10
371.199999087884
 20
32.00000003589233
 30
0.0
 11
377.199999087884
 21
32.00000003589233
 31
0.0
  0
LINE
  5
4FC
330
1F
100
AcDbEntity
  8
0
100
AcDbLine
 10
163.449999087885
 20
103.8500000358924
 30
0.0
 11
163.449999087885
 21
160.7500000358927
 31
0.0
  0
LINE
  5
4FD
330
1F
100
AcDbEntity
  8
0
100
AcDbLine
 10
166.9999990878849
 20
160.8000000358923
 30
0.0
 11
166.9999990878848
 21
103.8000000358923
 31
0.0
  0
LINE
  5
4FE
330
1F
100
AcDbEntity
  8
0
100
AcDbLine
 10
167.2999990878849
 20
160.8000000358923
 30
0.0
 11
167.2999990878849
 21
145.3000000358923
 31
0.0
  0
LINE
  5
4FF
330
1F
100
AcDbEntity
  8
0
100
AcDbLine
 10
167.2999990878849
 20
135.3000000358923
 30
0.0
 11
167.2999990878849
 21
103.8000000358923
 31
0.0
  0
ARC
  5
500
330
1F
100
AcDbEntity
  8
0
100
AcDbCircle
 10
163.4999990878848
 20
160.8000000358923
 30
0.0
 40
3.5
100
AcDbArc
 50
0.0
 51
90.0
1001
GENIUS_GENODEF_13
1002
{
1000
HIER
1070
     0
1002
}
1002
{
1000
MANEDIT
1070
     0
1002
}
1002
{
1000
NOSEL
1070
     0
1002
}
1002
{
1000
BEHIND
1070
     0
1002
}
1002
{
1000
OTHER
1070
     0
1002
}
1002
{
1000
REACTOR
1002
}
1001
GENIUS_GENOBJ-N-FIL_13
1002
{
1000
OWNER
1000
GEN
1002
}
  0
ARC
  5
501
330
1F
100
AcDbEntity
  8
0
100
AcDbCircle
 10
163.4999990878848
 20
160.8000000358923
 30
0.0
 40
3.799999999999998
100
AcDbArc
 50
0.0
 51
90.0
1001
GENIUS_GENODEF_13
1002
{
1000
HIER
1070
     0
1002
}
1002
{
1000
MANEDIT
1070
     0
1002
}
1002
{
1000
NOSEL
1070
     0
1002
}
1002
{
1000
BEHIND
1070
     0
1002
}
1002
{
1000
OTHER
1070
     0
1002
}
1002
{
1000
REACTOR
1002
}
1001
GENIUS_GENOBJ-N-FIL_13
1002
{
1000
OWNER
1000
GEN
1002
}
  0
LINE
  5
502
330
1F
100
AcDbEntity
  8
0
100
AcDbLine
 10
76.49999908788494
 20
160.8000000358923
 30
0.0
 11
76.49999908788503
 21
103.8000000358923
 31
0.0
  0
LINE
  5
503
330
1F
100
AcDbEntity
  8
0
100
AcDbLine
 10
76.49999908788494
 20
164.3000000358922
 30
0.0
 11
163.4999990878848
 21
164.3000000358922
 31
0.0
  0
LINE
  5
504
330
1F
100
AcDbEntity
  8
0
100
AcDbLine
 10
76.49999908788494
 20
164.6000000358923
 30
0.0
 11
163.4999990878848
 21
164.6000000358923
 31
0.0
  0
LINE
  5
505
330
1F
100
AcDbEntity
  8
0
100
AcDbLine
 10
76.49999908788494
 20
160.8000000358923
 30
0.0
 11
163.4999990878848
 21
160.8000000358923
 31
0.0
  0
LINE
  5
506
330
1F
100
AcDbEntity
  8
0
100
AcDbLine
 10
76.49999908788503
 20
100.3000000358923
 30
0.0
 11
163.4999990878849
 21
100.3000000358923
 31
0.0
  0
LINE
  5
507
330
1F
100
AcDbEntity
  8
0
100
AcDbLine
 10
76.49999908788503
 20
100.0000000358923
 30
0.0
 11
163.4999990878849
 21
100.0000000358923
 31
0.0
  0
LINE
  5
508
330
1F
100
AcDbEntity
  8
0
100
AcDbLine
 10
76.49999908788503
 20
103.8000000358923
 30
0.0
 11
163.4999990878849
 21
103.8000000358923
 31
0.0
  0
ARC
  5
509
330
1F
100
AcDbEntity
  8
0
100
AcDbCircle
 10
163.4999990878848
 20
103.8000000358923
 30
0.0
 40
3.5
100
AcDbArc
 50
270.0
 51
0.0
1001
GENIUS_GENODEF_13
1002
{
1000
HIER
1070
     0
1002
}
1002
{
1000
MANEDIT
1070
     0
1002
}
1002
{
1000
NOSEL
1070
     0
1002
}
1002
{
1000
BEHIND
1070
     0
1002
}
1002
{
1000
OTHER
1070
     0
1002
}
1002
{
1000
REACTOR
1002
}
1001
GENIUS_GENOBJ-N-FIL_13
1002
{
1000
OWNER
1000
GEN
1002
}
  0
ARC
  5
50A
330
1F
100
AcDbEntity
  8
0
100
AcDbCircle
 10
163.4999990878848
 20
103.8000000358923
 30
0.0
 40
3.799999999999998
100
AcDbArc
 50
270.0
 51
0.0
1001
GENIUS_GENODEF_13
1002
{
1000
HIER
1070
     0
1002
}
1002
{
1000
MANEDIT
1070
     0
1002
}
1002
{
1000
NOSEL
1070
     0
1002
}
1002
{
1000
BEHIND
1070
     0
1002
}
1002
{
1000
OTHER
1070
     0
1002
}
1002
{
1000
REACTOR
1002
}
1001
GENIUS_GENOBJ-N-FIL_13
1002
{
1000
OWNER
1000
GEN
1002
}
  0
LINE
  5
50B
330
1F
100
AcDbEntity
  8
0
100
AcDbLine
 10
72.99999908788494
 20
160.8000000358923
 30
0.0
 11
72.99999908788494
 21
103.8000000358923
 31
0.0
  0
LINE
  5
50C
330
1F
100
AcDbEntity
  8
0
100
AcDbLine
 10
72.69999908788495
 20
160.8000000358923
 30
0.0
 11
72.69999908788495
 21
103.8000000358923
 31
0.0
  0
ARC
  5
50D
330
1F
100
AcDbEntity
  8
0
100
AcDbCircle
 10
76.49999908788494
 20
160.8000000358923
 30
0.0
 40
3.5
100
AcDbArc
 50
90.0
 51
180.0
1001
GENIUS_GENODEF_13
1002
{
1000
HIER
1070
     0
1002
}
1002
{
1000
MANEDIT
1070
     0
1002
}
1002
{
1000
NOSEL
1070
     0
1002
}
1002
{
1000
BEHIND
1070
     0
1002
}
1002
{
1000
OTHER
1070
     0
1002
}
1002
{
1000
REACTOR
1002
}
1001
GENIUS_GENOBJ-N-FIL_13
1002
{
1000
OWNER
1000
GEN
1002
}
  0
ARC
  5
50E
330
1F
100
AcDbEntity
  8
0
100
AcDbCircle
 10
76.49999908788494
 20
160.8000000358923
 30
0.0
 40
3.799999999999998
100
AcDbArc
 50
90.0
 51
180.0
1001
GENIUS_GENODEF_13
1002
{
1000
HIER
1070
     0
1002
}
1002
{
1000
MANEDIT
1070
     0
1002
}
1002
{
1000
NOSEL
1070
     0
1002
}
1002
{
1000
BEHIND
1070
     0
1002
}
1002
{
1000
OTHER
1070
     0
1002
}
1002
{
1000
REACTOR
1002
}
1001
GENIUS_GENOBJ-N-FIL_13
1002
{
1000
OWNER
1000
GEN
1002
}
  0
ARC
  5
50F
330
1F
100
AcDbEntity
  8
0
100
AcDbCircle
 10
76.49999908788494
 20
103.8000000358923
 30
0.0
 40
3.5
100
AcDbArc
 50
180.0
 51
270.0
1001
GENIUS_GENODEF_13
1002
{
1000
HIER
1070
     0
1002
}
1002
{
1000
MANEDIT
1070
     0
1002
}
1002
{
1000
NOSEL
1070
     0
1002
}
1002
{
1000
BEHIND
1070
     0
1002
}
1002
{
1000
OTHER
1070
     0
1002
}
1002
{
1000
REACTOR
1002
}
1001
GENIUS_GENOBJ-N-FIL_13
1002
{
1000
OWNER
1000
GEN
1002
}
  0
ARC
  5
510
330
1F
100
AcDbEntity
  8
0
100
AcDbCircle
 10
76.49999908788494
 20
103.8000000358923
 30
0.0
 40
3.799999999999998
100
AcDbArc
 50
180.0
 51
270.0
1001
GENIUS_GENODEF_13
1002
{
1000
HIER
1070
     0
1002
}
1002
{
1000
MANEDIT
1070
     0
1002
}
1002
{
1000
NOSEL
1070
     0
1002
}
1002
{
1000
BEHIND
1070
     0
1002
}
1002
{
1000
OTHER
1070
     0
1002
}
1002
{
1000
REACTOR
1002
}
1001
GENIUS_GENOBJ-N-FIL_13
1002
{
1000
OWNER
1000
GEN
1002
}
  0
LINE
  5
511
330
1F
100
AcDbEntity
  8
0
100
AcDbLine
 10
76.54999908788489
 20
118.8500000358925
 30
0.0
 11
163.449999087885
 21
118.8500000358925
 31
0.0
  0
LINE
  5
512
330
1F
100
AcDbEntity
  8
0
100
AcDbLine
 10
76.54999908788489
 20
103.8500000358924
 30
0.0
 11
76.54999908788477
 21
160.7500000358926
 31
0.0
  0
LINE
  5
513
330
1F
100
AcDbEntity
  8
0
100
AcDbLine
 10
163.449999087885
 20
160.7500000358927
 30
0.0
 11
76.54999908788477
 21
160.7500000358926
 31
0.0
  0
LINE
  5
514
330
1F
100
AcDbEntity
  8
0
100
AcDbLine
 10
76.54999908788489
 20
103.8500000358924
 30
0.0
 11
163.449999087885
 21
103.8500000358924
 31
0.0
  0
LINE
  5
515
330
1F
100
AcDbEntity
  8
0
100
AcDbLine
 10
89.49999908788479
 20
125.6000000358923
 30
0.0
 11
150.4999990878848
 21
125.6000000358923
 31
0.0
1001
GENIUS_GENREC_14
1002
{
1000
PYDIR
1011
89.99999908788479
1021
151.6000000358926
1031
0.0
1002
}
1002
{
1000
PXDIR
1011
149.9999990878849
1021
126.1000000358923
1031
0.0
1002
}
1002
{
1000
PORI
1011
89.99999908788479
1021
126.1000000358923
1031
0.0
1002
}
1002
{
1000
PINS
1011
89.99999908788479
1021
126.1000000358923
1031
0.0
1002
}
1002
{
1000
PINS2
1011
149.9999990878849
1021
151.6000000358926
1031
0.0
1002
}
1002
{
1000
C
1070
     1
1002
}
1001
GENIUS_GENOBJ-N-REC_13
1002
{
1000
OWNER
1000
GEN
1002
}
1001
GENIUS_GENODEF_13
1002
{
1000
HIER
1070
     0
1002
}
1002
{
1000
MANEDIT
1070
     0
1002
}
1002
{
1000
NOSEL
1070
     0
1002
}
1002
{
1000
BEHIND
1070
     0
1002
}
1002
{
1000
OTHER
1070
     0
1002
}
1002
{
1000
REACTOR
1002
}
  0
LINE
  5
516
330
1F
100
AcDbEntity
  8
0
100
AcDbLine
 10
150.4999990878848
 20
125.6000000358923
 30
0.0
 11
150.4999990878848
 21
152.1000000358926
 31
0.0
1001
GENIUS_GENREC_14
1002
{
1000
PYDIR
1011
89.99999908788479
1021
151.6000000358926
1031
0.0
1002
}
1002
{
1000
PXDIR
1011
149.9999990878849
1021
126.1000000358923
1031
0.0
1002
}
1002
{
1000
PORI
1011
89.99999908788479
1021
126.1000000358923
1031
0.0
1002
}
1002
{
1000
PINS
1011
89.99999908788479
1021
126.1000000358923
1031
0.0
1002
}
1002
{
1000
PINS2
1011
149.9999990878849
1021
151.6000000358926
1031
0.0
1002
}
1002
{
1000
C
1070
     1
1002
}
1001
GENIUS_GENOBJ-N-REC_13
1002
{
1000
OWNER
1000
GEN
1002
}
1001
GENIUS_GENODEF_13
1002
{
1000
HIER
1070
     0
1002
}
1002
{
1000
MANEDIT
1070
     0
1002
}
1002
{
1000
NOSEL
1070
     0
1002
}
1002
{
1000
BEHIND
1070
     0
1002
}
1002
{
1000
OTHER
1070
     0
1002
}
1002
{
1000
REACTOR
1002
}
  0
LINE
  5
517
330
1F
100
AcDbEntity
  8
0
100
AcDbLine
 10
150.4999990878848
 20
152.1000000358926
 30
0.0
 11
89.49999908788479
 21
152.1000000358926
 31
0.0
1001
GENIUS_GENREC_14
1002
{
1000
PYDIR
1011
89.99999908788479
1021
151.6000000358926
1031
0.0
1002
}
1002
{
1000
PXDIR
1011
149.9999990878849
1021
126.1000000358923
1031
0.0
1002
}
1002
{
1000
PORI
1011
89.99999908788479
1021
126.1000000358923
1031
0.0
1002
}
1002
{
1000
PINS
1011
89.99999908788479
1021
126.1000000358923
1031
0.0
1002
}
1002
{
1000
PINS2
1011
149.9999990878849
1021
151.6000000358926
1031
0.0
1002
}
1002
{
1000
C
1070
     1
1002
}
1001
GENIUS_GENOBJ-N-REC_13
1002
{
1000
OWNER
1000
GEN
1002
}
1001
GENIUS_GENODEF_13
1002
{
1000
HIER
1070
     0
1002
}
1002
{
1000
MANEDIT
1070
     0
1002
}
1002
{
1000
NOSEL
1070
     0
1002
}
1002
{
1000
BEHIND
1070
     0
1002
}
1002
{
1000
OTHER
1070
     0
1002
}
1002
{
1000
REACTOR
1002
}
  0
LINE
  5
518
330
1F
100
AcDbEntity
  8
0
100
AcDbLine
 10
89.49999908788479
 20
152.1000000358926
 30
0.0
 11
89.49999908788479
 21
125.6000000358923
 31
0.0
1001
GENIUS_GENREC_14
1002
{
1000
PYDIR
1011
89.99999908788479
1021
151.6000000358926
1031
0.0
1002
}
1002
{
1000
PXDIR
1011
149.9999990878849
1021
126.1000000358923
1031
0.0
1002
}
1002
{
1000
PORI
1011
89.99999908788479
1021
126.1000000358923
1031
0.0
1002
}
1002
{
1000
PINS
1011
89.99999908788479
1021
126.1000000358923
1031
0.0
1002
}
1002
{
1000
PINS2
1011
149.9999990878849
1021
151.6000000358926
1031
0.0
1002
}
1002
{
1000
C
1070
     1
1002
}
1001
GENIUS_GENOBJ-N-REC_13
1002
{
1000
OWNER
1000
GEN
1002
}
1001
GENIUS_GENODEF_13
1002
{
1000
HIER
1070
     0
1002
}
1002
{
1000
MANEDIT
1070
     0
1002
}
1002
{
1000
NOSEL
1070
     0
1002
}
1002
{
1000
BEHIND
1070
     0
1002
}
1002
{
1000
OTHER
1070
     0
1002
}
1002
{
1000
REACTOR
1002
}
  0
ARC
  5
519
330
1F
100
AcDbEntity
  8
0
100
AcDbCircle
 10
153.4999990878848
 20
153.1000000358924
 30
0.0
 40
1.0
100
AcDbArc
 50
0.0
 51
90.0
1001
GENIUS_GENREC_14
1002
{
1000
PYDIR
1011
89.99999908788479
1021
152.6000000358926
1031
0.0
1002
}
1002
{
1000
PXDIR
1011
149.9999990878849
1021
126.1000000358923
1031
0.0
1002
}
1002
{
1000
PORI
1011
89.99999908788479
1021
126.1000000358923
1031
0.0
1002
}
1002
{
1000
PINS
1011
89.99999908788479
1021
126.1000000358923
1031
0.0
1002
}
1002
{
1000
PINS2
1011
149.9999990878849
1021
152.6000000358926
1031
0.0
1002
}
1002
{
1000
C
1070
     1
1002
}
1001
GENIUS_GENOBJ-N-REC_13
1002
{
1000
OWNER
1000
GEN
1002
}
1001
GENIUS_GENOBJ-N-FIL_13
1002
{
1000
OWNER
1000
GEN
1002
}
1001
GENIUS_GENODEF_13
1002
{
1000
HIER
1070
     0
1002
}
1002
{
1000
MANEDIT
1070
     0
1002
}
1002
{
1000
NOSEL
1070
     0
1002
}
1002
{
1000
BEHIND
1070
     0
1002
}
1002
{
1000
OTHER
1070
     0
1002
}
1002
{
1000
REACTOR
1002
}
  0
LINE
  5
51A
330
1F
100
AcDbEntity
  8
0
100
AcDbLine
 10
85.4999990878848
 20
153.1000000358924
 30
0.0
 11
85.4999990878848
 21
124.6000000358924
 31
0.0
1001
GENIUS_GENREC_14
1002
{
1000
PYDIR
1011
89.99999908788479
1021
152.6000000358926
1031
0.0
1002
}
1002
{
1000
PXDIR
1011
149.9999990878849
1021
125.1000000358923
1031
0.0
1002
}
1002
{
1000
PORI
1011
89.99999908788479
1021
125.1000000358923
1031
0.0
1002
}
1002
{
1000
PINS
1011
89.99999908788479
1021
125.1000000358923
1031
0.0
1002
}
1002
{
1000
PINS2
1011
149.9999990878849
1021
152.6000000358926
1031
0.0
1002
}
1002
{
1000
C
1070
     1
1002
}
1001
GENIUS_GENOBJ-N-REC_13
1002
{
1000
OWNER
1000
GEN
1002
}
1001
GENIUS_GENODEF_13
1002
{
1000
HIER
1070
     0
1002
}
1002
{
1000
MANEDIT
1070
     0
1002
}
1002
{
1000
NOSEL
1070
     0
1002
}
1002
{
1000
BEHIND
1070
     0
1002
}
1002
{
1000
OTHER
1070
     0
1002
}
1002
{
1000
REACTOR
1002
}
  0
ARC
  5
51B
330
1F
100
AcDbEntity
  8
0
100
AcDbCircle
 10
86.49999908788483
 20
153.1000000358924
 30
0.0
 40
1.0
100
AcDbArc
 50
90.0
 51
180.0
1001
GENIUS_GENREC_14
1002
{
1000
PYDIR
1011
89.99999908788479
1021
152.6000000358926
1031
0.0
1002
}
1002
{
1000
PXDIR
1011
149.9999990878849
1021
126.1000000358923
1031
0.0
1002
}
1002
{
1000
PORI
1011
89.99999908788479
1021
126.1000000358923
1031
0.0
1002
}
1002
{
1000
PINS
1011
89.99999908788479
1021
126.1000000358923
1031
0.0
1002
}
1002
{
1000
PINS2
1011
149.9999990878849
1021
152.6000000358926
1031
0.0
1002
}
1002
{
1000
C
1070
     1
1002
}
1001
GENIUS_GENOBJ-N-REC_13
1002
{
1000
OWNER
1000
GEN
1002
}
1001
GENIUS_GENOBJ-N-FIL_13
1002
{
1000
OWNER
1000
GEN
1002
}
1001
GENIUS_GENODEF_13
1002
{
1000
HIER
1070
     0
1002
}
1002
{
1000
MANEDIT
1070
     0
1002
}
1002
{
1000
NOSEL
1070
     0
1002
}
1002
{
1000
BEHIND
1070
     0
1002
}
1002
{
1000
OTHER
1070
     0
1002
}
1002
{
1000
REACTOR
1002
}
  0
LINE
  5
51C
330
1F
100
AcDbEntity
  8
0
100
AcDbLine
 10
86.49999908788492
 20
123.6000000358923
 30
0.0
 11
153.4999990878848
 21
123.6000000358923
 31
0.0
1001
GENIUS_GENREC_14
1002
{
1000
PYDIR
1011
89.99999908788479
1021
151.6000000358926
1031
0.0
1002
}
1002
{
1000
PXDIR
1011
149.9999990878849
1021
125.1000000358923
1031
0.0
1002
}
1002
{
1000
PORI
1011
89.99999908788479
1021
125.1000000358923
1031
0.0
1002
}
1002
{
1000
PINS
1011
89.99999908788479
1021
125.1000000358923
1031
0.0
1002
}
1002
{
1000
PINS2
1011
149.9999990878849
1021
151.6000000358926
1031
0.0
1002
}
1002
{
1000
C
1070
     1
1002
}
1001
GENIUS_GENOBJ-N-REC_13
1002
{
1000
OWNER
1000
GEN
1002
}
1001
GENIUS_GENODEF_13
1002
{
1000
HIER
1070
     0
1002
}
1002
{
1000
MANEDIT
1070
     0
1002
}
1002
{
1000
NOSEL
1070
     0
1002
}
1002
{
1000
BEHIND
1070
     0
1002
}
1002
{
1000
OTHER
1070
     0
1002
}
1002
{
1000
REACTOR
1002
}
  0
ARC
  5
51D
330
1F
100
AcDbEntity
  8
0
100
AcDbCircle
 10
153.4999990878848
 20
124.6000000358924
 30
0.0
 40
1.0
100
AcDbArc
 50
270.0
 51
0.0
1001
GENIUS_GENREC_14
1002
{
1000
PYDIR
1011
89.99999908788479
1021
151.6000000358926
1031
0.0
1002
}
1002
{
1000
PXDIR
1011
149.9999990878849
1021
125.1000000358923
1031
0.0
1002
}
1002
{
1000
PORI
1011
89.99999908788479
1021
125.1000000358923
1031
0.0
1002
}
1002
{
1000
PINS
1011
89.99999908788479
1021
125.1000000358923
1031
0.0
1002
}
1002
{
1000
PINS2
1011
149.9999990878849
1021
151.6000000358926
1031
0.0
1002
}
1002
{
1000
C
1070
     1
1002
}
1001
GENIUS_GENOBJ-N-REC_13
1002
{
1000
OWNER
1000
GEN
1002
}
1001
GENIUS_GENODEF_13
1002
{
1000
HIER
1070
     0
1002
}
1002
{
1000
MANEDIT
1070
     0
1002
}
1002
{
1000
NOSEL
1070
     0
1002
}
1002
{
1000
BEHIND
1070
     0
1002
}
1002
{
1000
OTHER
1070
     0
1002
}
1002
{
1000
REACTOR
1002
}
1001
GENIUS_GENOBJ-N-FIL_13
1002
{
1000
OWNER
1000
GEN
1002
}
  0
ARC
  5
51E
330
1F
100
AcDbEntity
  8
0
100
AcDbCircle
 10
86.49999908788492
 20
124.6000000358924
 30
0.0
 40
1.0
100
AcDbArc
 50
180.0
 51
270.0
1001
GENIUS_GENREC_14
1002
{
1000
PYDIR
1011
89.99999908788479
1021
151.6000000358926
1031
0.0
1002
}
1002
{
1000
PXDIR
1011
149.9999990878849
1021
125.1000000358923
1031
0.0
1002
}
1002
{
1000
PORI
1011
89.99999908788479
1021
125.1000000358923
1031
0.0
1002
}
1002
{
1000
PINS
1011
89.99999908788479
1021
125.1000000358923
1031
0.0
1002
}
1002
{
1000
PINS2
1011
149.9999990878849
1021
151.6000000358926
1031
0.0
1002
}
1002
{
1000
C
1070
     1
1002
}
1001
GENIUS_GENOBJ-N-REC_13
1002
{
1000
OWNER
1000
GEN
1002
}
1001
GENIUS_GENODEF_13
1002
{
1000
HIER
1070
     0
1002
}
1002
{
1000
MANEDIT
1070
     0
1002
}
1002
{
1000
NOSEL
1070
     0
1002
}
1002
{
1000
BEHIND
1070
     0
1002
}
1002
{
1000
OTHER
1070
     0
1002
}
1002
{
1000
REACTOR
1002
}
1001
GENIUS_GENOBJ-N-FIL_13
1002
{
1000
OWNER
1000
GEN
1002
}
  0
LINE
  5
51F
330
1F
100
AcDbEntity
  8
0
100
AcDbLine
 10
153.4999990878848
 20
154.1000000358925
 30
0.0
 11
86.49999908788483
 21
154.1000000358925
 31
0.0
1001
GENIUS_GENREC_14
1002
{
1000
PYDIR
1011
89.99999908788479
1021
152.6000000358926
1031
0.0
1002
}
1002
{
1000
PXDIR
1011
149.9999990878849
1021
126.1000000358923
1031
0.0
1002
}
1002
{
1000
PORI
1011
89.99999908788479
1021
126.1000000358923
1031
0.0
1002
}
1002
{
1000
PINS
1011
89.99999908788479
1021
126.1000000358923
1031
0.0
1002
}
1002
{
1000
PINS2
1011
149.9999990878849
1021
152.6000000358926
1031
0.0
1002
}
1002
{
1000
C
1070
     1
1002
}
1001
GENIUS_GENOBJ-N-REC_13
1002
{
1000
OWNER
1000
GEN
1002
}
1001
GENIUS_GENODEF_13
1002
{
1000
HIER
1070
     0
1002
}
1002
{
1000
MANEDIT
1070
     0
1002
}
1002
{
1000
NOSEL
1070
     0
1002
}
1002
{
1000
BEHIND
1070
     0
1002
}
1002
{
1000
OTHER
1070
     0
1002
}
1002
{
1000
REACTOR
1002
}
  0
LINE
  5
520
330
1F
100
AcDbEntity
  8
0
100
AcDbLine
 10
76.54999908788489
 20
103.8500000358924
 30
0.0
 11
76.54999908788489
 21
118.8500000358925
 31
0.0
  0
LINE
  5
521
330
1F
100
AcDbEntity
  8
0
100
AcDbLine
 10
76.54999908788489
 20
103.8500000358924
 30
0.0
 11
163.449999087885
 21
103.8500000358924
 31
0.0
  0
ELLIPSE
  5
522
330
1F
100
AcDbEntity
  8
0
100
AcDbEllipse
 10
114.2004393487451
 20
105.7656977103109
 30
0.0
 11
1.00276584225578
 21
0.0000000000000003
 31
0.0
210
0.0
220
0.0
230
1.0
 40
0.6522657033973506
 41
0.3314984999878012
 42
5.951686807191784
  0
ELLIPSE
  5
523
330
1F
100
AcDbEntity
  8
0
100
AcDbEllipse
 10
114.0915940351552
 20
105.7656977103109
 30
0.0
 11
1.591594947270215
 21
0.0000000000000061
 31
0.0
210
0.0
220
0.0
230
1.0
 40
0.5753333635477742
 41
0.7175354078333669
 42
6.048567121221497
  0
LINE
  5
524
330
1F
100
AcDbEntity
  8
0
100
AcDbLine
 10
115.6395843312626
 20
105.5528239620287
 30
0.0
 11
115.1486103097303
 21
105.5528239620287
 31
0.0
  0
LINE
  5
525
330
1F
100
AcDbEntity
  8
0
100
AcDbLine
 10
115.6395339716059
 20
105.9785714585933
 30
0.0
 11
115.1486103097303
 21
105.9785714585933
 31
0.0
  0
LINE
  5
526
330
1F
100
AcDbEntity
  8
0
100
AcDbLine
 10
115.2907471219602
 20
106.6813953847295
 30
0.0
 11
115.2907471219602
 21
106.3677961977103
 31
0.0
  0
LINE
  5
527
330
1F
100
AcDbEntity
  8
0
100
AcDbLine
 10
115.6395339716059
 20
106.6813953847295
 30
0.0
 11
115.2907471219602
 21
106.6813953847295
 31
0.0
  0
LINE
  5
528
330
1F
100
AcDbEntity
  8
0
100
AcDbLine
 10
115.6395339716059
 20
105.9785714585933
 30
0.0
 11
115.6395339716059
 21
106.6813953847295
 31
0.0
  0
LINE
  5
529
330
1F
100
AcDbEntity
  8
0
100
AcDbLine
 10
118.0377897855594
 20
106.4197674777529
 30
0.0
 11
118.0377897855594
 21
105.9183139893807
 31
0.0
  0
LINE
  5
52A
330
1F
100
AcDbEntity
  8
0
100
AcDbLine
 10
116.9912781576524
 20
106.4197674777529
 30
0.0
 11
116.9912781576524
 21
105.9183139893807
 31
0.0
  0
LINE
  5
52B
330
1F
100
AcDbEntity
  8
0
100
AcDbLine
 10
116.2936037390477
 20
106.4197674777529
 30
0.0
 11
116.2936037390477
 21
105.1116279428691
 31
0.0
  0
LINE
  5
52C
330
1F
100
AcDbEntity
  8
0
100
AcDbLine
 10
118.735464204164
 20
106.4197674777529
 30
0.0
 11
118.735464204164
 21
105.1116279428691
 31
0.0
  0
LINE
  5
52D
330
1F
100
AcDbEntity
  8
0
100
AcDbLine
 10
116.9912781576524
 20
105.9183139893807
 30
0.0
 11
118.0377897855594
 21
105.9183139893807
 31
0.0
  0
LINE
  5
52E
330
1F
100
AcDbEntity
  8
0
100
AcDbLine
 10
116.9912781576524
 20
105.6130814312412
 30
0.0
 11
118.0377897855594
 21
105.6130814312412
 31
0.0
  0
LINE
  5
52F
330
1F
100
AcDbEntity
  8
0
100
AcDbLine
 10
117.3401153669548
 20
105.1116279428691
 30
0.0
 11
116.9912781576524
 21
105.1116279428691
 31
0.0
  0
LINE
  5
530
330
1F
100
AcDbEntity
  8
0
100
AcDbLine
 10
117.3401153669548
 20
104.8500000358924
 30
0.0
 11
115.9447665297454
 21
104.8500000358924
 31
0.0
  0
LINE
  5
531
330
1F
100
AcDbEntity
  8
0
100
AcDbLine
 10
115.9447665297454
 20
105.1116279428691
 30
0.0
 11
115.9447665297454
 21
104.8500000358924
 31
0.0
  0
LINE
  5
532
330
1F
100
AcDbEntity
  8
0
100
AcDbLine
 10
116.2936037390477
 20
105.1116279428691
 30
0.0
 11
115.9447665297454
 21
105.1116279428691
 31
0.0
  0
LINE
  5
533
330
1F
100
AcDbEntity
  8
0
100
AcDbLine
 10
116.9912781576524
 20
105.6130814312412
 30
0.0
 11
116.9912781576524
 21
105.1116279428691
 31
0.0
  0
LINE
  5
534
330
1F
100
AcDbEntity
  8
0
100
AcDbLine
 10
119.0843014134663
 20
104.8500000358924
 30
0.0
 11
117.688952576257
 21
104.8500000358924
 31
0.0
  0
LINE
  5
535
330
1F
100
AcDbEntity
  8
0
100
AcDbLine
 10
117.688952576257
 20
105.1116279428691
 30
0.0
 11
117.688952576257
 21
104.8500000358924
 31
0.0
  0
LINE
  5
536
330
1F
100
AcDbEntity
  8
0
100
AcDbLine
 10
117.3401153669548
 20
105.1116279428691
 30
0.0
 11
117.3401153669548
 21
104.8500000358924
 31
0.0
  0
LINE
  5
537
330
1F
100
AcDbEntity
  8
0
100
AcDbLine
 10
118.0377897855594
 20
105.1116279428691
 30
0.0
 11
117.688952576257
 21
105.1116279428691
 31
0.0
  0
LINE
  5
538
330
1F
100
AcDbEntity
  8
0
100
AcDbLine
 10
118.0377897855594
 20
105.6130814312412
 30
0.0
 11
118.0377897855594
 21
105.1116279428691
 31
0.0
  0
LINE
  5
539
330
1F
100
AcDbEntity
  8
0
100
AcDbLine
 10
119.0843014134663
 20
105.1116279428691
 30
0.0
 11
119.0843014134663
 21
104.8500000358924
 31
0.0
  0
LINE
  5
53A
330
1F
100
AcDbEntity
  8
0
100
AcDbLine
 10
119.0843014134663
 20
105.1116279428691
 30
0.0
 11
118.735464204164
 21
105.1116279428691
 31
0.0
  0
LINE
  5
53B
330
1F
100
AcDbEntity
  8
0
100
AcDbLine
 10
117.3401153669548
 20
106.4197674777529
 30
0.0
 11
116.9912781576524
 21
106.4197674777529
 31
0.0
  0
LINE
  5
53C
330
1F
100
AcDbEntity
  8
0
100
AcDbLine
 10
117.3401153669548
 20
106.6813953847295
 30
0.0
 11
115.9447665297454
 21
106.6813953847295
 31
0.0
  0
LINE
  5
53D
330
1F
100
AcDbEntity
  8
0
100
AcDbLine
 10
115.9447665297454
 20
106.6813953847295
 30
0.0
 11
115.9447665297454
 21
106.4197674777529
 31
0.0
  0
LINE
  5
53E
330
1F
100
AcDbEntity
  8
0
100
AcDbLine
 10
116.2936037390477
 20
106.4197674777529
 30
0.0
 11
115.9447665297454
 21
106.4197674777529
 31
0.0
  0
LINE
  5
53F
330
1F
100
AcDbEntity
  8
0
100
AcDbLine
 10
119.0843014134663
 20
106.6813953847295
 30
0.0
 11
117.688952576257
 21
106.6813953847295
 31
0.0
  0
LINE
  5
540
330
1F
100
AcDbEntity
  8
0
100
AcDbLine
 10
118.0377897855594
 20
106.4197674777529
 30
0.0
 11
117.688952576257
 21
106.4197674777529
 31
0.0
  0
LINE
  5
541
330
1F
100
AcDbEntity
  8
0
100
AcDbLine
 10
117.688952576257
 20
106.6813953847295
 30
0.0
 11
117.688952576257
 21
106.4197674777529
 31
0.0
  0
LINE
  5
542
330
1F
100
AcDbEntity
  8
0
100
AcDbLine
 10
117.3401153669548
 20
106.6813953847295
 30
0.0
 11
117.3401153669548
 21
106.4197674777529
 31
0.0
  0
LINE
  5
543
330
1F
100
AcDbEntity
  8
0
100
AcDbLine
 10
119.0843014134663
 20
106.6813953847295
 30
0.0
 11
119.0843014134663
 21
106.4197674777529
 31
0.0
  0
LINE
  5
544
330
1F
100
AcDbEntity
  8
0
100
AcDbLine
 10
119.0843014134663
 20
106.4197674777529
 30
0.0
 11
118.735464204164
 21
106.4197674777529
 31
0.0
  0
LINE
  5
545
330
1F
100
AcDbEntity
  8
0
100
AcDbLine
 10
119.7383711809081
 20
106.4197674777529
 30
0.0
 11
119.7383711809081
 21
105.1116279428691
 31
0.0
  0
LINE
  5
546
330
1F
100
AcDbEntity
  8
0
100
AcDbLine
 10
120.4360455995126
 20
106.4197674777529
 30
0.0
 11
120.4360455995126
 21
105.1116279428691
 31
0.0
  0
LINE
  5
547
330
1F
100
AcDbEntity
  8
0
100
AcDbLine
 10
120.7848828088152
 20
104.8500000358924
 30
0.0
 11
119.3895339716059
 21
104.8500000358924
 31
0.0
  0
LINE
  5
548
330
1F
100
AcDbEntity
  8
0
100
AcDbLine
 10
119.3895339716059
 20
105.1116279428691
 30
0.0
 11
119.3895339716059
 21
104.8500000358924
 31
0.0
  0
LINE
  5
549
330
1F
100
AcDbEntity
  8
0
100
AcDbLine
 10
119.7383711809081
 20
105.1116279428691
 30
0.0
 11
119.3895339716059
 21
105.1116279428691
 31
0.0
  0
LINE
  5
54A
330
1F
100
AcDbEntity
  8
0
100
AcDbLine
 10
120.7848828088152
 20
105.1116279428691
 30
0.0
 11
120.7848828088152
 21
104.8500000358924
 31
0.0
  0
LINE
  5
54B
330
1F
100
AcDbEntity
  8
0
100
AcDbLine
 10
120.7848828088152
 20
105.1116279428691
 30
0.0
 11
120.4360455995126
 21
105.1116279428691
 31
0.0
  0
LINE
  5
54C
330
1F
100
AcDbEntity
  8
0
100
AcDbLine
 10
120.7848828088152
 20
106.6813953847295
 30
0.0
 11
119.3895339716059
 21
106.6813953847295
 31
0.0
  0
LINE
  5
54D
330
1F
100
AcDbEntity
  8
0
100
AcDbLine
 10
119.3895339716059
 20
106.6813953847295
 30
0.0
 11
119.3895339716058
 21
106.4197674777529
 31
0.0
  0
LINE
  5
54E
330
1F
100
AcDbEntity
  8
0
100
AcDbLine
 10
119.7383711809081
 20
106.4197674777529
 30
0.0
 11
119.3895339716059
 21
106.4197674777529
 31
0.0
  0
LINE
  5
54F
330
1F
100
AcDbEntity
  8
0
100
AcDbLine
 10
120.7848828088152
 20
106.4197674777529
 30
0.0
 11
120.4360455995126
 21
106.4197674777529
 31
0.0
  0
LINE
  5
550
330
1F
100
AcDbEntity
  8
0
100
AcDbLine
 10
120.7848828088152
 20
106.6813953847295
 30
0.0
 11
120.7848828088152
 21
106.4197674777529
 31
0.0
  0
LINE
  5
551
330
1F
100
AcDbEntity
  8
0
100
AcDbLine
 10
123.4883711809081
 20
106.4197674777529
 30
0.0
 11
123.4883711809081
 21
105.3732558498458
 31
0.0
  0
LINE
  5
552
330
1F
100
AcDbEntity
  8
0
100
AcDbLine
 10
122.1802316460244
 20
106.6813953847295
 30
0.0
 11
123.4883711809081
 21
105.3732558498458
 31
0.0
  0
LINE
  5
553
330
1F
100
AcDbEntity
  8
0
100
AcDbLine
 10
121.8313944367221
 20
106.1669045472344
 30
0.0
 11
123.1482989480641
 21
104.8500000358924
 31
0.0
  0
LINE
  5
554
330
1F
100
AcDbEntity
  8
0
100
AcDbLine
 10
121.8313944367221
 20
106.1669045472344
 30
0.0
 11
121.8313944367221
 21
105.1116279428691
 31
0.0
  0
LINE
  5
555
330
1F
100
AcDbEntity
  8
0
100
AcDbLine
 10
121.438952576257
 20
106.4197674777529
 30
0.0
 11
121.438952576257
 21
105.1116279428691
 31
0.0
  0
LINE
  5
556
330
1F
100
AcDbEntity
  8
0
100
AcDbLine
 10
123.8808130413733
 20
106.4197674777529
 30
0.0
 11
123.8808130413733
 21
104.8500000358924
 31
0.0
  0
LINE
  5
557
330
1F
100
AcDbEntity
  8
0
100
AcDbLine
 10
122.1802316460244
 20
105.1116279428691
 30
0.0
 11
122.1802316460244
 21
104.8500000358924
 31
0.0
  0
LINE
  5
558
330
1F
100
AcDbEntity
  8
0
100
AcDbLine
 10
121.0901153669546
 20
105.1116279428691
 30
0.0
 11
121.0901153669546
 21
104.8500000358924
 31
0.0
  0
LINE
  5
559
330
1F
100
AcDbEntity
  8
0
100
AcDbLine
 10
122.1802316460244
 20
104.8500000358924
 30
0.0
 11
121.0901153669546
 21
104.8500000358924
 31
0.0
  0
LINE
  5
55A
330
1F
100
AcDbEntity
  8
0
100
AcDbLine
 10
121.438952576257
 20
105.1116279428691
 30
0.0
 11
121.0901153669546
 21
105.1116279428691
 31
0.0
  0
LINE
  5
55B
330
1F
100
AcDbEntity
  8
0
100
AcDbLine
 10
121.8313944367221
 20
105.1116279428691
 30
0.0
 11
122.1802316460244
 21
105.1116279428691
 31
0.0
  0
LINE
  5
55C
330
1F
100
AcDbEntity
  8
0
100
AcDbLine
 10
123.8808130413733
 20
104.8500000358924
 30
0.0
 11
123.1482989480641
 21
104.8500000358924
 31
0.0
  0
LINE
  5
55D
330
1F
100
AcDbEntity
  8
0
100
AcDbLine
 10
122.1802316460244
 20
106.6813953847295
 30
0.0
 11
121.0901153669546
 21
106.6813953847295
 31
0.0
  0
LINE
  5
55E
330
1F
100
AcDbEntity
  8
0
100
AcDbLine
 10
121.0901153669546
 20
106.6813953847295
 30
0.0
 11
121.0901153669546
 21
106.4197674777529
 31
0.0
  0
LINE
  5
55F
330
1F
100
AcDbEntity
  8
0
100
AcDbLine
 10
121.438952576257
 20
106.4197674777529
 30
0.0
 11
121.0901153669546
 21
106.4197674777529
 31
0.0
  0
LINE
  5
560
330
1F
100
AcDbEntity
  8
0
100
AcDbLine
 10
124.2296502506755
 20
106.6813953847295
 30
0.0
 11
123.1395339716059
 21
106.6813953847295
 31
0.0
  0
LINE
  5
561
330
1F
100
AcDbEntity
  8
0
100
AcDbLine
 10
123.1395339716059
 20
106.6813953847295
 30
0.0
 11
123.1395339716059
 21
106.4197674777529
 31
0.0
  0
LINE
  5
562
330
1F
100
AcDbEntity
  8
0
100
AcDbLine
 10
123.4883711809081
 20
106.4197674777529
 30
0.0
 11
123.1395339716059
 21
106.4197674777529
 31
0.0
  0
LINE
  5
563
330
1F
100
AcDbEntity
  8
0
100
AcDbLine
 10
124.2296502506755
 20
106.6813953847295
 30
0.0
 11
124.2296502506755
 21
106.4197674777529
 31
0.0
  0
LINE
  5
564
330
1F
100
AcDbEntity
  8
0
100
AcDbLine
 10
124.2296502506755
 20
106.4197674777529
 30
0.0
 11
123.8808130413733
 21
106.4197674777529
 31
0.0
  0
ELLIPSE
  5
565
330
1F
100
AcDbEntity
  8
0
100
AcDbEllipse
 10
125.9302316460243
 20
105.7656977103109
 30
0.0
 11
-1.569767441860465
 21
0.0
 31
0.0
210
0.0
220
0.0
230
1.0
 40
0.5833333335538832
 41
0.0
 42
6.283185307179584
  0
ELLIPSE
  5
566
330
1F
100
AcDbEntity
  8
0
100
AcDbEllipse
 10
125.9302568258526
 20
105.7656977103109
 30
0.0
 11
-0.8721182030841744
 21
0.0
 31
0.0
210
0.0
220
0.0
230
1.0
 40
0.7499783459728239
 41
0.0
 42
6.283185307179584
  0
LINE
  5
567
330
1F
100
AcDbEntity
  8
0
100
AcDbLine
 10
86.49999908788492
 20
114.3500000358924
 30
0.0
 11
96.49999908788494
 21
114.3500000358924
 31
0.0
1001
GENIUS_GENODEF_13
1002
{
1000
HIER
1070
     0
1002
}
1002
{
1000
MANEDIT
1070
     0
1002
}
1002
{
1000
NOSEL
1070
     0
1002
}
1002
{
1000
BEHIND
1070
     0
1002
}
1002
{
1000
OTHER
1070
     0
1002
}
1002
{
1000
REACTOR
1002
}
1001
GENIUS_GENOBJ-N-CEN_13
1002
{
1000
OWNER
1000
GEN
1002
}
1001
GENIUS_GENCEN_19
1002
{
1040
2.793999999999998
1002
}
  0
LINE
  5
568
330
1F
100
AcDbEntity
  8
0
100
AcDbLine
 10
86.49999908788492
 20
108.3500000358923
 30
0.0
 11
96.49999908788494
 21
108.3500000358923
 31
0.0
1001
GENIUS_GENODEF_13
1002
{
1000
HIER
1070
     0
1002
}
1002
{
1000
MANEDIT
1070
     0
1002
}
1002
{
1000
NOSEL
1070
     0
1002
}
1002
{
1000
BEHIND
1070
     0
1002
}
1002
{
1000
OTHER
1070
     0
1002
}
1002
{
1000
REACTOR
1002
}
1001
GENIUS_GENOBJ-N-CEN_13
1002
{
1000
OWNER
1000
GEN
1002
}
1001
GENIUS_GENCEN_19
1002
{
1040
2.793999999999998
1002
}
  0
ARC
  5
569
330
1F
100
AcDbEntity
  8
0
100
AcDbCircle
 10
86.49999908788492
 20
111.3500000358924
 30
0.0
 40
3.000000000000006
100
AcDbArc
 50
90.0
 51
270.0
  0
ARC
  5
56A
330
1F
100
AcDbEntity
  8
0
100
AcDbCircle
 10
96.49999908788494
 20
111.3500000358924
 30
0.0
 40
3.000000000000006
100
AcDbArc
 50
270.0
 51
90.0
  0
LINE
  5
56B
330
1F
100
AcDbEntity
  8
0
100
AcDbLine
 10
105.4999990878849
 20
114.3500000358924
 30
0.0
 11
115.499999087885
 21
114.3500000358924
 31
0.0
1001
GENIUS_GENODEF_13
1002
{
1000
HIER
1070
     0
1002
}
1002
{
1000
MANEDIT
1070
     0
1002
}
1002
{
1000
NOSEL
1070
     0
1002
}
1002
{
1000
BEHIND
1070
     0
1002
}
1002
{
1000
OTHER
1070
     0
1002
}
1002
{
1000
REACTOR
1002
}
1001
GENIUS_GENOBJ-N-CEN_13
1002
{
1000
OWNER
1000
GEN
1002
}
1001
GENIUS_GENCEN_19
1002
{
1040
2.793999999999998
1002
}
  0
LINE
  5
56C
330
1F
100
AcDbEntity
  8
0
100
AcDbLine
 10
105.4999990878849
 20
108.3500000358923
 30
0.0
 11
115.499999087885
 21
108.3500000358923
 31
0.0
1001
GENIUS_GENODEF_13
1002
{
1000
HIER
1070
     0
1002
}
1002
{
1000
MANEDIT
1070
     0
1002
}
1002
{
1000
NOSEL
1070
     0
1002
}
1002
{
1000
BEHIND
1070
     0
1002
}
1002
{
1000
OTHER
1070
     0
1002
}
1002
{
1000
REACTOR
1002
}
1001
GENIUS_GENOBJ-N-CEN_13
1002
{
1000
OWNER
1000
GEN
1002
}
1001
GENIUS_GENCEN_19
1002
{
1040
2.793999999999998
1002
}
  0
ARC
  5
56D
330
1F
100
AcDbEntity
  8
0
100
AcDbCircle
 10
105.4999990878849
 20
111.3500000358924
 30
0.0
 40
3.000000000000006
100
AcDbArc
 50
90.0
 51
270.0
  0
ARC
  5
56E
330
1F
100
AcDbEntity
  8
0
100
AcDbCircle
 10
115.499999087885
 20
111.3500000358924
 30
0.0
 40
3.000000000000006
100
AcDbArc
 50
270.0
 51
90.0
  0
LINE
  5
56F
330
1F
100
AcDbEntity
  8
0
100
AcDbLine
 10
124.4999990878849
 20
114.3500000358924
 30
0.0
 11
134.499999087885
 21
114.3500000358924
 31
0.0
1001
GENIUS_GENODEF_13
1002
{
1000
HIER
1070
     0
1002
}
1002
{
1000
MANEDIT
1070
     0
1002
}
1002
{
1000
NOSEL
1070
     0
1002
}
1002
{
1000
BEHIND
1070
     0
1002
}
1002
{
1000
OTHER
1070
     0
1002
}
1002
{
1000
REACTOR
1002
}
1001
GENIUS_GENOBJ-N-CEN_13
1002
{
1000
OWNER
1000
GEN
1002
}
1001
GENIUS_GENCEN_19
1002
{
1040
2.793999999999998
1002
}
  0
LINE
  5
570
330
1F
100
AcDbEntity
  8
0
100
AcDbLine
 10
124.4999990878849
 20
108.3500000358923
 30
0.0
 11
134.499999087885
 21
108.3500000358923
 31
0.0
1001
GENIUS_GENODEF_13
1002
{
1000
HIER
1070
     0
1002
}
1002
{
1000
MANEDIT
1070
     0
1002
}
1002
{
1000
NOSEL
1070
     0
1002
}
1002
{
1000
BEHIND
1070
     0
1002
}
1002
{
1000
OTHER
1070
     0
1002
}
1002
{
1000
REACTOR
1002
}
1001
GENIUS_GENOBJ-N-CEN_13
1002
{
1000
OWNER
1000
GEN
1002
}
1001
GENIUS_GENCEN_19
1002
{
1040
2.793999999999998
1002
}
  0
ARC
  5
571
330
1F
100
AcDbEntity
  8
0
100
AcDbCircle
 10
124.4999990878849
 20
111.3500000358924
 30
0.0
 40
3.000000000000006
100
AcDbArc
 50
90.0
 51
270.0
  0
ARC
  5
572
330
1F
100
AcDbEntity
  8
0
100
AcDbCircle
 10
134.499999087885
 20
111.3500000358924
 30
0.0
 40
3.000000000000006
100
AcDbArc
 50
270.0
 51
90.0
  0
LINE
  5
573
330
1F
100
AcDbEntity
  8
0
100
AcDbLine
 10
143.4999990878849
 20
114.3500000358924
 30
0.0
 11
153.499999087885
 21
114.3500000358924
 31
0.0
1001
GENIUS_GENODEF_13
1002
{
1000
HIER
1070
     0
1002
}
1002
{
1000
MANEDIT
1070
     0
1002
}
1002
{
1000
NOSEL
1070
     0
1002
}
1002
{
1000
BEHIND
1070
     0
1002
}
1002
{
1000
OTHER
1070
     0
1002
}
1002
{
1000
REACTOR
1002
}
1001
GENIUS_GENOBJ-N-CEN_13
1002
{
1000
OWNER
1000
GEN
1002
}
1001
GENIUS_GENCEN_19
1002
{
1040
2.793999999999998
1002
}
  0
LINE
  5
574
330
1F
100
AcDbEntity
  8
0
100
AcDbLine
 10
143.4999990878849
 20
108.3500000358923
 30
0.0
 11
153.499999087885
 21
108.3500000358923
 31
0.0
1001
GENIUS_GENODEF_13
1002
{
1000
HIER
1070
     0
1002
}
1002
{
1000
MANEDIT
1070
     0
1002
}
1002
{
1000
NOSEL
1070
     0
1002
}
1002
{
1000
BEHIND
1070
     0
1002
}
1002
{
1000
OTHER
1070
     0
1002
}
1002
{
1000
REACTOR
1002
}
1001
GENIUS_GENOBJ-N-CEN_13
1002
{
1000
OWNER
1000
GEN
1002
}
1001
GENIUS_GENCEN_19
1002
{
1040
2.793999999999998
1002
}
  0
ARC
  5
575
330
1F
100
AcDbEntity
  8
0
100
AcDbCircle
 10
143.4999990878849
 20
111.3500000358924
 30
0.0
 40
3.000000000000006
100
AcDbArc
 50
90.0
 51
270.0
  0
ARC
  5
576
330
1F
100
AcDbEntity
  8
0
100
AcDbCircle
 10
153.499999087885
 20
111.3500000358924
 30
0.0
 40
3.000000000000006
100
AcDbArc
 50
270.0
 51
90.0
  0
LINE
  5
577
330
1F
100
AcDbEntity
  8
0
100
AcDbLine
 10
167.0999990878849
 20
145.3000000358923
 30
0.0
 11
167.0999990878849
 21
135.3000000358924
 31
0.0
  0
LINE
  5
578
330
1F
100
AcDbEntity
  8
0
100
AcDbLine
 10
168.1999990878839
 20
128.3000000358924
 30
0.0
 11
178.1999990878841
 21
128.3000000358924
 31
0.0
  0
LINE
  5
579
330
1F
100
AcDbEntity
  8
0
100
AcDbLine
 10
167.0999990878849
 20
145.3000000358923
 30
0.0
 11
168.1999990878839
 21
145.3000000358923
 31
0.0
  0
LINE
  5
57A
330
1F
100
AcDbEntity
  8
0
100
AcDbLine
 10
166.9999990878849
 20
143.5000000358923
 30
0.0
 11
167.0999990878854
 21
143.5000000358923
 31
0.0
  0
LINE
  5
57B
330
1F
100
AcDbEntity
  8
0
100
AcDbLine
 10
166.9999990878848
 20
137.1000000358923
 30
0.0
 11
167.0999990878854
 21
137.1000000358923
 31
0.0
  0
LINE
  5
57C
330
1F
100
AcDbEntity
  8
0
100
AcDbLine
 10
167.0999990878849
 20
135.3000000358924
 30
0.0
 11
168.1999990878838
 21
135.3000000358921
 31
0.0
  0
LINE
  5
57D
330
1F
100
AcDbEntity
  8
0
100
AcDbLine
 10
171.9999990878839
 20
131.7000000358924
 30
0.0
 11
174.399999087884
 21
131.7000000358924
 31
0.0
1001
GENIUS_GENREC_14
1002
{
1000
PYDIR
1011
172.1999990878839
1021
133.9000000358919
1031
0.0
1002
}
1002
{
1000
PXDIR
1011
174.1999990878841
1021
131.9000000358922
1031
0.0
1002
}
1002
{
1000
PORI
1011
172.1999990878839
1021
131.9000000358922
1031
0.0
1002
}
1002
{
1000
PINS
1011
172.1999990878839
1021
131.9000000358922
1031
0.0
1002
}
1002
{
1000
PINS2
1011
174.1999990878841
1021
133.9000000358919
1031
0.0
1002
}
1002
{
1000
C
1070
     1
1002
}
1001
GENIUS_GENODEF_13
1002
{
1000
HIER
1070
     0
1002
}
1002
{
1000
MANEDIT
1070
     0
1002
}
1002
{
1000
NOSEL
1070
     0
1002
}
1002
{
1000
BEHIND
1070
     0
1002
}
1002
{
1000
OTHER
1070
     0
1002
}
1002
{
1000
REACTOR
1002
}
1001
GENIUS_GENOBJ-N-REC_13
1002
{
1000
OWNER
1000
GEN
1002
}
  0
LINE
  5
57E
330
1F
100
AcDbEntity
  8
0
100
AcDbLine
 10
174.399999087884
 20
131.7000000358924
 30
0.0
 11
174.399999087884
 21
133.9000000358919
 31
0.0
1001
GENIUS_GENREC_14
1002
{
1000
PYDIR
1011
172.1999990878839
1021
133.7000000358918
1031
0.0
1002
}
1002
{
1000
PXDIR
1011
174.1999990878841
1021
131.9000000358922
1031
0.0
1002
}
1002
{
1000
PORI
1011
172.1999990878839
1021
131.9000000358922
1031
0.0
1002
}
1002
{
1000
PINS
1011
172.1999990878839
1021
131.9000000358922
1031
0.0
1002
}
1002
{
1000
PINS2
1011
174.1999990878841
1021
133.7000000358918
1031
0.0
1002
}
1002
{
1000
C
1070
     1
1002
}
1001
GENIUS_GENODEF_13
1002
{
1000
HIER
1070
     0
1002
}
1002
{
1000
MANEDIT
1070
     0
1002
}
1002
{
1000
NOSEL
1070
     0
1002
}
1002
{
1000
BEHIND
1070
     0
1002
}
1002
{
1000
OTHER
1070
     0
1002
}
1002
{
1000
REACTOR
1002
}
1001
GENIUS_GENOBJ-N-REC_13
1002
{
1000
OWNER
1000
GEN
1002
}
  0
LINE
  5
57F
330
1F
100
AcDbEntity
  8
0
100
AcDbLine
 10
174.399999087884
 20
133.9000000358919
 30
0.0
 11
171.9999990878839
 21
133.9000000358919
 31
0.0
1001
GENIUS_GENREC_14
1002
{
1000
PYDIR
1011
172.1999990878839
1021
133.7000000358918
1031
0.0
1002
}
1002
{
1000
PXDIR
1011
174.1999990878841
1021
131.9000000358922
1031
0.0
1002
}
1002
{
1000
PORI
1011
172.1999990878839
1021
131.9000000358922
1031
0.0
1002
}
1002
{
1000
PINS
1011
172.1999990878839
1021
131.9000000358922
1031
0.0
1002
}
1002
{
1000
PINS2
1011
174.1999990878841
1021
133.7000000358918
1031
0.0
1002
}
1002
{
1000
C
1070
     1
1002
}
1001
GENIUS_GENODEF_13
1002
{
1000
HIER
1070
     0
1002
}
1002
{
1000
MANEDIT
1070
     0
1002
}
1002
{
1000
NOSEL
1070
     0
1002
}
1002
{
1000
BEHIND
1070
     0
1002
}
1002
{
1000
OTHER
1070
     0
1002
}
1002
{
1000
REACTOR
1002
}
1001
GENIUS_GENOBJ-N-REC_13
1002
{
1000
OWNER
1000
GEN
1002
}
  0
LINE
  5
580
330
1F
100
AcDbEntity
  8
0
100
AcDbLine
 10
171.9999990878839
 20
133.9000000358919
 30
0.0
 11
171.9999990878839
 21
131.7000000358924
 31
0.0
1001
GENIUS_GENREC_14
1002
{
1000
PYDIR
1011
172.1999990878839
1021
133.7000000358918
1031
0.0
1002
}
1002
{
1000
PXDIR
1011
174.1999990878841
1021
131.9000000358922
1031
0.0
1002
}
1002
{
1000
PORI
1011
172.1999990878839
1021
131.9000000358922
1031
0.0
1002
}
1002
{
1000
PINS
1011
172.1999990878839
1021
131.9000000358922
1031
0.0
1002
}
1002
{
1000
PINS2
1011
174.1999990878841
1021
133.7000000358918
1031
0.0
1002
}
1002
{
1000
C
1070
     1
1002
}
1001
GENIUS_GENODEF_13
1002
{
1000
HIER
1070
     0
1002
}
1002
{
1000
MANEDIT
1070
     0
1002
}
1002
{
1000
NOSEL
1070
     0
1002
}
1002
{
1000
BEHIND
1070
     0
1002
}
1002
{
1000
OTHER
1070
     0
1002
}
1002
{
1000
REACTOR
1002
}
1001
GENIUS_GENOBJ-N-REC_13
1002
{
1000
OWNER
1000
GEN
1002
}
  0
LINE
  5
581
330
1F
100
AcDbEntity
  8
0
100
AcDbLine
 10
178.1999990878839
 20
128.300000035902
 30
0.0
 11
178.1999990878839
 21
152.3000000358924
 31
0.0
  0
LINE
  5
582
330
1F
100
AcDbEntity
  8
0
100
AcDbLine
 10
168.1999990878838
 20
128.300000035902
 30
0.0
 11
168.1999990878838
 21
135.3000000358921
 31
0.0
  0
LINE
  5
583
330
1F
100
AcDbEntity
  8
0
100
AcDbLine
 10
168.1999990878839
 20
145.3000000358923
 30
0.0
 11
168.1999990878839
 21
152.3000000358924
 31
0.0
  0
LINE
  5
584
330
1F
100
AcDbEntity
  8
0
100
AcDbLine
 10
168.1999990878839
 20
145.3000000358923
 30
0.0
 11
173.1999990878839
 21
140.3000000358924
 31
0.0
  0
LINE
  5
585
330
1F
100
AcDbEntity
  8
0
100
AcDbLine
 10
173.1999990878839
 20
140.3000000358924
 30
0.0
 11
168.1999990878839
 21
135.3000000358924
 31
0.0
  0
LINE
  5
586
330
1F
100
AcDbEntity
  8
0
100
AcDbLine
 10
177.1999990878841
 20
205.3000000358927
 30
0.0
 11
169.1999990878839
 21
205.3000000358926
 31
0.0
  0
LINE
  5
587
330
1F
100
AcDbEntity
  8
0
100
AcDbLine
 10
168.1999990878839
 20
152.3000000358924
 30
0.0
 11
169.1999990878839
 21
205.3000000358926
 31
0.0
  0
LINE
  5
588
330
1F
100
AcDbEntity
  8
0
100
AcDbLine
 10
178.1999990878839
 20
152.3000000358924
 30
0.0
 11
177.1999990878841
 21
205.3000000358927
 31
0.0
  0
LINE
  5
589
330
1F
100
AcDbEntity
  8
0
100
AcDbLine
 10
169.2999990878835
 20
205.3000000358926
 30
0.0
 11
169.3557972210728
 21
207.2015029617312
 31
0.0
  0
LINE
  5
58A
330
1F
100
AcDbEntity
  8
0
100
AcDbLine
 10
177.0999990878835
 20
205.3000000358926
 30
0.0
 11
177.0442009546941
 21
207.2015029617308
 31
0.0
  0
ARC
  5
58B
330
1F
100
AcDbEntity
  8
0
100
AcDbCircle
 10
176.5442933846792
 20
207.1918893546154
 30
0.0
 40
0.5
100
AcDbArc
 50
1.101706115201061
 51
69.38841074338525
1001
GENIUS_GENODEF_13
1002
{
1000
HIER
1070
     0
1002
}
1002
{
1000
MANEDIT
1070
     0
1002
}
1002
{
1000
NOSEL
1070
     0
1002
}
1002
{
1000
BEHIND
1070
     0
1002
}
1002
{
1000
OTHER
1070
     0
1002
}
1002
{
1000
REACTOR
1002
}
1001
GENIUS_GENOBJ-N-FIL_13
1002
{
1000
OWNER
1000
GEN
1002
}
  0
ARC
  5
58C
330
1F
100
AcDbEntity
  8
0
100
AcDbCircle
 10
169.8557047910876
 20
207.1918893546157
 30
0.0
 40
0.5
100
AcDbArc
 50
110.6115892566116
 51
178.8982938847924
1001
GENIUS_GENOBJ-N-FIL_13
1002
{
1000
OWNER
1000
GEN
1002
}
1001
GENIUS_GENODEF_13
1002
{
1000
HIER
1070
     0
1002
}
1002
{
1000
MANEDIT
1070
     0
1002
}
1002
{
1000
NOSEL
1070
     0
1002
}
1002
{
1000
BEHIND
1070
     0
1002
}
1002
{
1000
OTHER
1070
     0
1002
}
1002
{
1000
REACTOR
1002
}
  0
ARC
  5
58D
330
1F
100
AcDbEntity
  8
0
100
AcDbCircle
 10
173.1999990878832
 20
198.3000000358924
 30
0.0
 40
10.0
100
AcDbArc
 50
69.38841074338525
 51
81.37307343471132
  0
ARC
  5
58E
330
1F
100
AcDbEntity
  8
0
100
AcDbCircle
 10
173.1999990878832
 20
198.3000000358924
 30
0.0
 40
10.0
100
AcDbArc
 50
98.62692656528871
 51
110.6115892566116
  0
LINE
  5
58F
330
1F
100
AcDbEntity
  8
0
100
AcDbLine
 10
174.6999990890239
 20
208.1868600023621
 30
0.0
 11
171.6999990867425
 21
208.1868600023621
 31
0.0
  0
LINE
  5
590
330
1F
100
AcDbEntity
  8
0
100
AcDbLine
 10
174.1999990878841
 20
132.2000000358924
 30
0.0
 11
172.1999990878839
 21
132.2000000358923
 31
0.0
  0
LINE
  5
591
330
1F
100
AcDbEntity
  8
0
100
AcDbLine
 10
177.6999990878841
 20
126.8000000358924
 30
0.0
 11
168.6999990878836
 21
126.8000000358922
 31
0.0
  0
LINE
  5
592
330
1F
100
AcDbEntity
  8
0
100
AcDbLine
 10
168.1999990878839
 20
127.3000000358923
 30
0.0
 11
168.6999990878836
 21
126.8000000358922
 31
0.0
1001
GENIUS_GENFIL_13
1070
     0
1040
0.5
1040
0.5
1040
20.0
1040
0.0
1002
{
1002
}
1001
GENIUS_GENODEF_13
1002
{
1000
HIER
1070
     0
1002
}
1002
{
1000
MANEDIT
1070
     0
1002
}
1002
{
1000
NOSEL
1070
     0
1002
}
1002
{
1000
BEHIND
1070
     0
1002
}
1002
{
1000
OTHER
1070
     0
1002
}
1002
{
1000
REACTOR
1002
}
1001
GENIUS_GENOBJ-N-CHA_13
1002
{
1000
OWNER
1000
GEN
1002
}
  0
LINE
  5
593
330
1F
100
AcDbEntity
  8
0
100
AcDbLine
 10
178.1999990878839
 20
128.3000000358924
 30
0.0
 11
178.1999990878841
 21
127.3000000358924
 31
0.0
  0
LINE
  5
594
330
1F
100
AcDbEntity
  8
0
100
AcDbLine
 10
177.6999990878841
 20
126.8000000358924
 30
0.0
 11
178.1999990878841
 21
127.3000000358924
 31
0.0
1001
GENIUS_GENFIL_13
1070
     0
1040
0.5
1040
0.5
1040
0.4999999999999787
1040
45.00000000000446
1000
~T
1001
GENIUS_GENOREF_13
1005
0
  0
LINE
  5
595
330
1F
100
AcDbEntity
  8
0
100
AcDbLine
 10
168.1999990878841
 20
128.3000000358924
 30
0.0
 11
168.1999990878839
 21
127.3000000358923
 31
0.0
  0
LINE
  5
596
330
1F
100
AcDbEntity
  8
0
100
AcDbLine
 10
178.1999990878841
 20
127.3000000358927
 30
0.0
 11
168.1999990878839
 21
127.3000000358923
 31
0.0
  0
LINE
  5
597
330
1F
100
AcDbEntity
  8
0
100
AcDbLine
 10
174.1999990878841
 20
133.7000000358918
 30
0.0
 11
172.1999990878839
 21
133.7000000358919
 31
0.0
  0
LINE
  5
598
330
1F
100
AcDbEntity
  8
0
100
AcDbLine
 10
172.1999990878839
 20
131.7000000358924
 30
0.0
 11
172.1999990878839
 21
133.7000000358919
 31
0.0
  0
LINE
  5
599
330
1F
100
AcDbEntity
  8
0
100
AcDbLine
 10
174.1999990878839
 20
131.7000000358924
 30
0.0
 11
174.1999990878841
 21
133.7000000358918
 31
0.0
  0
LINE
  5
59A
330
1F
100
AcDbEntity
  8
0
100
AcDbLine
 10
71.7999990878852
 20
128.3000000358924
 30
0.0
 11
59.79999908788494
 21
128.3000000358924
 31
0.0
  0
LINE
  5
59B
330
1F
100
AcDbEntity
  8
0
100
AcDbLine
 10
72.69999908788495
 20
145.3000000358923
 30
0.0
 11
71.7999990878852
 21
145.3000000358923
 31
0.0
  0
LINE
  5
59C
330
1F
100
AcDbEntity
  8
0
100
AcDbLine
 10
72.69999908788495
 20
135.3000000358923
 30
0.0
 11
71.7999990878852
 21
135.3000000358921
 31
0.0
  0
LINE
  5
59D
330
1F
100
AcDbEntity
  8
0
100
AcDbLine
 10
59.79999908788511
 20
121.8000000358923
 30
0.0
 11
59.79999908788511
 21
146.8000000358828
 31
0.0
  0
LINE
  5
59E
330
1F
100
AcDbEntity
  8
0
100
AcDbLine
 10
71.7999990878852
 20
121.8000000358923
 30
0.0
 11
71.7999990878852
 21
135.3000000358921
 31
0.0
  0
LINE
  5
59F
330
1F
100
AcDbEntity
  8
0
100
AcDbLine
 10
71.7999990878852
 20
145.3000000358923
 30
0.0
 11
71.7999990878852
 21
146.8000000358828
 31
0.0
  0
LINE
  5
5A0
330
1F
100
AcDbEntity
  8
0
100
AcDbLine
 10
71.7999990878852
 20
146.8000000358828
 30
0.0
 11
59.79999908788511
 21
146.8000000358828
 31
0.0
  0
LINE
  5
5A1
330
1F
100
AcDbEntity
  8
0
100
AcDbLine
 10
60.29999908788494
 20
147.3000000358828
 30
0.0
 11
59.79999908788499
 21
146.8000000358828
 31
0.0
1001
GENIUS_GENFIL_13
1070
     0
1040
0.5
1040
0.5
1040
0.5
1040
45.00000000000325
1002
{
1002
}
1001
GENIUS_GENOBJ-N-CHA_13
1002
{
1000
OWNER
1000
GEN
1002
}
1001
GENIUS_GENODEF_13
1002
{
1000
HIER
1070
     0
1002
}
1002
{
1000
MANEDIT
1070
     0
1002
}
1002
{
1000
NOSEL
1070
     0
1002
}
1002
{
1000
BEHIND
1070
     0
1002
}
1002
{
1000
OTHER
1070
     0
1002
}
1002
{
1000
REACTOR
1002
}
  0
LINE
  5
5A2
330
1F
100
AcDbEntity
  8
0
100
AcDbLine
 10
60.29999908788494
 20
147.3000000358828
 30
0.0
 11
71.29999908788511
 21
147.3000000358828
 31
0.0
  0
LINE
  5
5A3
330
1F
100
AcDbEntity
  8
0
100
AcDbLine
 10
71.79999908788511
 20
146.8000000358828
 30
0.0
 11
71.29999908788511
 21
147.3000000358828
 31
0.0
1001
GENIUS_GENFIL_13
1070
     0
1040
0.5
1040
0.5
1040
0.5
1040
45.00000000000325
1002
{
1002
}
1001
GENIUS_GENOBJ-N-CHA_13
1002
{
1000
OWNER
1000
GEN
1002
}
1001
GENIUS_GENODEF_13
1002
{
1000
HIER
1070
     0
1002
}
1002
{
1000
MANEDIT
1070
     0
1002
}
1002
{
1000
NOSEL
1070
     0
1002
}
1002
{
1000
BEHIND
1070
     0
1002
}
1002
{
1000
OTHER
1070
     0
1002
}
1002
{
1000
REACTOR
1002
}
  0
SPLINE
  5
5A4
330
1F
100
AcDbEntity
  8
0
100
AcDbSpline
210
0.0
220
0.0
230
1.0
 70
     8
 71
     3
 72
    38
 73
    34
 74
     0
 42
0.0000000001
 43
0.0000000001
 40
8.160870181059902
 40
8.160870181059902
 40
8.160870181059902
 40
8.160870181059902
 40
9.159821244704103
 40
9.159821244704103
 40
10.15877230834831
 40
10.15877230834831
 40
11.15772337199251
 40
11.15772337199251
 40
12.15667443563672
 40
12.15667443563672
 40
13.19794091725749
 40
13.19794091725749
 40
14.23920739887826
 40
14.23920739887826
 40
15.28047388049904
 40
15.28047388049904
 40
16.32174036211981
 40
16.32174036211981
 40
17.36300684374058
 40
17.36300684374058
 40
18.40427332536135
 40
18.40427332536135
 40
19.44553980698212
 40
19.44553980698212
 40
20.48680628860289
 40
20.48680628860289
 40
21.4857573522471
 40
21.4857573522471
 40
22.48470841589131
 40
22.48470841589131
 40
23.48365947953551
 40
23.48365947953551
 40
24.48261054317971
 40
24.48261054317971
 40
24.48261054317971
 40
24.48261054317971
 10
71.79999908788511
 20
145.3000000358923
 30
0.0
 10
71.79999908788511
 20
145.3000000358923
 30
0.0
 10
71.7717479993629
 20
145.266209416811
 30
0.0
 10
71.65925019082772
 20
145.1303493028466
 30
0.0
 10
71.57506099073055
 20
145.0283408406337
 30
0.0
 10
71.36271448114064
 20
144.7665052883714
 30
0.0
 10
71.23440064236898
 20
144.6064484763971
 30
0.0
 10
70.95314892529462
 20
144.2455964617214
 30
0.0
 10
70.8003017684092
 20
144.0447998136982
 30
0.0
 10
70.48859104218344
 20
143.6174035988492
 30
0.0
 10
70.31717934340043
 20
143.373379860066
 30
0.0
 10
69.97527333995153
 20
142.8443390874172
 30
0.0
 10
69.80476763439366
 20
142.559432907828
 30
0.0
 10
69.49927875509626
 20
141.9587757953742
 30
0.0
 10
69.36439140044503
 20
141.6428216365557
 30
0.0
 10
69.17251705627482
 20
140.9871351455918
 30
0.0
 10
69.11662387824039
 20
140.6470888630992
 30
0.0
 10
69.11662387824039
 20
139.9529112086855
 30
0.0
 10
69.17251705627482
 20
139.6128649261928
 30
0.0
 10
69.36439140044503
 20
138.9571784352289
 30
0.0
 10
69.49927875509626
 20
138.6412242764103
 30
0.0
 10
69.80476763439366
 20
138.0405671639567
 30
0.0
 10
69.97527333995153
 20
137.7556609843674
 30
0.0
 10
70.31717934340043
 20
137.2266202117187
 30
0.0
 10
70.48859104218344
 20
136.9825964729353
 30
0.0
 10
70.8003017684092
 20
136.5552002580863
 30
0.0
 10
70.95314892529462
 20
136.3544036100633
 30
0.0
 10
71.23440064236898
 20
135.9935515953876
 30
0.0
 10
71.36271448114064
 20
135.8334947834132
 30
0.0
 10
71.57506099073055
 20
135.5716592311509
 30
0.0
 10
71.65925019082772
 20
135.469650768938
 30
0.0
 10
71.7717479993629
 20
135.3337906549737
 30
0.0
 10
71.79999908788511
 20
135.3000000358923
 30
0.0
 10
71.79999908788511
 20
135.3000000358923
 30
0.0
  0
LINE
  5
5A5
330
1F
100
AcDbEntity
  8
0
100
AcDbLine
 10
71.79999908788511
 20
128.3000000358924
 30
0.0
 11
59.79999908788505
 21
128.3000000358924
 31
0.0
  0
LINE
  5
5A6
330
1F
100
AcDbEntity
  8
0
100
AcDbLine
 10
65.79999908782531
 20
126.8000000358922
 30
0.0
 11
65.79999908782531
 21
121.8000000358923
 31
0.0
  0
LINE
  5
5A7
330
1F
100
AcDbEntity
  8
0
100
AcDbLine
 10
71.79999908788511
 20
120.3000000358923
 30
0.0
 11
71.79999908788511
 21
112.3000000358923
 31
0.0
  0
LINE
  5
5A8
330
1F
100
AcDbEntity
  8
0
100
AcDbLine
 10
65.79999908782531
 20
120.3000000358923
 30
0.0
 11
65.79999908782531
 21
112.3000000358923
 31
0.0
  0
LINE
  5
5A9
330
1F
100
AcDbEntity
  8
0
100
AcDbLine
 10
59.79999908788505
 20
120.3000000358923
 30
0.0
 11
59.79999908788505
 21
112.3000000358923
 31
0.0
  0
LINE
  5
5AA
330
1F
100
AcDbEntity
  8
0
100
AcDbLine
 10
71.79999908788511
 20
126.8000000358922
 30
0.0
 11
59.79999908788505
 21
126.8000000358922
 31
0.0
  0
LINE
  5
5AB
330
1F
100
AcDbEntity
  8
0
100
AcDbLine
 10
70.799999087885
 20
120.3000000358923
 30
0.0
 11
70.799999087885
 21
121.8000000358923
 31
0.0
  0
LINE
  5
5AC
330
1F
100
AcDbEntity
  8
0
100
AcDbLine
 10
60.79999908788503
 20
120.3000000358923
 30
0.0
 11
60.79999908788503
 21
121.8000000358923
 31
0.0
  0
LINE
  5
5AD
330
1F
100
AcDbEntity
  8
0
100
AcDbLine
 10
60.29999908788505
 20
112.3000000358923
 30
0.0
 11
60.29999908788505
 21
111.3000000358923
 31
0.0
  0
LINE
  5
5AE
330
1F
100
AcDbEntity
  8
0
100
AcDbLine
 10
71.29999908788511
 20
112.3000000358923
 30
0.0
 11
71.29999908788511
 21
111.3000000358923
 31
0.0
  0
LINE
  5
5AF
330
1F
100
AcDbEntity
  8
0
100
AcDbLine
 10
69.29999908788511
 20
109.3000000358923
 30
0.0
 11
62.29999908788505
 21
109.3000000358923
 31
0.0
  0
ARC
  5
5B0
330
1F
100
AcDbEntity
  8
0
100
AcDbCircle
 10
62.29999908788505
 20
111.3000000358923
 30
0.0
 40
2.0
100
AcDbArc
 50
180.0
 51
270.0
  0
ARC
  5
5B1
330
1F
100
AcDbEntity
  8
0
100
AcDbCircle
 10
69.29999908788511
 20
111.3000000358923
 30
0.0
 40
2.0
100
AcDbArc
 50
270.0
 51
0.0
  0
LINE
  5
5B2
330
1F
100
AcDbEntity
  8
0
100
AcDbLine
 10
59.79999908788511
 20
121.8000000358923
 30
0.0
 11
71.7999990878852
 21
121.8000000358923
 31
0.0
  0
LINE
  5
5B3
330
1F
100
AcDbEntity
  8
0
100
AcDbLine
 10
59.79999908788505
 20
120.3000000358923
 30
0.0
 11
71.79999908788511
 21
120.3000000358923
 31
0.0
  0
LINE
  5
5B4
330
1F
100
AcDbEntity
  8
0
100
AcDbLine
 10
59.79999908788505
 20
112.3000000358923
 30
0.0
 11
71.79999908788511
 21
112.3000000358923
 31
0.0
  0
LINE
  5
5B5
330
1F
100
AcDbEntity
  8
0
100
AcDbLine
 10
163.4999990878849
 20
160.8000000358923
 30
0.0
 11
163.4999990878848
 21
103.8000000358923
 31
0.0
  0
LINE
  5
5B6
330
1F
100
AcDbEntity
  8
0
100
AcDbLine
 10
163.449999087885
 20
103.8500000358924
 30
0.0
 11
163.449999087885
 21
118.8500000358925
 31
0.0
  0
LINE
  5
5B7
330
1F
100
AcDbEntity
  8
0
100
AcDbLine
 10
63.74999908788425
 20
32.00000003589221
 30
0.0
 11
63.74999908788425
 21
70.15828515385661
 31
0.0
  0
LINE
  5
5B8
330
1F
100
AcDbEntity
  8
0
100
AcDbLine
 10
67.84999908788414
 20
32.00000003589241
 30
0.0
 11
67.84999908788427
 21
67.81542801099853
 31
0.0
  0
LINE
  5
5B9
330
1F
100
AcDbEntity
  8
0
100
AcDbLine
 10
67.84999908788427
 20
69.81542801099951
 30
0.0
 11
67.84999908788427
 21
109.3000000358923
 31
0.0
  0
LINE
  5
5BA
330
1F
100
AcDbEntity
  8
0
100
AcDbLine
 10
67.84999908788427
 20
69.81542801099951
 30
0.0
 11
63.74999908788573
 21
72.15828515385581
 31
0.0
  0
LINE
  5
5BB
330
1F
100
AcDbEntity
  8
0
100
AcDbLine
 10
67.84999908788584
 20
67.8154280109986
 30
0.0
 11
63.74999908788573
 21
70.15828515385582
 31
0.0
  0
LINE
  5
5BC
330
1F
100
AcDbEntity
  8
0
100
AcDbLine
 10
63.74999908788573
 20
72.15828515385581
 30
0.0
 11
63.74999908788573
 21
109.3000000358923
 31
0.0
  0
LINE
  5
5BD
330
1F
100
AcDbEntity
  8
0
100
AcDbLine
 10
68.7999990878842
 20
3.00000003589231
 30
0.0
 11
68.7999990878842
 21
32.00000003589233
 31
0.0
  0
LINE
  5
5BE
330
1F
100
AcDbEntity
  8
0
100
AcDbLine
 10
62.79999908788425
 20
3.00000003589231
 30
0.0
 11
62.79999908788425
 21
32.00000003589233
 31
0.0
  0
ARC
  5
5BF
330
1F
100
AcDbEntity
  8
0
100
AcDbCircle
 10
65.7999990878842
 20
3.00000003589231
 30
0.0
 40
2.999999999999998
100
AcDbArc
 50
180.0
 51
0.0
  0
LINE
  5
5C0
330
1F
100
AcDbEntity
  8
0
100
AcDbLine
 10
62.79999908788425
 20
32.00000003589233
 30
0.0
 11
68.7999990878842
 21
32.00000003589233
 31
0.0
  0
LINE
  5
5C1
330
1F
100
AcDbEntity
  8
0
100
AcDbLine
 10
76.54999908788477
 20
159.7500000358924
 30
0.0
 11
163.449999087885
 21
159.7500000358928
 31
0.0
  0
LINE
  5
5C2
330
1F
100
AcDbEntity
  8
0
100
AcDbLine
 10
76.54999908788477
 20
158.7500000358926
 30
0.0
 11
163.449999087885
 21
158.7500000358927
 31
0.0
  0
LINE
  5
5C3
330
1F
100
AcDbEntity
  8
0
100
AcDbLine
 10
76.54999908788477
 20
157.7500000358924
 30
0.0
 11
163.449999087885
 21
157.7500000358928
 31
0.0
  0
LINE
  5
5C4
330
1F
100
AcDbEntity
  8
0
100
AcDbLine
 10
76.54999908788477
 20
156.7500000358926
 30
0.0
 11
163.449999087885
 21
156.7500000358928
 31
0.0
  0
LINE
  5
5C5
330
1F
100
AcDbEntity
  8
0
100
AcDbLine
 10
76.54999908788477
 20
155.7500000358924
 30
0.0
 11
163.449999087885
 21
155.7500000358928
 31
0.0
  0
LINE
  5
5C6
330
1F
100
AcDbEntity
  8
0
100
AcDbLine
 10
76.54999908788477
 20
154.7500000358926
 30
0.0
 11
163.449999087885
 21
154.7500000358928
 31
0.0
  0
LINE
  5
5C7
330
1F
100
AcDbEntity
  8
0
100
AcDbLine
 10
76.54999908788477
 20
153.7500000358924
 30
0.0
 11
85.74006488020639
 21
153.7500000358924
 31
0.0
  0
LINE
  5
5C8
330
1F
100
AcDbEntity
  8
0
100
AcDbLine
 10
154.259933295563
 20
153.7500000358928
 30
0.0
 11
163.449999087885
 21
153.7500000358928
 31
0.0
  0
LINE
  5
5C9
330
1F
100
AcDbEntity
  8
0
100
AcDbLine
 10
76.54999908788477
 20
152.7500000358926
 30
0.0
 11
85.4999990878848
 21
152.7500000358926
 31
0.0
  0
LINE
  5
5CA
330
1F
100
AcDbEntity
  8
0
100
AcDbLine
 10
154.4999990878848
 20
152.7500000358928
 30
0.0
 11
163.449999087885
 21
152.7500000358928
 31
0.0
  0
LINE
  5
5CB
330
1F
100
AcDbEntity
  8
0
100
AcDbLine
 10
76.54999908788477
 20
151.7500000358924
 30
0.0
 11
85.4999990878848
 21
151.7500000358924
 31
0.0
  0
LINE
  5
5CC
330
1F
100
AcDbEntity
  8
0
100
AcDbLine
 10
154.4999990878848
 20
151.7500000358928
 30
0.0
 11
163.449999087885
 21
151.7500000358928
 31
0.0
  0
LINE
  5
5CD
330
1F
100
AcDbEntity
  8
0
100
AcDbLine
 10
76.54999908788477
 20
150.7500000358926
 30
0.0
 11
85.4999990878848
 21
150.7500000358926
 31
0.0
  0
LINE
  5
5CE
330
1F
100
AcDbEntity
  8
0
100
AcDbLine
 10
154.4999990878848
 20
150.7500000358928
 30
0.0
 11
163.449999087885
 21
150.7500000358928
 31
0.0
  0
LINE
  5
5CF
330
1F
100
AcDbEntity
  8
0
100
AcDbLine
 10
76.54999908788477
 20
149.7500000358924
 30
0.0
 11
85.4999990878848
 21
149.7500000358924
 31
0.0
  0
LINE
  5
5D0
330
1F
100
AcDbEntity
  8
0
100
AcDbLine
 10
154.4999990878848
 20
149.7500000358928
 30
0.0
 11
163.449999087885
 21
149.7500000358928
 31
0.0
  0
LINE
  5
5D1
330
1F
100
AcDbEntity
  8
0
100
AcDbLine
 10
76.54999908788477
 20
148.7500000358926
 30
0.0
 11
85.4999990878848
 21
148.7500000358926
 31
0.0
  0
LINE
  5
5D2
330
1F
100
AcDbEntity
  8
0
100
AcDbLine
 10
154.4999990878848
 20
148.7500000358928
 30
0.0
 11
163.449999087885
 21
148.7500000358928
 31
0.0
  0
LINE
  5
5D3
330
1F
100
AcDbEntity
  8
0
100
AcDbLine
 10
76.54999908788477
 20
147.7500000358926
 30
0.0
 11
85.4999990878848
 21
147.7500000358926
 31
0.0
  0
LINE
  5
5D4
330
1F
100
AcDbEntity
  8
0
100
AcDbLine
 10
154.4999990878848
 20
147.7500000358928
 30
0.0
 11
163.449999087885
 21
147.7500000358928
 31
0.0
  0
LINE
  5
5D5
330
1F
100
AcDbEntity
  8
0
100
AcDbLine
 10
76.54999908788477
 20
146.7500000358926
 30
0.0
 11
85.4999990878848
 21
146.7500000358926
 31
0.0
  0
LINE
  5
5D6
330
1F
100
AcDbEntity
  8
0
100
AcDbLine
 10
154.4999990878848
 20
146.7500000358928
 30
0.0
 11
163.449999087885
 21
146.7500000358928
 31
0.0
  0
LINE
  5
5D7
330
1F
100
AcDbEntity
  8
0
100
AcDbLine
 10
76.54999908788477
 20
145.7500000358925
 30
0.0
 11
85.4999990878848
 21
145.7500000358925
 31
0.0
  0
LINE
  5
5D8
330
1F
100
AcDbEntity
  8
0
100
AcDbLine
 10
154.4999990878848
 20
145.7500000358928
 30
0.0
 11
163.449999087885
 21
145.7500000358928
 31
0.0
  0
LINE
  5
5D9
330
1F
100
AcDbEntity
  8
0
100
AcDbLine
 10
76.54999908788477
 20
144.7500000358926
 30
0.0
 11
85.4999990878848
 21
144.7500000358926
 31
0.0
  0
LINE
  5
5DA
330
1F
100
AcDbEntity
  8
0
100
AcDbLine
 10
154.4999990878848
 20
144.7500000358928
 30
0.0
 11
163.449999087885
 21
144.7500000358928
 31
0.0
  0
LINE
  5
5DB
330
1F
100
AcDbEntity
  8
0
100
AcDbLine
 10
76.54999908788477
 20
143.7500000358926
 30
0.0
 11
85.4999990878848
 21
143.7500000358926
 31
0.0
  0
LINE
  5
5DC
330
1F
100
AcDbEntity
  8
0
100
AcDbLine
 10
154.4999990878848
 20
143.7500000358928
 30
0.0
 11
163.449999087885
 21
143.7500000358928
 31
0.0
  0
LINE
  5
5DD
330
1F
100
AcDbEntity
  8
0
100
AcDbLine
 10
76.54999908788477
 20
142.7500000358925
 30
0.0
 11
85.4999990878848
 21
142.7500000358925
 31
0.0
  0
LINE
  5
5DE
330
1F
100
AcDbEntity
  8
0
100
AcDbLine
 10
154.4999990878848
 20
142.7500000358928
 30
0.0
 11
163.449999087885
 21
142.7500000358928
 31
0.0
  0
LINE
  5
5DF
330
1F
100
AcDbEntity
  8
0
100
AcDbLine
 10
76.54999908788477
 20
141.7500000358925
 30
0.0
 11
85.4999990878848
 21
141.7500000358925
 31
0.0
  0
LINE
  5
5E0
330
1F
100
AcDbEntity
  8
0
100
AcDbLine
 10
154.4999990878848
 20
141.7500000358928
 30
0.0
 11
163.449999087885
 21
141.7500000358928
 31
0.0
  0
LINE
  5
5E1
330
1F
100
AcDbEntity
  8
0
100
AcDbLine
 10
76.54999908788477
 20
140.7500000358925
 30
0.0
 11
85.4999990878848
 21
140.7500000358925
 31
0.0
  0
LINE
  5
5E2
330
1F
100
AcDbEntity
  8
0
100
AcDbLine
 10
154.4999990878848
 20
140.7500000358928
 30
0.0
 11
163.449999087885
 21
140.7500000358928
 31
0.0
  0
LINE
  5
5E3
330
1F
100
AcDbEntity
  8
0
100
AcDbLine
 10
76.54999908788477
 20
139.7500000358925
 30
0.0
 11
85.4999990878848
 21
139.7500000358925
 31
0.0
  0
LINE
  5
5E4
330
1F
100
AcDbEntity
  8
0
100
AcDbLine
 10
154.4999990878848
 20
139.7500000358927
 30
0.0
 11
163.449999087885
 21
139.7500000358927
 31
0.0
  0
LINE
  5
5E5
330
1F
100
AcDbEntity
  8
0
100
AcDbLine
 10
76.54999908788477
 20
138.7500000358925
 30
0.0
 11
85.4999990878848
 21
138.7500000358925
 31
0.0
  0
LINE
  5
5E6
330
1F
100
AcDbEntity
  8
0
100
AcDbLine
 10
154.4999990878848
 20
138.7500000358928
 30
0.0
 11
163.449999087885
 21
138.7500000358928
 31
0.0
  0
LINE
  5
5E7
330
1F
100
AcDbEntity
  8
0
100
AcDbLine
 10
76.54999908788477
 20
137.7500000358925
 30
0.0
 11
85.4999990878848
 21
137.7500000358925
 31
0.0
  0
LINE
  5
5E8
330
1F
100
AcDbEntity
  8
0
100
AcDbLine
 10
154.4999990878848
 20
137.7500000358928
 30
0.0
 11
163.449999087885
 21
137.7500000358928
 31
0.0
  0
LINE
  5
5E9
330
1F
100
AcDbEntity
  8
0
100
AcDbLine
 10
76.54999908788477
 20
136.7500000358925
 30
0.0
 11
85.4999990878848
 21
136.7500000358925
 31
0.0
  0
LINE
  5
5EA
330
1F
100
AcDbEntity
  8
0
100
AcDbLine
 10
154.4999990878848
 20
136.7500000358928
 30
0.0
 11
163.449999087885
 21
136.7500000358928
 31
0.0
  0
LINE
  5
5EB
330
1F
100
AcDbEntity
  8
0
100
AcDbLine
 10
76.54999908788477
 20
135.7500000358925
 30
0.0
 11
85.4999990878848
 21
135.7500000358925
 31
0.0
  0
LINE
  5
5EC
330
1F
100
AcDbEntity
  8
0
100
AcDbLine
 10
154.4999990878848
 20
135.7500000358928
 30
0.0
 11
163.449999087885
 21
135.7500000358928
 31
0.0
  0
LINE
  5
5ED
330
1F
100
AcDbEntity
  8
0
100
AcDbLine
 10
76.54999908788477
 20
134.7500000358925
 30
0.0
 11
85.4999990878848
 21
134.7500000358925
 31
0.0
  0
LINE
  5
5EE
330
1F
100
AcDbEntity
  8
0
100
AcDbLine
 10
154.4999990878848
 20
134.7500000358928
 30
0.0
 11
163.449999087885
 21
134.7500000358928
 31
0.0
  0
LINE
  5
5EF
330
1F
100
AcDbEntity
  8
0
100
AcDbLine
 10
76.54999908788477
 20
133.7500000358925
 30
0.0
 11
85.4999990878848
 21
133.7500000358925
 31
0.0
  0
LINE
  5
5F0
330
1F
100
AcDbEntity
  8
0
100
AcDbLine
 10
154.4999990878848
 20
133.7500000358927
 30
0.0
 11
163.449999087885
 21
133.7500000358927
 31
0.0
  0
LINE
  5
5F1
330
1F
100
AcDbEntity
  8
0
100
AcDbLine
 10
76.54999908788477
 20
132.7500000358925
 30
0.0
 11
85.4999990878848
 21
132.7500000358925
 31
0.0
  0
LINE
  5
5F2
330
1F
100
AcDbEntity
  8
0
100
AcDbLine
 10
154.4999990878848
 20
132.7500000358927
 30
0.0
 11
163.449999087885
 21
132.7500000358927
 31
0.0
  0
LINE
  5
5F3
330
1F
100
AcDbEntity
  8
0
100
AcDbLine
 10
76.54999908788477
 20
131.7500000358925
 30
0.0
 11
85.4999990878848
 21
131.7500000358925
 31
0.0
  0
LINE
  5
5F4
330
1F
100
AcDbEntity
  8
0
100
AcDbLine
 10
154.4999990878848
 20
131.7500000358928
 30
0.0
 11
163.449999087885
 21
131.7500000358928
 31
0.0
  0
LINE
  5
5F5
330
1F
100
AcDbEntity
  8
0
100
AcDbLine
 10
76.54999908788477
 20
130.7500000358924
 30
0.0
 11
85.4999990878848
 21
130.7500000358924
 31
0.0
  0
LINE
  5
5F6
330
1F
100
AcDbEntity
  8
0
100
AcDbLine
 10
154.4999990878848
 20
130.7500000358928
 30
0.0
 11
163.449999087885
 21
130.7500000358928
 31
0.0
  0
LINE
  5
5F7
330
1F
100
AcDbEntity
  8
0
100
AcDbLine
 10
76.54999908788477
 20
129.7500000358925
 30
0.0
 11
85.4999990878848
 21
129.7500000358925
 31
0.0
  0
LINE
  5
5F8
330
1F
100
AcDbEntity
  8
0
100
AcDbLine
 10
154.4999990878848
 20
129.7500000358928
 30
0.0
 11
163.449999087885
 21
129.7500000358928
 31
0.0
  0
LINE
  5
5F9
330
1F
100
AcDbEntity
  8
0
100
AcDbLine
 10
76.54999908788477
 20
128.7500000358924
 30
0.0
 11
85.4999990878848
 21
128.7500000358925
 31
0.0
  0
LINE
  5
5FA
330
1F
100
AcDbEntity
  8
0
100
AcDbLine
 10
154.4999990878848
 20
128.7500000358928
 30
0.0
 11
163.449999087885
 21
128.7500000358928
 31
0.0
  0
LINE
  5
5FB
330
1F
100
AcDbEntity
  8
0
100
AcDbLine
 10
76.54999908788477
 20
127.7500000358925
 30
0.0
 11
85.4999990878848
 21
127.7500000358925
 31
0.0
  0
LINE
  5
5FC
330
1F
100
AcDbEntity
  8
0
100
AcDbLine
 10
154.4999990878848
 20
127.7500000358927
 30
0.0
 11
163.449999087885
 21
127.7500000358928
 31
0.0
  0
LINE
  5
5FD
330
1F
100
AcDbEntity
  8
0
100
AcDbLine
 10
76.54999908788477
 20
126.7500000358924
 30
0.0
 11
85.4999990878848
 21
126.7500000358925
 31
0.0
  0
LINE
  5
5FE
330
1F
100
AcDbEntity
  8
0
100
AcDbLine
 10
154.4999990878848
 20
126.7500000358928
 30
0.0
 11
163.449999087885
 21
126.7500000358928
 31
0.0
  0
LINE
  5
5FF
330
1F
100
AcDbEntity
  8
0
100
AcDbLine
 10
76.54999908788477
 20
125.7500000358925
 30
0.0
 11
85.4999990878848
 21
125.7500000358925
 31
0.0
  0
LINE
  5
600
330
1F
100
AcDbEntity
  8
0
100
AcDbLine
 10
154.4999990878848
 20
125.7500000358927
 30
0.0
 11
163.449999087885
 21
125.7500000358928
 31
0.0
  0
LINE
  5
601
330
1F
100
AcDbEntity
  8
0
100
AcDbLine
 10
76.54999908788477
 20
124.7500000358924
 30
0.0
 11
85.4999990878848
 21
124.7500000358925
 31
0.0
  0
LINE
  5
602
330
1F
100
AcDbEntity
  8
0
100
AcDbLine
 10
154.4999990878848
 20
124.7500000358928
 30
0.0
 11
163.449999087885
 21
124.7500000358928
 31
0.0
  0
LINE
  5
603
330
1F
100
AcDbEntity
  8
0
100
AcDbLine
 10
76.54999908788477
 20
123.7500000358925
 30
0.0
 11
85.97321640024192
 21
123.7500000358925
 31
0.0
  0
LINE
  5
604
330
1F
100
AcDbEntity
  8
0
100
AcDbLine
 10
154.0267817755281
 20
123.7500000358927
 30
0.0
 11
163.449999087885
 21
123.7500000358928
 31
0.0
  0
LINE
  5
605
330
1F
100
AcDbEntity
  8
0
100
AcDbLine
 10
76.54999908788477
 20
122.7500000358924
 30
0.0
 11
163.449999087885
 21
122.7500000358928
 31
0.0
  0
LINE
  5
606
330
1F
100
AcDbEntity
  8
0
100
AcDbLine
 10
76.54999908788477
 20
121.7500000358924
 30
0.0
 11
163.449999087885
 21
121.7500000358928
 31
0.0
  0
LINE
  5
607
330
1F
100
AcDbEntity
  8
0
100
AcDbLine
 10
76.54999908788477
 20
120.7500000358924
 30
0.0
 11
163.449999087885
 21
120.7500000358928
 31
0.0
  0
LINE
  5
608
330
1F
100
AcDbEntity
  8
0
100
AcDbLine
 10
76.54999908788477
 20
119.7500000358924
 30
0.0
 11
163.449999087885
 21
119.7500000358928
 31
0.0
  0
LINE
  5
609
330
1F
100
AcDbEntity
  8
0
100
AcDbLine
 10
154.4999990878848
 20
153.1000000358924
 30
0.0
 11
154.4999990878848
 21
124.6000000358924
 31
0.0
1001
GENIUS_GENREC_14
1002
{
1000
PYDIR
1011
158.9999990878848
1021
152.6000000358926
1031
0.0
1002
}
1002
{
1000
PXDIR
1011
218.9999990878849
1021
125.1000000358923
1031
0.0
1002
}
1002
{
1000
PORI
1011
158.9999990878848
1021
125.1000000358923
1031
0.0
1002
}
1002
{
1000
PINS
1011
158.9999990878848
1021
125.1000000358923
1031
0.0
1002
}
1002
{
1000
PINS2
1011
218.9999990878849
1021
152.6000000358926
1031
0.0
1002
}
1002
{
1000
C
1070
     1
1002
}
1001
GENIUS_GENOBJ-N-REC_13
1002
{
1000
OWNER
1000
GEN
1002
}
1001
GENIUS_GENODEF_13
1002
{
1000
HIER
1070
     0
1002
}
1002
{
1000
MANEDIT
1070
     0
1002
}
1002
{
1000
NOSEL
1070
     0
1002
}
1002
{
1000
BEHIND
1070
     0
1002
}
1002
{
1000
OTHER
1070
     0
1002
}
1002
{
1000
REACTOR
1002
}
  0
LINE
  5
60A
330
1F
100
AcDbEntity
  8
0
100
AcDbLine
 10
363.4999990878848
 20
164.3000000358922
 30
0.0
 11
276.499999087885
 21
164.3000000358922
 31
0.0
  0
LINE
  5
60B
330
1F
100
AcDbEntity
  8
0
100
AcDbLine
 10
339.999999087885
 20
152.0500000358923
 30
0.0
 11
299.999999087885
 21
152.0500000358923
 31
0.0
  0
LINE
  5
60C
330
1F
100
AcDbEntity
  8
0
100
AcDbLine
 10
272.9999990878852
 20
160.8000000358923
 30
0.0
 11
272.9999990878852
 21
103.8000000358922
 31
0.0
  0
ARC
  5
60D
330
1F
100
AcDbEntity
  8
0
100
AcDbCircle
 10
276.499999087885
 20
160.8000000358923
 30
0.0
 40
3.5
100
AcDbArc
 50
90.0
 51
180.0
1001
GENIUS_GENOBJ-N-FIL_13
1002
{
1000
OWNER
1000
GEN
1002
}
1001
GENIUS_GENODEF_13
1002
{
1000
HIER
1070
     0
1002
}
1002
{
1000
MANEDIT
1070
     0
1002
}
1002
{
1000
NOSEL
1070
     0
1002
}
1002
{
1000
BEHIND
1070
     0
1002
}
1002
{
1000
OTHER
1070
     0
1002
}
1002
{
1000
REACTOR
1002
}
  0
LINE
  5
60E
330
1F
100
AcDbEntity
  8
0
100
AcDbLine
 10
366.999999087885
 20
160.8000000358921
 30
0.0
 11
366.9999990878853
 21
103.8000000358922
 31
0.0
  0
ARC
  5
60F
330
1F
100
AcDbEntity
  8
0
100
AcDbCircle
 10
363.4999990878853
 20
103.8000000358921
 30
0.0
 40
3.5
100
AcDbArc
 50
270.0
 51
0.0
1001
GENIUS_GENODEF_13
1002
{
1000
HIER
1070
     0
1002
}
1002
{
1000
MANEDIT
1070
     0
1002
}
1002
{
1000
NOSEL
1070
     0
1002
}
1002
{
1000
BEHIND
1070
     0
1002
}
1002
{
1000
OTHER
1070
     0
1002
}
1002
{
1000
REACTOR
1002
}
1001
GENIUS_GENOBJ-N-FIL_13
1002
{
1000
OWNER
1000
GEN
1002
}
  0
ARC
  5
610
330
1F
100
AcDbEntity
  8
0
100
AcDbCircle
 10
363.4999990878848
 20
160.8000000358921
 30
0.0
 40
3.5
100
AcDbArc
 50
0.0
 51
90.0
1001
GENIUS_GENODEF_13
1002
{
1000
HIER
1070
     0
1002
}
1002
{
1000
MANEDIT
1070
     0
1002
}
1002
{
1000
NOSEL
1070
     0
1002
}
1002
{
1000
BEHIND
1070
     0
1002
}
1002
{
1000
OTHER
1070
     0
1002
}
1002
{
1000
REACTOR
1002
}
1001
GENIUS_GENOBJ-N-FIL_13
1002
{
1000
OWNER
1000
GEN
1002
}
  0
LINE
  5
611
330
1F
100
AcDbEntity
  8
0
100
AcDbLine
 10
287.4999990878853
 20
151.3000000358921
 30
0.0
 11
352.4999990878848
 21
151.300000035892
 31
0.0
  0
LINE
  5
612
330
1F
100
AcDbEntity
  8
0
100
AcDbLine
 10
287.4999990878852
 20
100.3000000358921
 30
0.0
 11
287.4999990878853
 21
151.3000000358921
 31
0.0
  0
LINE
  5
613
330
1F
100
AcDbEntity
  8
0
100
AcDbLine
 10
283.2499990878852
 20
101.8000000358921
 30
0.0
 11
283.2499990878853
 21
162.8000000358923
 31
0.0
  0
ARC
  5
614
330
1F
100
AcDbEntity
  8
0
100
AcDbCircle
 10
284.7499990878853
 20
162.8000000358923
 30
0.0
 40
1.5
100
AcDbArc
 50
90.0
 51
180.0
1001
GENIUS_GENODEF_13
1002
{
1000
HIER
1070
     0
1002
}
1002
{
1000
MANEDIT
1070
     0
1002
}
1002
{
1000
NOSEL
1070
     0
1002
}
1002
{
1000
BEHIND
1070
     0
1002
}
1002
{
1000
OTHER
1070
     0
1002
}
1002
{
1000
REACTOR
1002
}
1001
GENIUS_GENOBJ-N-FIL_13
1002
{
1000
OWNER
1000
GEN
1002
}
  0
ARC
  5
615
330
1F
100
AcDbEntity
  8
0
100
AcDbCircle
 10
284.749999087885
 20
101.8000000358921
 30
0.0
 40
1.5
100
AcDbArc
 50
180.0
 51
270.0
1001
GENIUS_GENODEF_13
1002
{
1000
HIER
1070
     0
1002
}
1002
{
1000
MANEDIT
1070
     0
1002
}
1002
{
1000
NOSEL
1070
     0
1002
}
1002
{
1000
BEHIND
1070
     0
1002
}
1002
{
1000
OTHER
1070
     0
1002
}
1002
{
1000
REACTOR
1002
}
1001
GENIUS_GENOBJ-N-FIL_13
1002
{
1000
OWNER
1000
GEN
1002
}
  0
CIRCLE
  5
616
330
1F
100
AcDbEntity
  8
0
100
AcDbCircle
 10
359.999999087885
 20
157.3000000358924
 30
0.0
 40
2.5
  0
CIRCLE
  5
617
330
1F
100
AcDbEntity
  8
0
100
AcDbCircle
 10
279.9999990878851
 20
157.3000000358925
 30
0.0
 40
2.5
  0
CIRCLE
  5
618
330
1F
100
AcDbEntity
  8
0
100
AcDbCircle
 10
279.9999990878849
 20
107.3000000358918
 30
0.0
 40
2.5
  0
LINE
  5
619
330
1F
100
AcDbEntity
  8
0
100
AcDbLine
 10
296.7499990878851
 20
159.8000000358923
 30
0.0
 11
296.7499990878851
 21
158.5386128234181
 31
0.0
  0
LINE
  5
61A
330
1F
100
AcDbEntity
  8
0
100
AcDbLine
 10
293.249999087885
 20
159.8000000358923
 30
0.0
 11
293.249999087885
 21
158.5386128234181
 31
0.0
  0
ARC
  5
61B
330
1F
100
AcDbEntity
  8
0
100
AcDbCircle
 10
294.9999990878848
 20
155.8000000358921
 30
0.0
 40
3.25
100
AcDbArc
 50
122.5789703928047
 51
57.42102960719524
  0
ARC
  5
61C
330
1F
100
AcDbEntity
  8
0
100
AcDbCircle
 10
294.9999990878851
 20
159.8000000358921
 30
0.0
 40
1.75
100
AcDbArc
 50
0.0000000000032569
 51
180.0
1001
GENIUS_GENODEF_13
1002
{
1000
HIER
1070
     0
1002
}
1002
{
1000
MANEDIT
1070
     0
1002
}
1002
{
1000
NOSEL
1070
     0
1002
}
1002
{
1000
BEHIND
1070
     0
1002
}
1002
{
1000
OTHER
1070
     0
1002
}
1002
{
1000
REACTOR
1002
}
1001
GENIUS_GENOBJ-N-FIL_13
1002
{
1000
OWNER
1000
GEN
1002
}
  0
LINE
  5
61D
330
1F
100
AcDbEntity
  8
0
100
AcDbLine
 10
299.999999087885
 20
162.0500000358921
 30
0.0
 11
299.999999087885
 21
152.0500000358923
 31
0.0
  0
LINE
  5
61E
330
1F
100
AcDbEntity
  8
0
100
AcDbLine
 10
339.999999087885
 20
162.0500000358921
 30
0.0
 11
339.999999087885
 21
152.0500000358923
 31
0.0
  0
CIRCLE
  5
61F
330
1F
100
AcDbEntity
  8
0
100
AcDbCircle
 10
359.999999087885
 20
107.300000035892
 30
0.0
 40
2.5
  0
LINE
  5
620
330
1F
100
AcDbEntity
  8
0
100
AcDbLine
 10
363.4999990878853
 20
100.3000000358921
 30
0.0
 11
276.499999087885
 21
100.3000000358921
 31
0.0
  0
ARC
  5
622
330
1F
100
AcDbEntity
  8
0
100
AcDbCircle
 10
355.2499990878847
 20
101.8000000358921
 30
0.0
 40
1.5
100
AcDbArc
 50
270.0
 51
0.0
1001
GENIUS_GENODEF_13
1002
{
1000
HIER
1070
     0
1002
}
1002
{
1000
MANEDIT
1070
     0
1002
}
1002
{
1000
NOSEL
1070
     0
1002
}
1002
{
1000
BEHIND
1070
     0
1002
}
1002
{
1000
OTHER
1070
     0
1002
}
1002
{
1000
REACTOR
1002
}
1001
GENIUS_GENOBJ-N-FIL_13
1002
{
1000
OWNER
1000
GEN
1002
}
  0
ARC
  5
623
330
1F
100
AcDbEntity
  8
0
100
AcDbCircle
 10
276.499999087885
 20
103.8000000358921
 30
0.0
 40
3.5
100
AcDbArc
 50
180.0
 51
270.0
1001
GENIUS_GENOBJ-N-FIL_13
1002
{
1000
OWNER
1000
GEN
1002
}
1001
GENIUS_GENODEF_13
1002
{
1000
HIER
1070
     0
1002
}
1002
{
1000
MANEDIT
1070
     0
1002
}
1002
{
1000
NOSEL
1070
     0
1002
}
1002
{
1000
BEHIND
1070
     0
1002
}
1002
{
1000
OTHER
1070
     0
1002
}
1002
{
1000
REACTOR
1002
}
  0
LINE
  5
624
330
1F
100
AcDbEntity
  8
0
100
AcDbLine
 10
352.4999990878848
 20
100.3000000358921
 30
0.0
 11
352.4999990878848
 21
151.300000035892
 31
0.0
  0
LINE
  5
625
330
1F
100
AcDbEntity
  8
0
100
AcDbLine
 10
356.7499990878848
 20
101.8000000358921
 30
0.0
 11
356.7499990878848
 21
162.8000000358923
 31
0.0
  0
ARC
  5
626
330
1F
100
AcDbEntity
  8
0
100
AcDbCircle
 10
355.2499990878847
 20
162.8000000358923
 30
0.0
 40
1.5
100
AcDbArc
 50
0.0
 51
90.0
1001
GENIUS_GENOBJ-N-FIL_13
1002
{
1000
OWNER
1000
GEN
1002
}
1001
GENIUS_GENODEF_13
1002
{
1000
HIER
1070
     0
1002
}
1002
{
1000
MANEDIT
1070
     0
1002
}
1002
{
1000
NOSEL
1070
     0
1002
}
1002
{
1000
BEHIND
1070
     0
1002
}
1002
{
1000
OTHER
1070
     0
1002
}
1002
{
1000
REACTOR
1002
}
  0
LINE
  5
627
330
1F
100
AcDbEntity
  8
0
100
AcDbLine
 10
339.999999087885
 20
162.0500000358921
 30
0.0
 11
299.999999087885
 21
162.0500000358921
 31
0.0
  0
LINE
  5
628
330
1F
100
AcDbEntity
  8
0
100
AcDbLine
 10
343.249999087885
 20
159.8000000358923
 30
0.0
 11
343.249999087885
 21
158.5386128234181
 31
0.0
  0
LINE
  5
629
330
1F
100
AcDbEntity
  8
0
100
AcDbLine
 10
346.749999087885
 20
159.8000000358923
 30
0.0
 11
346.749999087885
 21
158.5386128234181
 31
0.0
  0
ARC
  5
62A
330
1F
100
AcDbEntity
  8
0
100
AcDbCircle
 10
344.999999087885
 20
155.8000000358921
 30
0.0
 40
3.25
100
AcDbArc
 50
122.5789703928047
 51
57.42102960719524
  0
ARC
  5
62B
330
1F
100
AcDbEntity
  8
0
100
AcDbCircle
 10
344.999999087885
 20
159.8000000358921
 30
0.0
 40
1.75
100
AcDbArc
 50
0.0
 51
179.9999999999966
1001
GENIUS_GENODEF_13
1002
{
1000
HIER
1070
     0
1002
}
1002
{
1000
MANEDIT
1070
     0
1002
}
1002
{
1000
NOSEL
1070
     0
1002
}
1002
{
1000
BEHIND
1070
     0
1002
}
1002
{
1000
OTHER
1070
     0
1002
}
1002
{
1000
REACTOR
1002
}
1001
GENIUS_GENOBJ-N-FIL_13
1002
{
1000
OWNER
1000
GEN
1002
}
  0
ARC
  5
62C
330
1F
100
AcDbEntity
  8
0
100
AcDbCircle
 10
273.4999990878852
 20
140.300000035892
 30
0.0
 40
6.0
100
AcDbArc
 50
75.52248781407008
 51
90.0
  0
ARC
  5
62D
330
1F
100
AcDbEntity
  8
0
100
AcDbCircle
 10
273.4999990878852
 20
140.300000035892
 30
0.0
 40
6.0
100
AcDbArc
 50
270.0
 51
284.4775121859299
  0
LINE
  5
62E
330
1F
100
AcDbEntity
  8
0
100
AcDbLine
 10
283.2499990878852
 20
146.1094750552031
 30
0.0
 11
274.9999990878852
 21
146.1094750552031
 31
0.0
  0
LINE
  5
62F
330
1F
100
AcDbEntity
  8
0
100
AcDbLine
 10
272.9999990878852
 20
146.300000035892
 30
0.0
 11
273.4999990878852
 21
146.300000035892
 31
0.0
  0
LINE
  5
630
330
1F
100
AcDbEntity
  8
0
100
AcDbLine
 10
272.9999990878852
 20
134.300000035892
 30
0.0
 11
273.4999990878852
 21
134.300000035892
 31
0.0
  0
LINE
  5
631
330
1F
100
AcDbEntity
  8
0
100
AcDbLine
 10
274.9999990878852
 20
134.4905250165809
 30
0.0
 11
283.2499990878852
 21
134.4905250165809
 31
0.0
  0
ARC
  5
632
330
1F
100
AcDbEntity
  8
0
100
AcDbCircle
 10
366.499999087885
 20
140.3000000358922
 30
0.0
 40
6.0
100
AcDbArc
 50
90.0
 51
104.4775121859299
  0
ARC
  5
633
330
1F
100
AcDbEntity
  8
0
100
AcDbCircle
 10
366.499999087885
 20
140.3000000358922
 30
0.0
 40
6.0
100
AcDbArc
 50
255.5224878140701
 51
270.0
  0
LINE
  5
634
330
1F
100
AcDbEntity
  8
0
100
AcDbLine
 10
356.749999087885
 20
146.1094750552033
 30
0.0
 11
364.999999087885
 21
146.1094750552033
 31
0.0
  0
LINE
  5
635
330
1F
100
AcDbEntity
  8
0
100
AcDbLine
 10
366.999999087885
 20
146.3000000358921
 30
0.0
 11
366.499999087885
 21
146.3000000358921
 31
0.0
  0
LINE
  5
636
330
1F
100
AcDbEntity
  8
0
100
AcDbLine
 10
366.999999087885
 20
134.3000000358922
 30
0.0
 11
366.499999087885
 21
134.3000000358922
 31
0.0
  0
LINE
  5
637
330
1F
100
AcDbEntity
  8
0
100
AcDbLine
 10
364.999999087885
 20
134.4905250165811
 30
0.0
 11
356.749999087885
 21
134.4905250165811
 31
0.0
  0
LINE
  5
638
330
1F
100
AcDbEntity
  8
0
100
AcDbLine
 10
287.999999087885
 20
151.3000000358921
 30
0.0
 11
287.9999990878852
 21
100.3000000358922
 31
0.0
  0
LINE
  5
639
330
1F
100
AcDbEntity
  8
0
100
AcDbLine
 10
351.9999990878848
 20
151.3000000358921
 30
0.0
 11
351.9999990878848
 21
100.3000000358922
 31
0.0
  0
ARC
  5
63A
330
1F
100
AcDbEntity
  8
0
100
AcDbCircle
 10
319.9999990878851
 20
104.0500000358923
 30
0.0
 40
2.999999999999984
100
AcDbArc
 50
0.0
 51
180.0
  0
LINE
  5
63B
330
1F
100
AcDbEntity
  8
0
100
AcDbLine
 10
322.999999087885
 20
104.0500000358923
 30
0.0
 11
322.999999087885
 21
100.3000000358922
 31
0.0
  0
LINE
  5
63C
330
1F
100
AcDbEntity
  8
0
100
AcDbLine
 10
316.999999087885
 20
104.0500000358923
 30
0.0
 11
316.999999087885
 21
100.3000000358922
 31
0.0
  0
ARC
  5
63E
330
1F
100
AcDbEntity
  8
0
100
AcDbCircle
 10
328.5583324212185
 20
155.8000000358921
 30
0.0
 40
2.5
100
AcDbArc
 50
15.98866499138022
 51
340.5287793655102
  0
ARC
  5
63F
330
1F
100
AcDbEntity
  8
0
100
AcDbCircle
 10
328.5583324212185
 20
155.8000000358921
 30
0.0
 40
2.166666666666666
100
AcDbArc
 50
25.00623305001779
 51
161.4936568715907
  0
ARC
  5
640
330
1F
100
AcDbEntity
  8
0
100
AcDbCircle
 10
328.5583324212185
 20
155.8000000358921
 30
0.0
 40
2.166666666666666
100
AcDbArc
 50
171.5353527878993
 51
337.3801350519575
  0
LINE
  5
641
330
1F
100
AcDbEntity
  8
0
100
AcDbLine
 10
328.7249990878851
 20
157.0829142695379
 30
0.0
 11
328.7249990878851
 21
156.234408493506
 31
0.0
  0
LINE
  5
642
330
1F
100
AcDbEntity
  8
0
100
AcDbLine
 10
328.3916657545518
 20
156.6485058119241
 30
0.0
 11
328.3916657545518
 21
155.8000000358921
 31
0.0
  0
LINE
  5
643
330
1F
100
AcDbEntity
  8
0
100
AcDbLine
 10
327.2249990878851
 20
154.9666667025589
 30
0.0
 11
329.8916657545516
 21
154.9666667025589
 31
0.0
  0
LINE
  5
644
330
1F
100
AcDbEntity
  8
0
100
AcDbLine
 10
327.2249990878851
 20
154.5500000358923
 30
0.0
 11
328.3083324212185
 21
154.5500000358923
 31
0.0
  0
LINE
  5
645
330
1F
100
AcDbEntity
  8
0
100
AcDbLine
 10
328.8083324212184
 20
154.5500000358923
 30
0.0
 11
329.8916657545516
 21
154.5500000358923
 31
0.0
  0
LINE
  5
646
330
1F
100
AcDbEntity
  8
0
100
AcDbLine
 10
328.3083324212185
 20
153.8833333692256
 30
0.0
 11
328.8083324212184
 21
153.8833333692256
 31
0.0
  0
LINE
  5
647
330
1F
100
AcDbEntity
  8
0
100
AcDbLine
 10
328.3916657545518
 20
155.8000000358921
 30
0.0
 11
330.9616229396009
 21
156.4886179882088
 31
0.0
  0
LINE
  5
648
330
1F
100
AcDbEntity
  8
0
100
AcDbLine
 10
328.7249990878851
 20
156.234408493506
 30
0.0
 11
330.5218996679792
 21
156.7158865528213
 31
0.0
  0
LINE
  5
649
330
1F
100
AcDbEntity
  8
0
100
AcDbLine
 10
326.4152675214238
 20
156.1189315014353
 30
0.0
 11
328.3916657545518
 21
156.6485058119241
 31
0.0
  0
LINE
  5
64A
330
1F
100
AcDbEntity
  8
0
100
AcDbLine
 10
326.5037072922118
 20
156.4877209267334
 30
0.0
 11
328.7249990878851
 21
157.0829142695379
 31
0.0
  0
LINE
  5
64B
330
1F
100
AcDbEntity
  8
0
100
AcDbLine
 10
328.8083324212184
 20
154.5500000358923
 30
0.0
 11
328.8083324212184
 21
153.8833333692256
 31
0.0
  0
LINE
  5
64C
330
1F
100
AcDbEntity
  8
0
100
AcDbLine
 10
328.3083324212185
 20
154.5500000358923
 30
0.0
 11
328.3083324212185
 21
153.8833333692256
 31
0.0
  0
LINE
  5
64D
330
1F
100
AcDbEntity
  8
0
100
AcDbLine
 10
329.8916657545516
 20
154.9666667025589
 30
0.0
 11
329.8916657545516
 21
154.5500000358923
 31
0.0
  0
LINE
  5
64E
330
1F
100
AcDbEntity
  8
0
100
AcDbLine
 10
327.2249990878851
 20
154.9666667025589
 30
0.0
 11
327.2249990878851
 21
154.5500000358923
 31
0.0
  0
LINE
  5
64F
330
1F
100
AcDbEntity
  8
0
100
AcDbLine
 10
327.2249990878851
 20
155.6333333692256
 30
0.0
 11
329.8916657545516
 21
155.6333333692256
 31
0.0
  0
LINE
  5
650
330
1F
100
AcDbEntity
  8
0
100
AcDbLine
 10
327.2249990878851
 20
155.2166667025589
 30
0.0
 11
329.8916657545516
 21
155.2166667025589
 31
0.0
  0
LINE
  5
651
330
1F
100
AcDbEntity
  8
0
100
AcDbLine
 10
329.8916657545516
 20
155.6333333692256
 30
0.0
 11
329.8916657545516
 21
155.2166667025589
 31
0.0
  0
LINE
  5
652
330
1F
100
AcDbEntity
  8
0
100
AcDbLine
 10
327.2249990878851
 20
155.6333333692256
 30
0.0
 11
327.2249990878851
 21
155.2166667025589
 31
0.0
  0
LINE
  5
653
330
1F
100
AcDbEntity
  8
0
100
AcDbLine
 10
330.5583324212185
 20
154.9666667025589
 30
0.0
 11
330.9153550251735
 21
154.9666667025589
 31
0.0
  0
LINE
  5
654
330
1F
100
AcDbEntity
  8
0
100
AcDbLine
 10
337.249999087885
 20
153.8000000358923
 30
0.0
 11
337.249999087885
 21
157.8000000358923
 31
0.0
1001
GENIUS_GENREC_14
1002
{
1000
PYDIR
1011
333.249999087885
1021
153.8000000358923
1031
0.0
1002
}
1002
{
1000
PXDIR
1011
337.249999087885
1021
157.8000000358923
1031
0.0
1002
}
1002
{
1000
PORI
1011
337.249999087885
1021
153.8000000358923
1031
0.0
1002
}
1002
{
1000
PINS
1011
337.249999087885
1021
153.8000000358923
1031
0.0
1002
}
1002
{
1000
HVAL
1000
4
1002
}
1002
{
1000
H
1070
     2
1002
}
1002
{
1000
WVAL
1000
4
1002
}
1002
{
1000
W
1070
     2
1002
}
1002
{
1000
C
1070
     1
1002
}
1001
GENIUS_GENOBJ-N-REC_13
1002
{
1000
OWNER
1000
GEN
1002
}
1001
GENIUS_GENODEF_13
1002
{
1000
HIER
1070
     0
1002
}
1002
{
1000
MANEDIT
1070
     0
1002
}
1002
{
1000
NOSEL
1070
     0
1002
}
1002
{
1000
BEHIND
1070
     0
1002
}
1002
{
1000
OTHER
1070
     0
1002
}
1002
{
1000
REACTOR
1002
}
  0
LINE
  5
655
330
1F
100
AcDbEntity
  8
0
100
AcDbLine
 10
337.249999087885
 20
157.8000000358923
 30
0.0
 11
333.249999087885
 21
157.8000000358923
 31
0.0
1001
GENIUS_GENREC_14
1002
{
1000
PYDIR
1011
333.249999087885
1021
153.8000000358923
1031
0.0
1002
}
1002
{
1000
PXDIR
1011
337.249999087885
1021
157.8000000358923
1031
0.0
1002
}
1002
{
1000
PORI
1011
337.249999087885
1021
153.8000000358923
1031
0.0
1002
}
1002
{
1000
PINS
1011
337.249999087885
1021
153.8000000358923
1031
0.0
1002
}
1002
{
1000
HVAL
1000
4
1002
}
1002
{
1000
H
1070
     2
1002
}
1002
{
1000
WVAL
1000
4
1002
}
1002
{
1000
W
1070
     2
1002
}
1002
{
1000
C
1070
     1
1002
}
1001
GENIUS_GENOBJ-N-REC_13
1002
{
1000
OWNER
1000
GEN
1002
}
1001
GENIUS_GENODEF_13
1002
{
1000
HIER
1070
     0
1002
}
1002
{
1000
MANEDIT
1070
     0
1002
}
1002
{
1000
NOSEL
1070
     0
1002
}
1002
{
1000
BEHIND
1070
     0
1002
}
1002
{
1000
OTHER
1070
     0
1002
}
1002
{
1000
REACTOR
1002
}
  0
LINE
  5
656
330
1F
100
AcDbEntity
  8
0
100
AcDbLine
 10
333.249999087885
 20
157.8000000358923
 30
0.0
 11
333.249999087885
 21
153.8000000358923
 31
0.0
1001
GENIUS_GENREC_14
1002
{
1000
PYDIR
1011
333.249999087885
1021
153.8000000358923
1031
0.0
1002
}
1002
{
1000
PXDIR
1011
337.249999087885
1021
157.8000000358923
1031
0.0
1002
}
1002
{
1000
PORI
1011
337.249999087885
1021
153.8000000358923
1031
0.0
1002
}
1002
{
1000
PINS
1011
337.249999087885
1021
153.8000000358923
1031
0.0
1002
}
1002
{
1000
HVAL
1000
4
1002
}
1002
{
1000
H
1070
     2
1002
}
1002
{
1000
WVAL
1000
4
1002
}
1002
{
1000
W
1070
     2
1002
}
1002
{
1000
C
1070
     1
1002
}
1001
GENIUS_GENOBJ-N-REC_13
1002
{
1000
OWNER
1000
GEN
1002
}
1001
GENIUS_GENODEF_13
1002
{
1000
HIER
1070
     0
1002
}
1002
{
1000
MANEDIT
1070
     0
1002
}
1002
{
1000
NOSEL
1070
     0
1002
}
1002
{
1000
BEHIND
1070
     0
1002
}
1002
{
1000
OTHER
1070
     0
1002
}
1002
{
1000
REACTOR
1002
}
  0
LINE
  5
657
330
1F
100
AcDbEntity
  8
0
100
AcDbLine
 10
333.249999087885
 20
153.8000000358923
 30
0.0
 11
337.249999087885
 21
153.8000000358923
 31
0.0
1001
GENIUS_GENREC_14
1002
{
1000
PYDIR
1011
333.249999087885
1021
153.8000000358923
1031
0.0
1002
}
1002
{
1000
PXDIR
1011
337.249999087885
1021
157.8000000358923
1031
0.0
1002
}
1002
{
1000
PORI
1011
337.249999087885
1021
153.8000000358923
1031
0.0
1002
}
1002
{
1000
PINS
1011
337.249999087885
1021
153.8000000358923
1031
0.0
1002
}
1002
{
1000
HVAL
1000
4
1002
}
1002
{
1000
H
1070
     2
1002
}
1002
{
1000
WVAL
1000
4
1002
}
1002
{
1000
W
1070
     2
1002
}
1002
{
1000
C
1070
     1
1002
}
1001
GENIUS_GENOBJ-N-REC_13
1002
{
1000
OWNER
1000
GEN
1002
}
1001
GENIUS_GENODEF_13
1002
{
1000
HIER
1070
     0
1002
}
1002
{
1000
MANEDIT
1070
     0
1002
}
1002
{
1000
NOSEL
1070
     0
1002
}
1002
{
1000
BEHIND
1070
     0
1002
}
1002
{
1000
OTHER
1070
     0
1002
}
1002
{
1000
REACTOR
1002
}
  0
CIRCLE
  5
658
330
1F
100
AcDbEntity
  8
0
100
AcDbCircle
 10
359.999999087885
 20
157.3000000358924
 30
0.0
 40
1.75
  0
CIRCLE
  5
659
330
1F
100
AcDbEntity
  8
0
100
AcDbCircle
 10
359.999999087885
 20
157.3000000358924
 30
0.0
 40
1.55
  0
CIRCLE
  5
65A
330
1F
100
AcDbEntity
  8
0
100
AcDbCircle
 10
359.999999087885
 20
157.3000000358924
 30
0.0
 40
0.9
  0
ARC
  5
65B
330
1F
100
AcDbEntity
  8
0
100
AcDbCircle
 10
359.999999087885
 20
158.3000000358924
 30
0.0
 40
0.4
100
AcDbArc
 50
205.9444797719999
 51
334.0555202279996
  0
ARC
  5
65C
330
1F
100
AcDbEntity
  8
0
100
AcDbCircle
 10
359.1339736841005
 20
157.8000000358923
 30
0.0
 40
0.4
100
AcDbArc
 50
265.9444797725357
 51
34.05552022747377
  0
ARC
  5
65D
330
1F
100
AcDbEntity
  8
0
100
AcDbCircle
 10
359.1339736841005
 20
156.8000000358924
 30
0.0
 40
0.4
100
AcDbArc
 50
325.9444797720361
 51
94.0555202279638
  0
ARC
  5
65E
330
1F
100
AcDbEntity
  8
0
100
AcDbCircle
 10
359.999999087885
 20
156.3000000358924
 30
0.0
 40
0.4
100
AcDbArc
 50
25.94447977135889
 51
154.0555202286411
  0
ARC
  5
65F
330
1F
100
AcDbEntity
  8
0
100
AcDbCircle
 10
360.8660244916694
 20
156.8000000358924
 30
0.0
 40
0.4
100
AcDbArc
 50
85.94447977219289
 51
214.0555202278115
  0
ARC
  5
660
330
1F
100
AcDbEntity
  8
0
100
AcDbCircle
 10
360.8660244916694
 20
157.8000000358925
 30
0.0
 40
0.4
100
AcDbArc
 50
145.9444797714078
 51
274.0555202286006
  0
CIRCLE
  5
661
330
1F
100
AcDbEntity
  8
0
100
AcDbCircle
 10
359.999999087885
 20
157.3000000358924
 30
0.0
 40
0.4
  0
CIRCLE
  5
662
330
1F
100
AcDbEntity
  8
0
100
AcDbCircle
 10
359.999999087885
 20
107.300000035892
 30
0.0
 40
1.75
  0
CIRCLE
  5
663
330
1F
100
AcDbEntity
  8
0
100
AcDbCircle
 10
359.999999087885
 20
107.300000035892
 30
0.0
 40
1.55
  0
CIRCLE
  5
664
330
1F
100
AcDbEntity
  8
0
100
AcDbCircle
 10
359.999999087885
 20
107.300000035892
 30
0.0
 40
0.9
  0
ARC
  5
665
330
1F
100
AcDbEntity
  8
0
100
AcDbCircle
 10
359.999999087885
 20
108.300000035892
 30
0.0
 40
0.4
100
AcDbArc
 50
205.9444797719999
 51
334.0555202279996
  0
ARC
  5
666
330
1F
100
AcDbEntity
  8
0
100
AcDbCircle
 10
359.1339736841005
 20
107.8000000358919
 30
0.0
 40
0.4
100
AcDbArc
 50
265.9444797725357
 51
34.05552022747377
  0
ARC
  5
667
330
1F
100
AcDbEntity
  8
0
100
AcDbCircle
 10
359.1339736841005
 20
106.800000035892
 30
0.0
 40
0.4
100
AcDbArc
 50
325.9444797720361
 51
94.0555202279638
  0
ARC
  5
668
330
1F
100
AcDbEntity
  8
0
100
AcDbCircle
 10
359.999999087885
 20
106.300000035892
 30
0.0
 40
0.4
100
AcDbArc
 50
25.94447977135889
 51
154.0555202286411
  0
ARC
  5
669
330
1F
100
AcDbEntity
  8
0
100
AcDbCircle
 10
360.8660244916694
 20
106.800000035892
 30
0.0
 40
0.4
100
AcDbArc
 50
85.94447977219289
 51
214.0555202278115
  0
ARC
  5
66A
330
1F
100
AcDbEntity
  8
0
100
AcDbCircle
 10
360.8660244916694
 20
107.8000000358921
 30
0.0
 40
0.4
100
AcDbArc
 50
145.9444797714078
 51
274.0555202286006
  0
CIRCLE
  5
66B
330
1F
100
AcDbEntity
  8
0
100
AcDbCircle
 10
359.999999087885
 20
107.300000035892
 30
0.0
 40
0.4
  0
CIRCLE
  5
66C
330
1F
100
AcDbEntity
  8
0
100
AcDbCircle
 10
279.9999990878849
 20
107.3000000358918
 30
0.0
 40
1.75
  0
CIRCLE
  5
66D
330
1F
100
AcDbEntity
  8
0
100
AcDbCircle
 10
279.9999990878849
 20
107.3000000358918
 30
0.0
 40
1.55
  0
CIRCLE
  5
66E
330
1F
100
AcDbEntity
  8
0
100
AcDbCircle
 10
279.9999990878849
 20
107.3000000358918
 30
0.0
 40
0.9
  0
ARC
  5
66F
330
1F
100
AcDbEntity
  8
0
100
AcDbCircle
 10
279.9999990878849
 20
108.3000000358918
 30
0.0
 40
0.4
100
AcDbArc
 50
205.9444797719999
 51
334.0555202279996
  0
ARC
  5
670
330
1F
100
AcDbEntity
  8
0
100
AcDbCircle
 10
279.1339736841006
 20
107.8000000358916
 30
0.0
 40
0.4
100
AcDbArc
 50
265.9444797725357
 51
34.05552022747377
  0
ARC
  5
671
330
1F
100
AcDbEntity
  8
0
100
AcDbCircle
 10
279.1339736841006
 20
106.8000000358917
 30
0.0
 40
0.4
100
AcDbArc
 50
325.9444797720361
 51
94.0555202279638
  0
ARC
  5
672
330
1F
100
AcDbEntity
  8
0
100
AcDbCircle
 10
279.9999990878849
 20
106.3000000358918
 30
0.0
 40
0.4
100
AcDbArc
 50
25.94447977135889
 51
154.0555202286411
  0
ARC
  5
673
330
1F
100
AcDbEntity
  8
0
100
AcDbCircle
 10
280.8660244916694
 20
106.8000000358917
 30
0.0
 40
0.4
100
AcDbArc
 50
85.94447977219289
 51
214.0555202278115
  0
ARC
  5
674
330
1F
100
AcDbEntity
  8
0
100
AcDbCircle
 10
280.8660244916694
 20
107.8000000358919
 30
0.0
 40
0.4
100
AcDbArc
 50
145.9444797714078
 51
274.0555202286006
  0
CIRCLE
  5
675
330
1F
100
AcDbEntity
  8
0
100
AcDbCircle
 10
279.9999990878849
 20
107.3000000358918
 30
0.0
 40
0.4
  0
CIRCLE
  5
676
330
1F
100
AcDbEntity
  8
0
100
AcDbCircle
 10
279.9999990878851
 20
157.3000000358925
 30
0.0
 40
1.75
  0
CIRCLE
  5
677
330
1F
100
AcDbEntity
  8
0
100
AcDbCircle
 10
279.9999990878851
 20
157.3000000358925
 30
0.0
 40
1.55
  0
CIRCLE
  5
678
330
1F
100
AcDbEntity
  8
0
100
AcDbCircle
 10
279.9999990878851
 20
157.3000000358925
 30
0.0
 40
0.9
  0
ARC
  5
679
330
1F
100
AcDbEntity
  8
0
100
AcDbCircle
 10
279.9999990878851
 20
158.3000000358925
 30
0.0
 40
0.4
100
AcDbArc
 50
205.9444797719999
 51
334.0555202279996
  0
ARC
  5
67A
330
1F
100
AcDbEntity
  8
0
100
AcDbCircle
 10
279.1339736841006
 20
157.8000000358924
 30
0.0
 40
0.4
100
AcDbArc
 50
265.9444797725357
 51
34.05552022747377
  0
ARC
  5
67B
330
1F
100
AcDbEntity
  8
0
100
AcDbCircle
 10
279.1339736841006
 20
156.8000000358925
 30
0.0
 40
0.4
100
AcDbArc
 50
325.9444797720361
 51
94.0555202279638
  0
ARC
  5
67C
330
1F
100
AcDbEntity
  8
0
100
AcDbCircle
 10
279.9999990878851
 20
156.3000000358925
 30
0.0
 40
0.4
100
AcDbArc
 50
25.94447977135889
 51
154.0555202286411
  0
ARC
  5
67D
330
1F
100
AcDbEntity
  8
0
100
AcDbCircle
 10
280.8660244916694
 20
156.8000000358925
 30
0.0
 40
0.4
100
AcDbArc
 50
85.94447977219289
 51
214.0555202278115
  0
ARC
  5
67E
330
1F
100
AcDbEntity
  8
0
100
AcDbCircle
 10
280.8660244916694
 20
157.8000000358926
 30
0.0
 40
0.4
100
AcDbArc
 50
145.9444797714078
 51
274.0555202286006
  0
CIRCLE
  5
67F
330
1F
100
AcDbEntity
  8
0
100
AcDbCircle
 10
279.9999990878851
 20
157.3000000358925
 30
0.0
 40
0.4
  0
CIRCLE
  5
680
330
1F
100
AcDbEntity
  8
0
100
AcDbCircle
 10
319.9999990878851
 20
104.0500000358923
 30
0.0
 40
2.75
  0
LINE
  5
681
330
1F
100
AcDbEntity
  8
0
100
AcDbLine
 10
317.8362523374539
 20
105.5066400051364
 30
0.0
 11
318.5433591186404
 21
106.213746786323
 31
0.0
  0
LINE
  5
682
330
1F
100
AcDbEntity
  8
0
100
AcDbLine
 10
321.4566390571291
 20
101.8862532854613
 30
0.0
 11
322.1637458383157
 21
102.5933600666479
 31
0.0
  0
LINE
  5
683
330
1F
100
AcDbEntity
  8
0
100
AcDbLine
 10
322.1637458383157
 20
102.5933600666479
 30
0.0
 11
320.6010398518933
 21
104.1560660530701
 31
0.0
  0
LINE
  5
684
330
1F
100
AcDbEntity
  8
0
100
AcDbLine
 10
321.4566390571291
 20
101.8862532854613
 30
0.0
 11
319.8939330707069
 21
103.4489592718836
 31
0.0
  0
LINE
  5
685
330
1F
100
AcDbEntity
  8
0
100
AcDbLine
 10
320.8838825643681
 20
105.4288582592061
 30
0.0
 11
321.3788573111987
 21
104.9338835123755
 31
0.0
  0
LINE
  5
686
330
1F
100
AcDbEntity
  8
0
100
AcDbLine
 10
318.6211408645712
 20
103.1661165594091
 30
0.0
 11
319.1161156114018
 21
102.6711418125785
 31
0.0
  0
LINE
  5
687
330
1F
100
AcDbEntity
  8
0
100
AcDbLine
 10
318.6211408645712
 20
103.1661165594091
 30
0.0
 11
319.3989583238762
 21
103.9439340187142
 31
0.0
  0
LINE
  5
688
330
1F
100
AcDbEntity
  8
0
100
AcDbLine
 10
319.1161156114018
 20
102.6711418125785
 30
0.0
 11
319.8939330707069
 21
103.4489592718836
 31
0.0
  0
LINE
  5
689
330
1F
100
AcDbEntity
  8
0
100
AcDbLine
 10
319.3989583238762
 20
103.9439340187142
 30
0.0
 11
317.8362523374539
 21
105.5066400051364
 31
0.0
  0
LINE
  5
68A
330
1F
100
AcDbEntity
  8
0
100
AcDbLine
 10
320.1060651050627
 20
104.6510407999007
 30
0.0
 11
318.5433591186404
 21
106.213746786323
 31
0.0
  0
LINE
  5
68B
330
1F
100
AcDbEntity
  8
0
100
AcDbLine
 10
320.1060651050627
 20
104.6510407999007
 30
0.0
 11
320.8838825643681
 21
105.4288582592061
 31
0.0
  0
LINE
  5
68C
330
1F
100
AcDbEntity
  8
0
100
AcDbLine
 10
320.6010398518933
 20
104.1560660530701
 30
0.0
 11
321.3788573111987
 21
104.9338835123755
 31
0.0
  0
LINE
  5
68D
330
1F
100
AcDbEntity
  8
0
100
AcDbLine
 10
363.4999990878848
 20
164.6000000358923
 30
0.0
 11
276.499999087885
 21
164.6000000358923
 31
0.0
  0
LINE
  5
68E
330
1F
100
AcDbEntity
  8
0
100
AcDbLine
 10
272.6999990878848
 20
160.8000000358921
 30
0.0
 11
272.6999990878848
 21
145.3000000358921
 31
0.0
  0
LINE
  5
68F
330
1F
100
AcDbEntity
  8
0
100
AcDbLine
 10
272.6999990878848
 20
135.3000000358922
 30
0.0
 11
272.6999990878848
 21
103.8000000358921
 31
0.0
  0
ARC
  5
690
330
1F
100
AcDbEntity
  8
0
100
AcDbCircle
 10
276.499999087885
 20
160.8000000358921
 30
0.0
 40
3.799999999999998
100
AcDbArc
 50
90.0
 51
180.0
1001
GENIUS_GENOBJ-N-FIL_13
1002
{
1000
OWNER
1000
GEN
1002
}
1001
GENIUS_GENODEF_13
1002
{
1000
HIER
1070
     0
1002
}
1002
{
1000
MANEDIT
1070
     0
1002
}
1002
{
1000
NOSEL
1070
     0
1002
}
1002
{
1000
BEHIND
1070
     0
1002
}
1002
{
1000
OTHER
1070
     0
1002
}
1002
{
1000
REACTOR
1002
}
  0
LINE
  5
691
330
1F
100
AcDbEntity
  8
0
100
AcDbLine
 10
367.2999990878848
 20
160.8000000358921
 30
0.0
 11
367.299999087885
 21
145.3000000358921
 31
0.0
  0
LINE
  5
692
330
1F
100
AcDbEntity
  8
0
100
AcDbLine
 10
367.299999087885
 20
135.3000000358922
 30
0.0
 11
367.299999087885
 21
103.8000000358921
 31
0.0
  0
ARC
  5
693
330
1F
100
AcDbEntity
  8
0
100
AcDbCircle
 10
363.499999087885
 20
103.8000000358921
 30
0.0
 40
3.799999999999998
100
AcDbArc
 50
270.0
 51
0.0
1001
GENIUS_GENODEF_13
1002
{
1000
HIER
1070
     0
1002
}
1002
{
1000
MANEDIT
1070
     0
1002
}
1002
{
1000
NOSEL
1070
     0
1002
}
1002
{
1000
BEHIND
1070
     0
1002
}
1002
{
1000
OTHER
1070
     0
1002
}
1002
{
1000
REACTOR
1002
}
1001
GENIUS_GENOBJ-N-FIL_13
1002
{
1000
OWNER
1000
GEN
1002
}
  0
ARC
  5
694
330
1F
100
AcDbEntity
  8
0
100
AcDbCircle
 10
363.4999990878848
 20
160.8000000358921
 30
0.0
 40
3.799999999999998
100
AcDbArc
 50
0.0
 51
90.0
1001
GENIUS_GENODEF_13
1002
{
1000
HIER
1070
     0
1002
}
1002
{
1000
MANEDIT
1070
     0
1002
}
1002
{
1000
NOSEL
1070
     0
1002
}
1002
{
1000
BEHIND
1070
     0
1002
}
1002
{
1000
OTHER
1070
     0
1002
}
1002
{
1000
REACTOR
1002
}
1001
GENIUS_GENOBJ-N-FIL_13
1002
{
1000
OWNER
1000
GEN
1002
}
  0
LINE
  5
695
330
1F
100
AcDbEntity
  8
0
100
AcDbLine
 10
363.499999087885
 20
100.0000000358921
 30
0.0
 11
276.4999990878849
 21
100.0000000358921
 31
0.0
  0
ARC
  5
696
330
1F
100
AcDbEntity
  8
0
100
AcDbCircle
 10
276.4999990878849
 20
103.8000000358921
 30
0.0
 40
3.799999999999998
100
AcDbArc
 50
180.0
 51
270.0
1001
GENIUS_GENOBJ-N-FIL_13
1002
{
1000
OWNER
1000
GEN
1002
}
1001
GENIUS_GENODEF_13
1002
{
1000
HIER
1070
     0
1002
}
1002
{
1000
MANEDIT
1070
     0
1002
}
1002
{
1000
NOSEL
1070
     0
1002
}
1002
{
1000
BEHIND
1070
     0
1002
}
1002
{
1000
OTHER
1070
     0
1002
}
1002
{
1000
REACTOR
1002
}
  0
LINE
  5
697
330
1F
100
AcDbEntity
  8
0
100
AcDbLine
 10
368.1999990878848
 20
128.3000000358923
 30
0.0
 11
380.199999087885
 21
128.3000000358922
 31
0.0
  0
LINE
  5
698
330
1F
100
AcDbEntity
  8
0
100
AcDbLine
 10
367.099999087885
 20
145.3000000358921
 30
0.0
 11
368.1999990878848
 21
145.3000000358921
 31
0.0
  0
LINE
  5
699
330
1F
100
AcDbEntity
  8
0
100
AcDbLine
 10
367.099999087885
 20
135.3000000358923
 30
0.0
 11
368.1999990878848
 21
135.3000000358919
 31
0.0
  0
LINE
  5
69A
330
1F
100
AcDbEntity
  8
0
100
AcDbLine
 10
380.1999990878848
 20
121.8000000358923
 30
0.0
 11
380.1999990878848
 21
146.8000000358826
 31
0.0
  0
LINE
  5
69B
330
1F
100
AcDbEntity
  8
0
100
AcDbLine
 10
368.1999990878848
 20
121.8000000358922
 30
0.0
 11
368.1999990878848
 21
135.3000000358919
 31
0.0
  0
LINE
  5
69C
330
1F
100
AcDbEntity
  8
0
100
AcDbLine
 10
368.1999990878848
 20
145.3000000358921
 30
0.0
 11
368.1999990878848
 21
146.8000000358826
 31
0.0
  0
LINE
  5
69D
330
1F
100
AcDbEntity
  8
0
100
AcDbLine
 10
368.1999990878848
 20
146.8000000358826
 30
0.0
 11
380.1999990878848
 21
146.8000000358826
 31
0.0
  0
LINE
  5
69E
330
1F
100
AcDbEntity
  8
0
100
AcDbLine
 10
379.699999087885
 20
147.3000000358826
 30
0.0
 11
380.1999990878848
 21
146.8000000358828
 31
0.0
1001
GENIUS_GENFIL_13
1070
     0
1040
0.5
1040
0.5
1040
0.5
1040
45.00000000000325
1002
{
1002
}
1001
GENIUS_GENOBJ-N-CHA_13
1002
{
1000
OWNER
1000
GEN
1002
}
1001
GENIUS_GENODEF_13
1002
{
1000
HIER
1070
     0
1002
}
1002
{
1000
MANEDIT
1070
     0
1002
}
1002
{
1000
NOSEL
1070
     0
1002
}
1002
{
1000
BEHIND
1070
     0
1002
}
1002
{
1000
OTHER
1070
     0
1002
}
1002
{
1000
REACTOR
1002
}
  0
LINE
  5
69F
330
1F
100
AcDbEntity
  8
0
100
AcDbLine
 10
379.699999087885
 20
147.3000000358826
 30
0.0
 11
368.6999990878848
 21
147.3000000358826
 31
0.0
  0
LINE
  5
6A0
330
1F
100
AcDbEntity
  8
0
100
AcDbLine
 10
368.1999990878848
 20
146.8000000358826
 30
0.0
 11
368.6999990878848
 21
147.3000000358826
 31
0.0
1001
GENIUS_GENFIL_13
1070
     0
1040
0.5
1040
0.5
1040
0.5
1040
45.00000000000325
1002
{
1002
}
1001
GENIUS_GENOBJ-N-CHA_13
1002
{
1000
OWNER
1000
GEN
1002
}
1001
GENIUS_GENODEF_13
1002
{
1000
HIER
1070
     0
1002
}
1002
{
1000
MANEDIT
1070
     0
1002
}
1002
{
1000
NOSEL
1070
     0
1002
}
1002
{
1000
BEHIND
1070
     0
1002
}
1002
{
1000
OTHER
1070
     0
1002
}
1002
{
1000
REACTOR
1002
}
  0
SPLINE
  5
6A1
330
1F
100
AcDbEntity
  8
0
100
AcDbSpline
210
0.0
220
0.0
230
1.0
 70
     8
 71
     3
 72
    38
 73
    34
 74
     0
 42
0.0000000001
 43
0.0000000001
 40
8.160870181059902
 40
8.160870181059902
 40
8.160870181059902
 40
8.160870181059902
 40
9.159821244704103
 40
9.159821244704103
 40
10.15877230834831
 40
10.15877230834831
 40
11.15772337199251
 40
11.15772337199251
 40
12.15667443563672
 40
12.15667443563672
 40
13.19794091725749
 40
13.19794091725749
 40
14.23920739887826
 40
14.23920739887826
 40
15.28047388049904
 40
15.28047388049904
 40
16.32174036211981
 40
16.32174036211981
 40
17.36300684374058
 40
17.36300684374058
 40
18.40427332536135
 40
18.40427332536135
 40
19.44553980698212
 40
19.44553980698212
 40
20.48680628860289
 40
20.48680628860289
 40
21.4857573522471
 40
21.4857573522471
 40
22.48470841589131
 40
22.48470841589131
 40
23.48365947953551
 40
23.48365947953551
 40
24.48261054317971
 40
24.48261054317971
 40
24.48261054317971
 40
24.48261054317971
 10
368.1999990878848
 20
145.3000000358921
 30
0.0
 10
368.1999990878848
 20
145.3000000358921
 30
0.0
 10
368.228250176407
 20
145.2662094168109
 30
0.0
 10
368.3407479849423
 20
145.1303493028466
 30
0.0
 10
368.4249371850394
 20
145.0283408406336
 30
0.0
 10
368.6372836946294
 20
144.7665052883713
 30
0.0
 10
368.7655975334009
 20
144.606448476397
 30
0.0
 10
369.0468492504753
 20
144.2455964617213
 30
0.0
 10
369.1996964073608
 20
144.0447998136982
 30
0.0
 10
369.5114071335865
 20
143.6174035988492
 30
0.0
 10
369.6828188323696
 20
143.3733798600659
 30
0.0
 10
370.0247248358185
 20
142.8443390874171
 30
0.0
 10
370.1952305413763
 20
142.5594329078279
 30
0.0
 10
370.5007194206737
 20
141.9587757953741
 30
0.0
 10
370.635606775325
 20
141.6428216365555
 30
0.0
 10
370.8274811194952
 20
140.9871351455917
 30
0.0
 10
370.8833742975297
 20
140.6470888630991
 30
0.0
 10
370.8833742975297
 20
139.9529112086853
 30
0.0
 10
370.8274811194952
 20
139.6128649261927
 30
0.0
 10
370.635606775325
 20
138.9571784352287
 30
0.0
 10
370.5007194206737
 20
138.6412242764102
 30
0.0
 10
370.1952305413763
 20
138.0405671639565
 30
0.0
 10
370.0247248358185
 20
137.7556609843674
 30
0.0
 10
369.6828188323696
 20
137.2266202117185
 30
0.0
 10
369.5114071335865
 20
136.9825964729352
 30
0.0
 10
369.1996964073608
 20
136.5552002580863
 30
0.0
 10
369.0468492504753
 20
136.3544036100631
 30
0.0
 10
368.7655975334009
 20
135.9935515953874
 30
0.0
 10
368.6372836946294
 20
135.833494783413
 30
0.0
 10
368.4249371850394
 20
135.5716592311508
 30
0.0
 10
368.3407479849423
 20
135.4696507689379
 30
0.0
 10
368.228250176407
 20
135.3337906549735
 30
0.0
 10
368.1999990878848
 20
135.3000000358922
 30
0.0
 10
368.1999990878848
 20
135.3000000358922
 30
0.0
  0
LINE
  5
6A2
330
1F
100
AcDbEntity
  8
0
100
AcDbLine
 10
380.199999087885
 20
128.3000000358923
 30
0.0
 11
368.1999990878848
 21
128.3000000358922
 31
0.0
  0
LINE
  5
6A3
330
1F
100
AcDbEntity
  8
0
100
AcDbLine
 10
380.1999990878848
 20
128.3000000358922
 30
0.0
 11
368.1999990878848
 21
128.3000000358922
 31
0.0
  0
LINE
  5
6A4
330
1F
100
AcDbEntity
  8
0
100
AcDbLine
 10
374.1999990878249
 20
126.8000000358922
 30
0.0
 11
374.1999990878249
 21
121.8000000358922
 31
0.0
  0
LINE
  5
6A5
330
1F
100
AcDbEntity
  8
0
100
AcDbLine
 10
380.1999990878848
 20
120.3000000358922
 30
0.0
 11
380.1999990878848
 21
112.3000000358922
 31
0.0
  0
LINE
  5
6A6
330
1F
100
AcDbEntity
  8
0
100
AcDbLine
 10
374.1999990878249
 20
120.3000000358922
 30
0.0
 11
374.1999990878249
 21
112.3000000358922
 31
0.0
  0
LINE
  5
6A7
330
1F
100
AcDbEntity
  8
0
100
AcDbLine
 10
368.1999990878848
 20
120.3000000358922
 30
0.0
 11
368.1999990878848
 21
112.3000000358922
 31
0.0
  0
LINE
  5
6A8
330
1F
100
AcDbEntity
  8
0
100
AcDbLine
 10
380.1999990878848
 20
126.8000000358922
 30
0.0
 11
368.1999990878848
 21
126.8000000358922
 31
0.0
  0
LINE
  5
6A9
330
1F
100
AcDbEntity
  8
0
100
AcDbLine
 10
379.1999990878848
 20
120.3000000358922
 30
0.0
 11
379.1999990878848
 21
121.8000000358922
 31
0.0
  0
LINE
  5
6AA
330
1F
100
AcDbEntity
  8
0
100
AcDbLine
 10
369.1999990878848
 20
120.3000000358922
 30
0.0
 11
369.1999990878848
 21
121.8000000358922
 31
0.0
  0
LINE
  5
6AB
330
1F
100
AcDbEntity
  8
0
100
AcDbLine
 10
368.6999990878848
 20
112.3000000358922
 30
0.0
 11
368.6999990878848
 21
111.3000000358922
 31
0.0
  0
LINE
  5
6AC
330
1F
100
AcDbEntity
  8
0
100
AcDbLine
 10
379.6999990878848
 20
112.3000000358922
 30
0.0
 11
379.6999990878848
 21
111.3000000358922
 31
0.0
  0
LINE
  5
6AD
330
1F
100
AcDbEntity
  8
0
100
AcDbLine
 10
377.6999990878848
 20
109.3000000358922
 30
0.0
 11
370.6999990878848
 21
109.3000000358922
 31
0.0
  0
ARC
  5
6AE
330
1F
100
AcDbEntity
  8
0
100
AcDbCircle
 10
370.6999990878848
 20
111.3000000358922
 30
0.0
 40
2.0
100
AcDbArc
 50
180.0
 51
270.0
  0
ARC
  5
6AF
330
1F
100
AcDbEntity
  8
0
100
AcDbCircle
 10
377.6999990878848
 20
111.3000000358922
 30
0.0
 40
2.0
100
AcDbArc
 50
270.0
 51
0.0
  0
LINE
  5
6B0
330
1F
100
AcDbEntity
  8
0
100
AcDbLine
 10
368.1999990878848
 20
121.8000000358922
 30
0.0
 11
380.1999990878848
 21
121.8000000358923
 31
0.0
  0
LINE
  5
6B1
330
1F
100
AcDbEntity
  8
0
100
AcDbLine
 10
368.1999990878848
 20
120.3000000358922
 30
0.0
 11
380.1999990878848
 21
120.3000000358922
 31
0.0
  0
LINE
  5
6B2
330
1F
100
AcDbEntity
  8
0
100
AcDbLine
 10
368.1999990878848
 20
112.3000000358922
 30
0.0
 11
380.1999990878848
 21
112.3000000358922
 31
0.0
  0
LINE
  5
6B3
330
1F
100
AcDbEntity
  8
0
100
AcDbLine
 10
271.799999087886
 20
128.3000000358923
 30
0.0
 11
261.799999087886
 21
128.3000000358922
 31
0.0
  0
LINE
  5
6B4
330
1F
100
AcDbEntity
  8
0
100
AcDbLine
 10
272.899999087885
 20
145.3000000358921
 30
0.0
 11
271.799999087886
 21
145.3000000358921
 31
0.0
  0
LINE
  5
6B5
330
1F
100
AcDbEntity
  8
0
100
AcDbLine
 10
272.899999087885
 20
135.3000000358923
 30
0.0
 11
271.799999087886
 21
135.300000035892
 31
0.0
  0
LINE
  5
6B6
330
1F
100
AcDbEntity
  8
0
100
AcDbLine
 10
267.9999990878859
 20
131.7000000358922
 30
0.0
 11
265.5999990878858
 21
131.7000000358922
 31
0.0
1001
GENIUS_GENREC_14
1002
{
1000
PYDIR
1011
267.799999087886
1021
133.9000000358918
1031
0.0
1002
}
1002
{
1000
PXDIR
1011
265.799999087886
1021
131.9000000358922
1031
0.0
1002
}
1002
{
1000
PORI
1011
267.799999087886
1021
131.9000000358922
1031
0.0
1002
}
1002
{
1000
PINS
1011
267.799999087886
1021
131.9000000358922
1031
0.0
1002
}
1002
{
1000
PINS2
1011
265.799999087886
1021
133.9000000358918
1031
0.0
1002
}
1002
{
1000
C
1070
     1
1002
}
1001
GENIUS_GENODEF_13
1002
{
1000
HIER
1070
     0
1002
}
1002
{
1000
MANEDIT
1070
     0
1002
}
1002
{
1000
NOSEL
1070
     0
1002
}
1002
{
1000
BEHIND
1070
     0
1002
}
1002
{
1000
OTHER
1070
     0
1002
}
1002
{
1000
REACTOR
1002
}
1001
GENIUS_GENOBJ-N-REC_13
1002
{
1000
OWNER
1000
GEN
1002
}
  0
LINE
  5
6B7
330
1F
100
AcDbEntity
  8
0
100
AcDbLine
 10
265.5999990878858
 20
131.7000000358922
 30
0.0
 11
265.5999990878858
 21
133.9000000358918
 31
0.0
1001
GENIUS_GENREC_14
1002
{
1000
PYDIR
1011
267.799999087886
1021
133.7000000358917
1031
0.0
1002
}
1002
{
1000
PXDIR
1011
265.799999087886
1021
131.9000000358922
1031
0.0
1002
}
1002
{
1000
PORI
1011
267.799999087886
1021
131.9000000358922
1031
0.0
1002
}
1002
{
1000
PINS
1011
267.799999087886
1021
131.9000000358922
1031
0.0
1002
}
1002
{
1000
PINS2
1011
265.799999087886
1021
133.7000000358917
1031
0.0
1002
}
1002
{
1000
C
1070
     1
1002
}
1001
GENIUS_GENODEF_13
1002
{
1000
HIER
1070
     0
1002
}
1002
{
1000
MANEDIT
1070
     0
1002
}
1002
{
1000
NOSEL
1070
     0
1002
}
1002
{
1000
BEHIND
1070
     0
1002
}
1002
{
1000
OTHER
1070
     0
1002
}
1002
{
1000
REACTOR
1002
}
1001
GENIUS_GENOBJ-N-REC_13
1002
{
1000
OWNER
1000
GEN
1002
}
  0
LINE
  5
6B8
330
1F
100
AcDbEntity
  8
0
100
AcDbLine
 10
265.5999990878858
 20
133.9000000358918
 30
0.0
 11
267.9999990878859
 21
133.9000000358918
 31
0.0
1001
GENIUS_GENREC_14
1002
{
1000
PYDIR
1011
267.799999087886
1021
133.7000000358917
1031
0.0
1002
}
1002
{
1000
PXDIR
1011
265.799999087886
1021
131.9000000358922
1031
0.0
1002
}
1002
{
1000
PORI
1011
267.799999087886
1021
131.9000000358922
1031
0.0
1002
}
1002
{
1000
PINS
1011
267.799999087886
1021
131.9000000358922
1031
0.0
1002
}
1002
{
1000
PINS2
1011
265.799999087886
1021
133.7000000358917
1031
0.0
1002
}
1002
{
1000
C
1070
     1
1002
}
1001
GENIUS_GENODEF_13
1002
{
1000
HIER
1070
     0
1002
}
1002
{
1000
MANEDIT
1070
     0
1002
}
1002
{
1000
NOSEL
1070
     0
1002
}
1002
{
1000
BEHIND
1070
     0
1002
}
1002
{
1000
OTHER
1070
     0
1002
}
1002
{
1000
REACTOR
1002
}
1001
GENIUS_GENOBJ-N-REC_13
1002
{
1000
OWNER
1000
GEN
1002
}
  0
LINE
  5
6B9
330
1F
100
AcDbEntity
  8
0
100
AcDbLine
 10
267.9999990878859
 20
133.9000000358918
 30
0.0
 11
267.9999990878859
 21
131.7000000358922
 31
0.0
1001
GENIUS_GENREC_14
1002
{
1000
PYDIR
1011
267.799999087886
1021
133.7000000358917
1031
0.0
1002
}
1002
{
1000
PXDIR
1011
265.799999087886
1021
131.9000000358922
1031
0.0
1002
}
1002
{
1000
PORI
1011
267.799999087886
1021
131.9000000358922
1031
0.0
1002
}
1002
{
1000
PINS
1011
267.799999087886
1021
131.9000000358922
1031
0.0
1002
}
1002
{
1000
PINS2
1011
265.799999087886
1021
133.7000000358917
1031
0.0
1002
}
1002
{
1000
C
1070
     1
1002
}
1001
GENIUS_GENODEF_13
1002
{
1000
HIER
1070
     0
1002
}
1002
{
1000
MANEDIT
1070
     0
1002
}
1002
{
1000
NOSEL
1070
     0
1002
}
1002
{
1000
BEHIND
1070
     0
1002
}
1002
{
1000
OTHER
1070
     0
1002
}
1002
{
1000
REACTOR
1002
}
1001
GENIUS_GENOBJ-N-REC_13
1002
{
1000
OWNER
1000
GEN
1002
}
  0
LINE
  5
6BA
330
1F
100
AcDbEntity
  8
0
100
AcDbLine
 10
261.799999087886
 20
128.3000000359019
 30
0.0
 11
261.799999087886
 21
152.3000000358923
 31
0.0
  0
LINE
  5
6BB
330
1F
100
AcDbEntity
  8
0
100
AcDbLine
 10
271.799999087886
 20
128.3000000359019
 30
0.0
 11
271.799999087886
 21
135.300000035892
 31
0.0
  0
LINE
  5
6BC
330
1F
100
AcDbEntity
  8
0
100
AcDbLine
 10
271.799999087886
 20
145.3000000358921
 30
0.0
 11
271.799999087886
 21
152.3000000358923
 31
0.0
  0
LINE
  5
6BD
330
1F
100
AcDbEntity
  8
0
100
AcDbLine
 10
271.799999087886
 20
145.3000000358921
 30
0.0
 11
266.7999990878858
 21
140.3000000358922
 31
0.0
  0
LINE
  5
6BE
330
1F
100
AcDbEntity
  8
0
100
AcDbLine
 10
266.7999990878858
 20
140.3000000358922
 30
0.0
 11
271.799999087886
 21
135.3000000358923
 31
0.0
  0
LINE
  5
6BF
330
1F
100
AcDbEntity
  8
0
100
AcDbLine
 10
262.7999990878857
 20
205.3000000358926
 30
0.0
 11
270.7999990878858
 21
205.3000000358923
 31
0.0
  0
LINE
  5
6C0
330
1F
100
AcDbEntity
  8
0
100
AcDbLine
 10
271.799999087886
 20
152.3000000358923
 30
0.0
 11
270.7999990878858
 21
205.3000000358923
 31
0.0
  0
LINE
  5
6C1
330
1F
100
AcDbEntity
  8
0
100
AcDbLine
 10
261.799999087886
 20
152.3000000358923
 30
0.0
 11
262.7999990878857
 21
205.3000000358926
 31
0.0
  0
LINE
  5
6C2
330
1F
100
AcDbEntity
  8
0
100
AcDbLine
 10
270.6999990878864
 20
205.3000000358923
 30
0.0
 11
270.6442009546971
 21
207.2015029617312
 31
0.0
  0
LINE
  5
6C3
330
1F
100
AcDbEntity
  8
0
100
AcDbLine
 10
262.8999990878864
 20
205.3000000358923
 30
0.0
 11
262.9557972210757
 21
207.2015029617308
 31
0.0
  0
ARC
  5
6C4
330
1F
100
AcDbEntity
  8
0
100
AcDbCircle
 10
263.4557047910905
 20
207.1918893546152
 30
0.0
 40
0.5
100
AcDbArc
 50
110.6115892566147
 51
178.8982938847989
1001
GENIUS_GENODEF_13
1002
{
1000
HIER
1070
     0
1002
}
1002
{
1000
MANEDIT
1070
     0
1002
}
1002
{
1000
NOSEL
1070
     0
1002
}
1002
{
1000
BEHIND
1070
     0
1002
}
1002
{
1000
OTHER
1070
     0
1002
}
1002
{
1000
REACTOR
1002
}
1001
GENIUS_GENOBJ-N-FIL_13
1002
{
1000
OWNER
1000
GEN
1002
}
  0
ARC
  5
6C5
330
1F
100
AcDbEntity
  8
0
100
AcDbCircle
 10
270.1442933846822
 20
207.1918893546154
 30
0.0
 40
0.5
100
AcDbArc
 50
1.101706115207564
 51
69.38841074338873
1001
GENIUS_GENOBJ-N-FIL_13
1002
{
1000
OWNER
1000
GEN
1002
}
1001
GENIUS_GENODEF_13
1002
{
1000
HIER
1070
     0
1002
}
1002
{
1000
MANEDIT
1070
     0
1002
}
1002
{
1000
NOSEL
1070
     0
1002
}
1002
{
1000
BEHIND
1070
     0
1002
}
1002
{
1000
OTHER
1070
     0
1002
}
1002
{
1000
REACTOR
1002
}
  0
ARC
  5
6C6
330
1F
100
AcDbEntity
  8
0
100
AcDbCircle
 10
266.7999990878866
 20
198.3000000358921
 30
0.0
 40
10.0
100
AcDbArc
 50
98.62692656528871
 51
110.6115892566147
  0
ARC
  5
6C7
330
1F
100
AcDbEntity
  8
0
100
AcDbCircle
 10
266.7999990878866
 20
198.3000000358921
 30
0.0
 40
10.0
100
AcDbArc
 50
81.37307343471132
 51
98.62692656528871
  0
ARC
  5
6C8
330
1F
100
AcDbEntity
  8
0
100
AcDbCircle
 10
266.7999990878866
 20
198.3000000358921
 30
0.0
 40
10.0
100
AcDbArc
 50
69.38841074338873
 51
81.37307343471132
  0
LINE
  5
6C9
330
1F
100
AcDbEntity
  8
0
100
AcDbLine
 10
265.2999990867459
 20
208.1868600023619
 30
0.0
 11
268.2999990890273
 21
208.1868600023619
 31
0.0
  0
LINE
  5
6CA
330
1F
100
AcDbEntity
  8
0
100
AcDbLine
 10
265.799999087886
 20
132.2000000358923
 30
0.0
 11
267.799999087886
 21
132.2000000358922
 31
0.0
  0
LINE
  5
6CB
330
1F
100
AcDbEntity
  8
0
100
AcDbLine
 10
262.2999990878857
 20
126.8000000358922
 30
0.0
 11
271.2999990878862
 21
126.8000000358922
 31
0.0
  0
LINE
  5
6CC
330
1F
100
AcDbEntity
  8
0
100
AcDbLine
 10
271.799999087886
 20
127.3000000358922
 30
0.0
 11
271.2999990878862
 21
126.8000000358922
 31
0.0
1001
GENIUS_GENFIL_13
1070
     0
1040
0.5
1040
0.5
1040
20.0
1040
0.0
1002
{
1002
}
1001
GENIUS_GENODEF_13
1002
{
1000
HIER
1070
     0
1002
}
1002
{
1000
MANEDIT
1070
     0
1002
}
1002
{
1000
NOSEL
1070
     0
1002
}
1002
{
1000
BEHIND
1070
     0
1002
}
1002
{
1000
OTHER
1070
     0
1002
}
1002
{
1000
REACTOR
1002
}
1001
GENIUS_GENOBJ-N-CHA_13
1002
{
1000
OWNER
1000
GEN
1002
}
  0
LINE
  5
6CD
330
1F
100
AcDbEntity
  8
0
100
AcDbLine
 10
261.799999087886
 20
128.3000000358923
 30
0.0
 11
261.7999990878857
 21
127.3000000358923
 31
0.0
  0
LINE
  5
6CE
330
1F
100
AcDbEntity
  8
0
100
AcDbLine
 10
262.2999990878857
 20
126.8000000358922
 30
0.0
 11
261.7999990878857
 21
127.3000000358923
 31
0.0
1001
GENIUS_GENFIL_13
1070
     0
1040
0.5
1040
0.5
1040
0.4999999999999787
1040
45.00000000000446
1000
~T
  0
LINE
  5
6CF
330
1F
100
AcDbEntity
  8
0
100
AcDbLine
 10
271.7999990878857
 20
128.3000000358922
 30
0.0
 11
271.799999087886
 21
127.3000000358922
 31
0.0
  0
LINE
  5
6D0
330
1F
100
AcDbEntity
  8
0
100
AcDbLine
 10
261.7999990878857
 20
127.3000000358927
 30
0.0
 11
271.799999087886
 21
127.3000000358922
 31
0.0
  0
LINE
  5
6D1
330
1F
100
AcDbEntity
  8
0
100
AcDbLine
 10
265.799999087886
 20
133.7000000358917
 30
0.0
 11
267.799999087886
 21
133.7000000358918
 31
0.0
  0
LINE
  5
6D2
330
1F
100
AcDbEntity
  8
0
100
AcDbLine
 10
267.799999087886
 20
131.7000000358922
 30
0.0
 11
267.799999087886
 21
133.7000000358918
 31
0.0
  0
LINE
  5
6D3
330
1F
100
AcDbEntity
  8
0
100
AcDbLine
 10
265.799999087886
 20
131.7000000358922
 30
0.0
 11
265.799999087886
 21
133.7000000358917
 31
0.0
  0
LINE
  5
6D4
330
1F
100
AcDbEntity
  8
0
100
AcDbLine
 10
204.999999087885
 20
164.3000000358927
 30
0.0
 11
209.999999087885
 21
164.3000000358926
 31
0.0
  0
LINE
  5
6D5
330
1F
100
AcDbEntity
  8
0
100
AcDbLine
 10
204.999999087885
 20
100.3000000358923
 30
0.0
 11
209.999999087885
 21
100.3000000358924
 31
0.0
  0
LINE
  5
6D6
330
1F
100
AcDbEntity
  8
0
100
AcDbLine
 10
202.999999087885
 20
102.3000000358923
 30
0.0
 11
204.999999087885
 21
100.3000000358923
 31
0.0
1001
GENIUS_GENFIL_13
1070
     0
1040
2.0
1040
2.0
1040
2.0
1040
45.0000000000008
1002
{
1002
}
1001
GENIUS_GENOBJ-N-CHA_13
1002
{
1000
OWNER
1000
GEN
1002
}
1001
GENIUS_GENODEF_13
1002
{
1000
HIER
1070
     0
1002
}
1002
{
1000
MANEDIT
1070
     0
1002
}
1002
{
1000
NOSEL
1070
     0
1002
}
1002
{
1000
BEHIND
1070
     0
1002
}
1002
{
1000
OTHER
1070
     0
1002
}
1002
{
1000
REACTOR
1002
}
  0
LINE
  5
6D7
330
1F
100
AcDbEntity
  8
0
100
AcDbLine
 10
202.999999087885
 20
162.3000000358927
 30
0.0
 11
202.999999087885
 21
102.3000000358923
 31
0.0
  0
LINE
  5
6D8
330
1F
100
AcDbEntity
  8
0
100
AcDbLine
 10
204.999999087885
 20
164.3000000358927
 30
0.0
 11
202.999999087885
 21
162.3000000358927
 31
0.0
1001
GENIUS_GENFIL_13
1070
     0
1040
2.0
1040
2.0
1040
2.0
1040
45.00000000000055
1000
~T
  0
LINE
  5
6D9
330
1F
100
AcDbEntity
  8
0
100
AcDbLine
 10
209.999999087885
 20
164.3000000358926
 30
0.0
 11
209.999999087885
 21
100.3000000358924
 31
0.0
  0
LINE
  5
6DA
330
1F
100
AcDbEntity
  8
0
100
AcDbLine
 10
219.9999990878842
 20
126.8000000358925
 30
0.0
 11
219.9999990878851
 21
102.3000000358924
 31
0.0
1001
GENIUS_GENODEF_13
1002
{
1000
HIER
1070
     0
1002
}
1002
{
1000
MANEDIT
1070
     0
1002
}
1002
{
1000
NOSEL
1070
     0
1002
}
1002
{
1000
BEHIND
1070
     0
1002
}
1002
{
1000
OTHER
1070
     0
1002
}
1002
{
1000
REACTOR
1002
}
1001
GENIUS_GENOBJ-N-CEN_13
1002
{
1000
OWNER
1000
GEN
1002
}
1001
GENIUS_GENCEN_19
1002
{
1040
2.793999999999998
1002
}
  0
LINE
  5
6DB
330
1F
100
AcDbEntity
  8
0
100
AcDbLine
 10
212.999999087885
 20
164.3000000358926
 30
0.0
 11
213.726414182223
 21
164.3000000358926
 31
0.0
  0
LINE
  5
6DC
330
1F
100
AcDbEntity
  8
0
100
AcDbLine
 10
212.999999087885
 20
100.3000000358924
 30
0.0
 11
238.4999990878851
 21
100.3000000358924
 31
0.0
  0
LINE
  5
6DD
330
1F
100
AcDbEntity
  8
0
100
AcDbLine
 10
219.9999990878851
 20
102.3000000358924
 30
0.0
 11
217.999999087885
 21
100.3000000358924
 31
0.0
1001
GENIUS_GENFIL_13
1070
     0
1040
2.0
1040
2.0
1040
2.000000000000024
1040
45.00000000000031
1000
~T
  0
LINE
  5
6DE
330
1F
100
AcDbEntity
  8
0
100
AcDbLine
 10
212.9999990878848
 20
100.3000000358927
 30
0.0
 11
212.9999990878848
 21
164.3000000358924
 31
0.0
  0
ARC
  5
6DF
330
1F
100
AcDbEntity
  8
0
100
AcDbCircle
 10
212.6999990878848
 20
100.3000000358927
 30
0.0
 40
0.3
100
AcDbArc
 50
270.0
 51
0.0
1001
GENIUS_GENODEF_13
1002
{
1000
HIER
1070
     0
1002
}
1002
{
1000
MANEDIT
1070
     0
1002
}
1002
{
1000
NOSEL
1070
     0
1002
}
1002
{
1000
BEHIND
1070
     0
1002
}
1002
{
1000
OTHER
1070
     0
1002
}
1002
{
1000
REACTOR
1002
}
1001
GENIUS_GENOBJ-N-FIL_13
1002
{
1000
OWNER
1000
GEN
1002
}
  0
ARC
  5
6E0
330
1F
100
AcDbEntity
  8
0
100
AcDbCircle
 10
212.6999990878847
 20
164.3000000358924
 30
0.0
 40
0.3
100
AcDbArc
 50
0.0
 51
90.00000000000325
1001
GENIUS_GENOBJ-N-FIL_13
1002
{
1000
OWNER
1000
GEN
1002
}
1001
GENIUS_GENODEF_13
1002
{
1000
HIER
1070
     0
1002
}
1002
{
1000
MANEDIT
1070
     0
1002
}
1002
{
1000
NOSEL
1070
     0
1002
}
1002
{
1000
BEHIND
1070
     0
1002
}
1002
{
1000
OTHER
1070
     0
1002
}
1002
{
1000
REACTOR
1002
}
  0
ARC
  5
6E1
330
1F
100
AcDbEntity
  8
0
100
AcDbCircle
 10
210.2999990878848
 20
100.3000000358927
 30
0.0
 40
0.3
100
AcDbArc
 50
180.0
 51
270.0
1001
GENIUS_GENOBJ-N-FIL_13
1002
{
1000
OWNER
1000
GEN
1002
}
1001
GENIUS_GENODEF_13
1002
{
1000
HIER
1070
     0
1002
}
1002
{
1000
MANEDIT
1070
     0
1002
}
1002
{
1000
NOSEL
1070
     0
1002
}
1002
{
1000
BEHIND
1070
     0
1002
}
1002
{
1000
OTHER
1070
     0
1002
}
1002
{
1000
REACTOR
1002
}
  0
ARC
  5
6E2
330
1F
100
AcDbEntity
  8
0
100
AcDbCircle
 10
210.2999990878848
 20
164.3000000358922
 30
0.0
 40
0.3
100
AcDbArc
 50
90.00000000000325
 51
180.0
1001
GENIUS_GENODEF_13
1002
{
1000
HIER
1070
     0
1002
}
1002
{
1000
MANEDIT
1070
     0
1002
}
1002
{
1000
NOSEL
1070
     0
1002
}
1002
{
1000
BEHIND
1070
     0
1002
}
1002
{
1000
OTHER
1070
     0
1002
}
1002
{
1000
REACTOR
1002
}
1001
GENIUS_GENOBJ-N-FIL_13
1002
{
1000
OWNER
1000
GEN
1002
}
  0
LINE
  5
6E3
330
1F
100
AcDbEntity
  8
0
100
AcDbLine
 10
212.6999990878847
 20
164.6000000358923
 30
0.0
 11
210.2999990878848
 21
164.6000000358923
 31
0.0
  0
LINE
  5
6E4
330
1F
100
AcDbEntity
  8
0
100
AcDbLine
 10
212.6999990878848
 20
100.0000000358926
 30
0.0
 11
210.2999990878848
 21
100.0000000358927
 31
0.0
  0
LINE
  5
6E5
330
1F
100
AcDbEntity
  8
0
100
AcDbLine
 10
213.4999990878832
 20
128.3000000358927
 30
0.0
 11
223.4999990878833
 21
128.3000000358924
 31
0.0
  0
LINE
  5
6E6
330
1F
100
AcDbEntity
  8
0
100
AcDbLine
 10
223.4999990878832
 20
128.3000000359022
 30
0.0
 11
223.4999990878832
 21
131.7000000358924
 31
0.0
  0
LINE
  5
6E7
330
1F
100
AcDbEntity
  8
0
100
AcDbLine
 10
223.4999990878832
 20
133.9000000358927
 30
0.0
 11
223.4999990878832
 21
152.3000000358926
 31
0.0
  0
LINE
  5
6E8
330
1F
100
AcDbEntity
  8
0
100
AcDbLine
 10
213.4999990878832
 20
128.3000000358927
 30
0.0
 11
213.4999990878832
 21
131.7000000358924
 31
0.0
  0
LINE
  5
6E9
330
1F
100
AcDbEntity
  8
0
100
AcDbLine
 10
213.4999990878832
 20
133.9000000358927
 30
0.0
 11
213.4999990878832
 21
152.3000000358856
 31
0.0
  0
LINE
  5
6EA
330
1F
100
AcDbEntity
  8
0
100
AcDbLine
 10
223.4999990878833
 20
133.9000000358927
 30
0.0
 11
223.3538635276878
 21
133.9000000358927
 31
0.0
  0
LINE
  5
6EB
330
1F
100
AcDbEntity
  8
0
100
AcDbLine
 10
223.3538635276878
 20
133.9000000358927
 30
0.0
 11
223.3538635276881
 21
131.7000000358924
 31
0.0
  0
LINE
  5
6EC
330
1F
100
AcDbEntity
  8
0
100
AcDbLine
 10
223.3538635276881
 20
131.7000000358924
 30
0.0
 11
223.4999990878833
 21
131.7000000358924
 31
0.0
  0
LINE
  5
6ED
330
1F
100
AcDbEntity
  8
0
100
AcDbLine
 10
213.4999990878832
 20
133.9000000358927
 30
0.0
 11
213.6461346480786
 21
133.9000000358927
 31
0.0
  0
LINE
  5
6EE
330
1F
100
AcDbEntity
  8
0
100
AcDbLine
 10
213.6461346480786
 20
133.9000000358927
 30
0.0
 11
213.6461346480786
 21
131.7000000358924
 31
0.0
  0
LINE
  5
6EF
330
1F
100
AcDbEntity
  8
0
100
AcDbLine
 10
213.6461346480786
 20
131.7000000358924
 30
0.0
 11
213.4999990878832
 21
131.7000000358924
 31
0.0
  0
LINE
  5
6F0
330
1F
100
AcDbEntity
  8
0
100
AcDbLine
 10
222.4999990878834
 20
205.3000000358927
 30
0.0
 11
214.4999990878832
 21
205.3000000358927
 31
0.0
  0
LINE
  5
6F1
330
1F
100
AcDbEntity
  8
0
100
AcDbLine
 10
213.4999990878832
 20
152.3000000358856
 30
0.0
 11
214.4999990878832
 21
205.3000000358927
 31
0.0
  0
LINE
  5
6F2
330
1F
100
AcDbEntity
  8
0
100
AcDbLine
 10
223.4999990878832
 20
152.3000000358963
 30
0.0
 11
222.4999990878834
 21
205.3000000358927
 31
0.0
  0
LINE
  5
6F3
330
1F
100
AcDbEntity
  8
0
100
AcDbLine
 10
214.5999990878828
 20
205.3000000358927
 30
0.0
 11
214.6557972210719
 21
207.2015029617313
 31
0.0
  0
LINE
  5
6F4
330
1F
100
AcDbEntity
  8
0
100
AcDbLine
 10
222.3999990878827
 20
205.3000000358927
 30
0.0
 11
222.3442009546936
 21
207.2015029617312
 31
0.0
  0
ARC
  5
6F5
330
1F
100
AcDbEntity
  8
0
100
AcDbCircle
 10
221.8442933846787
 20
207.1918893546154
 30
0.0
 40
0.5
100
AcDbArc
 50
1.101706115201052
 51
69.38841074338528
1001
GENIUS_GENODEF_13
1002
{
1000
HIER
1070
     0
1002
}
1002
{
1000
MANEDIT
1070
     0
1002
}
1002
{
1000
NOSEL
1070
     0
1002
}
1002
{
1000
BEHIND
1070
     0
1002
}
1002
{
1000
OTHER
1070
     0
1002
}
1002
{
1000
REACTOR
1002
}
1001
GENIUS_GENOBJ-N-FIL_13
1002
{
1000
OWNER
1000
GEN
1002
}
  0
ARC
  5
6F6
330
1F
100
AcDbEntity
  8
0
100
AcDbCircle
 10
221.8442933846787
 20
207.1918893546154
 30
0.0
 40
0.5
100
AcDbArc
 50
69.38841074338528
 51
69.38841074338528
1001
GENIUS_GENODEF_13
1002
{
1000
HIER
1070
     0
1002
}
1002
{
1000
MANEDIT
1070
     0
1002
}
1002
{
1000
NOSEL
1070
     0
1002
}
1002
{
1000
BEHIND
1070
     0
1002
}
1002
{
1000
OTHER
1070
     0
1002
}
1002
{
1000
REACTOR
1002
}
1001
GENIUS_GENOBJ-N-FIL_13
1002
{
1000
OWNER
1000
GEN
1002
}
  0
ARC
  5
6F7
330
1F
100
AcDbEntity
  8
0
100
AcDbCircle
 10
215.1557047910871
 20
207.1918893546156
 30
0.0
 40
0.5
100
AcDbArc
 50
110.6115892566112
 51
178.8982938847924
1001
GENIUS_GENOBJ-N-FIL_13
1002
{
1000
OWNER
1000
GEN
1002
}
1001
GENIUS_GENODEF_13
1002
{
1000
HIER
1070
     0
1002
}
1002
{
1000
MANEDIT
1070
     0
1002
}
1002
{
1000
NOSEL
1070
     0
1002
}
1002
{
1000
BEHIND
1070
     0
1002
}
1002
{
1000
OTHER
1070
     0
1002
}
1002
{
1000
REACTOR
1002
}
  0
ARC
  5
6F8
330
1F
100
AcDbEntity
  8
0
100
AcDbCircle
 10
218.4999990878825
 20
198.3000000358926
 30
0.0
 40
10.0
100
AcDbArc
 50
69.38841074338528
 51
81.37307343471132
  0
ARC
  5
6F9
330
1F
100
AcDbEntity
  8
0
100
AcDbCircle
 10
218.4999990878825
 20
198.3000000358926
 30
0.0
 40
10.0
100
AcDbArc
 50
81.37307343471132
 51
98.62692656528871
  0
ARC
  5
6FA
330
1F
100
AcDbEntity
  8
0
100
AcDbCircle
 10
218.4999990878825
 20
198.3000000358926
 30
0.0
 40
10.0
100
AcDbArc
 50
98.62692656528871
 51
110.6115892566112
  0
LINE
  5
6FB
330
1F
100
AcDbEntity
  8
0
100
AcDbLine
 10
219.9999990890233
 20
208.1868600023621
 30
0.0
 11
216.9999990867419
 21
208.1868600023621
 31
0.0
  0
LINE
  5
6FC
330
1F
100
AcDbEntity
  8
0
100
AcDbLine
 10
213.4999990878832
 20
128.3000000358927
 30
0.0
 11
223.4999990878833
 21
128.3000000358924
 31
0.0
  0
LINE
  5
6FD
330
1F
100
AcDbEntity
  8
0
100
AcDbLine
 10
222.9999990878835
 20
126.8000000358925
 30
0.0
 11
213.999999087883
 21
126.8000000358924
 31
0.0
  0
LINE
  5
6FE
330
1F
100
AcDbEntity
  8
0
100
AcDbLine
 10
213.4999990878832
 20
127.3000000358924
 30
0.0
 11
213.999999087883
 21
126.8000000358924
 31
0.0
1001
GENIUS_GENFIL_13
1070
     0
1040
0.5
1040
0.5
1040
20.0
1040
0.0
1002
{
1002
}
1001
GENIUS_GENODEF_13
1002
{
1000
HIER
1070
     0
1002
}
1002
{
1000
MANEDIT
1070
     0
1002
}
1002
{
1000
NOSEL
1070
     0
1002
}
1002
{
1000
BEHIND
1070
     0
1002
}
1002
{
1000
OTHER
1070
     0
1002
}
1002
{
1000
REACTOR
1002
}
1001
GENIUS_GENOBJ-N-CHA_13
1002
{
1000
OWNER
1000
GEN
1002
}
  0
LINE
  5
6FF
330
1F
100
AcDbEntity
  8
0
100
AcDbLine
 10
223.4999990878833
 20
128.3000000358927
 30
0.0
 11
223.4999990878833
 21
127.3000000358925
 31
0.0
  0
LINE
  5
700
330
1F
100
AcDbEntity
  8
0
100
AcDbLine
 10
222.9999990878835
 20
126.8000000358925
 30
0.0
 11
223.4999990878833
 21
127.3000000358925
 31
0.0
1001
GENIUS_GENFIL_13
1070
     0
1040
0.5
1040
0.5
1040
0.4999999999999787
1040
45.00000000000446
1000
~T
  0
LINE
  5
701
330
1F
100
AcDbEntity
  8
0
100
AcDbLine
 10
213.4999990878835
 20
128.3000000358924
 30
0.0
 11
213.4999990878832
 21
127.3000000358924
 31
0.0
  0
LINE
  5
702
330
1F
100
AcDbEntity
  8
0
100
AcDbLine
 10
223.4999990878836
 20
127.300000035893
 30
0.0
 11
213.4999990878832
 21
127.3000000358924
 31
0.0
  0
LINE
  5
703
330
1F
100
AcDbEntity
  8
0
100
AcDbLine
 10
202.4999990878849
 20
109.2160254396769
 30
0.0
 11
202.499999087885
 21
113.4839746321081
 31
0.0
  0
ARC
  5
704
330
1F
100
AcDbEntity
  8
0
100
AcDbCircle
 10
202.4999990878849
 20
108.3500000358925
 30
0.0
 40
0.5
100
AcDbArc
 50
0.0
 51
60.00000000000002
  0
ARC
  5
705
330
1F
100
AcDbEntity
  8
0
100
AcDbCircle
 10
202.999999087885
 20
109.2160254396769
 30
0.0
 40
0.5
100
AcDbArc
 50
180.0
 51
240.0
  0
ARC
  5
706
330
1F
100
AcDbEntity
  8
0
100
AcDbCircle
 10
202.4999990878849
 20
114.3500000358925
 30
0.0
 40
0.5
100
AcDbArc
 50
300.0
 51
0.0
  0
ARC
  5
707
330
1F
100
AcDbEntity
  8
0
100
AcDbCircle
 10
202.999999087885
 20
113.4839746321081
 30
0.0
 40
0.5
100
AcDbArc
 50
119.9999999999999
 51
180.0
  0
ARC
  5
708
330
1F
100
AcDbEntity
  8
0
100
AcDbCircle
 10
218.4999990878832
 20
140.3000000358944
 30
0.0
 40
6.0
100
AcDbArc
 50
326.4426902380781
 51
33.55730976192193
1001
GENIUS_GENODEF_13
1002
{
1000
HIER
1070
     0
1002
}
1002
{
1000
MANEDIT
1070
     0
1002
}
1002
{
1000
NOSEL
1070
     0
1002
}
1002
{
1000
BEHIND
1070
     0
1002
}
1002
{
1000
OTHER
1070
     0
1002
}
1002
{
1000
REACTOR
1002
}
1001
GENIUS_GENOBJ-N-FIL_13
1002
{
1000
OWNER
1000
GEN
1002
}
  0
LINE
  5
709
330
1F
100
AcDbEntity
  8
0
100
AcDbLine
 10
239.999999087885
 20
162.8000000358927
 30
0.0
 11
239.999999087885
 21
101.8000000358924
 31
0.0
1001
GENIUS_GENODEF_13
1002
{
1000
HIER
1070
     0
1002
}
1002
{
1000
MANEDIT
1070
     0
1002
}
1002
{
1000
NOSEL
1070
     0
1002
}
1002
{
1000
BEHIND
1070
     0
1002
}
1002
{
1000
OTHER
1070
     0
1002
}
1002
{
1000
REACTOR
1002
}
1001
GENIUS_GENOBJ-N-CEN_13
1002
{
1000
OWNER
1000
GEN
1002
}
1001
GENIUS_GENCEN_19
1002
{
1040
2.793999999999998
1002
}
  0
ARC
  5
70A
330
1F
100
AcDbEntity
  8
0
100
AcDbCircle
 10
238.499999087885
 20
162.8000000358927
 30
0.0
 40
1.5
100
AcDbArc
 50
0.0
 51
90.0
1001
GENIUS_GENOBJ-N-CEN_13
1002
{
1000
OWNER
1000
GEN
1002
}
1001
GENIUS_GENCEN_19
1002
{
1040
2.793999999999998
1002
}
1001
GENIUS_GENODEF_13
1002
{
1000
HIER
1070
     0
1002
}
1002
{
1000
MANEDIT
1070
     0
1002
}
1002
{
1000
NOSEL
1070
     0
1002
}
1002
{
1000
BEHIND
1070
     0
1002
}
1002
{
1000
OTHER
1070
     0
1002
}
1002
{
1000
REACTOR
1002
}
1001
GENIUS_GENOBJ-N-FIL_13
1002
{
1000
OWNER
1000
GEN
1002
}
  0
ARC
  5
70B
330
1F
100
AcDbEntity
  8
0
100
AcDbCircle
 10
238.4999990878851
 20
101.8000000358924
 30
0.0
 40
1.5
100
AcDbArc
 50
270.0
 51
0.0
1001
GENIUS_GENOBJ-N-FIL_13
1002
{
1000
OWNER
1000
GEN
1002
}
1001
GENIUS_GENODEF_13
1002
{
1000
HIER
1070
     0
1002
}
1002
{
1000
MANEDIT
1070
     0
1002
}
1002
{
1000
NOSEL
1070
     0
1002
}
1002
{
1000
BEHIND
1070
     0
1002
}
1002
{
1000
OTHER
1070
     0
1002
}
1002
{
1000
REACTOR
1002
}
  0
LINE
  5
70C
330
1F
100
AcDbEntity
  8
0
100
AcDbLine
 10
223.2735839935436
 20
164.3000000358926
 30
0.0
 11
238.499999087885
 21
164.3000000358927
 31
0.0
  0
CIRCLE
  5
70D
330
1F
100
AcDbEntity
  8
0
100
AcDbCircle
 10
225.9999990878851
 20
122.3000000358918
 30
0.0
 40
4.75
  0
CIRCLE
  5
70E
330
1F
100
AcDbEntity
  8
0
100
AcDbCircle
 10
225.9999990878851
 20
122.3000000358918
 30
0.0
 40
4.0
  0
CIRCLE
  5
70F
330
1F
100
AcDbEntity
  8
0
100
AcDbCircle
 10
225.9999990878851
 20
122.3000000358918
 30
0.0
 40
3.5
  0
LINE
  5
710
330
1F
100
AcDbEntity
  8
0
100
AcDbLine
 10
17.49999908788482
 20
204.4000299717149
 30
0.0
 11
16.73032525112852
 21
164.3000000358926
 31
0.0
  0
LINE
  5
711
330
1F
100
AcDbEntity
  8
0
100
AcDbLine
 10
25.49999908788483
 20
204.4000299717147
 30
0.0
 11
26.26967292464114
 21
164.3000000358926
 31
0.0
  0
LINE
  5
712
330
1F
100
AcDbEntity
  8
0
100
AcDbLine
 10
17.65375503252751
 20
207.2007162968275
 30
0.0
 11
17.59999908788482
 21
204.4000299717149
 31
0.0
  0
LINE
  5
713
330
1F
100
AcDbEntity
  8
0
100
AcDbLine
 10
25.34624314324215
 20
207.2007162968277
 30
0.0
 11
25.39999908788484
 21
204.4000299717147
 31
0.0
  0
LINE
  5
714
330
1F
100
AcDbEntity
  8
0
100
AcDbLine
 10
25.49999908788483
 20
204.4000299717149
 30
0.0
 11
17.49999908788482
 21
204.4000299717149
 31
0.0
  0
LINE
  5
715
330
1F
100
AcDbEntity
  8
0
100
AcDbLine
 10
19.9999990878848
 20
208.1868600025352
 30
0.0
 11
22.99999908788483
 21
208.1868600025352
 31
0.0
  0
ARC
  5
716
330
1F
100
AcDbEntity
  8
0
100
AcDbCircle
 10
21.49999908788483
 20
198.3000000358926
 30
0.0
 40
10.0
100
AcDbArc
 50
69.37525341277735
 51
81.37307344132102
  0
ARC
  5
717
330
1F
100
AcDbEntity
  8
0
100
AcDbCircle
 10
21.49999908788483
 20
198.3000000358926
 30
0.0
 40
10.0
100
AcDbArc
 50
98.62692655867896
 51
110.6247465872226
  0
ARC
  5
718
330
1F
100
AcDbEntity
  8
0
100
AcDbCircle
 10
18.15366295702738
 20
207.191121140642
 30
0.0
 40
0.5
100
AcDbArc
 50
110.6247465872191
 51
178.9004085958266
  0
ARC
  5
719
330
1F
100
AcDbEntity
  8
0
100
AcDbCircle
 10
24.84633521874228
 20
207.191121140642
 30
0.0
 40
0.5
100
AcDbArc
 50
1.099591404147379
 51
69.37525341279478
  0
LINE
  5
71A
330
1F
100
AcDbEntity
  8
0
100
AcDbLine
 10
12.29999908788478
 20
121.5000000358927
 30
0.0
 11
12.40000275329443
 21
121.5000000358927
 31
0.0
  0
LINE
  5
71B
330
1F
100
AcDbEntity
  8
0
100
AcDbLine
 10
12.40000275329443
 20
121.5000000358927
 30
0.0
 11
12.29999908788478
 21
121.5000000358927
 31
0.0
  0
LINE
  5
71C
330
1F
100
AcDbEntity
  8
0
100
AcDbLine
 10
12.29999908788478
 20
116.5000000358927
 30
0.0
 11
12.40000275329443
 21
116.5000000358927
 31
0.0
  0
LINE
  5
71D
330
1F
100
AcDbEntity
  8
0
100
AcDbLine
 10
14.57179585743709
 20
116.5000000358927
 30
0.0
 11
14.50000122707293
 21
116.5000000358927
 31
0.0
  0
LINE
  5
71E
330
1F
100
AcDbEntity
  8
0
100
AcDbLine
 10
21.99999908788483
 20
164.3000000358927
 30
0.0
 11
19.99999908788483
 21
162.3000000358927
 31
0.0
  0
LINE
  5
71F
330
1F
100
AcDbEntity
  8
0
100
AcDbLine
 10
26.99999908788483
 20
164.3000000358927
 30
0.0
 11
21.99999908788483
 21
164.3000000358927
 31
0.0
  0
LINE
  5
720
330
1F
100
AcDbEntity
  8
0
100
AcDbLine
 10
21.99999908788483
 20
164.3000000358927
 30
0.0
 11
1.499999087884829
 21
164.3000000358927
 31
0.0
  0
LINE
  5
721
330
1F
100
AcDbEntity
  8
0
100
AcDbLine
 10
-0.0000009121151692
 20
162.8000000358927
 30
0.0
 11
-0.0000009121151692
 21
101.8000000358925
 31
0.0
  0
LINE
  5
722
330
1F
100
AcDbEntity
  8
0
100
AcDbLine
 10
19.44999908788556
 20
100.3000000358925
 30
0.0
 11
1.499999087884829
 21
100.3000000358925
 31
0.0
  0
LINE
  5
723
330
1F
100
AcDbEntity
  8
0
100
AcDbLine
 10
26.99999908788483
 20
100.3000000358927
 30
0.0
 11
23.54999908788411
 21
100.3000000358927
 31
0.0
  0
LINE
  5
724
330
1F
100
AcDbEntity
  8
0
100
AcDbLine
 10
12.29999908788481
 20
116.3000000358928
 30
0.0
 11
12.29999908788481
 21
128.3000000358928
 31
0.0
  0
LINE
  5
725
330
1F
100
AcDbEntity
  8
0
100
AcDbLine
 10
12.29999908788481
 20
128.3000000358927
 30
0.0
 11
19.9999990878848
 21
128.3000000358927
 31
0.0
  0
LINE
  5
726
330
1F
100
AcDbEntity
  8
0
100
AcDbLine
 10
14.57179585743709
 20
116.3000000358927
 30
0.0
 11
12.29999908788481
 21
116.3000000358927
 31
0.0
  0
LINE
  5
727
330
1F
100
AcDbEntity
  8
0
100
AcDbLine
 10
26.99999908788483
 20
103.8000000358927
 30
0.0
 11
26.99999908788483
 21
112.3000000358927
 31
0.0
  0
LINE
  5
728
330
1F
100
AcDbEntity
  8
0
100
AcDbLine
 10
26.99999908788483
 20
120.3000000358926
 30
0.0
 11
26.99999908788483
 21
121.8000000358927
 31
0.0
  0
LINE
  5
729
330
1F
100
AcDbEntity
  8
0
100
AcDbLine
 10
26.99999908788483
 20
147.3000000358926
 30
0.0
 11
26.99999908788483
 21
160.8000000358925
 31
0.0
  0
LINE
  5
72A
330
1F
100
AcDbEntity
  8
0
100
AcDbLine
 10
26.99999908788483
 20
103.8000000358925
 30
0.0
 11
26.99999908788483
 21
100.3000000358927
 31
0.0
  0
LINE
  5
72B
330
1F
100
AcDbEntity
  8
0
100
AcDbLine
 10
26.99999908788483
 20
164.3000000358927
 30
0.0
 11
26.99999908788483
 21
160.8000000358925
 31
0.0
  0
ARC
  5
72C
330
1F
100
AcDbEntity
  8
0
100
AcDbCircle
 10
1.499999087884829
 20
162.8000000358927
 30
0.0
 40
1.5
100
AcDbArc
 50
90.0
 51
180.0
  0
ARC
  5
72D
330
1F
100
AcDbEntity
  8
0
100
AcDbCircle
 10
1.499999087884829
 20
101.8000000358927
 30
0.0
 40
1.500000000000145
100
AcDbArc
 50
180.0000000000032
 51
270.0
  0
LINE
  5
72E
330
1F
100
AcDbEntity
  8
0
100
AcDbLine
 10
19.99999908788483
 20
147.3000000358926
 30
0.0
 11
19.99999908788483
 21
162.3000000358927
 31
0.0
  0
LINE
  5
72F
330
1F
100
AcDbEntity
  8
0
100
AcDbLine
 10
29.99999908788483
 20
100.3000000358927
 30
0.0
 11
34.99999908788482
 21
100.3000000358927
 31
0.0
  0
LINE
  5
730
330
1F
100
AcDbEntity
  8
0
100
AcDbLine
 10
36.99999908788483
 20
162.3000000358927
 30
0.0
 11
34.99999908788482
 21
164.3000000358927
 31
0.0
  0
LINE
  5
731
330
1F
100
AcDbEntity
  8
0
100
AcDbLine
 10
34.99999908788482
 20
100.3000000358927
 30
0.0
 11
36.99999908788483
 21
102.3000000358927
 31
0.0
  0
LINE
  5
732
330
1F
100
AcDbEntity
  8
0
100
AcDbLine
 10
36.99999908788483
 20
103.8000000358927
 30
0.0
 11
36.99999908788483
 21
160.8000000358926
 31
0.0
  0
LINE
  5
733
330
1F
100
AcDbEntity
  8
0
100
AcDbLine
 10
29.99999908788483
 20
164.3000000358927
 30
0.0
 11
34.99999908788482
 21
164.3000000358927
 31
0.0
  0
LINE
  5
734
330
1F
100
AcDbEntity
  8
0
100
AcDbLine
 10
29.99999908788483
 20
160.8000000358926
 30
0.0
 11
29.99999908788483
 21
103.8000000358927
 31
0.0
  0
LINE
  5
735
330
1F
100
AcDbEntity
  8
0
100
AcDbLine
 10
36.99999908788483
 20
162.3000000358927
 30
0.0
 11
36.99999908788483
 21
160.8000000358926
 31
0.0
  0
LINE
  5
736
330
1F
100
AcDbEntity
  8
0
100
AcDbLine
 10
36.99999908788483
 20
103.8000000358927
 30
0.0
 11
36.99999908788483
 21
102.3000000358927
 31
0.0
  0
LINE
  5
737
330
1F
100
AcDbEntity
  8
0
100
AcDbLine
 10
29.99999908788483
 20
160.8000000358926
 30
0.0
 11
29.99999908788483
 21
164.3000000358927
 31
0.0
  0
LINE
  5
738
330
1F
100
AcDbEntity
  8
0
100
AcDbLine
 10
29.99999908788483
 20
100.3000000358927
 30
0.0
 11
29.99999908788483
 21
103.8000000358927
 31
0.0
  0
LINE
  5
739
330
1F
100
AcDbEntity
  8
0
100
AcDbLine
 10
29.69999908788485
 20
100.0000000358927
 30
0.0
 11
27.29999908788484
 21
100.0000000358927
 31
0.0
  0
LINE
  5
73A
330
1F
100
AcDbEntity
  8
0
100
AcDbLine
 10
29.99999908788483
 20
103.8000000358927
 30
0.0
 11
29.99999908788483
 21
160.8000000358926
 31
0.0
  0
LINE
  5
73B
330
1F
100
AcDbEntity
  8
0
100
AcDbLine
 10
29.69999908788485
 20
164.6000000358927
 30
0.0
 11
27.29999908788484
 21
164.6000000358927
 31
0.0
  0
LINE
  5
73C
330
1F
100
AcDbEntity
  8
0
100
AcDbLine
 10
27.29999908788482
 20
120.3000000358926
 30
0.0
 11
27.29999908788482
 21
121.8000000358927
 31
0.0
  0
LINE
  5
73D
330
1F
100
AcDbEntity
  8
0
100
AcDbLine
 10
26.99999908788483
 20
160.8000000358926
 30
0.0
 11
26.99999908788483
 21
147.3000000358926
 31
0.0
  0
LINE
  5
73E
330
1F
100
AcDbEntity
  8
0
100
AcDbLine
 10
26.99999908788483
 20
121.8000000358927
 30
0.0
 11
26.99999908788483
 21
120.3000000358926
 31
0.0
  0
LINE
  5
73F
330
1F
100
AcDbEntity
  8
0
100
AcDbLine
 10
26.99999908788483
 20
112.3000000358927
 30
0.0
 11
26.99999908788483
 21
103.8000000358927
 31
0.0
  0
LINE
  5
740
330
1F
100
AcDbEntity
  8
0
100
AcDbLine
 10
29.99999908788483
 20
103.8000000358927
 30
0.0
 11
29.99999908788483
 21
100.3000000358927
 31
0.0
  0
ARC
  5
741
330
1F
100
AcDbEntity
  8
0
100
AcDbCircle
 10
29.69999908788485
 20
100.3000000358927
 30
0.0
 40
0.3000000000000114
100
AcDbArc
 50
270.0
 51
0.0
  0
LINE
  5
742
330
1F
100
AcDbEntity
  8
0
100
AcDbLine
 10
29.99999908788483
 20
164.3000000358927
 30
0.0
 11
29.99999908788483
 21
160.8000000358926
 31
0.0
  0
ARC
  5
743
330
1F
100
AcDbEntity
  8
0
100
AcDbCircle
 10
29.69999908788485
 20
164.3000000358927
 30
0.0
 40
0.3000000000000007
100
AcDbArc
 50
0.0
 51
90.0
  0
LINE
  5
744
330
1F
100
AcDbEntity
  8
0
100
AcDbLine
 10
26.99999908788483
 20
100.3000000358927
 30
0.0
 11
26.99999908788483
 21
103.8000000358927
 31
0.0
  0
ARC
  5
745
330
1F
100
AcDbEntity
  8
0
100
AcDbCircle
 10
27.29999908788482
 20
100.3000000358927
 30
0.0
 40
0.3
100
AcDbArc
 50
180.0
 51
270.0
  0
LINE
  5
746
330
1F
100
AcDbEntity
  8
0
100
AcDbLine
 10
26.99999908788483
 20
160.8000000358926
 30
0.0
 11
26.99999908788483
 21
164.3000000358927
 31
0.0
  0
ARC
  5
747
330
1F
100
AcDbEntity
  8
0
100
AcDbCircle
 10
27.29999908788482
 20
164.3000000358927
 30
0.0
 40
0.3000000000000043
100
AcDbArc
 50
90.0
 51
180.0
  0
LINE
  5
748
330
1F
100
AcDbEntity
  8
0
100
AcDbLine
 10
12.29999908788457
 20
128.3000000358919
 30
0.0
 11
12.2999990878845
 21
116.5000000358927
 31
0.0
  0
LINE
  5
749
330
1F
100
AcDbEntity
  8
0
100
AcDbLine
 10
14.57179585743709
 20
116.5000000358927
 30
0.0
 11
12.29999908788451
 21
116.5000000358927
 31
0.0
  0
LINE
  5
74A
330
1F
100
AcDbEntity
  8
0
100
AcDbLine
 10
14.57179585743709
 20
116.5000000358927
 30
0.0
 11
12.29999908788451
 21
116.5000000358927
 31
0.0
  0
LINE
  5
74B
330
1F
100
AcDbEntity
  8
0
100
AcDbLine
 10
16.4999990878848
 20
121.5000000358928
 30
0.0
 11
12.29999908788451
 21
121.5000000358927
 31
0.0
  0
ARC
  5
74C
330
1F
100
AcDbEntity
  8
0
100
AcDbCircle
 10
16.79999908788493
 20
119.0000000358927
 30
0.0
 40
1.7
100
AcDbArc
 50
100.1642486217273
 51
130.1191668984072
  0
LINE
  5
74D
330
1F
100
AcDbEntity
  8
0
100
AcDbLine
 10
16.4999990878848
 20
121.5000000358928
 30
0.0
 11
12.29999908788451
 21
121.5000000358927
 31
0.0
  0
LINE
  5
74E
330
1F
100
AcDbEntity
  8
0
100
AcDbLine
 10
14.57179585743709
 20
126.5000000358927
 30
0.0
 11
12.29999908788451
 21
126.5000000358927
 31
0.0
  0
LINE
  5
74F
330
1F
100
AcDbEntity
  8
0
100
AcDbLine
 10
15.4999990878848
 20
128.1000000358928
 30
0.0
 11
12.29999908788457
 21
128.1000000358927
 31
0.0
  0
LINE
  5
750
330
1F
100
AcDbEntity
  8
0
100
AcDbLine
 10
14.4999990878845
 20
128.1000000358924
 30
0.0
 11
14.49999908788543
 21
116.5000000358928
 31
0.0
  0
LINE
  5
751
330
1F
100
AcDbEntity
  8
0
100
AcDbLine
 10
12.4999990878845
 20
128.1000000358922
 30
0.0
 11
12.49999908788543
 21
116.5000000358927
 31
0.0
  0
LINE
  5
752
330
1F
100
AcDbEntity
  8
0
100
AcDbLine
 10
14.49999908788592
 20
118.1000000358927
 30
0.0
 11
12.49999908788592
 21
118.1000000358927
 31
0.0
  0
LINE
  5
753
330
1F
100
AcDbEntity
  8
0
100
AcDbLine
 10
14.49999908788592
 20
123.1000000358927
 30
0.0
 11
12.49999908788592
 21
123.1000000358927
 31
0.0
  0
LINE
  5
754
330
1F
100
AcDbEntity
  8
0
100
AcDbLine
 10
14.14999908788579
 20
118.4000000358928
 30
0.0
 11
13.09999908788583
 21
118.4000000358927
 31
0.0
  0
LINE
  5
755
330
1F
100
AcDbEntity
  8
0
100
AcDbLine
 10
12.79999908788588
 20
119.3000000358927
 30
0.0
 11
12.79999908788588
 21
120.3000000358928
 31
0.0
  0
LINE
  5
756
330
1F
100
AcDbEntity
  8
0
100
AcDbLine
 10
13.09999908788583
 20
118.4000000358927
 30
0.0
 11
13.09999908788583
 21
119.3000000358928
 31
0.0
  0
LINE
  5
757
330
1F
100
AcDbEntity
  8
0
100
AcDbLine
 10
13.09999908788583
 20
120.3000000358928
 30
0.0
 11
13.09999908788583
 21
121.2000000358927
 31
0.0
  0
LINE
  5
758
330
1F
100
AcDbEntity
  8
0
100
AcDbLine
 10
14.14999908788579
 20
121.2000000358927
 30
0.0
 11
13.09999908788583
 21
121.2000000358927
 31
0.0
  0
LINE
  5
759
330
1F
100
AcDbEntity
  8
0
100
AcDbLine
 10
14.14999908788579
 20
118.4000000358928
 30
0.0
 11
14.14999908788579
 21
121.2000000358927
 31
0.0
  0
LINE
  5
75A
330
1F
100
AcDbEntity
  8
0
100
AcDbLine
 10
13.09999908788583
 20
119.3000000358928
 30
0.0
 11
12.79999908788588
 21
119.3000000358927
 31
0.0
  0
LINE
  5
75B
330
1F
100
AcDbEntity
  8
0
100
AcDbLine
 10
13.09999908788583
 20
120.3000000358928
 30
0.0
 11
12.79999908788588
 21
120.3000000358928
 31
0.0
  0
LINE
  5
75C
330
1F
100
AcDbEntity
  8
0
100
AcDbLine
 10
14.14999908788573
 20
123.4000000358928
 30
0.0
 11
13.09999908788572
 21
123.4000000358927
 31
0.0
  0
LINE
  5
75D
330
1F
100
AcDbEntity
  8
0
100
AcDbLine
 10
12.79999908788576
 20
124.3000000358927
 30
0.0
 11
12.79999908788576
 21
125.3000000358928
 31
0.0
  0
LINE
  5
75E
330
1F
100
AcDbEntity
  8
0
100
AcDbLine
 10
13.09999908788572
 20
123.4000000358927
 30
0.0
 11
13.09999908788578
 21
124.3000000358928
 31
0.0
  0
LINE
  5
75F
330
1F
100
AcDbEntity
  8
0
100
AcDbLine
 10
13.09999908788572
 20
125.3000000358928
 30
0.0
 11
13.09999908788572
 21
126.2000000358928
 31
0.0
  0
LINE
  5
760
330
1F
100
AcDbEntity
  8
0
100
AcDbLine
 10
14.14999908788579
 20
126.2000000358928
 30
0.0
 11
13.09999908788572
 21
126.2000000358928
 31
0.0
  0
LINE
  5
761
330
1F
100
AcDbEntity
  8
0
100
AcDbLine
 10
14.14999908788573
 20
123.4000000358928
 30
0.0
 11
14.14999908788579
 21
126.2000000358928
 31
0.0
  0
LINE
  5
762
330
1F
100
AcDbEntity
  8
0
100
AcDbLine
 10
13.09999908788578
 20
124.3000000358928
 30
0.0
 11
12.79999908788576
 21
124.3000000358927
 31
0.0
  0
LINE
  5
763
330
1F
100
AcDbEntity
  8
0
100
AcDbLine
 10
13.09999908788572
 20
125.3000000358928
 30
0.0
 11
12.79999908788576
 21
125.3000000358928
 31
0.0
  0
LINE
  5
764
330
1F
100
AcDbEntity
  8
0
100
AcDbLine
 10
27.4999990878848
 20
128.3000000358927
 30
0.0
 11
27.4999990878848
 21
146.8000000358927
 31
0.0
  0
LINE
  5
765
330
1F
100
AcDbEntity
  8
0
100
AcDbLine
 10
15.4999990878848
 20
128.3000000358927
 30
0.0
 11
15.4999990878848
 21
146.8000000358927
 31
0.0
  0
LINE
  5
766
330
1F
100
AcDbEntity
  8
0
100
AcDbLine
 10
15.9999990878848
 20
147.3000000358926
 30
0.0
 11
15.4999990878848
 21
146.8000000358927
 31
0.0
  0
LINE
  5
767
330
1F
100
AcDbEntity
  8
0
100
AcDbLine
 10
26.9999990878848
 20
147.3000000358926
 30
0.0
 11
27.4999990878848
 21
146.8000000358927
 31
0.0
  0
LINE
  5
768
330
1F
100
AcDbEntity
  8
0
100
AcDbLine
 10
15.9999990878848
 20
147.3000000358926
 30
0.0
 11
26.9999990878848
 21
147.3000000358926
 31
0.0
  0
LINE
  5
769
330
1F
100
AcDbEntity
  8
0
100
AcDbLine
 10
27.4999990878848
 20
146.8000000358927
 30
0.0
 11
15.4999990878848
 21
146.8000000358927
 31
0.0
  0
LINE
  5
76A
330
1F
100
AcDbEntity
  8
0
100
AcDbLine
 10
28.42820231829806
 20
126.8000000358927
 30
0.0
 11
28.42820231829806
 21
121.8000000358927
 31
0.0
  0
LINE
  5
76B
330
1F
100
AcDbEntity
  8
0
100
AcDbLine
 10
24.96410070302248
 20
126.8000000358927
 30
0.0
 11
24.96410070302248
 21
121.8000000358927
 31
0.0
  0
LINE
  5
76C
330
1F
100
AcDbEntity
  8
0
100
AcDbLine
 10
18.03589747285035
 20
126.8000000358927
 30
0.0
 11
18.03589747285035
 21
121.8000000358927
 31
0.0
  0
LINE
  5
76D
330
1F
100
AcDbEntity
  8
0
100
AcDbLine
 10
14.57179585743709
 20
121.8000000358927
 30
0.0
 11
28.42820231829806
 21
121.8000000358927
 31
0.0
  0
LINE
  5
76E
330
1F
100
AcDbEntity
  8
0
100
AcDbLine
 10
14.57179585743709
 20
126.8000000358927
 30
0.0
 11
14.57179585743709
 21
121.8000000358927
 31
0.0
  0
LINE
  5
76F
330
1F
100
AcDbEntity
  8
0
100
AcDbLine
 10
28.42820231829806
 20
120.3000000358926
 30
0.0
 11
28.42820231829806
 21
112.3000000358927
 31
0.0
  0
LINE
  5
770
330
1F
100
AcDbEntity
  8
0
100
AcDbLine
 10
24.96410070302248
 20
112.3000000358927
 30
0.0
 11
28.42820231829806
 21
112.3000000358927
 31
0.0
  0
LINE
  5
771
330
1F
100
AcDbEntity
  8
0
100
AcDbLine
 10
24.96410070302248
 20
120.3000000358926
 30
0.0
 11
24.96410070302248
 21
112.3000000358927
 31
0.0
  0
LINE
  5
772
330
1F
100
AcDbEntity
  8
0
100
AcDbLine
 10
18.03589747285035
 20
112.3000000358927
 30
0.0
 11
24.96410070302248
 21
112.3000000358927
 31
0.0
  0
LINE
  5
773
330
1F
100
AcDbEntity
  8
0
100
AcDbLine
 10
18.03589747285035
 20
120.3000000358926
 30
0.0
 11
18.03589747285035
 21
112.3000000358927
 31
0.0
  0
LINE
  5
774
330
1F
100
AcDbEntity
  8
0
100
AcDbLine
 10
14.57179585743709
 20
112.3000000358927
 30
0.0
 11
18.03589747285035
 21
112.3000000358927
 31
0.0
  0
LINE
  5
775
330
1F
100
AcDbEntity
  8
0
100
AcDbLine
 10
14.57179585743709
 20
120.3000000358926
 30
0.0
 11
14.57179585743709
 21
112.3000000358927
 31
0.0
  0
LINE
  5
776
330
1F
100
AcDbEntity
  8
0
100
AcDbLine
 10
28.42820231829806
 20
120.3000000358926
 30
0.0
 11
24.96410070302248
 21
120.3000000358926
 31
0.0
  0
LINE
  5
777
330
1F
100
AcDbEntity
  8
0
100
AcDbLine
 10
24.96410070302248
 20
120.3000000358926
 30
0.0
 11
18.03589747285035
 21
120.3000000358926
 31
0.0
  0
LINE
  5
778
330
1F
100
AcDbEntity
  8
0
100
AcDbLine
 10
18.03589747285035
 20
120.3000000358926
 30
0.0
 11
14.57179585743709
 21
120.3000000358926
 31
0.0
  0
LINE
  5
779
330
1F
100
AcDbEntity
  8
0
100
AcDbLine
 10
28.42820231829806
 20
126.8000000358927
 30
0.0
 11
26.69615151059138
 21
126.8000000358927
 31
0.0
  0
LINE
  5
77A
330
1F
100
AcDbEntity
  8
0
100
AcDbLine
 10
16.30384666525564
 20
126.8000000358927
 30
0.0
 11
14.57179585743709
 21
126.8000000358927
 31
0.0
  0
LINE
  5
77B
330
1F
100
AcDbEntity
  8
0
100
AcDbLine
 10
21.4999990878848
 20
126.8000000358927
 30
0.0
 11
18.03589747285035
 21
126.8000000358927
 31
0.0
  0
LINE
  5
77C
330
1F
100
AcDbEntity
  8
0
100
AcDbLine
 10
18.03589747285035
 20
126.8000000358927
 30
0.0
 11
16.30384666525564
 21
126.8000000358927
 31
0.0
  0
LINE
  5
77D
330
1F
100
AcDbEntity
  8
0
100
AcDbLine
 10
26.69615151059144
 20
126.8000000358927
 30
0.0
 11
24.96410070302254
 21
126.8000000358927
 31
0.0
  0
LINE
  5
77E
330
1F
100
AcDbEntity
  8
0
100
AcDbLine
 10
24.96410070302248
 20
126.8000000358927
 30
0.0
 11
21.4999990878848
 21
126.8000000358927
 31
0.0
  0
LINE
  5
77F
330
1F
100
AcDbEntity
  8
0
100
AcDbLine
 10
26.4999990878848
 20
120.3000000358926
 30
0.0
 11
26.4999990878848
 21
121.8000000358927
 31
0.0
  0
LINE
  5
780
330
1F
100
AcDbEntity
  8
0
100
AcDbLine
 10
16.4999990878848
 20
120.3000000358926
 30
0.0
 11
16.4999990878848
 21
121.8000000358927
 31
0.0
  0
LINE
  5
781
330
1F
100
AcDbEntity
  8
0
100
AcDbLine
 10
15.99999908788491
 20
112.3000000358927
 30
0.0
 11
15.99999908788491
 21
111.3000000358927
 31
0.0
  0
LINE
  5
782
330
1F
100
AcDbEntity
  8
0
100
AcDbLine
 10
27.4999990878848
 20
126.8000000358927
 30
0.0
 11
27.4999990878848
 21
128.3000000358927
 31
0.0
  0
LINE
  5
783
330
1F
100
AcDbEntity
  8
0
100
AcDbLine
 10
15.4999990878848
 20
126.8000000358927
 30
0.0
 11
15.4999990878848
 21
128.3000000358927
 31
0.0
  0
LINE
  5
784
330
1F
100
AcDbEntity
  8
0
100
AcDbLine
 10
24.99999908788492
 20
109.3000000358927
 30
0.0
 11
17.99999908788491
 21
109.3000000358927
 31
0.0
  0
LINE
  5
785
330
1F
100
AcDbEntity
  8
0
100
AcDbLine
 10
15.4999990878848
 20
128.3000000358927
 30
0.0
 11
27.4999990878848
 21
128.3000000358927
 31
0.0
  0
ARC
  5
786
330
1F
100
AcDbEntity
  8
0
100
AcDbCircle
 10
17.99999908788491
 20
111.3000000358927
 30
0.0
 40
2.0
100
AcDbArc
 50
180.0
 51
270.0
  0
ARC
  5
787
330
1F
100
AcDbEntity
  8
0
100
AcDbCircle
 10
24.99999908788492
 20
111.3000000358927
 30
0.0
 40
2.0
100
AcDbArc
 50
270.0
 51
0.0
  0
LINE
  5
788
330
1F
100
AcDbEntity
  8
0
100
AcDbLine
 10
15.4999990878848
 20
126.8000000358927
 30
0.0
 11
27.4999990878848
 21
126.8000000358927
 31
0.0
  0
LINE
  5
789
330
1F
100
AcDbEntity
  8
0
100
AcDbLine
 10
37.49999908788492
 20
109.2160254396779
 30
0.0
 11
37.4999990878848
 21
113.4839746321091
 31
0.0
  0
ARC
  5
78A
330
1F
100
AcDbEntity
  8
0
100
AcDbCircle
 10
37.49999908788492
 20
108.3500000358935
 30
0.0
 40
0.5
100
AcDbArc
 50
119.999999999999
 51
180.0
  0
ARC
  5
78B
330
1F
100
AcDbEntity
  8
0
100
AcDbCircle
 10
36.99999908788492
 20
109.2160254396779
 30
0.0
 40
0.5
100
AcDbArc
 50
299.9999999999996
 51
0.0
  0
ARC
  5
78C
330
1F
100
AcDbEntity
  8
0
100
AcDbCircle
 10
37.49999908788492
 20
114.3500000358935
 30
0.0
 40
0.5
100
AcDbArc
 50
180.0
 51
240.0000000000009
  0
ARC
  5
78D
330
1F
100
AcDbEntity
  8
0
100
AcDbCircle
 10
36.99999908788492
 20
113.4839746321091
 30
0.0
 40
0.5
100
AcDbArc
 50
0.0
 51
60.00000000000095
  0
LINE
  5
78E
330
1F
100
AcDbEntity
  8
0
100
AcDbLine
 10
19.44999908788409
 20
32.00000003589256
 30
0.0
 11
19.44999908788409
 21
70.15828515385695
 31
0.0
  0
LINE
  5
78F
330
1F
100
AcDbEntity
  8
0
100
AcDbLine
 10
23.54999908788398
 20
32.00000003589276
 30
0.0
 11
23.54999908788411
 21
67.81542801099885
 31
0.0
  0
LINE
  5
790
330
1F
100
AcDbEntity
  8
0
100
AcDbLine
 10
23.54999908788411
 20
69.81542801099985
 30
0.0
 11
23.54999908788411
 21
109.3000000358927
 31
0.0
  0
LINE
  5
791
330
1F
100
AcDbEntity
  8
0
100
AcDbLine
 10
23.54999908788411
 20
69.81542801099985
 30
0.0
 11
19.44999908788556
 21
72.15828515385616
 31
0.0
  0
LINE
  5
792
330
1F
100
AcDbEntity
  8
0
100
AcDbLine
 10
23.54999908788569
 20
67.81542801099893
 30
0.0
 11
19.44999908788556
 21
70.15828515385614
 31
0.0
  0
LINE
  5
793
330
1F
100
AcDbEntity
  8
0
100
AcDbLine
 10
19.44999908788556
 20
72.15828515385616
 30
0.0
 11
19.44999908788556
 21
109.3000000358927
 31
0.0
  0
LINE
  5
794
330
1F
100
AcDbEntity
  8
0
100
AcDbLine
 10
24.49999908788405
 20
3.000000035892654
 30
0.0
 11
24.49999908788405
 21
32.00000003589268
 31
0.0
  0
LINE
  5
795
330
1F
100
AcDbEntity
  8
0
100
AcDbLine
 10
18.4999990878841
 20
3.000000035892654
 30
0.0
 11
18.4999990878841
 21
32.00000003589268
 31
0.0
  0
ARC
  5
796
330
1F
100
AcDbEntity
  8
0
100
AcDbCircle
 10
21.49999908788404
 20
3.000000035892654
 30
0.0
 40
2.999999999999998
100
AcDbArc
 50
180.0
 51
0.0
  0
LINE
  5
797
330
1F
100
AcDbEntity
  8
0
100
AcDbLine
 10
18.4999990878841
 20
32.00000003589268
 30
0.0
 11
24.49999908788405
 21
32.00000003589268
 31
0.0
  0
LINE
  5
798
330
1F
100
AcDbEntity
  8
0
100
AcDbLine
 10
300.7499990878852
 20
152.3000000358921
 30
0.0
 11
339.249999087885
 21
152.3000000358921
 31
0.0
1001
GENIUS_GENREC_14
1002
{
1000
PYDIR
1011
299.999999087885
1021
162.0500000358921
1031
0.0
1002
}
1002
{
1000
PXDIR
1011
339.999999087885
1021
152.0500000358921
1031
0.0
1002
}
1002
{
1000
PORI
1011
299.999999087885
1021
152.0500000358921
1031
0.0
1002
}
1002
{
1000
PINS
1011
299.999999087885
1021
152.0500000358921
1031
0.0
1002
}
1002
{
1000
PINS2
1011
339.999999087885
1021
162.0500000358921
1031
0.0
1002
}
1002
{
1000
C
1070
     1
1002
}
1001
GENIUS_GENOBJ-N-REC_13
1002
{
1000
OWNER
1000
GEN
1002
}
1001
GENIUS_GENODEF_13
1002
{
1000
HIER
1070
     0
1002
}
1002
{
1000
MANEDIT
1070
     0
1002
}
1002
{
1000
NOSEL
1070
     0
1002
}
1002
{
1000
BEHIND
1070
     0
1002
}
1002
{
1000
OTHER
1070
     0
1002
}
1002
{
1000
REACTOR
1002
}
  0
ARC
  5
799
330
1F
100
AcDbEntity
  8
0
100
AcDbCircle
 10
339.249999087885
 20
152.8000000358922
 30
0.0
 40
0.5
100
AcDbArc
 50
270.0
 51
0.0
1001
GENIUS_GENREC_14
1002
{
1000
PYDIR
1011
299.999999087885
1021
162.0500000358921
1031
0.0
1002
}
1002
{
1000
PXDIR
1011
339.999999087885
1021
152.0500000358921
1031
0.0
1002
}
1002
{
1000
PORI
1011
299.999999087885
1021
152.0500000358921
1031
0.0
1002
}
1002
{
1000
PINS
1011
299.999999087885
1021
152.0500000358921
1031
0.0
1002
}
1002
{
1000
PINS2
1011
339.999999087885
1021
162.0500000358921
1031
0.0
1002
}
1002
{
1000
C
1070
     1
1002
}
1001
GENIUS_GENOBJ-N-REC_13
1002
{
1000
OWNER
1000
GEN
1002
}
1001
GENIUS_GENODEF_13
1002
{
1000
HIER
1070
     0
1002
}
1002
{
1000
MANEDIT
1070
     0
1002
}
1002
{
1000
NOSEL
1070
     0
1002
}
1002
{
1000
BEHIND
1070
     0
1002
}
1002
{
1000
OTHER
1070
     0
1002
}
1002
{
1000
REACTOR
1002
}
  0
LINE
  5
79A
330
1F
100
AcDbEntity
  8
0
100
AcDbLine
 10
339.749999087885
 20
152.8000000358922
 30
0.0
 11
339.749999087885
 21
161.3000000358922
 31
0.0
1001
GENIUS_GENREC_14
1002
{
1000
PYDIR
1011
299.999999087885
1021
162.0500000358921
1031
0.0
1002
}
1002
{
1000
PXDIR
1011
339.999999087885
1021
152.0500000358921
1031
0.0
1002
}
1002
{
1000
PORI
1011
299.999999087885
1021
152.0500000358921
1031
0.0
1002
}
1002
{
1000
PINS
1011
299.999999087885
1021
152.0500000358921
1031
0.0
1002
}
1002
{
1000
PINS2
1011
339.999999087885
1021
162.0500000358921
1031
0.0
1002
}
1002
{
1000
C
1070
     1
1002
}
1001
GENIUS_GENOBJ-N-REC_13
1002
{
1000
OWNER
1000
GEN
1002
}
1001
GENIUS_GENODEF_13
1002
{
1000
HIER
1070
     0
1002
}
1002
{
1000
MANEDIT
1070
     0
1002
}
1002
{
1000
NOSEL
1070
     0
1002
}
1002
{
1000
BEHIND
1070
     0
1002
}
1002
{
1000
OTHER
1070
     0
1002
}
1002
{
1000
REACTOR
1002
}
  0
ARC
  5
79B
330
1F
100
AcDbEntity
  8
0
100
AcDbCircle
 10
339.249999087885
 20
161.3000000358922
 30
0.0
 40
0.5
100
AcDbArc
 50
0.0
 51
90.0
1001
GENIUS_GENREC_14
1002
{
1000
PYDIR
1011
299.999999087885
1021
162.0500000358921
1031
0.0
1002
}
1002
{
1000
PXDIR
1011
339.999999087885
1021
152.0500000358921
1031
0.0
1002
}
1002
{
1000
PORI
1011
299.999999087885
1021
152.0500000358921
1031
0.0
1002
}
1002
{
1000
PINS
1011
299.999999087885
1021
152.0500000358921
1031
0.0
1002
}
1002
{
1000
PINS2
1011
339.999999087885
1021
162.0500000358921
1031
0.0
1002
}
1002
{
1000
C
1070
     1
1002
}
1001
GENIUS_GENOBJ-N-REC_13
1002
{
1000
OWNER
1000
GEN
1002
}
1001
GENIUS_GENODEF_13
1002
{
1000
HIER
1070
     0
1002
}
1002
{
1000
MANEDIT
1070
     0
1002
}
1002
{
1000
NOSEL
1070
     0
1002
}
1002
{
1000
BEHIND
1070
     0
1002
}
1002
{
1000
OTHER
1070
     0
1002
}
1002
{
1000
REACTOR
1002
}
  0
LINE
  5
79C
330
1F
100
AcDbEntity
  8
0
100
AcDbLine
 10
339.249999087885
 20
161.8000000358921
 30
0.0
 11
300.7499990878852
 21
161.8000000358921
 31
0.0
1001
GENIUS_GENREC_14
1002
{
1000
PYDIR
1011
299.999999087885
1021
162.0500000358921
1031
0.0
1002
}
1002
{
1000
PXDIR
1011
339.999999087885
1021
152.0500000358921
1031
0.0
1002
}
1002
{
1000
PORI
1011
299.999999087885
1021
152.0500000358921
1031
0.0
1002
}
1002
{
1000
PINS
1011
299.999999087885
1021
152.0500000358921
1031
0.0
1002
}
1002
{
1000
PINS2
1011
339.999999087885
1021
162.0500000358921
1031
0.0
1002
}
1002
{
1000
C
1070
     1
1002
}
1001
GENIUS_GENOBJ-N-REC_13
1002
{
1000
OWNER
1000
GEN
1002
}
1001
GENIUS_GENODEF_13
1002
{
1000
HIER
1070
     0
1002
}
1002
{
1000
MANEDIT
1070
     0
1002
}
1002
{
1000
NOSEL
1070
     0
1002
}
1002
{
1000
BEHIND
1070
     0
1002
}
1002
{
1000
OTHER
1070
     0
1002
}
1002
{
1000
REACTOR
1002
}
  0
ARC
  5
79D
330
1F
100
AcDbEntity
  8
0
100
AcDbCircle
 10
300.7499990878852
 20
161.3000000358922
 30
0.0
 40
0.5
100
AcDbArc
 50
90.0
 51
180.0
1001
GENIUS_GENREC_14
1002
{
1000
PYDIR
1011
299.999999087885
1021
162.0500000358921
1031
0.0
1002
}
1002
{
1000
PXDIR
1011
339.999999087885
1021
152.0500000358921
1031
0.0
1002
}
1002
{
1000
PORI
1011
299.999999087885
1021
152.0500000358921
1031
0.0
1002
}
1002
{
1000
PINS
1011
299.999999087885
1021
152.0500000358921
1031
0.0
1002
}
1002
{
1000
PINS2
1011
339.999999087885
1021
162.0500000358921
1031
0.0
1002
}
1002
{
1000
C
1070
     1
1002
}
1001
GENIUS_GENOBJ-N-REC_13
1002
{
1000
OWNER
1000
GEN
1002
}
1001
GENIUS_GENODEF_13
1002
{
1000
HIER
1070
     0
1002
}
1002
{
1000
MANEDIT
1070
     0
1002
}
1002
{
1000
NOSEL
1070
     0
1002
}
1002
{
1000
BEHIND
1070
     0
1002
}
1002
{
1000
OTHER
1070
     0
1002
}
1002
{
1000
REACTOR
1002
}
  0
LINE
  5
79E
330
1F
100
AcDbEntity
  8
0
100
AcDbLine
 10
300.249999087885
 20
161.3000000358922
 30
0.0
 11
300.249999087885
 21
152.8000000358922
 31
0.0
1001
GENIUS_GENREC_14
1002
{
1000
PYDIR
1011
299.999999087885
1021
162.0500000358921
1031
0.0
1002
}
1002
{
1000
PXDIR
1011
339.999999087885
1021
152.0500000358921
1031
0.0
1002
}
1002
{
1000
PORI
1011
299.999999087885
1021
152.0500000358921
1031
0.0
1002
}
1002
{
1000
PINS
1011
299.999999087885
1021
152.0500000358921
1031
0.0
1002
}
1002
{
1000
PINS2
1011
339.999999087885
1021
162.0500000358921
1031
0.0
1002
}
1002
{
1000
C
1070
     1
1002
}
1001
GENIUS_GENOBJ-N-REC_13
1002
{
1000
OWNER
1000
GEN
1002
}
1001
GENIUS_GENODEF_13
1002
{
1000
HIER
1070
     0
1002
}
1002
{
1000
MANEDIT
1070
     0
1002
}
1002
{
1000
NOSEL
1070
     0
1002
}
1002
{
1000
BEHIND
1070
     0
1002
}
1002
{
1000
OTHER
1070
     0
1002
}
1002
{
1000
REACTOR
1002
}
  0
ARC
  5
79F
330
1F
100
AcDbEntity
  8
0
100
AcDbCircle
 10
300.7499990878852
 20
152.8000000358922
 30
0.0
 40
0.5
100
AcDbArc
 50
180.0
 51
270.0
1001
GENIUS_GENREC_14
1002
{
1000
PYDIR
1011
299.999999087885
1021
162.0500000358921
1031
0.0
1002
}
1002
{
1000
PXDIR
1011
339.999999087885
1021
152.0500000358921
1031
0.0
1002
}
1002
{
1000
PORI
1011
299.999999087885
1021
152.0500000358921
1031
0.0
1002
}
1002
{
1000
PINS
1011
299.999999087885
1021
152.0500000358921
1031
0.0
1002
}
1002
{
1000
PINS2
1011
339.999999087885
1021
162.0500000358921
1031
0.0
1002
}
1002
{
1000
C
1070
     1
1002
}
1001
GENIUS_GENOBJ-N-REC_13
1002
{
1000
OWNER
1000
GEN
1002
}
1001
GENIUS_GENODEF_13
1002
{
1000
HIER
1070
     0
1002
}
1002
{
1000
MANEDIT
1070
     0
1002
}
1002
{
1000
NOSEL
1070
     0
1002
}
1002
{
1000
BEHIND
1070
     0
1002
}
1002
{
1000
OTHER
1070
     0
1002
}
1002
{
1000
REACTOR
1002
}
  0
ENDSEC
  0
SECTION
  2
OBJECTS
  0
DICTIONARY
  5
C
330
0
100
AcDbDictionary
281
     1
  3
ACAD_COLOR
350
BE
  3
ACAD_GROUP
350
D
  3
ACAD_LAYOUT
350
1A
  3
ACAD_MATERIAL
350
BD
  3
ACAD_MLINESTYLE
350
17
  3
ACAD_PLOTSETTINGS
350
19
  3
ACAD_PLOTSTYLENAME
350
E
  3
ACAD_TABLESTYLE
350
11A
  3
ACDBHEADERROUNDTRIPXREC
350
853
  3
AcDbVariableDictionary
350
94
  3
AcmDictionary
350
5B
  3
AMG
350
41
  3
AMGSNAPSETTINGS
350
1B8
  3
DWGPROPS
350
852
  0
DICTIONARY
  5
219
330
2
100
AcDbDictionary
280
     1
281
     1
  3
ACAD_LAYERSTATES
360
21A
  0
DICTIONARY
  5
8F
330
1F
100
AcDbDictionary
280
     1
281
     1
  3
ACAD_SORTENTS
360
7A0
  0
DICTIONARY
  5
BE
102
{ACAD_REACTORS
330
C
102
}
330
C
100
AcDbDictionary
281
     1
  0
DICTIONARY
  5
D
102
{ACAD_REACTORS
330
C
102
}
330
C
100
AcDbDictionary
281
     1
  0
DICTIONARY
  5
1A
102
{ACAD_REACTORS
330
C
102
}
330
C
100
AcDbDictionary
281
     1
  3
Model
350
22
  3
レイアウト1
350
1E
  3
レイアウト2
350
26
  0
DICTIONARY
  5
BD
102
{ACAD_REACTORS
330
C
102
}
330
C
100
AcDbDictionary
281
     1
  0
DICTIONARY
  5
17
102
{ACAD_REACTORS
330
C
102
}
330
C
100
AcDbDictionary
281
     1
  3
Standard
350
18
  0
DICTIONARY
  5
19
102
{ACAD_REACTORS
330
C
102
}
330
C
100
AcDbDictionary
281
     1
  0
ACDBDICTIONARYWDFLT
  5
E
102
{ACAD_REACTORS
330
C
102
}
330
C
100
AcDbDictionary
281
     1
  3
Normal
350
F
100
AcDbDictionaryWithDefault
340
F
  0
DICTIONARY
  5
11A
102
{ACAD_REACTORS
330
C
102
}
330
C
100
AcDbDictionary
281
     1
  3
Standard
350
11B
  0
DICTIONARY
  5
853
102
{ACAD_REACTORS
330
C
102
}
330
C
100
AcDbDictionary
281
     1
  0
DICTIONARY
  5
94
102
{ACAD_REACTORS
330
C
102
}
330
C
100
AcDbDictionary
281
     1
  3
CTABLESTYLE
350
138
  3
DIMASSOC
350
96
  3
INDEXCTL
350
95
  3
PROJECTNAME
350
7AE
  0
DICTIONARY
  5
5B
102
{ACAD_REACTORS
330
C
102
}
330
C
100
AcDbDictionary
281
     1
  3
AcmBOM
350
1B5
  3
AcmStdDictionary
350
61
  3
AMDTSECTSYM_ARROWCOLOR
350
123
  0
DICTIONARY
  5
41
102
{ACAD_REACTORS
330
C
102
}
330
C
100
AcDbDictionary
281
     1
  0
DICTIONARY
  5
1B8
102
{ACAD_REACTORS
330
C
102
}
330
C
100
AcDbDictionary
281
     1
  0
XRECORD
  5
852
102
{ACAD_REACTORS
330
C
102
}
330
C
100
AcDbXrecord
280
     1
  1
DWGPROPS COOKIE
  2

  3

  4

  6

  7

  8

  9

300
AmdtFileType=84
301
=
302
=
303
=
304
=
305
=
306
=
307
=
308
=
309
=
 40
0.0033793865740741
 41
2456406.667290648
 42
2456406.678245301
  1

 90
        1
  0
DICTIONARY
  5
21A
102
{ACAD_REACTORS
330
219
102
}
330
219
100
AcDbDictionary
281
     1
  0
SORTENTSTABLE
  5
7A0
102
{ACAD_REACTORS
330
8F
102
}
330
8F
100
AcDbSortentsTable
330
1F
331
72C
  5
734
331
76B
  5
773
331
6B6
  5
6BE
331
6F5
  5
6FD
331
640
  5
648
331
67F
  5
687
331
734
  5
73C
331
773
  5
77B
331
687
  5
68F
331
6BE
  5
6C6
331
648
  5
650
331
6FD
  5
705
331
73C
  5
744
331
6C6
  5
6CE
331
4E8
  5
4E8
331
5DA
  5
5DA
331
4F0
  5
4F0
331
525
  5
525
331
564
  5
564
331
59B
  5
59B
331
5A3
  5
5A3
331
5E2
  5
5E2
331
4F8
  5
4F8
331
52D
  5
52D
331
56C
  5
56C
331
5AB
  5
5AB
331
5EA
  5
5EA
331
500
  5
500
331
535
  5
535
331
574
  5
574
331
650
  5
658
331
611
  5
611
331
57C
  5
57C
331
5B3
  5
5B3
331
53D
  5
53D
331
5F2
  5
5F2
331
77B
  5
783
331
6CE
  5
6D6
331
705
  5
70D
331
658
  5
660
331
68F
  5
697
331
744
  5
74C
331
619
  5
619
331
783
  5
78B
331
6D6
  5
6DE
331
70D
  5
715
331
660
  5
668
331
697
  5
69F
331
74C
  5
754
331
754
  5
75C
331
78B
  5
793
331
69F
  5
6A7
331
6DE
  5
6E6
331
629
  5
629
331
668
  5
670
331
715
  5
71D
331
71D
  5
725
331
75C
  5
764
331
6A7
  5
6AF
331
6E6
  5
6EE
331
793
  5
79B
331
508
  5
508
331
5FA
  5
5FA
331
510
  5
510
331
545
  5
545
331
584
  5
584
331
5BB
  5
5BB
331
5C3
  5
5C3
331
602
  5
602
331
518
  5
518
331
54D
  5
54D
331
58C
  5
58C
331
5CB
  5
5CB
331
60A
  5
60A
331
555
  5
555
331
594
  5
594
331
670
  5
678
331
5D3
  5
5D3
331
631
  5
631
331
55D
  5
55D
331
79B
  5
641
331
725
  5
72D
331
764
  5
76C
331
678
  5
680
331
6AF
  5
6B7
331
639
  5
639
331
6EE
  5
6F6
331
6F6
  5
6FE
331
72D
  5
735
331
641
  5
649
331
680
  5
688
331
6B7
  5
6BF
331
76C
  5
774
331
774
  5
77C
331
6BF
  5
6C7
331
649
  5
651
331
6FE
  5
706
331
735
  5
73D
331
73D
  5
745
331
6C7
  5
6CF
331
4E9
  5
4E9
331
565
  5
565
331
59C
  5
59C
331
4F1
  5
4F1
331
526
  5
526
331
5DB
  5
5DB
331
56D
  5
56D
331
5A4
  5
5A4
331
4F9
  5
4F9
331
52E
  5
52E
331
5E3
  5
5E3
331
5EB
  5
5EB
331
501
  5
501
331
536
  5
536
331
575
  5
575
331
5AC
  5
5AC
331
612
  5
612
331
5B4
  5
5B4
331
5F3
  5
5F3
331
651
  5
659
331
53E
  5
53E
331
57D
  5
57D
331
688
  5
690
331
745
  5
74D
331
77C
  5
784
331
690
  5
698
331
6CF
  5
6D7
331
61A
  5
61A
331
659
  5
661
331
706
  5
70E
331
70E
  5
716
331
74D
  5
755
331
661
  5
669
331
698
  5
6A0
331
622
  5
622
331
6D7
  5
6DF
331
784
  5
78C
331
78C
  5
794
331
6DF
  5
6E7
331
716
  5
71E
331
669
  5
671
331
6A0
  5
6A8
331
755
  5
75D
331
62A
  5
62A
331
794
  5
79C
331
6E7
  5
6EF
331
71E
  5
726
331
75D
  5
765
331
509
  5
509
331
5BC
  5
5BC
331
5FB
  5
5FB
331
511
  5
511
331
546
  5
546
331
585
  5
585
331
58D
  5
58D
331
5C4
  5
5C4
331
519
  5
519
331
54E
  5
54E
331
603
  5
603
331
60B
  5
60B
331
556
  5
556
331
595
  5
595
331
5CC
  5
5CC
331
5D4
  5
5D4
331
632
  5
632
331
55E
  5
55E
331
671
  5
679
331
6A8
  5
6B0
331
765
  5
76D
331
79C
  5
642
331
6B0
  5
6B8
331
6EF
  5
6F7
331
63A
  5
63A
331
679
  5
681
331
726
  5
72E
331
72E
  5
736
331
76D
  5
775
331
681
  5
689
331
6B8
  5
6C0
331
642
  5
64A
331
6F7
  5
6FF
331
736
  5
73E
331
775
  5
77D
331
6C0
  5
6C8
331
64A
  5
652
331
6FF
  5
707
331
73E
  5
746
331
4EA
  5
4EA
331
5DC
  5
5DC
331
4F2
  5
4F2
331
527
  5
527
331
566
  5
566
331
59D
  5
59D
331
5A5
  5
5A5
331
5E4
  5
5E4
331
4FA
  5
4FA
331
52F
  5
52F
331
56E
  5
56E
331
576
  5
576
331
5AD
  5
5AD
331
502
  5
502
331
537
  5
537
331
5EC
  5
5EC
331
652
  5
65A
331
689
  5
691
331
613
  5
613
331
6C8
  5
6D0
331
57E
  5
57E
331
5B5
  5
5B5
331
53F
  5
53F
331
5F4
  5
5F4
331
77D
  5
785
331
6D0
  5
6D8
331
707
  5
70F
331
61B
  5
61B
331
65A
  5
662
331
691
  5
699
331
746
  5
74E
331
74E
  5
756
331
785
  5
78D
331
6D8
  5
6E0
331
70F
  5
717
331
623
  5
623
331
662
  5
66A
331
699
  5
6A1
331
756
  5
75E
331
78D
  5
795
331
6A1
  5
6A9
331
6E0
  5
6E8
331
62B
  5
62B
331
66A
  5
672
331
717
  5
71F
331
71F
  5
727
331
75E
  5
766
331
795
  5
79D
331
50A
  5
50A
331
5FC
  5
5FC
331
512
  5
512
331
547
  5
547
331
586
  5
586
331
5BD
  5
5BD
331
5C5
  5
5C5
331
604
  5
604
331
51A
  5
51A
331
54F
  5
54F
331
58E
  5
58E
331
5CD
  5
5CD
331
60C
  5
60C
331
557
  5
557
331
596
  5
596
331
672
  5
67A
331
6A9
  5
6B1
331
5D5
  5
5D5
331
633
  5
633
331
6E8
  5
6F0
331
55F
  5
55F
331
79D
  5
643
331
6F0
  5
6F8
331
727
  5
72F
331
67A
  5
682
331
6B1
  5
6B9
331
766
  5
76E
331
63B
  5
63B
331
6F8
  5
700
331
72F
  5
737
331
643
  5
64B
331
682
  5
68A
331
6B9
  5
6C1
331
76E
  5
776
331
776
  5
77E
331
6C1
  5
6C9
331
64B
  5
653
331
737
  5
73F
331
73F
  5
747
331
4EB
  5
4EB
331
520
  5
520
331
567
  5
567
331
59E
  5
59E
331
4F3
  5
4F3
331
528
  5
528
331
5DD
  5
5DD
331
5E5
  5
5E5
331
56F
  5
56F
331
5A6
  5
5A6
331
4FB
  5
4FB
331
530
  5
530
331
5ED
  5
5ED
331
503
  5
503
331
538
  5
538
331
577
  5
577
331
5AE
  5
5AE
331
68A
  5
692
331
6C9
  5
6D1
331
614
  5
614
331
5B6
  5
5B6
331
5F5
  5
5F5
331
653
  5
65B
331
700
  5
708
331
57F
  5
57F
331
747
  5
74F
331
77E
  5
786
331
692
  5
69A
331
6D1
  5
6D9
331
61C
  5
61C
331
65B
  5
663
331
708
  5
710
331
710
  5
718
331
74F
  5
757
331
663
  5
66B
331
69A
  5
6A2
331
624
  5
624
331
6D9
  5
6E1
331
786
  5
78E
331
78E
  5
796
331
6E1
  5
6E9
331
718
  5
720
331
62C
  5
62C
331
66B
  5
673
331
6A2
  5
6AA
331
757
  5
75F
331
75F
  5
767
331
796
  5
79E
331
50B
  5
50B
331
540
  5
540
331
587
  5
587
331
5BE
  5
5BE
331
513
  5
513
331
548
  5
548
331
5FD
  5
5FD
331
58F
  5
58F
331
5C6
  5
5C6
331
51B
  5
51B
331
550
  5
550
331
605
  5
605
331
60D
  5
60D
331
558
  5
558
331
597
  5
597
331
5CE
  5
5CE
331
6E9
  5
6F1
331
720
  5
728
331
5D6
  5
5D6
331
634
  5
634
331
673
  5
67B
331
6AA
  5
6B2
331
767
  5
76F
331
79E
  5
644
331
6B2
  5
6BA
331
6F1
  5
6F9
331
63C
  5
63C
331
67B
  5
683
331
728
  5
730
331
730
  5
738
331
76F
  5
777
331
683
  5
68B
331
6BA
  5
6C2
331
644
  5
64C
331
6F9
  5
701
331
738
  5
740
331
6C2
  5
6CA
331
777
  5
77F
331
64C
  5
654
331
521
  5
521
331
560
  5
560
331
4EC
  5
4EC
331
5DE
  5
5DE
331
4F4
  5
4F4
331
529
  5
529
331
568
  5
568
331
59F
  5
59F
331
5A7
  5
5A7
331
5E6
  5
5E6
331
4FC
  5
4FC
331
531
  5
531
331
570
  5
570
331
578
  5
578
331
5AF
  5
5AF
331
504
  5
504
331
539
  5
539
331
5EE
  5
5EE
331
701
  5
709
331
740
  5
748
331
654
  5
65C
331
68B
  5
693
331
5F6
  5
5F6
331
5B7
  5
5B7
331
615
  5
615
331
6CA
  5
6D2
331
77F
  5
787
331
6D2
  5
6DA
331
709
  5
711
331
61D
  5
61D
331
65C
  5
664
331
693
  5
69B
331
748
  5
750
331
750
  5
758
331
787
  5
78F
331
69B
  5
6A3
331
6DA
  5
6E2
331
625
  5
625
331
664
  5
66C
331
711
  5
719
331
758
  5
760
331
78F
  5
797
331
6A3
  5
6AB
331
6E2
  5
6EA
331
62D
  5
62D
331
66C
  5
674
331
719
  5
721
331
797
  5
79F
331
580
  5
580
331
50C
  5
50C
331
541
  5
541
331
5FE
  5
5FE
331
514
  5
514
331
549
  5
549
331
588
  5
588
331
5BF
  5
5BF
331
5C7
  5
5C7
331
606
  5
606
331
51C
  5
51C
331
551
  5
551
331
590
  5
590
331
5CF
  5
5CF
331
559
  5
559
331
60E
  5
60E
331
721
  5
729
331
760
  5
768
331
674
  5
67C
331
6AB
  5
6B3
331
5D7
  5
5D7
331
635
  5
635
331
6EA
  5
6F2
331
79F
  5
645
331
6F2
  5
6FA
331
729
  5
731
331
67C
  5
684
331
6B3
  5
6BB
331
768
  5
770
331
770
  5
778
331
6FA
  5
702
331
731
  5
739
331
645
  5
64D
331
684
  5
68C
331
6BB
  5
6C3
331
6C3
  5
6CB
331
64D
  5
655
331
739
  5
741
331
598
  5
598
331
4ED
  5
4ED
331
522
  5
522
331
561
  5
561
331
569
  5
569
331
5A0
  5
5A0
331
4F5
  5
4F5
331
52A
  5
52A
331
5DF
  5
5DF
331
5E7
  5
5E7
331
532
  5
532
331
571
  5
571
331
5A8
  5
5A8
331
4FD
  5
4FD
331
5EF
  5
5EF
331
505
  5
505
331
53A
  5
53A
331
579
  5
579
331
5B0
  5
5B0
331
741
  5
749
331
778
  5
780
331
68C
  5
694
331
6CB
  5
6D3
331
616
  5
616
331
5F7
  5
5F7
331
655
  5
65D
331
702
  5
70A
331
70A
  5
712
331
749
  5
751
331
694
  5
69C
331
6D3
  5
6DB
331
780
  5
788
331
61E
  5
61E
331
65D
  5
665
331
712
  5
71A
331
751
  5
759
331
665
  5
66D
331
69C
  5
6A4
331
626
  5
626
331
6DB
  5
6E3
331
788
  5
790
331
790
  5
798
331
6E3
  5
6EB
331
71A
  5
722
331
62E
  5
62E
331
66D
  5
675
331
6A4
  5
6AC
331
759
  5
761
331
5B8
  5
5B8
331
50D
  5
50D
331
542
  5
542
331
581
  5
581
331
589
  5
589
331
5C0
  5
5C0
331
515
  5
515
331
54A
  5
54A
331
5FF
  5
5FF
331
607
  5
607
331
591
  5
591
331
5C8
  5
5C8
331
51D
  5
51D
331
552
  5
552
331
60F
  5
60F
331
55A
  5
55A
331
5D0
  5
5D0
331
761
  5
769
331
798
  5
63E
331
6AC
  5
6B4
331
6EB
  5
6F3
331
636
  5
636
331
675
  5
67D
331
722
  5
72A
331
769
  5
771
331
6B4
  5
6BC
331
6F3
  5
6FB
331
63E
  5
646
331
67D
  5
685
331
72A
  5
732
331
732
  5
73A
331
771
  5
779
331
685
  5
68D
331
6BC
  5
6C4
331
646
  5
64E
331
6FB
  5
703
331
73A
  5
742
331
64E
  5
656
331
6C4
  5
6CC
331
5D8
  5
5D8
331
4EE
  5
4EE
331
523
  5
523
331
562
  5
562
331
599
  5
599
331
5A1
  5
5A1
331
5E0
  5
5E0
331
4F6
  5
4F6
331
52B
  5
52B
331
56A
  5
56A
331
5A9
  5
5A9
331
5E8
  5
5E8
331
4FE
  5
4FE
331
533
  5
533
331
572
  5
572
331
57A
  5
57A
331
5B1
  5
5B1
331
506
  5
506
331
53B
  5
53B
331
5F0
  5
5F0
331
779
  5
781
331
703
  5
70B
331
742
  5
74A
331
656
  5
65E
331
68D
  5
695
331
617
  5
617
331
6CC
  5
6D4
331
781
  5
789
331
6D4
  5
6DC
331
70B
  5
713
331
61F
  5
61F
331
65E
  5
666
331
695
  5
69D
331
74A
  5
752
331
752
  5
75A
331
789
  5
791
331
69D
  5
6A5
331
6DC
  5
6E4
331
627
  5
627
331
666
  5
66E
331
713
  5
71B
331
71B
  5
723
331
75A
  5
762
331
6A5
  5
6AD
331
6E4
  5
6EC
331
791
  5
799
331
62F
  5
62F
331
66E
  5
676
331
5F8
  5
5F8
331
543
  5
543
331
582
  5
582
331
5B9
  5
5B9
331
50E
  5
50E
331
600
  5
600
331
516
  5
516
331
54B
  5
54B
331
58A
  5
58A
331
5C1
  5
5C1
331
5C9
  5
5C9
331
608
  5
608
331
51E
  5
51E
331
553
  5
553
331
592
  5
592
331
5D1
  5
5D1
331
55B
  5
55B
331
723
  5
72B
331
762
  5
76A
331
676
  5
67E
331
6AD
  5
6B5
331
637
  5
637
331
6EC
  5
6F4
331
799
  5
63F
331
6F4
  5
6FC
331
72B
  5
733
331
63F
  5
647
331
67E
  5
686
331
6B5
  5
6BD
331
76A
  5
772
331
772
  5
77A
331
6BD
  5
6C5
331
6FC
  5
704
331
647
  5
64F
331
686
  5
68E
331
733
  5
73B
331
6C5
  5
6CD
331
64F
  5
657
331
73B
  5
743
331
59A
  5
59A
331
5D9
  5
5D9
331
4EF
  5
4EF
331
524
  5
524
331
563
  5
563
331
56B
  5
56B
331
5A2
  5
5A2
331
4F7
  5
4F7
331
52C
  5
52C
331
5E1
  5
5E1
331
5E9
  5
5E9
331
4FF
  5
4FF
331
534
  5
534
331
573
  5
573
331
5AA
  5
5AA
331
610
  5
610
331
5B2
  5
5B2
331
5F1
  5
5F1
331
507
  5
507
331
53C
  5
53C
331
57B
  5
57B
331
743
  5
74B
331
77A
  5
782
331
68E
  5
696
331
6CD
  5
6D5
331
618
  5
618
331
657
  5
65F
331
704
  5
70C
331
70C
  5
714
331
74B
  5
753
331
65F
  5
667
331
696
  5
69E
331
620
  5
620
331
6D5
  5
6DD
331
782
  5
78A
331
78A
  5
792
331
714
  5
71C
331
753
  5
75B
331
667
  5
66F
331
69E
  5
6A6
331
628
  5
628
331
6DD
  5
6E5
331
792
  5
79A
331
6E5
  5
6ED
331
71C
  5
724
331
66F
  5
677
331
6A6
  5
6AE
331
75B
  5
763
331
5BA
  5
5BA
331
5F9
  5
5F9
331
50F
  5
50F
331
544
  5
544
331
583
  5
583
331
58B
  5
58B
331
5C2
  5
5C2
331
517
  5
517
331
54C
  5
54C
331
601
  5
601
331
609
  5
609
331
554
  5
554
331
593
  5
593
331
5CA
  5
5CA
331
51F
  5
51F
331
630
  5
630
331
55C
  5
55C
331
5D2
  5
5D2
331
763
  5
76B
331
79A
  5
640
331
6AE
  5
6B6
331
6ED
  5
6F5
331
638
  5
638
331
677
  5
67F
331
724
  5
72C
  0
LAYOUT
  5
22
102
{ACAD_XDICTIONARY
360
856
102
}
102
{ACAD_REACTORS
330
1A
102
}
330
1A
100
AcDbPlotSettings
  1

  2

  4

  6

 40
0.0
 41
0.0
 42
0.0
 43
0.0
 44
0.0
 45
0.0
 46
0.0
 47
0.0
 48
0.0
 49
0.0
140
0.0
141
0.0
142
1.0
143
1.0
 70
  1712
 72
     0
 73
     0
 74
     0
  7

 75
     0
147
1.0
148
0.0
149
0.0
100
AcDbLayout
  1
Model
 70
     1
 71
     0
 10
0.0
 20
0.0
 11
12.0
 21
9.0
 12
0.0
 22
0.0
 32
0.0
 14
0.0
 24
0.0
 34
0.0
 15
0.0
 25
0.0
 35
0.0
146
0.0
 13
0.0
 23
0.0
 33
0.0
 16
1.0
 26
0.0
 36
0.0
 17
0.0
 27
1.0
 37
0.0
 76
     0
330
1F
  0
LAYOUT
  5
1E
102
{ACAD_XDICTIONARY
360
854
102
}
102
{ACAD_REACTORS
330
1A
102
}
330
1A
100
AcDbPlotSettings
  1

  2

  4

  6

 40
0.0
 41
0.0
 42
0.0
 43
0.0
 44
0.0
 45
0.0
 46
0.0
 47
0.0
 48
0.0
 49
0.0
140
0.0
141
0.0
142
1.0
143
1.0
 70
   688
 72
     0
 73
     0
 74
     5
  7

 75
    16
147
1.0
148
0.0
149
0.0
100
AcDbLayout
  1
レイアウト1
 70
     1
 71
     1
 10
0.0
 20
0.0
 11
420.0
 21
297.0
 12
0.0
 22
0.0
 32
0.0
 14
1.000000000000000E+20
 24
1.000000000000000E+20
 34
1.000000000000000E+20
 15
-1.000000000000000E+20
 25
-1.000000000000000E+20
 35
-1.000000000000000E+20
146
0.0
 13
0.0
 23
0.0
 33
0.0
 16
1.0
 26
0.0
 36
0.0
 17
0.0
 27
1.0
 37
0.0
 76
     0
330
1B
  0
LAYOUT
  5
26
102
{ACAD_XDICTIONARY
360
858
102
}
102
{ACAD_REACTORS
330
1A
102
}
330
1A
100
AcDbPlotSettings
  1

  2

  4

  6

 40
0.0
 41
0.0
 42
0.0
 43
0.0
 44
0.0
 45
0.0
 46
0.0
 47
0.0
 48
0.0
 49
0.0
140
0.0
141
0.0
142
1.0
143
1.0
 70
   688
 72
     0
 73
     0
 74
     5
  7

 75
    16
147
1.0
148
0.0
149
0.0
100
AcDbLayout
  1
レイアウト2
 70
     1
 71
     2
 10
0.0
 20
0.0
 11
12.0
 21
9.0
 12
0.0
 22
0.0
 32
0.0
 14
0.0
 24
0.0
 34
0.0
 15
0.0
 25
0.0
 35
0.0
146
0.0
 13
0.0
 23
0.0
 33
0.0
 16
1.0
 26
0.0
 36
0.0
 17
0.0
 27
1.0
 37
0.0
 76
     0
330
23
  0
MLINESTYLE
  5
18
102
{ACAD_REACTORS
330
17
102
}
330
17
100
AcDbMlineStyle
  2
STANDARD
 70
     0
  3

 62
   256
 51
90.0
 52
90.0
 71
     2
 49
0.5
 62
   256
  6
BYLAYER
 49
-0.5
 62
   256
  6
BYLAYER
  0
ACDBPLACEHOLDER
  5
F
102
{ACAD_REACTORS
330
E
102
}
330
E
  0
TABLESTYLE
  5
11B
102
{ACAD_REACTORS
330
11A
102
}
330
11A
100
AcDbTableStyle
  3
Standard
 70
     0
 71
     0
 40
1.5
 41
1.5
280
     0
281
     0
  7
STANDARD
140
4.5
170
     2
 62
     0
 63
     7
283
     0
274
    -2
284
     1
 64
     0
275
    -2
285
     1
 65
     0
276
    -2
286
     1
 66
     0
277
    -2
287
     1
 67
     0
278
    -2
288
     1
 68
     0
279
    -2
289
     1
 69
     0
  7
STANDARD
140
6.0
170
     5
 62
     0
 63
     7
283
     0
274
    -2
284
     1
 64
     0
275
    -2
285
     1
 65
     0
276
    -2
286
     1
 66
     0
277
    -2
287
     1
 67
     0
278
    -2
288
     1
 68
     0
279
    -2
289
     1
 69
     0
  7
STANDARD
140
4.5
170
     5
 62
     0
 63
     7
283
     0
274
    -2
284
     1
 64
     0
275
    -2
285
     1
 65
     0
276
    -2
286
     1
 66
     0
277
    -2
287
     1
 67
     0
278
    -2
288
     1
 68
     0
279
    -2
289
     1
 69
     0
  0
DICTIONARYVAR
  5
138
102
{ACAD_REACTORS
330
94
102
}
330
94
100
DictionaryVariables
280
     0
  1
STANDARD
  0
DICTIONARYVAR
  5
96
102
{ACAD_REACTORS
330
94
102
}
330
94
100
DictionaryVariables
280
     0
  1
2
  0
DICTIONARYVAR
  5
95
102
{ACAD_REACTORS
330
94
102
}
330
94
100
DictionaryVariables
280
     0
  1
0
  0
DICTIONARYVAR
  5
7AE
102
{ACAD_REACTORS
330
94
102
}
330
94
100
DictionaryVariables
280
     0
  1

  0
DICTIONARY
  5
1B5
102
{ACAD_REACTORS
330
5B
102
}
330
5B
100
AcDbDictionary
281
     1
  0
DICTIONARY
  5
61
102
{ACAD_REACTORS
330
5B
102
}
330
5B
100
AcDbDictionary
281
     1
  0
XRECORD
  5
123
102
{ACAD_REACTORS
330
5B
102
}
330
5B
100
AcDbXrecord
280
     1
 90
-1023410169
  0
DICTIONARY
  5
856
330
22
100
AcDbDictionary
280
     1
281
     1
  3
ACAD_XREC_ROUNDTRIP
360
857
  0
DICTIONARY
  5
854
330
1E
100
AcDbDictionary
280
     1
281
     1
  3
ACAD_XREC_ROUNDTRIP
360
855
  0
DICTIONARY
  5
858
330
26
100
AcDbDictionary
280
     1
281
     1
  3
ACAD_XREC_ROUNDTRIP
360
859
  0
XRECORD
  5
857
102
{ACAD_REACTORS
330
856
102
}
330
856
100
AcDbXrecord
280
     1
102
SHADEPLOT
 70
     0
102
SHADEPLOTRESLEVEL
 70
     2
102
SHADEPLOTCUSTOMDPI
 70
   300
  0
XRECORD
  5
855
102
{ACAD_REACTORS
330
854
102
}
330
854
100
AcDbXrecord
280
     1
102
SHADEPLOT
 70
     0
102
SHADEPLOTRESLEVEL
 70
     2
102
SHADEPLOTCUSTOMDPI
 70
   300
  0
XRECORD
  5
859
102
{ACAD_REACTORS
330
858
102
}
330
858
100
AcDbXrecord
280
     1
102
SHADEPLOT
 70
     0
102
SHADEPLOTRESLEVEL
 70
     2
102
SHADEPLOTCUSTOMDPI
 70
   300
  0
ENDSEC
  0
EOF
