  0
SECTION
  2
HEADER
  9
$ACADVER
  1
AC1015
  9
$ACADMAINTVER
 70
    20
  9
$DWGCODEPAGE
  3
ANSI_932
  9
$INSBASE
 10
0.0
 20
0.0
 30
0.0
  9
$EXTMIN
 10
-0.3140086676994542
 20
-0.3126820443283123
 30
-0.0000000349181948
  9
$EXTMAX
 10
383.4222340550707
 20
258.309836022108
 30
0.0000000814935747
  9
$LIMMIN
 10
0.0
 20
0.0
  9
$LIMMAX
 10
420.0
 20
297.0
  9
$ORTHOMODE
 70
     0
  9
$REGENMODE
 70
     1
  9
$FILLMODE
 70
     1
  9
$QTEXTMODE
 70
     0
  9
$MIRRTEXT
 70
     1
  9
$LTSCALE
 40
1.0
  9
$ATTMODE
 70
     1
  9
$TEXTSIZE
 40
1.0
  9
$TRACEWID
 40
1.0
  9
$TEXTSTYLE
  7
ACISOTS
  9
$CLAYER
  8
AM_0
  9
$CELTYPE
  6
ByLayer
  9
$CECOLOR
 62
   256
  9
$CELTSCALE
 40
1.0
  9
$DISPSILH
 70
     0
  9
$DIMSCALE
 40
1.0
  9
$DIMASZ
 40
2.5
  9
$DIMEXO
 40
1.0
  9
$DIMDLI
 40
10.0
  9
$DIMRND
 40
0.0
  9
$DIMDLE
 40
0.0
  9
$DIMEXE
 40
1.0
  9
$DIMTP
 40
0.1
  9
$DIMTM
 40
0.1
  9
$DIMTXT
 40
3.5
  9
$DIMCEN
 40
0.0
  9
$DIMTSZ
 40
0.0
  9
$DIMTOL
 70
     0
  9
$DIMLIM
 70
     0
  9
$DIMTIH
 70
     0
  9
$DIMTOH
 70
     0
  9
$DIMSE1
 70
     0
  9
$DIMSE2
 70
     0
  9
$DIMTAD
 70
     1
  9
$DIMZIN
 70
     8
  9
$DIMBLK
  1

  9
$DIMASO
 70
     1
  9
$DIMSHO
 70
     1
  9
$DIMPOST
  1

  9
$DIMAPOST
  1
"
  9
$DIMALT
 70
     0
  9
$DIMALTD
 70
     2
  9
$DIMALTF
 40
0.0393701
  9
$DIMLFAC
 40
1.0
  9
$DIMTOFL
 70
     1
  9
$DIMTVP
 40
0.0
  9
$DIMTIX
 70
     0
  9
$DIMSOXD
 70
     0
  9
$DIMSAH
 70
     0
  9
$DIMBLK1
  1

  9
$DIMBLK2
  1

  9
$DIMSTYLE
  2
AM_ISO
  9
$DIMCLRD
 70
   256
  9
$DIMCLRE
 70
   256
  9
$DIMCLRT
 70
     2
  9
$DIMTFAC
 40
0.71
  9
$DIMGAP
 40
1.5
  9
$DIMJUST
 70
     0
  9
$DIMSD1
 70
     0
  9
$DIMSD2
 70
     0
  9
$DIMTOLJ
 70
     0
  9
$DIMTZIN
 70
     8
  9
$DIMALTZ
 70
     0
  9
$DIMALTTZ
 70
     0
  9
$DIMUPT
 70
     0
  9
$DIMDEC
 70
     2
  9
$DIMTDEC
 70
     3
  9
$DIMALTU
 70
     2
  9
$DIMALTTD
 70
     4
  9
$DIMTXSTY
  7
STANDARD
  9
$DIMAUNIT
 70
     0
  9
$DIMADEC
 70
     0
  9
$DIMALTRND
 40
0.0
  9
$DIMAZIN
 70
     2
  9
$DIMDSEP
 70
    46
  9
$DIMATFIT
 70
     3
  9
$DIMFRAC
 70
     0
  9
$DIMLDRBLK
  1

  9
$DIMLUNIT
 70
     2
  9
$DIMLWD
 70
    -1
  9
$DIMLWE
 70
    -1
  9
$DIMTMOVE
 70
     0
  9
$LUNITS
 70
     2
  9
$LUPREC
 70
     2
  9
$SKETCHINC
 40
1.0
  9
$FILLETRAD
 40
2.5
  9
$AUNITS
 70
     0
  9
$AUPREC
 70
     0
  9
$MENU
  1
.
  9
$ELEVATION
 40
0.0
  9
$PELEVATION
 40
0.0
  9
$THICKNESS
 40
0.0
  9
$LIMCHECK
 70
     0
  9
$CHAMFERA
 40
2.5
  9
$CHAMFERB
 40
2.5
  9
$CHAMFERC
 40
20.0
  9
$CHAMFERD
 40
0.0
  9
$SKPOLY
 70
     0
  9
$TDCREATE
 40
2456406.670529699
  9
$TDUCREATE
 40
2456406.295529699
  9
$TDUPDATE
 40
2456406.679119491
  9
$TDUUPDATE
 40
2456406.304119491
  9
$TDINDWG
 40
0.0019402546
  9
$TDUSRTIMER
 40
0.0019274074
  9
$USRTIMER
 70
     1
  9
$ANGBASE
 50
0.0
  9
$ANGDIR
 70
     0
  9
$PDMODE
 70
     0
  9
$PDSIZE
 40
0.0
  9
$PLINEWID
 40
0.0
  9
$SPLFRAME
 70
     0
  9
$SPLINETYPE
 70
     6
  9
$SPLINESEGS
 70
     8
  9
$HANDSEED
  5
AEF
  9
$SURFTAB1
 70
     6
  9
$SURFTAB2
 70
     6
  9
$SURFTYPE
 70
     6
  9
$SURFU
 70
     6
  9
$SURFV
 70
     6
  9
$UCSBASE
  2

  9
$UCSNAME
  2

  9
$UCSORG
 10
0.0
 20
0.0
 30
0.0
  9
$UCSXDIR
 10
1.0
 20
0.0
 30
0.0
  9
$UCSYDIR
 10
0.0
 20
1.0
 30
0.0
  9
$UCSORTHOREF
  2

  9
$UCSORTHOVIEW
 70
     0
  9
$UCSORGTOP
 10
0.0
 20
0.0
 30
0.0
  9
$UCSORGBOTTOM
 10
0.0
 20
0.0
 30
0.0
  9
$UCSORGLEFT
 10
0.0
 20
0.0
 30
0.0
  9
$UCSORGRIGHT
 10
0.0
 20
0.0
 30
0.0
  9
$UCSORGFRONT
 10
0.0
 20
0.0
 30
0.0
  9
$UCSORGBACK
 10
0.0
 20
0.0
 30
0.0
  9
$PUCSBASE
  2

  9
$PUCSNAME
  2

  9
$PUCSORG
 10
0.0
 20
0.0
 30
0.0
  9
$PUCSXDIR
 10
1.0
 20
0.0
 30
0.0
  9
$PUCSYDIR
 10
0.0
 20
1.0
 30
0.0
  9
$PUCSORTHOREF
  2

  9
$PUCSORTHOVIEW
 70
     0
  9
$PUCSORGTOP
 10
0.0
 20
0.0
 30
0.0
  9
$PUCSORGBOTTOM
 10
0.0
 20
0.0
 30
0.0
  9
$PUCSORGLEFT
 10
0.0
 20
0.0
 30
0.0
  9
$PUCSORGRIGHT
 10
0.0
 20
0.0
 30
0.0
  9
$PUCSORGFRONT
 10
0.0
 20
0.0
 30
0.0
  9
$PUCSORGBACK
 10
0.0
 20
0.0
 30
0.0
  9
$USERI1
 70
     0
  9
$USERI2
 70
     0
  9
$USERI3
 70
     0
  9
$USERI4
 70
     0
  9
$USERI5
 70
     0
  9
$USERR1
 40
0.0
  9
$USERR2
 40
0.0
  9
$USERR3
 40
0.0
  9
$USERR4
 40
0.0
  9
$USERR5
 40
0.0
  9
$WORLDVIEW
 70
     1
  9
$SHADEDGE
 70
     3
  9
$SHADEDIF
 70
    70
  9
$TILEMODE
 70
     1
  9
$MAXACTVP
 70
    64
  9
$PINSBASE
 10
0.0
 20
0.0
 30
0.0
  9
$PLIMCHECK
 70
     0
  9
$PEXTMIN
 10
1.000000000000000E+20
 20
1.000000000000000E+20
 30
1.000000000000000E+20
  9
$PEXTMAX
 10
-1.000000000000000E+20
 20
-1.000000000000000E+20
 30
-1.000000000000000E+20
  9
$PLIMMIN
 10
0.0
 20
0.0
  9
$PLIMMAX
 10
420.0
 20
297.0
  9
$UNITMODE
 70
     0
  9
$VISRETAIN
 70
     1
  9
$PLINEGEN
 70
     0
  9
$PSLTSCALE
 70
     1
  9
$TREEDEPTH
 70
  3020
  9
$CMLSTYLE
  2
Standard
  9
$CMLJUST
 70
     0
  9
$CMLSCALE
 40
20.0
  9
$PROXYGRAPHICS
 70
     1
  9
$MEASUREMENT
 70
     1
  9
$CELWEIGHT
370
    -1
  9
$ENDCAPS
280
     0
  9
$JOINSTYLE
280
     0
  9
$LWDISPLAY
290
     0
  9
$INSUNITS
 70
     4
  9
$HYPERLINKBASE
  1

  9
$STYLESHEET
  1

  9
$XEDIT
290
     1
  9
$CEPSNTYPE
380
     0
  9
$PSTYLEMODE
290
     1
  9
$FINGERPRINTGUID
  2
{55421524-8749-4823-B99A-50F976FA9DD2}
  9
$VERSIONGUID
  2
{3FA30313-C0E4-4DB9-A410-D9576E19EF26}
  9
$EXTNAMES
290
     1
  9
$PSVPSCALE
 40
0.0
  9
$OLESTARTUP
290
     0
  0
ENDSEC
  0
SECTION
  2
CLASSES
  0
CLASS
  1
ACDBDICTIONARYWDFLT
  2
AcDbDictionaryWithDefault
  3
ObjectDBX Classes
 90
        0
280
     0
281
     0
  0
CLASS
  1
ACDBPLACEHOLDER
  2
AcDbPlaceHolder
  3
ObjectDBX Classes
 90
        0
280
     0
281
     0
  0
CLASS
  1
LAYOUT
  2
AcDbLayout
  3
ObjectDBX Classes
 90
        0
280
     0
281
     0
  0
CLASS
  1
ACME_DOCUMENT
  2
AcMeDbDoc
  3
AcMeServices
 90
        0
280
     0
281
     0
  0
CLASS
  1
AMGSETTINGSOBJ
  2
AmgSettingsObj
  3
"AcadM|Product Description: AutoCAD Mechanical 2000|Company: Autodesk"
 90
        0
280
     0
281
     0
  0
CLASS
  1
ACMESCOPE
  2
AcMeScope
  3
AcMeServices
 90
        0
280
     0
281
     0
  0
CLASS
  1
ACMECOMMANDHISTORY
  2
AcMeCommandHistory
  3
AcMeServices
 90
        0
280
     0
281
     0
  0
CLASS
  1
ACIMSYSVARMAN
  2
AcImSysVarManager
  3
AcMeServices
 90
        0
280
     0
281
     0
  0
CLASS
  1
ACIMREALSYSVAR
  2
AcImRealSysVar
  3
AcMeServices
 90
        0
280
     0
281
     0
  0
CLASS
  1
ACIMINTSYSVAR
  2
AcImIntSysVar
  3
AcMeServices
 90
        0
280
     0
281
     0
  0
CLASS
  1
ACMEDRAWINGMAN
  2
AcMeDrawingMan
  3
AcMeServices
 90
        0
280
     0
281
     0
  0
CLASS
  1
ACMEVIEW
  2
AcMeView
  3
AcMeServices
 90
        0
280
     0
281
     0
  0
CLASS
  1
ACDBENTITYCACHE
  2
AcMeEntityCache
  3
AcMeServices
 90
        0
280
     0
281
     0
  0
CLASS
  1
GSMANAGER
  2
AcMeGSManager
  3
AcMeServices
 90
        0
280
     0
281
     0
  0
CLASS
  1
AMDTINTERNALREACTOR
  2
AmdtInternalReactor
  3
AcMeServices
 90
        0
280
     0
281
     0
  0
CLASS
  1
ACMESTATEMGR
  2
AcMeStateMgr
  3
AcMeServices
 90
        0
280
     0
281
     0
  0
CLASS
  1
ACGREFMASTER
  2
AcGrefMaster
  3
AcAttribServices
 90
        0
280
     0
281
     0
  0
CLASS
  1
ACME_DATABASE
  2
AcMeDbDatabase
  3
AcMeServices
 90
        0
280
     0
281
     0
  0
CLASS
  1
ACRFINSADJUSTERMGR
  2
AcRfInsAdjusterMgr
  3
AcMeServices
 90
        0
280
     0
281
     0
  0
CLASS
  1
ACGREFACADMASTER
  2
AcGrefacadMaster
  3
AcGrefServices
 90
        0
280
     0
281
     0
  0
CLASS
  1
AMIMASTER
  2
AmiMaster
  3
AmiServices
 90
        0
280
     0
281
     0
  0
CLASS
  1
ACMDATADICTIONARY
  2
AcmDataDictionary
  3
"AcmSymBB|Product Description: AutoCAD Mechanical 2004 DX|Company: Autodesk"
 90
        0
280
     0
281
     0
  0
CLASS
  1
ACMDATAENTRYBLOCK
  2
AcmDataEntryBlock
  3
"AcmSymBB|Product Description: AutoCAD Mechanical 2004 DX|Company: Autodesk"
 90
    32768
280
     0
281
     0
  0
CLASS
  1
ACIMSTRSYSVAR
  2
AcImStrSysVar
  3
AcMeServices
 90
        0
280
     0
281
     0
  0
CLASS
  1
ACMSTANDARDISO
  2
AcmStandardISO
  3
"Amdt_StdImp|Product Description: AutoCAD Mechanical 2004 DX|Company: Autodesk"
 90
    32768
280
     0
281
     0
  0
CLASS
  1
AMGOBJPROPCFG
  2
AmgObjPropCfg
  3
"AmgLay|Product Description: AutoCAD Mechanical 2000|Company: Autodesk"
 90
        1
280
     0
281
     0
  0
CLASS
  1
AMDTEDGESTANDARDISO
  2
AmdtEdgeStdISO
  3
"Amdt_StdImp|Product Description: AutoCAD Mechanical 2004 DX|Company: Autodesk"
 90
    32768
280
     0
281
     0
  0
CLASS
  1
ACMSURFSTANDARDISO
  2
AcmSurfTextStdISO
  3
"Amdt_StdImp|Product Description: AutoCAD Mechanical 2004 DX|Company: Autodesk"
 90
    32768
280
     0
281
     0
  0
CLASS
  1
ACMFCFSTANDARDISO
  2
AcmFCFStdISO
  3
"Amdt_StdImp|Product Description: AutoCAD Mechanical 2004 DX|Company: Autodesk"
 90
    32768
280
     0
281
     0
  0
CLASS
  1
ACMWELDSTANDARDISO
  2
AcmWeldingStdISO
  3
"Amdt_StdImp|Product Description: AutoCAD Mechanical 2004 DX|Company: Autodesk"
 90
    32768
280
     0
281
     0
  0
CLASS
  1
ACMIDSTANDARDISO
  2
AcmIdStdISO
  3
"Amdt_StdImp|Product Description: AutoCAD Mechanical 2004 DX|Company: Autodesk"
 90
    32768
280
     0
281
     0
  0
CLASS
  1
ACMDATUMSTANDARDISO
  2
AcmDatumStdISO
  3
"Amdt_StdImp|Product Description: AutoCAD Mechanical 2004 DX|Company: Autodesk"
 90
    32768
280
     0
281
     0
  0
CLASS
  1
ACMBOMSTANDARDISO
  2
AcmBOMStdISO
  3
"Amdt_StdImp|Product Description: AutoCAD Mechanical 2004 DX|Company: Autodesk"
 90
    32768
280
     0
281
     0
  0
CLASS
  1
ACMDETAILSTANDARDISO
  2
AmdtDetailSymStdISO
  3
"Amdt_StdImp|Product Description: AutoCAD Mechanical 2004 DX|Company: Autodesk"
 90
    32768
280
     0
281
     0
  0
CLASS
  1
ACMSECTIONSTANDARDISO
  2
AmdtSectionSymStdISO
  3
"Amdt_StdImp|Product Description: AutoCAD Mechanical 2004 DX|Company: Autodesk"
 90
    32768
280
     0
281
     0
  0
CLASS
  1
ACMCENTERLINESTANDARDISO
  2
AmdtCenterLineStdISO
  3
"Amdt_StdImp|Product Description: AutoCAD Mechanical 2004 DX|Company: Autodesk"
 90
    32768
280
     0
281
     0
  0
CLASS
  1
ACMNOTESTANDARDISO
  2
AmdtNoteStdISO
  3
"Amdt_StdImp|Product Description: AutoCAD Mechanical 2004 DX|Company: Autodesk"
 90
    32768
280
     0
281
     0
  0
CLASS
  1
ACAMGLAYSTD
  2
AcAmgLayStd
  3
"AcAmgLayStd|Product Description: AutoCAD Mechanical 2000|Company: Autodesk"
 90
        0
280
     0
281
     0
  0
CLASS
  1
ACAMGDIMSTD
  2
AcAmgDimStd
  3
"AcAmgDimStd|Product Description: AutoCAD Mechanical 2000|Company: Autodesk"
 90
        0
280
     0
281
     0
  0
CLASS
  1
ACAMGHOLECHARTSTDISO
  2
AcAmgHoleChartStdISO
  3
ACMSYMBB_MODULE_NAME
 90
    32768
280
     0
281
     0
  0
CLASS
  1
ACAMGTITLESTD
  2
AcAmgTitleStd
  3
"TITLEAPP"
 90
        0
280
     0
281
     0
  0
CLASS
  1
LAYER_INDEX
  2
AcDbLayerIndex
  3
ObjectDBX Classes
 90
    32768
280
     0
281
     0
  0
CLASS
  1
IDBUFFER
  2
AcDbIdBuffer
  3
ObjectDBX Classes
 90
    32768
280
     0
281
     0
  0
CLASS
  1
DICTIONARYVAR
  2
AcDbDictionaryVar
  3
ObjectDBX Classes
 90
        0
280
     0
281
     0
  0
CLASS
  1
AM_DRAWING_MGR
  2
AcDmDwgMgr
  3
AcMechDwgViewMgmt
 90
        0
280
     0
281
     0
  0
CLASS
  1
AM_DWG_DOCUMENT
  2
AcDmDwgDocument
  3
AcMechDwgViewMgmt
 90
        0
280
     0
281
     0
  0
CLASS
  1
AM_DWG_SHEET
  2
AcDmSheet
  3
AcMechDwgViewMgmt
 90
        0
280
     0
281
     0
  0
CLASS
  1
AM_VIEWDIMPARMAP
  2
AcDmViewDimParMap
  3
AcMechDwgViewMgmt
 90
        0
280
     0
281
     0
  0
CLASS
  1
AM_DWGMGR_NAME
  2
AcDmDwgMgrName
  3
AcMechDwgViewMgmt
 90
        0
280
     0
281
     0
  0
CLASS
  1
AMDTMENUSTATEMGR
  2
AmdtMenuStateMgr
  3
McadcomServices
 90
        0
280
     0
281
     0
  0
CLASS
  1
AMDTMCOMMENUSTATE
  2
AmdtMcomMenuState
  3
McadcomServices
 90
        0
280
     0
281
     0
  0
CLASS
  1
MAPIAMMOUDLE
  2
MApiAmModule
  3
MApiAmServices
 90
        0
280
     0
281
     0
  0
CLASS
  1
AMDTADMENUSTATE
  2
AmdtAdMenuState
  3
DesignerServices
 90
        0
280
     0
281
     0
  0
CLASS
  1
ADAPPL
  2
AcAdAppl
  3
DesignerServices
 90
        0
280
     0
281
     0
  0
CLASS
  1
DEPMGR
  2
AcAdDepMgr
  3
DesignerServices
 90
        0
280
     0
281
     0
  0
CLASS
  1
PARAMMGR
  2
AcAdParamMgr
  3
DesignerServices
 90
        0
280
     0
281
     0
  0
CLASS
  1
PARAMSCOPE
  2
AcAdParamScope
  3
DesignerServices
 90
        0
280
     0
281
     0
  0
CLASS
  1
NAMEDAPPL
  2
AcAdNamedAppl
  3
DesignerServices
 90
        0
280
     0
281
     0
  0
CLASS
  1
AMDTDMMENUSTATE
  2
AmdtDmMenuState
  3
AcMechDwgViewMgmt
 90
        0
280
     0
281
     0
  0
CLASS
  1
AMDTAMMENUSTATE
  2
AmdtAmMenuState
  3
DesignerAssemblies
 90
        0
280
     0
281
     0
  0
CLASS
  1
ACAMPROJECT
  2
AcAmProject
  3
DesignerAssemblies
 90
        0
280
     0
281
     0
  0
CLASS
  1
ACAMGRCOMPDEF
  2
AcAmGrCompDef
  3
DesignerAssemblies
 90
        0
280
     0
281
     0
  0
CLASS
  1
ACCMCONTEXT
  2
AcCmContext
  3
DesignerAssemblies
 90
        0
280
     0
281
     0
  0
CLASS
  1
ACAMCOMPDEF
  2
AcAmCompDef
  3
DesignerAssemblies
 90
        0
280
     0
281
     0
  0
CLASS
  1
ACAMCOMPDEFMGR
  2
AcAmCompDefMgr
  3
DesignerAssemblies
 90
        0
280
     0
281
     0
  0
CLASS
  1
AMCONTEXTMGR
  2
AcAmContextMgr
  3
DesignerAssemblies
 90
        0
280
     0
281
     0
  0
CLASS
  1
ACAMCONTEXTMODELER
  2
AcAmContextModeler
  3
DesignerAssemblies
 90
        0
280
     0
281
     0
  0
CLASS
  1
ACMTHREADLINESTANDARDISO
  2
AmdtThreadLineStdISO
  3
"Amdt_StdImp|Product Description: AutoCAD Mechanical 2004 DX|Company: Autodesk"
 90
    32768
280
     0
281
     0
  0
CLASS
  1
CATALOGSTATE
  2
AcAmCatalogState
  3
DesignerAssemblies
 90
        0
280
     0
281
     0
  0
CLASS
  1
ACAMGRCOMPDEFSET
  2
AcAmGrCompDefSet
  3
DesignerAssemblies
 90
        0
280
     0
281
     0
  0
CLASS
  1
AMDTBROWSERDBTAB
  2
AmdtBrowserDbTab
  3
McadcomServices
 90
        0
280
     0
281
     0
  0
CLASS
  1
CBROWSERAPPOBJECT
  2
CBrowserAppObject
  3
McadcomServices
 90
        0
280
     0
281
     0
  0
CLASS
  1
DM_PLACEHOLDER
  2
AcDmSelsetPlaceholder
  3
AcMechDwgViewMgmt
 90
        0
280
     0
281
     0
  0
CLASS
  1
TABLESTYLE
  2
AcDbTableStyle
  3
ObjectDBX Classes
 90
     2047
280
     0
281
     0
  0
CLASS
  1
VAACXREFPANELOBJECT
  2
VaAcXREFPanelObject
  3
VAAC_ADDIN
 90
    32768
280
     0
281
     0
  0
CLASS
  1
VAACIMAGEINVENTORY
  2
VaAcImageInventory
  3
VAAC_ADDIN
 90
    32768
280
     0
281
     0
  0
CLASS
  1
AMDTNOTETEMPLATEDB
  2
AmdtNoteTemplateDB
  3
AMDT_STDIMP_MODULE_NAME
 90
        0
280
     0
281
     0
  0
CLASS
  1
ACMBOM
  2
AcmBom
  3
"AcmSymBB|Product Description: AutoCAD Mechanical 2004 DX|Company: Autodesk"
 90
    32768
280
     0
281
     0
  0
CLASS
  1
AMDTFORMULAUPDATEDISPATCHER
  2
AmdtFormulaUpdateDispatcher
  3
AcMeServices
 90
    32768
280
     0
281
     0
  0
CLASS
  1
ACMPARTLIST
  2
AcmPartList
  3
"AcmSymBB|Product Description: AutoCAD Mechanical 2004 DX|Company: Autodesk"
 90
    33791
280
     0
281
     1
  0
CLASS
  1
ACAMGFILTERDAT
  2
AcAmgFilterDat
  3
"AcadM|Product Description: AutoCAD Mechanical 2000|Company: Autodesk"
 90
    32768
280
     0
281
     0
  0
CLASS
  1
SORTENTSTABLE
  2
AcDbSortentsTable
  3
ObjectDBX Classes
 90
    32768
280
     0
281
     0
  0
CLASS
  1
ACMSTANDARDJIS
  2
AcmStandardJIS
  3
"Amdt_StdImp|Product Description: AutoCAD Mechanical 2004 DX|Company: Autodesk"
 90
        0
280
     0
281
     0
  0
CLASS
  1
ACMSURFSTANDARDJIS
  2
AcmSurfTextStdJIS
  3
"Amdt_StdImp|Product Description: AutoCAD Mechanical 2004 DX|Company: Autodesk"
 90
        0
280
     0
281
     0
  0
CLASS
  1
ACMFCFSTANDARDJIS
  2
AcmFCFStdJIS
  3
"Amdt_StdImp|Product Description: AutoCAD Mechanical 2004 DX|Company: Autodesk"
 90
        0
280
     0
281
     0
  0
CLASS
  1
ACMWELDSTANDARDJIS
  2
AcmWeldingStdJIS
  3
"Amdt_StdImp|Product Description: AutoCAD Mechanical 2004 DX|Company: Autodesk"
 90
        0
280
     0
281
     0
  0
CLASS
  1
ACMIDSTANDARDJIS
  2
AcmIdStdJIS
  3
"Amdt_StdImp|Product Description: AutoCAD Mechanical 2004 DX|Company: Autodesk"
 90
        0
280
     0
281
     0
  0
CLASS
  1
ACMDATUMSTANDARDJIS
  2
AcmDatumStdJIS
  3
"Amdt_StdImp|Product Description: AutoCAD Mechanical 2004 DX|Company: Autodesk"
 90
        0
280
     0
281
     0
  0
CLASS
  1
ACMBOMSTANDARDJIS
  2
AcmBOMStdJIS
  3
"Amdt_StdImp|Product Description: AutoCAD Mechanical 2004 DX|Company: Autodesk"
 90
        0
280
     0
281
     0
  0
CLASS
  1
ACMDETAILSTANDARDJIS
  2
AmdtDetailSymStdJIS
  3
"Amdt_StdImp|Product Description: AutoCAD Mechanical 2004 DX|Company: Autodesk"
 90
        0
280
     0
281
     0
  0
CLASS
  1
ACMSECTIONSTANDARDJIS
  2
AmdtSectionSymStdJIS
  3
"Amdt_StdImp|Product Description: AutoCAD Mechanical 2004 DX|Company: Autodesk"
 90
        0
280
     0
281
     0
  0
CLASS
  1
ACMCENTERLINESTANDARDJIS
  2
AmdtCenterLineStdJIS
  3
"Amdt_StdImp|Product Description: AutoCAD Mechanical 2004 DX|Company: Autodesk"
 90
        0
280
     0
281
     0
  0
CLASS
  1
ACMTHREADLINESTANDARDJIS
  2
AmdtThreadLineStdJIS
  3
"Amdt_StdImp|Product Description: AutoCAD Mechanical 2004 DX|Company: Autodesk"
 90
        0
280
     0
281
     0
  0
CLASS
  1
ACMNOTESTANDARDJIS
  2
AmdtNoteStdJIS
  3
"Amdt_StdImp|Product Description: AutoCAD Mechanical 2004 DX|Company: Autodesk"
 90
        0
280
     0
281
     0
  0
CLASS
  1
ACAMGHOLECHARTSTDJIS
  2
AcAmgHoleChartStdJIS
  3
ACMSYMBB_MODULE_NAME
 90
        0
280
     0
281
     0
  0
CLASS
  1
ACRFATTGENMGR
  2
AcRfAttGeneralMgr
  3
AcAttribServices
 90
    32768
280
     0
281
     0
  0
ENDSEC
  0
SECTION
  2
TABLES
  0
TABLE
  2
VPORT
  5
8
330
0
100
AcDbSymbolTable
 70
     3
  0
VPORT
  5
AE6
330
8
100
AcDbSymbolTableRecord
100
AcDbViewportTableRecord
  2
*Active
 70
     0
 10
0.0
 20
0.0
 11
1.0
 21
1.0
 12
191.5541126936856
 22
128.9985769888898
 13
0.0
 23
0.0
 14
2.5
 24
2.5
 15
10.0
 25
10.0
 16
0.0
 26
0.0
 36
1.0
 17
0.0
 27
0.0
 37
0.0
 40
520.4811886008571
 41
1.954070981210855
 42
50.0
 43
0.0
 44
0.0
 50
0.0
 51
0.0
 71
     0
 72
   100
 73
     1
 74
     3
 75
     0
 76
     0
 77
     0
 78
     0
281
     0
 65
     1
110
0.0
120
0.0
130
0.0
111
1.0
121
0.0
131
0.0
112
0.0
122
1.0
132
0.0
 79
     0
146
0.0
  0
ENDTAB
  0
TABLE
  2
LTYPE
  5
5
330
0
100
AcDbSymbolTable
 70
    16
  0
LTYPE
  5
14
330
5
100
AcDbSymbolTableRecord
100
AcDbLinetypeTableRecord
  2
ByBlock
 70
     0
  3

 72
    65
 73
     0
 40
0.0
  0
LTYPE
  5
15
330
5
100
AcDbSymbolTableRecord
100
AcDbLinetypeTableRecord
  2
ByLayer
 70
     0
  3

 72
    65
 73
     0
 40
0.0
  0
LTYPE
  5
16
330
5
100
AcDbSymbolTableRecord
100
AcDbLinetypeTableRecord
  2
Continuous
 70
     0
  3
Solid line
 72
    65
 73
     0
 40
0.0
  0
LTYPE
  5
64
330
5
100
AcDbSymbolTableRecord
100
AcDbLinetypeTableRecord
  2
AM_ISO02W050
 70
     0
  3
__ __ __ __ __ __ __ __ __ __ __ __ __ __ __
 72
    65
 73
     2
 40
7.5
 49
6.0
 74
     0
 49
-1.5
 74
     0
  0
LTYPE
  5
65
330
5
100
AcDbSymbolTableRecord
100
AcDbLinetypeTableRecord
  2
AM_ISO08W050
 70
     0
  3
____ . ____ . ____ . ____ . ____ . ____ . ____
 72
    65
 73
     4
 40
18.0
 49
12.0
 74
     0
 49
-1.5
 74
     0
 49
3.0
 74
     0
 49
-1.5
 74
     0
  0
LTYPE
  5
66
330
5
100
AcDbSymbolTableRecord
100
AcDbLinetypeTableRecord
  2
AM_ISO09W050
 70
     0
  3
_____ . . _____ . . _____ . . ____ .. ____
 72
    65
 73
     6
 40
22.5
 49
12.0
 74
     0
 49
-1.5
 74
     0
 49
3.0
 74
     0
 49
-1.5
 74
     0
 49
3.0
 74
     0
 49
-1.5
 74
     0
  0
LTYPE
  5
67
330
5
100
AcDbSymbolTableRecord
100
AcDbLinetypeTableRecord
  2
Amconstr
 70
     0
  3
_______________________
 72
    65
 73
     2
 40
9999.0
 49
9999.0
 74
     0
 49
0.0
 74
     0
  0
LTYPE
  5
68
330
5
100
AcDbSymbolTableRecord
100
AcDbLinetypeTableRecord
  2
AM_ISO08W050x2
 70
     0
  3
__ . __ . __ . __ . __ . __
 72
    65
 73
     4
 40
9.0
 49
6.0
 74
     0
 49
-0.75
 74
     0
 49
1.5
 74
     0
 49
-0.75
 74
     0
  0
LTYPE
  5
69
330
5
100
AcDbSymbolTableRecord
100
AcDbLinetypeTableRecord
  2
AM_ISO02W050x2
 70
     0
  3
 _ _ _ _ _ _ _ _ _ _ _ _
 72
    65
 73
     2
 40
3.75
 49
3.0
 74
     0
 49
-0.75
 74
     0
  0
LTYPE
  5
6C
330
5
100
AcDbSymbolTableRecord
100
AcDbLinetypeTableRecord
  2
Amzigzag
 70
     0
  3
/\/-/\/-/\/-/\/-/\/-/\/
 72
    65
 73
     2
 40
11.0001
 49
0.0001
 74
     4
 75
   135
340
6B
 46
0.04
 50
0.0
 44
0.0
 45
0.0
 49
-11.0
 74
     0
  0
LTYPE
  5
7A
330
5
100
AcDbSymbolTableRecord
100
AcDbLinetypeTableRecord
  2
ACISOWELD
 70
     0
  3
_ _ _ _ _
 72
    65
 73
     2
 40
2.0
 49
2.0
 74
     0
 49
-1.0
 74
     0
  0
LTYPE
  5
7B
330
5
100
AcDbSymbolTableRecord
100
AcDbLinetypeTableRecord
  2
ACISOTGB
 70
     0
  3
__ . . __ . .
 72
    65
 73
     6
 40
9.0
 49
4.0
 74
     0
 49
-1.0
 74
     0
 49
1.0
 74
     0
 49
-1.0
 74
     0
 49
1.0
 74
     0
 49
-1.0
 74
     0
  0
LTYPE
  5
7C
330
5
100
AcDbSymbolTableRecord
100
AcDbLinetypeTableRecord
  2
ACISOTGL
 70
     0
  3
_ _ _ _ _
 72
    65
 73
     2
 40
3.0
 49
2.0
 74
     0
 49
-1.0
 74
     0
  0
LTYPE
  5
7E
330
5
100
AcDbSymbolTableRecord
100
AcDbLinetypeTableRecord
  2
CENTER
 70
     0
  3
__ . __
 72
    65
 73
     4
 40
7.0
 49
4.0
 74
     0
 49
-1.0
 74
     0
 49
1.0
 74
     0
 49
-1.0
 74
     0
  0
LTYPE
  5
D8
330
5
100
AcDbSymbolTableRecord
100
AcDbLinetypeTableRecord
  2
HIDDEN
 70
     0
  3
Hidden __ __ __ __ __ __ __ __ __ __ __ __ __ _
 72
    65
 73
     2
 40
9.524999999999996
 49
6.349999999999998
 74
     0
 49
-3.174999999999998
 74
     0
  0
LTYPE
  5
D9
330
5
100
AcDbSymbolTableRecord
100
AcDbLinetypeTableRecord
  2
PHANTOM2
 70
     0
  3
Phantom (.5x) ___ _ _ ___ _ _ ___ _ _ ___ _ _
 72
    65
 73
     6
 40
31.75
 49
15.875
 74
     0
 49
-3.174999999999998
 74
     0
 49
3.174999999999998
 74
     0
 49
-3.174999999999998
 74
     0
 49
3.174999999999998
 74
     0
 49
-3.174999999999998
 74
     0
  0
LTYPE
  5
207
330
5
100
AcDbSymbolTableRecord
100
AcDbLinetypeTableRecord
  2
ACJISTGB
 70
     0
  3
__ . . __ . .
 72
    65
 73
     6
 40
9.0
 49
4.0
 74
     0
 49
-1.0
 74
     0
 49
1.0
 74
     0
 49
-1.0
 74
     0
 49
1.0
 74
     0
 49
-1.0
 74
     0
  0
LTYPE
  5
208
330
5
100
AcDbSymbolTableRecord
100
AcDbLinetypeTableRecord
  2
ACJISTGL
 70
     0
  3
_ _ _ _ _
 72
    65
 73
     2
 40
3.0
 49
2.0
 74
     0
 49
-1.0
 74
     0
  0
ENDTAB
  0
TABLE
  2
LAYER
  5
2
102
{ACAD_XDICTIONARY
360
218
102
}
330
0
100
AcDbSymbolTable
 70
     3
  0
LAYER
  5
10
330
2
100
AcDbSymbolTableRecord
100
AcDbLayerTableRecord
  2
0
 70
     0
 62
     7
  6
Continuous
370
    -3
390
F
  0
LAYER
  5
1B0
330
2
100
AcDbSymbolTableRecord
100
AcDbLayerTableRecord
  2
AM_5
 70
     0
 62
     3
  6
Continuous
370
    25
390
F
  0
LAYER
  5
1FD
330
2
100
AcDbSymbolTableRecord
100
AcDbLayerTableRecord
  2
AM_0
 70
     0
 62
     7
  6
Continuous
370
    50
390
F
  0
ENDTAB
  0
TABLE
  2
STYLE
  5
3
330
0
100
AcDbSymbolTable
 70
     9
  0
STYLE
  5
11
330
3
100
AcDbSymbolTableRecord
100
AcDbTextStyleTableRecord
  2
STANDARD
 70
     0
 40
0.0
 41
1.0
 50
0.0
 71
     0
 42
2.5
  3
ISOCP.SHX
  4
extfont.shx
  0
STYLE
  5
6B
330
3
100
AcDbSymbolTableRecord
100
AcDbTextStyleTableRecord
  2

 70
     1
 40
0.0
 41
1.0
 50
0.0
 71
     0
 42
2.5
  3
ltypeshp.shx
  4

  0
STYLE
  5
6D
330
3
100
AcDbSymbolTableRecord
100
AcDbTextStyleTableRecord
  2
ACISOTS
 70
     0
 40
1.0
 41
1.0
 50
0.0
 71
     0
 42
1.0
  3
isocp.shx
  4
extfont.shx
  0
STYLE
  5
79
330
3
100
AcDbSymbolTableRecord
100
AcDbTextStyleTableRecord
  2
ACISOGDT
 70
     0
 40
0.0
 41
1.0
 50
0.0
 71
     0
 42
2.5
  3
amgdt.shx
  4
extfont.shx
  0
STYLE
  5
1F8
330
3
100
AcDbSymbolTableRecord
100
AcDbTextStyleTableRecord
  2
USER1
 70
     0
 40
0.0
 41
1.0
 50
0.0
 71
     0
 42
1.0
  3
TXT.SHX
  4

  0
STYLE
  5
1F9
330
3
100
AcDbSymbolTableRecord
100
AcDbTextStyleTableRecord
  2
USER2
 70
     0
 40
0.0
 41
1.0
 50
0.0
 71
     0
 42
1.0
  3
SIMPLEX.SHX
  4

  0
STYLE
  5
1FA
330
3
100
AcDbSymbolTableRecord
100
AcDbTextStyleTableRecord
  2
USER3
 70
     0
 40
0.0
 41
1.0
 50
0.0
 71
     0
 42
1.0
  3
ITALIC.SHX
  4

  0
STYLE
  5
1FB
330
3
100
AcDbSymbolTableRecord
100
AcDbTextStyleTableRecord
  2
ACJISTS
 70
     0
 40
1.0
 41
1.0
 50
0.0
 71
     0
 42
2.5
  3
isocp.shx
  4
extfont.shx
  0
STYLE
  5
1FC
330
3
100
AcDbSymbolTableRecord
100
AcDbTextStyleTableRecord
  2
ACJISGDT
 70
     0
 40
0.0
 41
1.0
 50
0.0
 71
     0
 42
2.5
  3
amgdt.shx
  4
extfont.shx
  0
ENDTAB
  0
TABLE
  2
VIEW
  5
6
330
0
100
AcDbSymbolTable
 70
     0
  0
ENDTAB
  0
TABLE
  2
UCS
  5
7
330
0
100
AcDbSymbolTable
 70
     0
  0
ENDTAB
  0
TABLE
  2
APPID
  5
9
330
0
100
AcDbSymbolTable
 70
    17
  0
APPID
  5
12
330
9
100
AcDbSymbolTableRecord
100
AcDbRegAppTableRecord
  2
ACAD
 70
     0
  0
APPID
  5
46
330
9
100
AcDbSymbolTableRecord
100
AcDbRegAppTableRecord
  2
MCAD_NO_VIS
 70
     0
  0
APPID
  5
47
330
9
100
AcDbSymbolTableRecord
100
AcDbRegAppTableRecord
  2
ACAD_TEMP_GRAPHIC
 70
     0
  0
APPID
  5
58
330
9
100
AcDbSymbolTableRecord
100
AcDbRegAppTableRecord
  2
ACATTRIBSERVICES
 70
     0
  0
APPID
  5
EE
330
9
100
AcDbSymbolTableRecord
100
AcDbRegAppTableRecord
  2
AD_DRAW
 70
     0
  0
APPID
  5
10C
330
9
100
AcDbSymbolTableRecord
100
AcDbRegAppTableRecord
  2
DESIGNERASSEMBLIES
 70
     0
  0
APPID
  5
111
330
9
100
AcDbSymbolTableRecord
100
AcDbRegAppTableRecord
  2
ACADM_DIM_EDIT
 70
     0
  0
APPID
  5
112
330
9
100
AcDbSymbolTableRecord
100
AcDbRegAppTableRecord
  2
AMDT_DM_ADJ
 70
     0
  0
APPID
  5
20F
330
9
100
AcDbSymbolTableRecord
100
AcDbRegAppTableRecord
  2
GENIUS_GENREC_14
 70
     0
  0
APPID
  5
210
330
9
100
AcDbSymbolTableRecord
100
AcDbRegAppTableRecord
  2
GENIUS_GENODEF_13
 70
     0
  0
APPID
  5
211
330
9
100
AcDbSymbolTableRecord
100
AcDbRegAppTableRecord
  2
GENIUS_GENOBJ-N-REC_13
 70
     0
  0
APPID
  5
212
330
9
100
AcDbSymbolTableRecord
100
AcDbRegAppTableRecord
  2
GENIUS_GENOBJ-N-FIL_13
 70
     0
  0
APPID
  5
213
330
9
100
AcDbSymbolTableRecord
100
AcDbRegAppTableRecord
  2
GENIUS_GENOREF_13
 70
     0
  0
APPID
  5
214
330
9
100
AcDbSymbolTableRecord
100
AcDbRegAppTableRecord
  2
GENIUS_GENOBJ-N-CEN_13
 70
     0
  0
APPID
  5
215
330
9
100
AcDbSymbolTableRecord
100
AcDbRegAppTableRecord
  2
GENIUS_GENCEN_19
 70
     0
  0
APPID
  5
216
330
9
100
AcDbSymbolTableRecord
100
AcDbRegAppTableRecord
  2
GENIUS_GENFIL_13
 70
     0
  0
APPID
  5
217
330
9
100
AcDbSymbolTableRecord
100
AcDbRegAppTableRecord
  2
GENIUS_GENOBJ-N-CHA_13
 70
     0
  0
ENDTAB
  0
TABLE
  2
DIMSTYLE
  5
A
330
0
100
AcDbSymbolTable
 70
    15
100
AcDbDimStyleTable
 71
     2
340
81
340
1FE
  0
DIMSTYLE
105
27
330
A
100
AcDbSymbolTableRecord
100
AcDbDimStyleTableRecord
  2
ISO-25
 70
     0
 41
2.5
 42
0.625
 43
3.75
 44
1.25
 73
     0
 74
     0
 77
     1
 78
     8
140
2.5
141
2.5
143
0.03937007874016
147
0.625
171
     3
172
     1
271
     2
272
     2
274
     3
278
    44
283
     0
284
     8
340
11
  0
DIMSTYLE
105
81
330
A
100
AcDbSymbolTableRecord
100
AcDbDimStyleTableRecord
  2
AM_ISO
 70
     0
  4
"
 41
2.5
 42
1.0
 43
10.0
 44
1.0
 47
0.1
 48
0.1
 73
     0
 74
     0
 77
     1
 78
     8
 79
     2
140
3.5
141
0.0
143
0.0393701
146
0.71
147
1.5
172
     1
176
   256
177
   256
178
     2
271
     2
272
     3
274
     4
283
     0
284
     8
340
11
371
    -1
372
    -1
  0
DIMSTYLE
105
82
330
A
100
AcDbSymbolTableRecord
100
AcDbDimStyleTableRecord
  2
AM_ISO$3
 70
     0
  4
"
 41
2.5
 42
1.0
 43
10.0
 44
1.0
 47
0.1
 48
0.1
 73
     0
 77
     1
 78
     8
 79
     2
140
3.5
141
0.0
143
0.0393701
146
0.71
147
1.5
176
   256
177
   256
178
     2
271
     2
272
     3
274
     4
283
     0
284
     8
288
     1
289
     0
340
11
371
    -1
372
    -1
  0
DIMSTYLE
105
83
330
A
100
AcDbSymbolTableRecord
100
AcDbDimStyleTableRecord
  2
AM_ISO$4
 70
     0
  4
"
 41
2.5
 42
1.0
 43
10.0
 44
1.0
 47
0.1
 48
0.1
 73
     0
 77
     1
 78
     8
 79
     2
140
3.5
141
0.0
143
0.0393701
146
0.71
147
1.5
176
   256
177
   256
178
     2
271
     2
272
     3
274
     4
283
     0
284
     8
288
     1
289
     0
340
11
371
    -1
372
    -1
  0
DIMSTYLE
105
84
330
A
100
AcDbSymbolTableRecord
100
AcDbDimStyleTableRecord
  2
AM_ISO$6
 70
     0
  4
"
 41
2.5
 42
1.0
 43
10.0
 44
1.0
 47
0.1
 48
0.1
 73
     0
 74
     0
 78
     8
 79
     2
140
3.5
141
0.0
143
0.0393701
146
0.71
147
1.5
172
     1
176
   256
177
   256
178
     2
271
     2
272
     3
274
     4
283
     0
284
     8
340
11
371
    -1
372
    -1
  0
DIMSTYLE
105
85
330
A
100
AcDbSymbolTableRecord
100
AcDbDimStyleTableRecord
  2
AM_ISO$7
 70
     0
  4
"
 41
2.5
 42
1.0
 43
10.0
 44
1.0
 47
0.1
 48
0.1
 73
     0
 74
     0
 77
     1
 78
     8
 79
     2
140
5.0
141
0.0
143
0.0393701
146
0.71
147
1.5
172
     1
176
   256
177
   256
178
     2
271
     2
272
     3
274
     4
283
     0
284
     8
340
11
371
    -1
372
    -1
  0
DIMSTYLE
105
86
330
A
100
AcDbSymbolTableRecord
100
AcDbDimStyleTableRecord
  2
AM_ISO$SF
 70
     0
  4
"
 41
2.5
 42
1.0
 43
10.0
 44
1.0
 47
0.1
 48
0.1
 73
     0
 74
     0
 75
     1
 76
     1
 77
     1
 78
     8
 79
     2
140
3.5
141
0.0
143
0.0393701
146
0.71
147
1.5
172
     1
176
   256
177
   256
178
     2
271
     2
272
     3
274
     4
283
     0
284
     8
340
11
371
    -1
372
    -1
  0
DIMSTYLE
105
8B
330
A
100
AcDbSymbolTableRecord
100
AcDbDimStyleTableRecord
  2
AM_ISO$SH
 70
     0
  4
"
 41
2.5
 42
1.0
 43
10.0
 44
1.0
 47
0.1
 48
0.1
 73
     0
 74
     0
 75
     1
 76
     1
 77
     1
 78
     8
 79
     2
140
3.5
141
0.0
143
0.0393701
144
2.0
146
0.71
147
1.5
172
     1
173
     1
176
   256
177
   256
178
     2
271
     2
272
     3
274
     4
283
     0
284
     8
340
11
343
87
371
    -1
372
    -1
  0
DIMSTYLE
105
1FE
330
A
100
AcDbSymbolTableRecord
100
AcDbDimStyleTableRecord
  2
AM_JIS
 70
     0
  4
"
 41
2.5
 42
1.0
 43
10.0
 44
1.0
 47
0.1
 48
0.1
 73
     0
 74
     0
 77
     3
 78
     8
 79
     2
140
3.5
141
0.0
143
0.0393701
146
0.71
147
1.5
172
     1
176
   256
177
   256
178
     2
271
     2
272
     3
274
     4
283
     0
284
     8
340
11
341
1FF
342
1FF
343
1FF
344
1FF
371
    -1
372
    -1
  0
DIMSTYLE
105
209
330
A
100
AcDbSymbolTableRecord
100
AcDbDimStyleTableRecord
  2
AM_JIS$3
 70
     0
  4
"
 41
2.5
 42
1.0
 43
10.0
 44
1.0
 47
0.1
 48
0.1
 73
     0
 77
     3
 78
     8
 79
     2
140
3.5
141
0.0
143
0.0393701
146
0.71
147
1.5
176
   256
177
   256
178
     2
271
     2
272
     3
274
     4
283
     0
284
     8
288
     1
289
     0
340
11
341
1FF
342
1FF
343
1FF
344
1FF
371
    -1
372
    -1
  0
DIMSTYLE
105
20A
330
A
100
AcDbSymbolTableRecord
100
AcDbDimStyleTableRecord
  2
AM_JIS$4
 70
     0
  4
"
 41
2.5
 42
1.0
 43
10.0
 44
1.0
 47
0.1
 48
0.1
 73
     0
 77
     3
 78
     8
 79
     2
140
3.5
141
0.0
143
0.0393701
146
0.71
147
1.5
176
   256
177
   256
178
     2
271
     2
272
     3
274
     4
283
     0
284
     8
288
     1
289
     0
340
11
341
1FF
342
1FF
343
1FF
344
1FF
371
    -1
372
    -1
  0
DIMSTYLE
105
20B
330
A
100
AcDbSymbolTableRecord
100
AcDbDimStyleTableRecord
  2
AM_JIS$6
 70
     0
  4
"
 41
2.5
 42
1.0
 43
10.0
 44
1.0
 47
0.1
 48
0.1
 73
     0
 74
     0
 78
     8
 79
     2
140
3.5
141
0.0
143
0.0393701
146
0.71
147
1.5
172
     1
176
   256
177
   256
178
     2
271
     2
272
     3
274
     4
283
     0
284
     8
340
11
341
1FF
342
1FF
343
1FF
344
1FF
371
    -1
372
    -1
  0
DIMSTYLE
105
20C
330
A
100
AcDbSymbolTableRecord
100
AcDbDimStyleTableRecord
  2
AM_JIS$7
 70
     0
  4
"
 41
2.5
 42
1.0
 43
10.0
 44
1.0
 47
0.1
 48
0.1
 73
     0
 74
     0
 77
     3
 78
     8
 79
     2
140
3.5
141
0.0
143
0.0393701
146
0.71
147
1.5
172
     1
176
   256
177
   256
178
     2
271
     2
272
     3
274
     4
283
     0
284
     8
340
11
341
1FF
342
1FF
343
1FF
344
1FF
371
    -1
372
    -1
  0
DIMSTYLE
105
20D
330
A
100
AcDbSymbolTableRecord
100
AcDbDimStyleTableRecord
  2
AM_JIS$SF
 70
     0
  4
"
 41
2.5
 42
1.0
 43
10.0
 44
1.0
 47
0.1
 48
0.1
 73
     0
 74
     0
 75
     1
 76
     1
 77
     3
 78
     8
 79
     2
140
3.5
141
0.0
143
0.0393701
146
0.71
147
1.5
172
     1
176
   256
177
   256
178
     2
271
     2
272
     3
274
     4
283
     0
284
     8
340
11
341
1FF
342
1FF
343
1FF
344
1FF
371
    -1
372
    -1
  0
DIMSTYLE
105
20E
330
A
100
AcDbSymbolTableRecord
100
AcDbDimStyleTableRecord
  2
AM_JIS$SH
 70
     0
  4
"
 41
2.5
 42
1.0
 43
10.0
 44
1.0
 47
0.1
 48
0.1
 73
     0
 74
     0
 75
     1
 76
     1
 77
     3
 78
     8
 79
     2
140
3.5
141
0.0
143
0.0393701
144
2.0
146
0.71
147
1.5
172
     1
173
     1
176
   256
177
   256
178
     2
271
     2
272
     3
274
     4
283
     0
284
     8
340
11
341
1FF
342
1FF
343
87
344
1FF
371
    -1
372
    -1
  0
ENDTAB
  0
TABLE
  2
BLOCK_RECORD
  5
1
330
0
100
AcDbSymbolTable
 70
     4
  0
BLOCK_RECORD
  5
1F
102
{ACAD_XDICTIONARY
360
8F
102
}
330
1
100
AcDbSymbolTableRecord
100
AcDbBlockTableRecord
  2
*Model_Space
340
22
  0
BLOCK_RECORD
  5
1B
330
1
100
AcDbSymbolTableRecord
100
AcDbBlockTableRecord
  2
*Paper_Space
340
1E
  0
BLOCK_RECORD
  5
23
330
1
100
AcDbSymbolTableRecord
100
AcDbBlockTableRecord
  2
*Paper_Space0
340
26
  0
BLOCK_RECORD
  5
87
330
1
100
AcDbSymbolTableRecord
100
AcDbBlockTableRecord
  2
GENAXEH
340
0
  0
BLOCK_RECORD
  5
1FF
330
1
100
AcDbSymbolTableRecord
100
AcDbBlockTableRecord
  2
_Open30
340
0
  0
ENDTAB
  0
ENDSEC
  0
SECTION
  2
BLOCKS
  0
BLOCK
  5
20
330
1F
100
AcDbEntity
  8
0
100
AcDbBlockBegin
  2
*Model_Space
 70
     0
 10
0.0
 20
0.0
 30
0.0
  3
*Model_Space
  1

  0
ENDBLK
  5
21
330
1F
100
AcDbEntity
  8
0
100
AcDbBlockEnd
  0
BLOCK
  5
1C
330
1B
100
AcDbEntity
 67
     1
  8
0
100
AcDbBlockBegin
  2
*Paper_Space
 70
     0
 10
0.0
 20
0.0
 30
0.0
  3
*Paper_Space
  1

  0
ENDBLK
  5
1D
330
1B
100
AcDbEntity
 67
     1
  8
0
100
AcDbBlockEnd
  0
BLOCK
  5
24
330
23
100
AcDbEntity
  8
0
100
AcDbBlockBegin
  2
*Paper_Space0
 70
     0
 10
0.0
 20
0.0
 30
0.0
  3
*Paper_Space0
  1

  0
ENDBLK
  5
25
330
23
100
AcDbEntity
  8
0
100
AcDbBlockEnd
  0
BLOCK
  5
ADA
330
87
100
AcDbEntity
  8
0
100
AcDbBlockBegin
  2
GENAXEH
 70
     0
 10
0.0
 20
0.0
 30
0.0
  3
GENAXEH
  1

  0
LINE
  5
ADB
330
87
100
AcDbEntity
  8
0
100
AcDbLine
 10
-1.0
 20
0.0
 30
0.0
 11
1.0
 21
0.0
 31
0.0
  0
ENDBLK
  5
ADC
330
87
100
AcDbEntity
  8
0
100
AcDbBlockEnd
  0
BLOCK
  5
ACE
330
1FF
100
AcDbEntity
  8
0
100
AcDbBlockBegin
  2
_Open30
 70
     0
 10
0.0
 20
0.0
 30
0.0
  3
_Open30
  1

  0
LINE
  5
ACF
330
1FF
100
AcDbEntity
  8
0
  6
ByBlock
 62
     0
370
    -2
100
AcDbLine
 10
-1.0
 20
0.26794919
 30
0.0
 11
0.0
 21
0.0
 31
0.0
  0
LINE
  5
AD0
330
1FF
100
AcDbEntity
  8
0
  6
ByBlock
 62
     0
370
    -2
100
AcDbLine
 10
0.0
 20
0.0
 30
0.0
 11
-1.0
 21
-0.26794919
 31
0.0
  0
LINE
  5
AD1
330
1FF
100
AcDbEntity
  8
0
  6
ByBlock
 62
     0
370
    -2
100
AcDbLine
 10
0.0
 20
0.0
 30
0.0
 11
-1.0
 21
0.0
 31
0.0
  0
ENDBLK
  5
AD2
330
1FF
100
AcDbEntity
  8
0
100
AcDbBlockEnd
  0
ENDSEC
  0
SECTION
  2
ENTITIES
  0
LINE
  5
636
330
1F
100
AcDbEntity
  8
0
100
AcDbLine
 10
163.6499999619454
 20
153.8500005301582
 30
0.0
 11
163.6499999619454
 21
210.7500005301585
 31
0.0
  0
LINE
  5
637
330
1F
100
AcDbEntity
  8
0
100
AcDbLine
 10
167.1999999619453
 20
210.8000005301581
 30
0.0
 11
167.1999999619452
 21
153.8000005301581
 31
0.0
  0
LINE
  5
638
330
1F
100
AcDbEntity
  8
0
100
AcDbLine
 10
167.4999999619453
 20
210.8000005301581
 30
0.0
 11
167.4999999619453
 21
195.3000005301581
 31
0.0
  0
LINE
  5
639
330
1F
100
AcDbEntity
  8
0
100
AcDbLine
 10
167.4999999619453
 20
185.3000005301581
 30
0.0
 11
167.4999999619453
 21
153.8000005301581
 31
0.0
  0
ARC
  5
63A
330
1F
100
AcDbEntity
  8
0
100
AcDbCircle
 10
163.6999999619452
 20
210.8000005301581
 30
0.0
 40
3.5
100
AcDbArc
 50
0.0
 51
90.0
1001
GENIUS_GENODEF_13
1002
{
1000
HIER
1070
     0
1002
}
1002
{
1000
MANEDIT
1070
     0
1002
}
1002
{
1000
NOSEL
1070
     0
1002
}
1002
{
1000
BEHIND
1070
     0
1002
}
1002
{
1000
OTHER
1070
     0
1002
}
1002
{
1000
REACTOR
1002
}
1001
GENIUS_GENOBJ-N-FIL_13
1002
{
1000
OWNER
1000
GEN
1002
}
  0
ARC
  5
63B
330
1F
100
AcDbEntity
  8
0
100
AcDbCircle
 10
163.6999999619452
 20
210.8000005301581
 30
0.0
 40
3.799999999999998
100
AcDbArc
 50
0.0
 51
90.0
1001
GENIUS_GENODEF_13
1002
{
1000
HIER
1070
     0
1002
}
1002
{
1000
MANEDIT
1070
     0
1002
}
1002
{
1000
NOSEL
1070
     0
1002
}
1002
{
1000
BEHIND
1070
     0
1002
}
1002
{
1000
OTHER
1070
     0
1002
}
1002
{
1000
REACTOR
1002
}
1001
GENIUS_GENOBJ-N-FIL_13
1002
{
1000
OWNER
1000
GEN
1002
}
  0
LINE
  5
63C
330
1F
100
AcDbEntity
  8
0
100
AcDbLine
 10
76.69999996194531
 20
210.8000005301581
 30
0.0
 11
76.69999996194542
 21
153.8000005301581
 31
0.0
  0
LINE
  5
63D
330
1F
100
AcDbEntity
  8
0
100
AcDbLine
 10
76.69999996194531
 20
214.3000005301581
 30
0.0
 11
163.6999999619452
 21
214.3000005301581
 31
0.0
  0
LINE
  5
63E
330
1F
100
AcDbEntity
  8
0
100
AcDbLine
 10
76.69999996194531
 20
214.6000005301582
 30
0.0
 11
163.6999999619452
 21
214.6000005301582
 31
0.0
  0
LINE
  5
63F
330
1F
100
AcDbEntity
  8
0
100
AcDbLine
 10
76.69999996194531
 20
210.8000005301581
 30
0.0
 11
163.6999999619452
 21
210.8000005301581
 31
0.0
  0
LINE
  5
640
330
1F
100
AcDbEntity
  8
0
100
AcDbLine
 10
76.69999996194542
 20
150.3000005301581
 30
0.0
 11
163.6999999619453
 21
150.3000005301581
 31
0.0
  0
LINE
  5
641
330
1F
100
AcDbEntity
  8
0
100
AcDbLine
 10
76.69999996194542
 20
150.0000005301581
 30
0.0
 11
163.6999999619453
 21
150.0000005301581
 31
0.0
  0
LINE
  5
642
330
1F
100
AcDbEntity
  8
0
100
AcDbLine
 10
76.69999996194542
 20
153.8000005301581
 30
0.0
 11
163.6999999619453
 21
153.8000005301581
 31
0.0
  0
ARC
  5
643
330
1F
100
AcDbEntity
  8
0
100
AcDbCircle
 10
163.6999999619452
 20
153.8000005301581
 30
0.0
 40
3.5
100
AcDbArc
 50
270.0
 51
0.0
1001
GENIUS_GENODEF_13
1002
{
1000
HIER
1070
     0
1002
}
1002
{
1000
MANEDIT
1070
     0
1002
}
1002
{
1000
NOSEL
1070
     0
1002
}
1002
{
1000
BEHIND
1070
     0
1002
}
1002
{
1000
OTHER
1070
     0
1002
}
1002
{
1000
REACTOR
1002
}
1001
GENIUS_GENOBJ-N-FIL_13
1002
{
1000
OWNER
1000
GEN
1002
}
  0
ARC
  5
644
330
1F
100
AcDbEntity
  8
0
100
AcDbCircle
 10
163.6999999619452
 20
153.8000005301581
 30
0.0
 40
3.799999999999998
100
AcDbArc
 50
270.0
 51
0.0
1001
GENIUS_GENODEF_13
1002
{
1000
HIER
1070
     0
1002
}
1002
{
1000
MANEDIT
1070
     0
1002
}
1002
{
1000
NOSEL
1070
     0
1002
}
1002
{
1000
BEHIND
1070
     0
1002
}
1002
{
1000
OTHER
1070
     0
1002
}
1002
{
1000
REACTOR
1002
}
1001
GENIUS_GENOBJ-N-FIL_13
1002
{
1000
OWNER
1000
GEN
1002
}
  0
LINE
  5
645
330
1F
100
AcDbEntity
  8
0
100
AcDbLine
 10
73.19999996194531
 20
210.8000005301581
 30
0.0
 11
73.19999996194531
 21
153.8000005301581
 31
0.0
  0
LINE
  5
646
330
1F
100
AcDbEntity
  8
0
100
AcDbLine
 10
72.89999996194534
 20
210.8000005301581
 30
0.0
 11
72.89999996194534
 21
153.8000005301581
 31
0.0
  0
ARC
  5
647
330
1F
100
AcDbEntity
  8
0
100
AcDbCircle
 10
76.69999996194531
 20
210.8000005301581
 30
0.0
 40
3.5
100
AcDbArc
 50
90.0
 51
180.0
1001
GENIUS_GENODEF_13
1002
{
1000
HIER
1070
     0
1002
}
1002
{
1000
MANEDIT
1070
     0
1002
}
1002
{
1000
NOSEL
1070
     0
1002
}
1002
{
1000
BEHIND
1070
     0
1002
}
1002
{
1000
OTHER
1070
     0
1002
}
1002
{
1000
REACTOR
1002
}
1001
GENIUS_GENOBJ-N-FIL_13
1002
{
1000
OWNER
1000
GEN
1002
}
  0
ARC
  5
648
330
1F
100
AcDbEntity
  8
0
100
AcDbCircle
 10
76.69999996194531
 20
210.8000005301581
 30
0.0
 40
3.799999999999998
100
AcDbArc
 50
90.0
 51
180.0
1001
GENIUS_GENODEF_13
1002
{
1000
HIER
1070
     0
1002
}
1002
{
1000
MANEDIT
1070
     0
1002
}
1002
{
1000
NOSEL
1070
     0
1002
}
1002
{
1000
BEHIND
1070
     0
1002
}
1002
{
1000
OTHER
1070
     0
1002
}
1002
{
1000
REACTOR
1002
}
1001
GENIUS_GENOBJ-N-FIL_13
1002
{
1000
OWNER
1000
GEN
1002
}
  0
ARC
  5
649
330
1F
100
AcDbEntity
  8
0
100
AcDbCircle
 10
76.69999996194531
 20
153.8000005301581
 30
0.0
 40
3.5
100
AcDbArc
 50
180.0
 51
270.0
1001
GENIUS_GENODEF_13
1002
{
1000
HIER
1070
     0
1002
}
1002
{
1000
MANEDIT
1070
     0
1002
}
1002
{
1000
NOSEL
1070
     0
1002
}
1002
{
1000
BEHIND
1070
     0
1002
}
1002
{
1000
OTHER
1070
     0
1002
}
1002
{
1000
REACTOR
1002
}
1001
GENIUS_GENOBJ-N-FIL_13
1002
{
1000
OWNER
1000
GEN
1002
}
  0
ARC
  5
64A
330
1F
100
AcDbEntity
  8
0
100
AcDbCircle
 10
76.69999996194531
 20
153.8000005301581
 30
0.0
 40
3.799999999999998
100
AcDbArc
 50
180.0
 51
270.0
1001
GENIUS_GENODEF_13
1002
{
1000
HIER
1070
     0
1002
}
1002
{
1000
MANEDIT
1070
     0
1002
}
1002
{
1000
NOSEL
1070
     0
1002
}
1002
{
1000
BEHIND
1070
     0
1002
}
1002
{
1000
OTHER
1070
     0
1002
}
1002
{
1000
REACTOR
1002
}
1001
GENIUS_GENOBJ-N-FIL_13
1002
{
1000
OWNER
1000
GEN
1002
}
  0
LINE
  5
64B
330
1F
100
AcDbEntity
  8
0
100
AcDbLine
 10
76.74999996194526
 20
168.8500005301583
 30
0.0
 11
163.6499999619454
 21
168.8500005301583
 31
0.0
  0
LINE
  5
64C
330
1F
100
AcDbEntity
  8
0
100
AcDbLine
 10
76.74999996194526
 20
153.8500005301582
 30
0.0
 11
76.74999996194515
 21
210.7500005301584
 31
0.0
  0
LINE
  5
64D
330
1F
100
AcDbEntity
  8
0
100
AcDbLine
 10
163.6499999619454
 20
210.7500005301585
 30
0.0
 11
76.74999996194515
 21
210.7500005301584
 31
0.0
  0
LINE
  5
64E
330
1F
100
AcDbEntity
  8
0
100
AcDbLine
 10
76.74999996194526
 20
153.8500005301582
 30
0.0
 11
163.6499999619454
 21
153.8500005301582
 31
0.0
  0
LINE
  5
64F
330
1F
100
AcDbEntity
  8
0
100
AcDbLine
 10
89.69999996194522
 20
175.600000530158
 30
0.0
 11
150.6999999619452
 21
175.600000530158
 31
0.0
1001
GENIUS_GENREC_14
1002
{
1000
PYDIR
1011
90.1999999619452
1021
201.6000005301584
1031
0.0
1002
}
1002
{
1000
PXDIR
1011
150.1999999619453
1021
176.100000530158
1031
0.0
1002
}
1002
{
1000
PORI
1011
90.1999999619452
1021
176.100000530158
1031
0.0
1002
}
1002
{
1000
PINS
1011
90.1999999619452
1021
176.100000530158
1031
0.0
1002
}
1002
{
1000
PINS2
1011
150.1999999619453
1021
201.6000005301584
1031
0.0
1002
}
1002
{
1000
C
1070
     1
1002
}
1001
GENIUS_GENOBJ-N-REC_13
1002
{
1000
OWNER
1000
GEN
1002
}
1001
GENIUS_GENODEF_13
1002
{
1000
HIER
1070
     0
1002
}
1002
{
1000
MANEDIT
1070
     0
1002
}
1002
{
1000
NOSEL
1070
     0
1002
}
1002
{
1000
BEHIND
1070
     0
1002
}
1002
{
1000
OTHER
1070
     0
1002
}
1002
{
1000
REACTOR
1002
}
  0
LINE
  5
650
330
1F
100
AcDbEntity
  8
0
100
AcDbLine
 10
150.6999999619452
 20
175.600000530158
 30
0.0
 11
150.6999999619452
 21
202.1000005301584
 31
0.0
1001
GENIUS_GENREC_14
1002
{
1000
PYDIR
1011
90.1999999619452
1021
201.6000005301584
1031
0.0
1002
}
1002
{
1000
PXDIR
1011
150.1999999619453
1021
176.100000530158
1031
0.0
1002
}
1002
{
1000
PORI
1011
90.1999999619452
1021
176.100000530158
1031
0.0
1002
}
1002
{
1000
PINS
1011
90.1999999619452
1021
176.100000530158
1031
0.0
1002
}
1002
{
1000
PINS2
1011
150.1999999619453
1021
201.6000005301584
1031
0.0
1002
}
1002
{
1000
C
1070
     1
1002
}
1001
GENIUS_GENOBJ-N-REC_13
1002
{
1000
OWNER
1000
GEN
1002
}
1001
GENIUS_GENODEF_13
1002
{
1000
HIER
1070
     0
1002
}
1002
{
1000
MANEDIT
1070
     0
1002
}
1002
{
1000
NOSEL
1070
     0
1002
}
1002
{
1000
BEHIND
1070
     0
1002
}
1002
{
1000
OTHER
1070
     0
1002
}
1002
{
1000
REACTOR
1002
}
  0
LINE
  5
651
330
1F
100
AcDbEntity
  8
0
100
AcDbLine
 10
150.6999999619452
 20
202.1000005301584
 30
0.0
 11
89.69999996194522
 21
202.1000005301584
 31
0.0
1001
GENIUS_GENREC_14
1002
{
1000
PYDIR
1011
90.1999999619452
1021
201.6000005301584
1031
0.0
1002
}
1002
{
1000
PXDIR
1011
150.1999999619453
1021
176.100000530158
1031
0.0
1002
}
1002
{
1000
PORI
1011
90.1999999619452
1021
176.100000530158
1031
0.0
1002
}
1002
{
1000
PINS
1011
90.1999999619452
1021
176.100000530158
1031
0.0
1002
}
1002
{
1000
PINS2
1011
150.1999999619453
1021
201.6000005301584
1031
0.0
1002
}
1002
{
1000
C
1070
     1
1002
}
1001
GENIUS_GENOBJ-N-REC_13
1002
{
1000
OWNER
1000
GEN
1002
}
1001
GENIUS_GENODEF_13
1002
{
1000
HIER
1070
     0
1002
}
1002
{
1000
MANEDIT
1070
     0
1002
}
1002
{
1000
NOSEL
1070
     0
1002
}
1002
{
1000
BEHIND
1070
     0
1002
}
1002
{
1000
OTHER
1070
     0
1002
}
1002
{
1000
REACTOR
1002
}
  0
LINE
  5
652
330
1F
100
AcDbEntity
  8
0
100
AcDbLine
 10
89.69999996194522
 20
202.1000005301584
 30
0.0
 11
89.69999996194522
 21
175.600000530158
 31
0.0
1001
GENIUS_GENREC_14
1002
{
1000
PYDIR
1011
90.1999999619452
1021
201.6000005301584
1031
0.0
1002
}
1002
{
1000
PXDIR
1011
150.1999999619453
1021
176.100000530158
1031
0.0
1002
}
1002
{
1000
PORI
1011
90.1999999619452
1021
176.100000530158
1031
0.0
1002
}
1002
{
1000
PINS
1011
90.1999999619452
1021
176.100000530158
1031
0.0
1002
}
1002
{
1000
PINS2
1011
150.1999999619453
1021
201.6000005301584
1031
0.0
1002
}
1002
{
1000
C
1070
     1
1002
}
1001
GENIUS_GENOBJ-N-REC_13
1002
{
1000
OWNER
1000
GEN
1002
}
1001
GENIUS_GENODEF_13
1002
{
1000
HIER
1070
     0
1002
}
1002
{
1000
MANEDIT
1070
     0
1002
}
1002
{
1000
NOSEL
1070
     0
1002
}
1002
{
1000
BEHIND
1070
     0
1002
}
1002
{
1000
OTHER
1070
     0
1002
}
1002
{
1000
REACTOR
1002
}
  0
ARC
  5
653
330
1F
100
AcDbEntity
  8
0
100
AcDbCircle
 10
153.6999999619452
 20
203.1000005301582
 30
0.0
 40
1.0
100
AcDbArc
 50
0.0
 51
90.0
1001
GENIUS_GENREC_14
1002
{
1000
PYDIR
1011
90.1999999619452
1021
202.6000005301584
1031
0.0
1002
}
1002
{
1000
PXDIR
1011
150.1999999619453
1021
176.100000530158
1031
0.0
1002
}
1002
{
1000
PORI
1011
90.1999999619452
1021
176.100000530158
1031
0.0
1002
}
1002
{
1000
PINS
1011
90.1999999619452
1021
176.100000530158
1031
0.0
1002
}
1002
{
1000
PINS2
1011
150.1999999619453
1021
202.6000005301584
1031
0.0
1002
}
1002
{
1000
C
1070
     1
1002
}
1001
GENIUS_GENOBJ-N-REC_13
1002
{
1000
OWNER
1000
GEN
1002
}
1001
GENIUS_GENOBJ-N-FIL_13
1002
{
1000
OWNER
1000
GEN
1002
}
1001
GENIUS_GENODEF_13
1002
{
1000
HIER
1070
     0
1002
}
1002
{
1000
MANEDIT
1070
     0
1002
}
1002
{
1000
NOSEL
1070
     0
1002
}
1002
{
1000
BEHIND
1070
     0
1002
}
1002
{
1000
OTHER
1070
     0
1002
}
1002
{
1000
REACTOR
1002
}
  0
LINE
  5
654
330
1F
100
AcDbEntity
  8
0
100
AcDbLine
 10
85.69999996194519
 20
203.1000005301582
 30
0.0
 11
85.69999996194519
 21
174.6000005301582
 31
0.0
1001
GENIUS_GENREC_14
1002
{
1000
PYDIR
1011
90.1999999619452
1021
202.6000005301584
1031
0.0
1002
}
1002
{
1000
PXDIR
1011
150.1999999619453
1021
175.1000005301581
1031
0.0
1002
}
1002
{
1000
PORI
1011
90.1999999619452
1021
175.1000005301581
1031
0.0
1002
}
1002
{
1000
PINS
1011
90.1999999619452
1021
175.1000005301581
1031
0.0
1002
}
1002
{
1000
PINS2
1011
150.1999999619453
1021
202.6000005301584
1031
0.0
1002
}
1002
{
1000
C
1070
     1
1002
}
1001
GENIUS_GENOBJ-N-REC_13
1002
{
1000
OWNER
1000
GEN
1002
}
1001
GENIUS_GENODEF_13
1002
{
1000
HIER
1070
     0
1002
}
1002
{
1000
MANEDIT
1070
     0
1002
}
1002
{
1000
NOSEL
1070
     0
1002
}
1002
{
1000
BEHIND
1070
     0
1002
}
1002
{
1000
OTHER
1070
     0
1002
}
1002
{
1000
REACTOR
1002
}
  0
ARC
  5
655
330
1F
100
AcDbEntity
  8
0
100
AcDbCircle
 10
86.69999996194519
 20
203.1000005301582
 30
0.0
 40
1.0
100
AcDbArc
 50
90.0
 51
180.0
1001
GENIUS_GENREC_14
1002
{
1000
PYDIR
1011
90.1999999619452
1021
202.6000005301584
1031
0.0
1002
}
1002
{
1000
PXDIR
1011
150.1999999619453
1021
176.100000530158
1031
0.0
1002
}
1002
{
1000
PORI
1011
90.1999999619452
1021
176.100000530158
1031
0.0
1002
}
1002
{
1000
PINS
1011
90.1999999619452
1021
176.100000530158
1031
0.0
1002
}
1002
{
1000
PINS2
1011
150.1999999619453
1021
202.6000005301584
1031
0.0
1002
}
1002
{
1000
C
1070
     1
1002
}
1001
GENIUS_GENOBJ-N-REC_13
1002
{
1000
OWNER
1000
GEN
1002
}
1001
GENIUS_GENOBJ-N-FIL_13
1002
{
1000
OWNER
1000
GEN
1002
}
1001
GENIUS_GENODEF_13
1002
{
1000
HIER
1070
     0
1002
}
1002
{
1000
MANEDIT
1070
     0
1002
}
1002
{
1000
NOSEL
1070
     0
1002
}
1002
{
1000
BEHIND
1070
     0
1002
}
1002
{
1000
OTHER
1070
     0
1002
}
1002
{
1000
REACTOR
1002
}
  0
LINE
  5
656
330
1F
100
AcDbEntity
  8
0
100
AcDbLine
 10
86.69999996194531
 20
173.600000530158
 30
0.0
 11
153.6999999619452
 21
173.600000530158
 31
0.0
1001
GENIUS_GENREC_14
1002
{
1000
PYDIR
1011
90.1999999619452
1021
201.6000005301584
1031
0.0
1002
}
1002
{
1000
PXDIR
1011
150.1999999619453
1021
175.1000005301581
1031
0.0
1002
}
1002
{
1000
PORI
1011
90.1999999619452
1021
175.1000005301581
1031
0.0
1002
}
1002
{
1000
PINS
1011
90.1999999619452
1021
175.1000005301581
1031
0.0
1002
}
1002
{
1000
PINS2
1011
150.1999999619453
1021
201.6000005301584
1031
0.0
1002
}
1002
{
1000
C
1070
     1
1002
}
1001
GENIUS_GENOBJ-N-REC_13
1002
{
1000
OWNER
1000
GEN
1002
}
1001
GENIUS_GENODEF_13
1002
{
1000
HIER
1070
     0
1002
}
1002
{
1000
MANEDIT
1070
     0
1002
}
1002
{
1000
NOSEL
1070
     0
1002
}
1002
{
1000
BEHIND
1070
     0
1002
}
1002
{
1000
OTHER
1070
     0
1002
}
1002
{
1000
REACTOR
1002
}
  0
ARC
  5
657
330
1F
100
AcDbEntity
  8
0
100
AcDbCircle
 10
153.6999999619452
 20
174.6000005301582
 30
0.0
 40
1.0
100
AcDbArc
 50
270.0
 51
0.0
1001
GENIUS_GENREC_14
1002
{
1000
PYDIR
1011
90.1999999619452
1021
201.6000005301584
1031
0.0
1002
}
1002
{
1000
PXDIR
1011
150.1999999619453
1021
175.1000005301581
1031
0.0
1002
}
1002
{
1000
PORI
1011
90.1999999619452
1021
175.1000005301581
1031
0.0
1002
}
1002
{
1000
PINS
1011
90.1999999619452
1021
175.1000005301581
1031
0.0
1002
}
1002
{
1000
PINS2
1011
150.1999999619453
1021
201.6000005301584
1031
0.0
1002
}
1002
{
1000
C
1070
     1
1002
}
1001
GENIUS_GENOBJ-N-REC_13
1002
{
1000
OWNER
1000
GEN
1002
}
1001
GENIUS_GENODEF_13
1002
{
1000
HIER
1070
     0
1002
}
1002
{
1000
MANEDIT
1070
     0
1002
}
1002
{
1000
NOSEL
1070
     0
1002
}
1002
{
1000
BEHIND
1070
     0
1002
}
1002
{
1000
OTHER
1070
     0
1002
}
1002
{
1000
REACTOR
1002
}
1001
GENIUS_GENOBJ-N-FIL_13
1002
{
1000
OWNER
1000
GEN
1002
}
  0
ARC
  5
658
330
1F
100
AcDbEntity
  8
0
100
AcDbCircle
 10
86.69999996194531
 20
174.6000005301582
 30
0.0
 40
1.0
100
AcDbArc
 50
180.0
 51
270.0
1001
GENIUS_GENREC_14
1002
{
1000
PYDIR
1011
90.1999999619452
1021
201.6000005301584
1031
0.0
1002
}
1002
{
1000
PXDIR
1011
150.1999999619453
1021
175.1000005301581
1031
0.0
1002
}
1002
{
1000
PORI
1011
90.1999999619452
1021
175.1000005301581
1031
0.0
1002
}
1002
{
1000
PINS
1011
90.1999999619452
1021
175.1000005301581
1031
0.0
1002
}
1002
{
1000
PINS2
1011
150.1999999619453
1021
201.6000005301584
1031
0.0
1002
}
1002
{
1000
C
1070
     1
1002
}
1001
GENIUS_GENOBJ-N-REC_13
1002
{
1000
OWNER
1000
GEN
1002
}
1001
GENIUS_GENODEF_13
1002
{
1000
HIER
1070
     0
1002
}
1002
{
1000
MANEDIT
1070
     0
1002
}
1002
{
1000
NOSEL
1070
     0
1002
}
1002
{
1000
BEHIND
1070
     0
1002
}
1002
{
1000
OTHER
1070
     0
1002
}
1002
{
1000
REACTOR
1002
}
1001
GENIUS_GENOBJ-N-FIL_13
1002
{
1000
OWNER
1000
GEN
1002
}
  0
LINE
  5
659
330
1F
100
AcDbEntity
  8
0
100
AcDbLine
 10
153.6999999619452
 20
204.1000005301584
 30
0.0
 11
86.69999996194519
 21
204.1000005301584
 31
0.0
1001
GENIUS_GENREC_14
1002
{
1000
PYDIR
1011
90.1999999619452
1021
202.6000005301584
1031
0.0
1002
}
1002
{
1000
PXDIR
1011
150.1999999619453
1021
176.100000530158
1031
0.0
1002
}
1002
{
1000
PORI
1011
90.1999999619452
1021
176.100000530158
1031
0.0
1002
}
1002
{
1000
PINS
1011
90.1999999619452
1021
176.100000530158
1031
0.0
1002
}
1002
{
1000
PINS2
1011
150.1999999619453
1021
202.6000005301584
1031
0.0
1002
}
1002
{
1000
C
1070
     1
1002
}
1001
GENIUS_GENOBJ-N-REC_13
1002
{
1000
OWNER
1000
GEN
1002
}
1001
GENIUS_GENODEF_13
1002
{
1000
HIER
1070
     0
1002
}
1002
{
1000
MANEDIT
1070
     0
1002
}
1002
{
1000
NOSEL
1070
     0
1002
}
1002
{
1000
BEHIND
1070
     0
1002
}
1002
{
1000
OTHER
1070
     0
1002
}
1002
{
1000
REACTOR
1002
}
  0
LINE
  5
65A
330
1F
100
AcDbEntity
  8
0
100
AcDbLine
 10
76.74999996194526
 20
153.8500005301582
 30
0.0
 11
76.74999996194526
 21
168.8500005301583
 31
0.0
  0
LINE
  5
65B
330
1F
100
AcDbEntity
  8
0
100
AcDbLine
 10
76.74999996194526
 20
153.8500005301582
 30
0.0
 11
163.6499999619454
 21
153.8500005301582
 31
0.0
  0
ELLIPSE
  5
65C
330
1F
100
AcDbEntity
  8
0
100
AcDbEllipse
 10
114.4004402228055
 20
155.7656982045767
 30
0.0
 11
1.00276584225578
 21
0.0000000000000003
 31
0.0
210
0.0
220
0.0
230
1.0
 40
0.6522657033973506
 41
0.3314984999878012
 42
5.951686807191784
  0
ELLIPSE
  5
65D
330
1F
100
AcDbEntity
  8
0
100
AcDbEllipse
 10
114.2915949092156
 20
155.7656982045767
 30
0.0
 11
1.591594947270215
 21
0.0000000000000061
 31
0.0
210
0.0
220
0.0
230
1.0
 40
0.5753333635477742
 41
0.7175354078333669
 42
6.048567121221497
  0
LINE
  5
65E
330
1F
100
AcDbEntity
  8
0
100
AcDbLine
 10
115.839585205323
 20
155.5528244562945
 30
0.0
 11
115.3486111837907
 21
155.5528244562945
 31
0.0
  0
LINE
  5
65F
330
1F
100
AcDbEntity
  8
0
100
AcDbLine
 10
115.8395348456663
 20
155.9785719528591
 30
0.0
 11
115.3486111837907
 21
155.9785719528591
 31
0.0
  0
LINE
  5
660
330
1F
100
AcDbEntity
  8
0
100
AcDbLine
 10
115.4907479960206
 20
156.6813958789954
 30
0.0
 11
115.4907479960206
 21
156.3677966919761
 31
0.0
  0
LINE
  5
661
330
1F
100
AcDbEntity
  8
0
100
AcDbLine
 10
115.8395348456663
 20
156.6813958789954
 30
0.0
 11
115.4907479960206
 21
156.6813958789954
 31
0.0
  0
LINE
  5
662
330
1F
100
AcDbEntity
  8
0
100
AcDbLine
 10
115.8395348456663
 20
155.9785719528591
 30
0.0
 11
115.8395348456663
 21
156.6813958789954
 31
0.0
  0
LINE
  5
663
330
1F
100
AcDbEntity
  8
0
100
AcDbLine
 10
118.2377906596198
 20
156.4197679720187
 30
0.0
 11
118.2377906596198
 21
155.9183144836465
 31
0.0
  0
LINE
  5
664
330
1F
100
AcDbEntity
  8
0
100
AcDbLine
 10
117.1912790317128
 20
156.4197679720187
 30
0.0
 11
117.1912790317128
 21
155.9183144836465
 31
0.0
  0
LINE
  5
665
330
1F
100
AcDbEntity
  8
0
100
AcDbLine
 10
116.4936046131081
 20
156.4197679720187
 30
0.0
 11
116.4936046131081
 21
155.111628437135
 31
0.0
  0
LINE
  5
666
330
1F
100
AcDbEntity
  8
0
100
AcDbLine
 10
118.9354650782244
 20
156.4197679720187
 30
0.0
 11
118.9354650782244
 21
155.111628437135
 31
0.0
  0
LINE
  5
667
330
1F
100
AcDbEntity
  8
0
100
AcDbLine
 10
117.1912790317128
 20
155.9183144836465
 30
0.0
 11
118.2377906596198
 21
155.9183144836465
 31
0.0
  0
LINE
  5
668
330
1F
100
AcDbEntity
  8
0
100
AcDbLine
 10
117.1912790317128
 20
155.613081925507
 30
0.0
 11
118.2377906596198
 21
155.613081925507
 31
0.0
  0
LINE
  5
669
330
1F
100
AcDbEntity
  8
0
100
AcDbLine
 10
117.5401162410152
 20
155.111628437135
 30
0.0
 11
117.1912790317128
 21
155.111628437135
 31
0.0
  0
LINE
  5
66A
330
1F
100
AcDbEntity
  8
0
100
AcDbLine
 10
117.5401162410152
 20
154.8500005301582
 30
0.0
 11
116.1447674038058
 21
154.8500005301582
 31
0.0
  0
LINE
  5
66B
330
1F
100
AcDbEntity
  8
0
100
AcDbLine
 10
116.1447674038058
 20
155.111628437135
 30
0.0
 11
116.1447674038058
 21
154.8500005301582
 31
0.0
  0
LINE
  5
66C
330
1F
100
AcDbEntity
  8
0
100
AcDbLine
 10
116.4936046131081
 20
155.111628437135
 30
0.0
 11
116.1447674038058
 21
155.111628437135
 31
0.0
  0
LINE
  5
66D
330
1F
100
AcDbEntity
  8
0
100
AcDbLine
 10
117.1912790317128
 20
155.613081925507
 30
0.0
 11
117.1912790317128
 21
155.111628437135
 31
0.0
  0
LINE
  5
66E
330
1F
100
AcDbEntity
  8
0
100
AcDbLine
 10
119.2843022875267
 20
154.8500005301582
 30
0.0
 11
117.8889534503174
 21
154.8500005301582
 31
0.0
  0
LINE
  5
66F
330
1F
100
AcDbEntity
  8
0
100
AcDbLine
 10
117.8889534503174
 20
155.111628437135
 30
0.0
 11
117.8889534503174
 21
154.8500005301582
 31
0.0
  0
LINE
  5
670
330
1F
100
AcDbEntity
  8
0
100
AcDbLine
 10
117.5401162410152
 20
155.111628437135
 30
0.0
 11
117.5401162410152
 21
154.8500005301582
 31
0.0
  0
LINE
  5
671
330
1F
100
AcDbEntity
  8
0
100
AcDbLine
 10
118.2377906596198
 20
155.111628437135
 30
0.0
 11
117.8889534503174
 21
155.111628437135
 31
0.0
  0
LINE
  5
672
330
1F
100
AcDbEntity
  8
0
100
AcDbLine
 10
118.2377906596198
 20
155.613081925507
 30
0.0
 11
118.2377906596198
 21
155.111628437135
 31
0.0
  0
LINE
  5
673
330
1F
100
AcDbEntity
  8
0
100
AcDbLine
 10
119.2843022875267
 20
155.111628437135
 30
0.0
 11
119.2843022875267
 21
154.8500005301582
 31
0.0
  0
LINE
  5
674
330
1F
100
AcDbEntity
  8
0
100
AcDbLine
 10
119.2843022875267
 20
155.111628437135
 30
0.0
 11
118.9354650782244
 21
155.111628437135
 31
0.0
  0
LINE
  5
675
330
1F
100
AcDbEntity
  8
0
100
AcDbLine
 10
117.5401162410152
 20
156.4197679720187
 30
0.0
 11
117.1912790317128
 21
156.4197679720187
 31
0.0
  0
LINE
  5
676
330
1F
100
AcDbEntity
  8
0
100
AcDbLine
 10
117.5401162410152
 20
156.6813958789954
 30
0.0
 11
116.1447674038058
 21
156.6813958789954
 31
0.0
  0
LINE
  5
677
330
1F
100
AcDbEntity
  8
0
100
AcDbLine
 10
116.1447674038058
 20
156.6813958789954
 30
0.0
 11
116.1447674038058
 21
156.4197679720187
 31
0.0
  0
LINE
  5
678
330
1F
100
AcDbEntity
  8
0
100
AcDbLine
 10
116.4936046131081
 20
156.4197679720187
 30
0.0
 11
116.1447674038058
 21
156.4197679720187
 31
0.0
  0
LINE
  5
679
330
1F
100
AcDbEntity
  8
0
100
AcDbLine
 10
119.2843022875267
 20
156.6813958789954
 30
0.0
 11
117.8889534503174
 21
156.6813958789954
 31
0.0
  0
LINE
  5
67A
330
1F
100
AcDbEntity
  8
0
100
AcDbLine
 10
118.2377906596198
 20
156.4197679720187
 30
0.0
 11
117.8889534503174
 21
156.4197679720187
 31
0.0
  0
LINE
  5
67B
330
1F
100
AcDbEntity
  8
0
100
AcDbLine
 10
117.8889534503174
 20
156.6813958789954
 30
0.0
 11
117.8889534503174
 21
156.4197679720187
 31
0.0
  0
LINE
  5
67C
330
1F
100
AcDbEntity
  8
0
100
AcDbLine
 10
117.5401162410152
 20
156.6813958789954
 30
0.0
 11
117.5401162410152
 21
156.4197679720187
 31
0.0
  0
LINE
  5
67D
330
1F
100
AcDbEntity
  8
0
100
AcDbLine
 10
119.2843022875267
 20
156.6813958789954
 30
0.0
 11
119.2843022875267
 21
156.4197679720187
 31
0.0
  0
LINE
  5
67E
330
1F
100
AcDbEntity
  8
0
100
AcDbLine
 10
119.2843022875267
 20
156.4197679720187
 30
0.0
 11
118.9354650782244
 21
156.4197679720187
 31
0.0
  0
LINE
  5
67F
330
1F
100
AcDbEntity
  8
0
100
AcDbLine
 10
119.9383720549685
 20
156.4197679720187
 30
0.0
 11
119.9383720549685
 21
155.111628437135
 31
0.0
  0
LINE
  5
680
330
1F
100
AcDbEntity
  8
0
100
AcDbLine
 10
120.636046473573
 20
156.4197679720187
 30
0.0
 11
120.636046473573
 21
155.111628437135
 31
0.0
  0
LINE
  5
681
330
1F
100
AcDbEntity
  8
0
100
AcDbLine
 10
120.9848836828756
 20
154.8500005301582
 30
0.0
 11
119.5895348456663
 21
154.8500005301582
 31
0.0
  0
LINE
  5
682
330
1F
100
AcDbEntity
  8
0
100
AcDbLine
 10
119.5895348456663
 20
155.111628437135
 30
0.0
 11
119.5895348456663
 21
154.8500005301582
 31
0.0
  0
LINE
  5
683
330
1F
100
AcDbEntity
  8
0
100
AcDbLine
 10
119.9383720549685
 20
155.111628437135
 30
0.0
 11
119.5895348456663
 21
155.111628437135
 31
0.0
  0
LINE
  5
684
330
1F
100
AcDbEntity
  8
0
100
AcDbLine
 10
120.9848836828756
 20
155.111628437135
 30
0.0
 11
120.9848836828756
 21
154.8500005301582
 31
0.0
  0
LINE
  5
685
330
1F
100
AcDbEntity
  8
0
100
AcDbLine
 10
120.9848836828756
 20
155.111628437135
 30
0.0
 11
120.636046473573
 21
155.111628437135
 31
0.0
  0
LINE
  5
686
330
1F
100
AcDbEntity
  8
0
100
AcDbLine
 10
120.9848836828756
 20
156.6813958789954
 30
0.0
 11
119.5895348456663
 21
156.6813958789954
 31
0.0
  0
LINE
  5
687
330
1F
100
AcDbEntity
  8
0
100
AcDbLine
 10
119.5895348456663
 20
156.6813958789954
 30
0.0
 11
119.5895348456662
 21
156.4197679720187
 31
0.0
  0
LINE
  5
688
330
1F
100
AcDbEntity
  8
0
100
AcDbLine
 10
119.9383720549685
 20
156.4197679720187
 30
0.0
 11
119.5895348456663
 21
156.4197679720187
 31
0.0
  0
LINE
  5
689
330
1F
100
AcDbEntity
  8
0
100
AcDbLine
 10
120.9848836828756
 20
156.4197679720187
 30
0.0
 11
120.636046473573
 21
156.4197679720187
 31
0.0
  0
LINE
  5
68A
330
1F
100
AcDbEntity
  8
0
100
AcDbLine
 10
120.9848836828756
 20
156.6813958789954
 30
0.0
 11
120.9848836828756
 21
156.4197679720187
 31
0.0
  0
LINE
  5
68B
330
1F
100
AcDbEntity
  8
0
100
AcDbLine
 10
123.6883720549685
 20
156.4197679720187
 30
0.0
 11
123.6883720549685
 21
155.3732563441116
 31
0.0
  0
LINE
  5
68C
330
1F
100
AcDbEntity
  8
0
100
AcDbLine
 10
122.3802325200848
 20
156.6813958789954
 30
0.0
 11
123.6883720549685
 21
155.3732563441116
 31
0.0
  0
LINE
  5
68D
330
1F
100
AcDbEntity
  8
0
100
AcDbLine
 10
122.0313953107825
 20
156.1669050415002
 30
0.0
 11
123.3482998221245
 21
154.8500005301582
 31
0.0
  0
LINE
  5
68E
330
1F
100
AcDbEntity
  8
0
100
AcDbLine
 10
122.0313953107825
 20
156.1669050415002
 30
0.0
 11
122.0313953107825
 21
155.111628437135
 31
0.0
  0
LINE
  5
68F
330
1F
100
AcDbEntity
  8
0
100
AcDbLine
 10
121.6389534503174
 20
156.4197679720187
 30
0.0
 11
121.6389534503174
 21
155.111628437135
 31
0.0
  0
LINE
  5
690
330
1F
100
AcDbEntity
  8
0
100
AcDbLine
 10
124.0808139154337
 20
156.4197679720187
 30
0.0
 11
124.0808139154337
 21
154.8500005301582
 31
0.0
  0
LINE
  5
691
330
1F
100
AcDbEntity
  8
0
100
AcDbLine
 10
122.3802325200848
 20
155.111628437135
 30
0.0
 11
122.3802325200848
 21
154.8500005301582
 31
0.0
  0
LINE
  5
692
330
1F
100
AcDbEntity
  8
0
100
AcDbLine
 10
121.290116241015
 20
155.111628437135
 30
0.0
 11
121.290116241015
 21
154.8500005301582
 31
0.0
  0
LINE
  5
693
330
1F
100
AcDbEntity
  8
0
100
AcDbLine
 10
122.3802325200848
 20
154.8500005301582
 30
0.0
 11
121.290116241015
 21
154.8500005301582
 31
0.0
  0
LINE
  5
694
330
1F
100
AcDbEntity
  8
0
100
AcDbLine
 10
121.6389534503174
 20
155.111628437135
 30
0.0
 11
121.290116241015
 21
155.111628437135
 31
0.0
  0
LINE
  5
695
330
1F
100
AcDbEntity
  8
0
100
AcDbLine
 10
122.0313953107825
 20
155.111628437135
 30
0.0
 11
122.3802325200848
 21
155.111628437135
 31
0.0
  0
LINE
  5
696
330
1F
100
AcDbEntity
  8
0
100
AcDbLine
 10
124.0808139154337
 20
154.8500005301582
 30
0.0
 11
123.3482998221245
 21
154.8500005301582
 31
0.0
  0
LINE
  5
697
330
1F
100
AcDbEntity
  8
0
100
AcDbLine
 10
122.3802325200848
 20
156.6813958789954
 30
0.0
 11
121.290116241015
 21
156.6813958789954
 31
0.0
  0
LINE
  5
698
330
1F
100
AcDbEntity
  8
0
100
AcDbLine
 10
121.290116241015
 20
156.6813958789954
 30
0.0
 11
121.290116241015
 21
156.4197679720187
 31
0.0
  0
LINE
  5
699
330
1F
100
AcDbEntity
  8
0
100
AcDbLine
 10
121.6389534503174
 20
156.4197679720187
 30
0.0
 11
121.290116241015
 21
156.4197679720187
 31
0.0
  0
LINE
  5
69A
330
1F
100
AcDbEntity
  8
0
100
AcDbLine
 10
124.4296511247359
 20
156.6813958789954
 30
0.0
 11
123.3395348456663
 21
156.6813958789954
 31
0.0
  0
LINE
  5
69B
330
1F
100
AcDbEntity
  8
0
100
AcDbLine
 10
123.3395348456663
 20
156.6813958789954
 30
0.0
 11
123.3395348456663
 21
156.4197679720187
 31
0.0
  0
LINE
  5
69C
330
1F
100
AcDbEntity
  8
0
100
AcDbLine
 10
123.6883720549685
 20
156.4197679720187
 30
0.0
 11
123.3395348456663
 21
156.4197679720187
 31
0.0
  0
LINE
  5
69D
330
1F
100
AcDbEntity
  8
0
100
AcDbLine
 10
124.4296511247359
 20
156.6813958789954
 30
0.0
 11
124.4296511247359
 21
156.4197679720187
 31
0.0
  0
LINE
  5
69E
330
1F
100
AcDbEntity
  8
0
100
AcDbLine
 10
124.4296511247359
 20
156.4197679720187
 30
0.0
 11
124.0808139154337
 21
156.4197679720187
 31
0.0
  0
ELLIPSE
  5
69F
330
1F
100
AcDbEntity
  8
0
100
AcDbEllipse
 10
126.1302325200847
 20
155.7656982045767
 30
0.0
 11
-1.569767441860465
 21
0.0
 31
0.0
210
0.0
220
0.0
230
1.0
 40
0.5833333335538832
 41
0.0
 42
6.283185307179584
  0
ELLIPSE
  5
6A0
330
1F
100
AcDbEntity
  8
0
100
AcDbEllipse
 10
126.130257699913
 20
155.7656982045767
 30
0.0
 11
-0.8721182030841744
 21
0.0
 31
0.0
210
0.0
220
0.0
230
1.0
 40
0.7499783459728239
 41
0.0
 42
6.283185307179584
  0
LINE
  5
6A1
330
1F
100
AcDbEntity
  8
0
100
AcDbLine
 10
86.69999996194531
 20
164.3500005301581
 30
0.0
 11
96.69999996194531
 21
164.3500005301581
 31
0.0
1001
GENIUS_GENODEF_13
1002
{
1000
HIER
1070
     0
1002
}
1002
{
1000
MANEDIT
1070
     0
1002
}
1002
{
1000
NOSEL
1070
     0
1002
}
1002
{
1000
BEHIND
1070
     0
1002
}
1002
{
1000
OTHER
1070
     0
1002
}
1002
{
1000
REACTOR
1002
}
1001
GENIUS_GENOBJ-N-CEN_13
1002
{
1000
OWNER
1000
GEN
1002
}
1001
GENIUS_GENCEN_19
1002
{
1040
2.793999999999998
1002
}
  0
LINE
  5
6A2
330
1F
100
AcDbEntity
  8
0
100
AcDbLine
 10
86.69999996194531
 20
158.3500005301581
 30
0.0
 11
96.69999996194531
 21
158.3500005301581
 31
0.0
1001
GENIUS_GENODEF_13
1002
{
1000
HIER
1070
     0
1002
}
1002
{
1000
MANEDIT
1070
     0
1002
}
1002
{
1000
NOSEL
1070
     0
1002
}
1002
{
1000
BEHIND
1070
     0
1002
}
1002
{
1000
OTHER
1070
     0
1002
}
1002
{
1000
REACTOR
1002
}
1001
GENIUS_GENOBJ-N-CEN_13
1002
{
1000
OWNER
1000
GEN
1002
}
1001
GENIUS_GENCEN_19
1002
{
1040
2.793999999999998
1002
}
  0
ARC
  5
6A3
330
1F
100
AcDbEntity
  8
0
100
AcDbCircle
 10
86.69999996194531
 20
161.3500005301581
 30
0.0
 40
3.000000000000006
100
AcDbArc
 50
90.0
 51
270.0
  0
ARC
  5
6A4
330
1F
100
AcDbEntity
  8
0
100
AcDbCircle
 10
96.69999996194531
 20
161.3500005301581
 30
0.0
 40
3.000000000000006
100
AcDbArc
 50
270.0
 51
90.0
  0
LINE
  5
6A5
330
1F
100
AcDbEntity
  8
0
100
AcDbLine
 10
105.6999999619453
 20
164.3500005301581
 30
0.0
 11
115.6999999619454
 21
164.3500005301581
 31
0.0
1001
GENIUS_GENODEF_13
1002
{
1000
HIER
1070
     0
1002
}
1002
{
1000
MANEDIT
1070
     0
1002
}
1002
{
1000
NOSEL
1070
     0
1002
}
1002
{
1000
BEHIND
1070
     0
1002
}
1002
{
1000
OTHER
1070
     0
1002
}
1002
{
1000
REACTOR
1002
}
1001
GENIUS_GENOBJ-N-CEN_13
1002
{
1000
OWNER
1000
GEN
1002
}
1001
GENIUS_GENCEN_19
1002
{
1040
2.793999999999998
1002
}
  0
LINE
  5
6A6
330
1F
100
AcDbEntity
  8
0
100
AcDbLine
 10
105.6999999619453
 20
158.3500005301581
 30
0.0
 11
115.6999999619454
 21
158.3500005301581
 31
0.0
1001
GENIUS_GENODEF_13
1002
{
1000
HIER
1070
     0
1002
}
1002
{
1000
MANEDIT
1070
     0
1002
}
1002
{
1000
NOSEL
1070
     0
1002
}
1002
{
1000
BEHIND
1070
     0
1002
}
1002
{
1000
OTHER
1070
     0
1002
}
1002
{
1000
REACTOR
1002
}
1001
GENIUS_GENOBJ-N-CEN_13
1002
{
1000
OWNER
1000
GEN
1002
}
1001
GENIUS_GENCEN_19
1002
{
1040
2.793999999999998
1002
}
  0
ARC
  5
6A7
330
1F
100
AcDbEntity
  8
0
100
AcDbCircle
 10
105.6999999619453
 20
161.3500005301581
 30
0.0
 40
3.000000000000006
100
AcDbArc
 50
90.0
 51
270.0
  0
ARC
  5
6A8
330
1F
100
AcDbEntity
  8
0
100
AcDbCircle
 10
115.6999999619454
 20
161.3500005301581
 30
0.0
 40
3.000000000000006
100
AcDbArc
 50
270.0
 51
90.0
  0
LINE
  5
6A9
330
1F
100
AcDbEntity
  8
0
100
AcDbLine
 10
124.6999999619453
 20
164.3500005301581
 30
0.0
 11
134.6999999619454
 21
164.3500005301581
 31
0.0
1001
GENIUS_GENODEF_13
1002
{
1000
HIER
1070
     0
1002
}
1002
{
1000
MANEDIT
1070
     0
1002
}
1002
{
1000
NOSEL
1070
     0
1002
}
1002
{
1000
BEHIND
1070
     0
1002
}
1002
{
1000
OTHER
1070
     0
1002
}
1002
{
1000
REACTOR
1002
}
1001
GENIUS_GENOBJ-N-CEN_13
1002
{
1000
OWNER
1000
GEN
1002
}
1001
GENIUS_GENCEN_19
1002
{
1040
2.793999999999998
1002
}
  0
LINE
  5
6AA
330
1F
100
AcDbEntity
  8
0
100
AcDbLine
 10
124.6999999619453
 20
158.3500005301581
 30
0.0
 11
134.6999999619454
 21
158.3500005301581
 31
0.0
1001
GENIUS_GENODEF_13
1002
{
1000
HIER
1070
     0
1002
}
1002
{
1000
MANEDIT
1070
     0
1002
}
1002
{
1000
NOSEL
1070
     0
1002
}
1002
{
1000
BEHIND
1070
     0
1002
}
1002
{
1000
OTHER
1070
     0
1002
}
1002
{
1000
REACTOR
1002
}
1001
GENIUS_GENOBJ-N-CEN_13
1002
{
1000
OWNER
1000
GEN
1002
}
1001
GENIUS_GENCEN_19
1002
{
1040
2.793999999999998
1002
}
  0
ARC
  5
6AB
330
1F
100
AcDbEntity
  8
0
100
AcDbCircle
 10
124.6999999619453
 20
161.3500005301581
 30
0.0
 40
3.000000000000006
100
AcDbArc
 50
90.0
 51
270.0
  0
ARC
  5
6AC
330
1F
100
AcDbEntity
  8
0
100
AcDbCircle
 10
134.6999999619454
 20
161.3500005301581
 30
0.0
 40
3.000000000000006
100
AcDbArc
 50
270.0
 51
90.0
  0
LINE
  5
6AD
330
1F
100
AcDbEntity
  8
0
100
AcDbLine
 10
143.6999999619453
 20
164.3500005301581
 30
0.0
 11
153.6999999619454
 21
164.3500005301581
 31
0.0
1001
GENIUS_GENODEF_13
1002
{
1000
HIER
1070
     0
1002
}
1002
{
1000
MANEDIT
1070
     0
1002
}
1002
{
1000
NOSEL
1070
     0
1002
}
1002
{
1000
BEHIND
1070
     0
1002
}
1002
{
1000
OTHER
1070
     0
1002
}
1002
{
1000
REACTOR
1002
}
1001
GENIUS_GENOBJ-N-CEN_13
1002
{
1000
OWNER
1000
GEN
1002
}
1001
GENIUS_GENCEN_19
1002
{
1040
2.793999999999998
1002
}
  0
LINE
  5
6AE
330
1F
100
AcDbEntity
  8
0
100
AcDbLine
 10
143.6999999619453
 20
158.3500005301581
 30
0.0
 11
153.6999999619454
 21
158.3500005301581
 31
0.0
1001
GENIUS_GENODEF_13
1002
{
1000
HIER
1070
     0
1002
}
1002
{
1000
MANEDIT
1070
     0
1002
}
1002
{
1000
NOSEL
1070
     0
1002
}
1002
{
1000
BEHIND
1070
     0
1002
}
1002
{
1000
OTHER
1070
     0
1002
}
1002
{
1000
REACTOR
1002
}
1001
GENIUS_GENOBJ-N-CEN_13
1002
{
1000
OWNER
1000
GEN
1002
}
1001
GENIUS_GENCEN_19
1002
{
1040
2.793999999999998
1002
}
  0
ARC
  5
6AF
330
1F
100
AcDbEntity
  8
0
100
AcDbCircle
 10
143.6999999619453
 20
161.3500005301581
 30
0.0
 40
3.000000000000006
100
AcDbArc
 50
90.0
 51
270.0
  0
ARC
  5
6B0
330
1F
100
AcDbEntity
  8
0
100
AcDbCircle
 10
153.6999999619454
 20
161.3500005301581
 30
0.0
 40
3.000000000000006
100
AcDbArc
 50
270.0
 51
90.0
  0
LINE
  5
6B1
330
1F
100
AcDbEntity
  8
0
100
AcDbLine
 10
167.2999999619453
 20
195.3000005301581
 30
0.0
 11
167.2999999619453
 21
185.3000005301582
 31
0.0
  0
LINE
  5
6B2
330
1F
100
AcDbEntity
  8
0
100
AcDbLine
 10
168.3999999619443
 20
178.3000005301582
 30
0.0
 11
178.3999999619445
 21
178.3000005301582
 31
0.0
  0
LINE
  5
6B3
330
1F
100
AcDbEntity
  8
0
100
AcDbLine
 10
167.2999999619453
 20
195.3000005301581
 30
0.0
 11
168.3999999619443
 21
195.3000005301581
 31
0.0
  0
LINE
  5
6B4
330
1F
100
AcDbEntity
  8
0
100
AcDbLine
 10
167.1999999619453
 20
193.5000005301581
 30
0.0
 11
167.2999999619458
 21
193.5000005301581
 31
0.0
  0
LINE
  5
6B5
330
1F
100
AcDbEntity
  8
0
100
AcDbLine
 10
167.1999999619452
 20
187.100000530158
 30
0.0
 11
167.2999999619458
 21
187.100000530158
 31
0.0
  0
LINE
  5
6B6
330
1F
100
AcDbEntity
  8
0
100
AcDbLine
 10
167.2999999619453
 20
185.3000005301582
 30
0.0
 11
168.3999999619442
 21
185.3000005301579
 31
0.0
  0
LINE
  5
6B7
330
1F
100
AcDbEntity
  8
0
100
AcDbLine
 10
172.1999999619443
 20
181.7000005301582
 30
0.0
 11
174.5999999619443
 21
181.7000005301582
 31
0.0
1001
GENIUS_GENREC_14
1002
{
1000
PYDIR
1011
172.3999999619443
1021
183.9000005301578
1031
0.0
1002
}
1002
{
1000
PXDIR
1011
174.3999999619445
1021
181.900000530158
1031
0.0
1002
}
1002
{
1000
PORI
1011
172.3999999619443
1021
181.900000530158
1031
0.0
1002
}
1002
{
1000
PINS
1011
172.3999999619443
1021
181.900000530158
1031
0.0
1002
}
1002
{
1000
PINS2
1011
174.3999999619445
1021
183.9000005301578
1031
0.0
1002
}
1002
{
1000
C
1070
     1
1002
}
1001
GENIUS_GENODEF_13
1002
{
1000
HIER
1070
     0
1002
}
1002
{
1000
MANEDIT
1070
     0
1002
}
1002
{
1000
NOSEL
1070
     0
1002
}
1002
{
1000
BEHIND
1070
     0
1002
}
1002
{
1000
OTHER
1070
     0
1002
}
1002
{
1000
REACTOR
1002
}
1001
GENIUS_GENOBJ-N-REC_13
1002
{
1000
OWNER
1000
GEN
1002
}
  0
LINE
  5
6B8
330
1F
100
AcDbEntity
  8
0
100
AcDbLine
 10
174.5999999619443
 20
181.7000005301582
 30
0.0
 11
174.5999999619443
 21
183.9000005301578
 31
0.0
1001
GENIUS_GENREC_14
1002
{
1000
PYDIR
1011
172.3999999619443
1021
183.7000005301575
1031
0.0
1002
}
1002
{
1000
PXDIR
1011
174.3999999619445
1021
181.900000530158
1031
0.0
1002
}
1002
{
1000
PORI
1011
172.3999999619443
1021
181.900000530158
1031
0.0
1002
}
1002
{
1000
PINS
1011
172.3999999619443
1021
181.900000530158
1031
0.0
1002
}
1002
{
1000
PINS2
1011
174.3999999619445
1021
183.7000005301575
1031
0.0
1002
}
1002
{
1000
C
1070
     1
1002
}
1001
GENIUS_GENODEF_13
1002
{
1000
HIER
1070
     0
1002
}
1002
{
1000
MANEDIT
1070
     0
1002
}
1002
{
1000
NOSEL
1070
     0
1002
}
1002
{
1000
BEHIND
1070
     0
1002
}
1002
{
1000
OTHER
1070
     0
1002
}
1002
{
1000
REACTOR
1002
}
1001
GENIUS_GENOBJ-N-REC_13
1002
{
1000
OWNER
1000
GEN
1002
}
  0
LINE
  5
6B9
330
1F
100
AcDbEntity
  8
0
100
AcDbLine
 10
174.5999999619443
 20
183.9000005301578
 30
0.0
 11
172.1999999619443
 21
183.9000005301578
 31
0.0
1001
GENIUS_GENREC_14
1002
{
1000
PYDIR
1011
172.3999999619443
1021
183.7000005301575
1031
0.0
1002
}
1002
{
1000
PXDIR
1011
174.3999999619445
1021
181.900000530158
1031
0.0
1002
}
1002
{
1000
PORI
1011
172.3999999619443
1021
181.900000530158
1031
0.0
1002
}
1002
{
1000
PINS
1011
172.3999999619443
1021
181.900000530158
1031
0.0
1002
}
1002
{
1000
PINS2
1011
174.3999999619445
1021
183.7000005301575
1031
0.0
1002
}
1002
{
1000
C
1070
     1
1002
}
1001
GENIUS_GENODEF_13
1002
{
1000
HIER
1070
     0
1002
}
1002
{
1000
MANEDIT
1070
     0
1002
}
1002
{
1000
NOSEL
1070
     0
1002
}
1002
{
1000
BEHIND
1070
     0
1002
}
1002
{
1000
OTHER
1070
     0
1002
}
1002
{
1000
REACTOR
1002
}
1001
GENIUS_GENOBJ-N-REC_13
1002
{
1000
OWNER
1000
GEN
1002
}
  0
LINE
  5
6BA
330
1F
100
AcDbEntity
  8
0
100
AcDbLine
 10
172.1999999619443
 20
183.9000005301578
 30
0.0
 11
172.1999999619443
 21
181.7000005301582
 31
0.0
1001
GENIUS_GENREC_14
1002
{
1000
PYDIR
1011
172.3999999619443
1021
183.7000005301575
1031
0.0
1002
}
1002
{
1000
PXDIR
1011
174.3999999619445
1021
181.900000530158
1031
0.0
1002
}
1002
{
1000
PORI
1011
172.3999999619443
1021
181.900000530158
1031
0.0
1002
}
1002
{
1000
PINS
1011
172.3999999619443
1021
181.900000530158
1031
0.0
1002
}
1002
{
1000
PINS2
1011
174.3999999619445
1021
183.7000005301575
1031
0.0
1002
}
1002
{
1000
C
1070
     1
1002
}
1001
GENIUS_GENODEF_13
1002
{
1000
HIER
1070
     0
1002
}
1002
{
1000
MANEDIT
1070
     0
1002
}
1002
{
1000
NOSEL
1070
     0
1002
}
1002
{
1000
BEHIND
1070
     0
1002
}
1002
{
1000
OTHER
1070
     0
1002
}
1002
{
1000
REACTOR
1002
}
1001
GENIUS_GENOBJ-N-REC_13
1002
{
1000
OWNER
1000
GEN
1002
}
  0
LINE
  5
6BB
330
1F
100
AcDbEntity
  8
0
100
AcDbLine
 10
178.3999999619443
 20
178.3000005301678
 30
0.0
 11
178.3999999619443
 21
202.3000005301582
 31
0.0
  0
LINE
  5
6BC
330
1F
100
AcDbEntity
  8
0
100
AcDbLine
 10
168.3999999619442
 20
178.3000005301678
 30
0.0
 11
168.3999999619442
 21
185.3000005301579
 31
0.0
  0
LINE
  5
6BD
330
1F
100
AcDbEntity
  8
0
100
AcDbLine
 10
168.3999999619443
 20
195.3000005301581
 30
0.0
 11
168.3999999619443
 21
202.3000005301582
 31
0.0
  0
LINE
  5
6BE
330
1F
100
AcDbEntity
  8
0
100
AcDbLine
 10
168.3999999619443
 20
195.3000005301581
 30
0.0
 11
173.3999999619443
 21
190.3000005301582
 31
0.0
  0
LINE
  5
6BF
330
1F
100
AcDbEntity
  8
0
100
AcDbLine
 10
173.3999999619443
 20
190.3000005301582
 30
0.0
 11
168.3999999619443
 21
185.3000005301582
 31
0.0
  0
LINE
  5
6C0
330
1F
100
AcDbEntity
  8
0
100
AcDbLine
 10
177.3999999619445
 20
255.3000005301585
 30
0.0
 11
169.3999999619443
 21
255.3000005301583
 31
0.0
  0
LINE
  5
6C1
330
1F
100
AcDbEntity
  8
0
100
AcDbLine
 10
168.3999999619443
 20
202.3000005301582
 30
0.0
 11
169.3999999619443
 21
255.3000005301583
 31
0.0
  0
LINE
  5
6C2
330
1F
100
AcDbEntity
  8
0
100
AcDbLine
 10
178.3999999619443
 20
202.3000005301582
 30
0.0
 11
177.3999999619445
 21
255.3000005301585
 31
0.0
  0
LINE
  5
6C3
330
1F
100
AcDbEntity
  8
0
100
AcDbLine
 10
169.4999999619439
 20
255.3000005301583
 30
0.0
 11
169.5557980951332
 21
257.2015034559971
 31
0.0
  0
LINE
  5
6C4
330
1F
100
AcDbEntity
  8
0
100
AcDbLine
 10
177.2999999619439
 20
255.3000005301583
 30
0.0
 11
177.2442018287545
 21
257.2015034559965
 31
0.0
  0
ARC
  5
6C5
330
1F
100
AcDbEntity
  8
0
100
AcDbCircle
 10
176.7442942587396
 20
257.1918898488811
 30
0.0
 40
0.5
100
AcDbArc
 50
1.101706115201055
 51
69.38841074338522
1001
GENIUS_GENODEF_13
1002
{
1000
HIER
1070
     0
1002
}
1002
{
1000
MANEDIT
1070
     0
1002
}
1002
{
1000
NOSEL
1070
     0
1002
}
1002
{
1000
BEHIND
1070
     0
1002
}
1002
{
1000
OTHER
1070
     0
1002
}
1002
{
1000
REACTOR
1002
}
1001
GENIUS_GENOBJ-N-FIL_13
1002
{
1000
OWNER
1000
GEN
1002
}
  0
ARC
  5
6C6
330
1F
100
AcDbEntity
  8
0
100
AcDbCircle
 10
170.0557056651481
 20
257.1918898488815
 30
0.0
 40
0.5
100
AcDbArc
 50
110.6115892566115
 51
178.8982938847924
1001
GENIUS_GENOBJ-N-FIL_13
1002
{
1000
OWNER
1000
GEN
1002
}
1001
GENIUS_GENODEF_13
1002
{
1000
HIER
1070
     0
1002
}
1002
{
1000
MANEDIT
1070
     0
1002
}
1002
{
1000
NOSEL
1070
     0
1002
}
1002
{
1000
BEHIND
1070
     0
1002
}
1002
{
1000
OTHER
1070
     0
1002
}
1002
{
1000
REACTOR
1002
}
  0
ARC
  5
6C7
330
1F
100
AcDbEntity
  8
0
100
AcDbCircle
 10
173.3999999619436
 20
248.3000005301583
 30
0.0
 40
10.0
100
AcDbArc
 50
69.38841074338522
 51
81.37307343471128
  0
ARC
  5
6C8
330
1F
100
AcDbEntity
  8
0
100
AcDbCircle
 10
173.3999999619436
 20
248.3000005301583
 30
0.0
 40
10.0
100
AcDbArc
 50
98.62692656528871
 51
110.6115892566115
  0
LINE
  5
6C9
330
1F
100
AcDbEntity
  8
0
100
AcDbLine
 10
174.8999999630843
 20
258.1868604966278
 30
0.0
 11
171.8999999608029
 21
258.1868604966278
 31
0.0
  0
LINE
  5
6CA
330
1F
100
AcDbEntity
  8
0
100
AcDbLine
 10
174.3999999619445
 20
182.2000005301582
 30
0.0
 11
172.3999999619443
 21
182.2000005301581
 31
0.0
  0
LINE
  5
6CB
330
1F
100
AcDbEntity
  8
0
100
AcDbLine
 10
177.8999999619444
 20
176.8000005301582
 30
0.0
 11
168.8999999619441
 21
176.800000530158
 31
0.0
  0
LINE
  5
6CC
330
1F
100
AcDbEntity
  8
0
100
AcDbLine
 10
168.3999999619443
 20
177.3000005301581
 30
0.0
 11
168.8999999619441
 21
176.800000530158
 31
0.0
1001
GENIUS_GENFIL_13
1070
     0
1040
0.5
1040
0.5
1040
20.0
1040
0.0
1002
{
1002
}
1001
GENIUS_GENODEF_13
1002
{
1000
HIER
1070
     0
1002
}
1002
{
1000
MANEDIT
1070
     0
1002
}
1002
{
1000
NOSEL
1070
     0
1002
}
1002
{
1000
BEHIND
1070
     0
1002
}
1002
{
1000
OTHER
1070
     0
1002
}
1002
{
1000
REACTOR
1002
}
1001
GENIUS_GENOBJ-N-CHA_13
1002
{
1000
OWNER
1000
GEN
1002
}
  0
LINE
  5
6CD
330
1F
100
AcDbEntity
  8
0
100
AcDbLine
 10
178.3999999619443
 20
178.3000005301582
 30
0.0
 11
178.3999999619445
 21
177.3000005301582
 31
0.0
  0
LINE
  5
6CE
330
1F
100
AcDbEntity
  8
0
100
AcDbLine
 10
177.8999999619444
 20
176.8000005301582
 30
0.0
 11
178.3999999619445
 21
177.3000005301582
 31
0.0
1001
GENIUS_GENFIL_13
1070
     0
1040
0.5
1040
0.5
1040
0.4999999999999787
1040
45.00000000000446
1000
~T
1001
GENIUS_GENOREF_13
1005
0
  0
LINE
  5
6CF
330
1F
100
AcDbEntity
  8
0
100
AcDbLine
 10
168.3999999619444
 20
178.3000005301582
 30
0.0
 11
168.3999999619443
 21
177.3000005301581
 31
0.0
  0
LINE
  5
6D0
330
1F
100
AcDbEntity
  8
0
100
AcDbLine
 10
178.3999999619445
 20
177.3000005301585
 30
0.0
 11
168.3999999619443
 21
177.3000005301581
 31
0.0
  0
LINE
  5
6D1
330
1F
100
AcDbEntity
  8
0
100
AcDbLine
 10
174.3999999619445
 20
183.7000005301575
 30
0.0
 11
172.3999999619443
 21
183.7000005301577
 31
0.0
  0
LINE
  5
6D2
330
1F
100
AcDbEntity
  8
0
100
AcDbLine
 10
172.3999999619443
 20
181.7000005301582
 30
0.0
 11
172.3999999619443
 21
183.7000005301577
 31
0.0
  0
LINE
  5
6D3
330
1F
100
AcDbEntity
  8
0
100
AcDbLine
 10
174.3999999619443
 20
181.7000005301582
 30
0.0
 11
174.3999999619445
 21
183.7000005301575
 31
0.0
  0
LINE
  5
6D4
330
1F
100
AcDbEntity
  8
0
100
AcDbLine
 10
71.99999996194559
 20
178.3000005301582
 30
0.0
 11
59.99999996194532
 21
178.3000005301582
 31
0.0
  0
LINE
  5
6D5
330
1F
100
AcDbEntity
  8
0
100
AcDbLine
 10
72.89999996194534
 20
195.3000005301581
 30
0.0
 11
71.99999996194559
 21
195.3000005301581
 31
0.0
  0
LINE
  5
6D6
330
1F
100
AcDbEntity
  8
0
100
AcDbLine
 10
72.89999996194534
 20
185.3000005301581
 30
0.0
 11
71.99999996194559
 21
185.3000005301579
 31
0.0
  0
LINE
  5
6D7
330
1F
100
AcDbEntity
  8
0
100
AcDbLine
 10
59.99999996194549
 20
171.8000005301581
 30
0.0
 11
59.99999996194549
 21
196.8000005301486
 31
0.0
  0
LINE
  5
6D8
330
1F
100
AcDbEntity
  8
0
100
AcDbLine
 10
71.99999996194559
 20
171.8000005301581
 30
0.0
 11
71.99999996194559
 21
185.3000005301579
 31
0.0
  0
LINE
  5
6D9
330
1F
100
AcDbEntity
  8
0
100
AcDbLine
 10
71.99999996194559
 20
195.3000005301581
 30
0.0
 11
71.99999996194559
 21
196.8000005301486
 31
0.0
  0
LINE
  5
6DA
330
1F
100
AcDbEntity
  8
0
100
AcDbLine
 10
71.99999996194559
 20
196.8000005301486
 30
0.0
 11
59.99999996194549
 21
196.8000005301486
 31
0.0
  0
LINE
  5
6DB
330
1F
100
AcDbEntity
  8
0
100
AcDbLine
 10
60.49999996194532
 20
197.3000005301486
 30
0.0
 11
59.99999996194539
 21
196.8000005301486
 31
0.0
1001
GENIUS_GENFIL_13
1070
     0
1040
0.5
1040
0.5
1040
0.5
1040
45.00000000000325
1002
{
1002
}
1001
GENIUS_GENOBJ-N-CHA_13
1002
{
1000
OWNER
1000
GEN
1002
}
1001
GENIUS_GENODEF_13
1002
{
1000
HIER
1070
     0
1002
}
1002
{
1000
MANEDIT
1070
     0
1002
}
1002
{
1000
NOSEL
1070
     0
1002
}
1002
{
1000
BEHIND
1070
     0
1002
}
1002
{
1000
OTHER
1070
     0
1002
}
1002
{
1000
REACTOR
1002
}
  0
LINE
  5
6DC
330
1F
100
AcDbEntity
  8
0
100
AcDbLine
 10
60.49999996194532
 20
197.3000005301486
 30
0.0
 11
71.49999996194549
 21
197.3000005301486
 31
0.0
  0
LINE
  5
6DD
330
1F
100
AcDbEntity
  8
0
100
AcDbLine
 10
71.99999996194549
 20
196.8000005301486
 30
0.0
 11
71.49999996194549
 21
197.3000005301486
 31
0.0
1001
GENIUS_GENFIL_13
1070
     0
1040
0.5
1040
0.5
1040
0.5
1040
45.00000000000325
1002
{
1002
}
1001
GENIUS_GENOBJ-N-CHA_13
1002
{
1000
OWNER
1000
GEN
1002
}
1001
GENIUS_GENODEF_13
1002
{
1000
HIER
1070
     0
1002
}
1002
{
1000
MANEDIT
1070
     0
1002
}
1002
{
1000
NOSEL
1070
     0
1002
}
1002
{
1000
BEHIND
1070
     0
1002
}
1002
{
1000
OTHER
1070
     0
1002
}
1002
{
1000
REACTOR
1002
}
  0
SPLINE
  5
6DE
330
1F
100
AcDbEntity
  8
0
100
AcDbSpline
210
0.0
220
0.0
230
1.0
 70
     8
 71
     3
 72
    38
 73
    34
 74
     0
 42
0.0000000001
 43
0.0000000001
 40
8.160870181059902
 40
8.160870181059902
 40
8.160870181059902
 40
8.160870181059902
 40
9.159821244704103
 40
9.159821244704103
 40
10.15877230834831
 40
10.15877230834831
 40
11.15772337199251
 40
11.15772337199251
 40
12.15667443563672
 40
12.15667443563672
 40
13.19794091725749
 40
13.19794091725749
 40
14.23920739887826
 40
14.23920739887826
 40
15.28047388049904
 40
15.28047388049904
 40
16.32174036211981
 40
16.32174036211981
 40
17.36300684374058
 40
17.36300684374058
 40
18.40427332536135
 40
18.40427332536135
 40
19.44553980698212
 40
19.44553980698212
 40
20.48680628860289
 40
20.48680628860289
 40
21.4857573522471
 40
21.4857573522471
 40
22.48470841589131
 40
22.48470841589131
 40
23.48365947953551
 40
23.48365947953551
 40
24.48261054317971
 40
24.48261054317971
 40
24.48261054317971
 40
24.48261054317971
 10
71.99999996194549
 20
195.3000005301581
 30
0.0
 10
71.99999996194549
 20
195.3000005301581
 30
0.0
 10
71.97174887342328
 20
195.2662099110769
 30
0.0
 10
71.85925106488809
 20
195.1303497971125
 30
0.0
 10
71.77506186479092
 20
195.0283413348995
 30
0.0
 10
71.56271535520102
 20
194.7665057826372
 30
0.0
 10
71.43440151642938
 20
194.6064489706629
 30
0.0
 10
71.15314979935497
 20
194.2455969559872
 30
0.0
 10
71.00030264246959
 20
194.0448003079641
 30
0.0
 10
70.68859191624381
 20
193.617404093115
 30
0.0
 10
70.51718021746079
 20
193.3733803543318
 30
0.0
 10
70.17527421401189
 20
192.844339581683
 30
0.0
 10
70.00476850845402
 20
192.5594334020938
 30
0.0
 10
69.69927962915663
 20
191.95877628964
 30
0.0
 10
69.56439227450537
 20
191.6428221308215
 30
0.0
 10
69.37251793033521
 20
190.9871356398576
 30
0.0
 10
69.31662475230075
 20
190.6470893573651
 30
0.0
 10
69.31662475230075
 20
189.9529117029513
 30
0.0
 10
69.37251793033521
 20
189.6128654204586
 30
0.0
 10
69.56439227450537
 20
188.9571789294947
 30
0.0
 10
69.69927962915663
 20
188.6412247706761
 30
0.0
 10
70.00476850845402
 20
188.0405676582225
 30
0.0
 10
70.17527421401189
 20
187.7556614786333
 30
0.0
 10
70.51718021746079
 20
187.2266207059846
 30
0.0
 10
70.68859191624381
 20
186.9825969672011
 30
0.0
 10
71.00030264246959
 20
186.5552007523521
 30
0.0
 10
71.15314979935497
 20
186.3544041043291
 30
0.0
 10
71.43440151642938
 20
185.9935520896534
 30
0.0
 10
71.56271535520102
 20
185.833495277679
 30
0.0
 10
71.77506186479092
 20
185.5716597254167
 30
0.0
 10
71.85925106488809
 20
185.4696512632038
 30
0.0
 10
71.97174887342328
 20
185.3337911492395
 30
0.0
 10
71.99999996194549
 20
185.3000005301581
 30
0.0
 10
71.99999996194549
 20
185.3000005301581
 30
0.0
  0
LINE
  5
6DF
330
1F
100
AcDbEntity
  8
0
100
AcDbLine
 10
71.99999996194549
 20
178.3000005301582
 30
0.0
 11
59.99999996194542
 21
178.3000005301582
 31
0.0
  0
LINE
  5
6E0
330
1F
100
AcDbEntity
  8
0
100
AcDbLine
 10
65.99999996188569
 20
176.800000530158
 30
0.0
 11
65.99999996188569
 21
171.8000005301581
 31
0.0
  0
LINE
  5
6E1
330
1F
100
AcDbEntity
  8
0
100
AcDbLine
 10
71.99999996194549
 20
170.300000530158
 30
0.0
 11
71.99999996194549
 21
162.3000005301581
 31
0.0
  0
LINE
  5
6E2
330
1F
100
AcDbEntity
  8
0
100
AcDbLine
 10
65.99999996188569
 20
170.300000530158
 30
0.0
 11
65.99999996188569
 21
162.3000005301581
 31
0.0
  0
LINE
  5
6E3
330
1F
100
AcDbEntity
  8
0
100
AcDbLine
 10
59.99999996194542
 20
170.300000530158
 30
0.0
 11
59.99999996194542
 21
162.3000005301581
 31
0.0
  0
LINE
  5
6E4
330
1F
100
AcDbEntity
  8
0
100
AcDbLine
 10
71.99999996194549
 20
176.800000530158
 30
0.0
 11
59.99999996194542
 21
176.800000530158
 31
0.0
  0
LINE
  5
6E5
330
1F
100
AcDbEntity
  8
0
100
AcDbLine
 10
70.99999996194537
 20
170.300000530158
 30
0.0
 11
70.99999996194537
 21
171.8000005301581
 31
0.0
  0
LINE
  5
6E6
330
1F
100
AcDbEntity
  8
0
100
AcDbLine
 10
60.99999996194544
 20
170.300000530158
 30
0.0
 11
60.99999996194544
 21
171.8000005301581
 31
0.0
  0
LINE
  5
6E7
330
1F
100
AcDbEntity
  8
0
100
AcDbLine
 10
60.49999996194543
 20
162.3000005301581
 30
0.0
 11
60.49999996194543
 21
161.3000005301581
 31
0.0
  0
LINE
  5
6E8
330
1F
100
AcDbEntity
  8
0
100
AcDbLine
 10
71.49999996194549
 20
162.3000005301581
 30
0.0
 11
71.49999996194549
 21
161.3000005301581
 31
0.0
  0
LINE
  5
6E9
330
1F
100
AcDbEntity
  8
0
100
AcDbLine
 10
69.49999996194549
 20
159.3000005301581
 30
0.0
 11
62.49999996194542
 21
159.3000005301581
 31
0.0
  0
ARC
  5
6EA
330
1F
100
AcDbEntity
  8
0
100
AcDbCircle
 10
62.49999996194542
 20
161.3000005301581
 30
0.0
 40
2.0
100
AcDbArc
 50
180.0
 51
270.0
  0
ARC
  5
6EB
330
1F
100
AcDbEntity
  8
0
100
AcDbCircle
 10
69.49999996194549
 20
161.3000005301581
 30
0.0
 40
2.0
100
AcDbArc
 50
270.0
 51
0.0
  0
LINE
  5
6EC
330
1F
100
AcDbEntity
  8
0
100
AcDbLine
 10
59.99999996194549
 20
171.8000005301581
 30
0.0
 11
71.99999996194559
 21
171.8000005301581
 31
0.0
  0
LINE
  5
6ED
330
1F
100
AcDbEntity
  8
0
100
AcDbLine
 10
59.99999996194542
 20
170.300000530158
 30
0.0
 11
71.99999996194549
 21
170.300000530158
 31
0.0
  0
LINE
  5
6EE
330
1F
100
AcDbEntity
  8
0
100
AcDbLine
 10
59.99999996194542
 20
162.3000005301581
 30
0.0
 11
71.99999996194549
 21
162.3000005301581
 31
0.0
  0
LINE
  5
6EF
330
1F
100
AcDbEntity
  8
0
100
AcDbLine
 10
163.6999999619453
 20
210.8000005301581
 30
0.0
 11
163.6999999619452
 21
153.8000005301581
 31
0.0
  0
LINE
  5
6F0
330
1F
100
AcDbEntity
  8
0
100
AcDbLine
 10
163.6499999619454
 20
153.8500005301582
 30
0.0
 11
163.6499999619454
 21
168.8500005301583
 31
0.0
  0
LINE
  5
6F1
330
1F
100
AcDbEntity
  8
0
100
AcDbLine
 10
76.74999996194515
 20
209.7500005301582
 30
0.0
 11
163.6499999619454
 21
209.7500005301586
 31
0.0
  0
LINE
  5
6F2
330
1F
100
AcDbEntity
  8
0
100
AcDbLine
 10
76.74999996194515
 20
208.7500005301584
 30
0.0
 11
163.6499999619454
 21
208.7500005301586
 31
0.0
  0
LINE
  5
6F3
330
1F
100
AcDbEntity
  8
0
100
AcDbLine
 10
76.74999996194515
 20
207.7500005301582
 30
0.0
 11
163.6499999619454
 21
207.7500005301586
 31
0.0
  0
LINE
  5
6F4
330
1F
100
AcDbEntity
  8
0
100
AcDbLine
 10
76.74999996194515
 20
206.7500005301584
 30
0.0
 11
163.6499999619454
 21
206.7500005301587
 31
0.0
  0
LINE
  5
6F5
330
1F
100
AcDbEntity
  8
0
100
AcDbLine
 10
76.74999996194515
 20
205.7500005301582
 30
0.0
 11
163.6499999619454
 21
205.7500005301586
 31
0.0
  0
LINE
  5
6F6
330
1F
100
AcDbEntity
  8
0
100
AcDbLine
 10
76.74999996194515
 20
204.7500005301584
 30
0.0
 11
163.6499999619454
 21
204.7500005301587
 31
0.0
  0
LINE
  5
6F7
330
1F
100
AcDbEntity
  8
0
100
AcDbLine
 10
76.74999996194515
 20
203.7500005301582
 30
0.0
 11
85.94006575426675
 21
203.7500005301582
 31
0.0
  0
LINE
  5
6F8
330
1F
100
AcDbEntity
  8
0
100
AcDbLine
 10
154.4599341696234
 20
203.7500005301586
 30
0.0
 11
163.6499999619454
 21
203.7500005301586
 31
0.0
  0
LINE
  5
6F9
330
1F
100
AcDbEntity
  8
0
100
AcDbLine
 10
76.74999996194515
 20
202.7500005301584
 30
0.0
 11
85.69999996194519
 21
202.7500005301584
 31
0.0
  0
LINE
  5
6FA
330
1F
100
AcDbEntity
  8
0
100
AcDbLine
 10
154.6999999619452
 20
202.7500005301587
 30
0.0
 11
163.6499999619454
 21
202.7500005301587
 31
0.0
  0
LINE
  5
6FB
330
1F
100
AcDbEntity
  8
0
100
AcDbLine
 10
76.74999996194515
 20
201.7500005301582
 30
0.0
 11
85.69999996194519
 21
201.7500005301582
 31
0.0
  0
LINE
  5
6FC
330
1F
100
AcDbEntity
  8
0
100
AcDbLine
 10
154.6999999619452
 20
201.7500005301586
 30
0.0
 11
163.6499999619454
 21
201.7500005301586
 31
0.0
  0
LINE
  5
6FD
330
1F
100
AcDbEntity
  8
0
100
AcDbLine
 10
76.74999996194515
 20
200.7500005301584
 30
0.0
 11
85.69999996194519
 21
200.7500005301584
 31
0.0
  0
LINE
  5
6FE
330
1F
100
AcDbEntity
  8
0
100
AcDbLine
 10
154.6999999619452
 20
200.7500005301587
 30
0.0
 11
163.6499999619454
 21
200.7500005301587
 31
0.0
  0
LINE
  5
6FF
330
1F
100
AcDbEntity
  8
0
100
AcDbLine
 10
76.74999996194515
 20
199.7500005301582
 30
0.0
 11
85.69999996194519
 21
199.7500005301582
 31
0.0
  0
LINE
  5
700
330
1F
100
AcDbEntity
  8
0
100
AcDbLine
 10
154.6999999619452
 20
199.7500005301586
 30
0.0
 11
163.6499999619454
 21
199.7500005301586
 31
0.0
  0
LINE
  5
701
330
1F
100
AcDbEntity
  8
0
100
AcDbLine
 10
76.74999996194515
 20
198.7500005301584
 30
0.0
 11
85.69999996194519
 21
198.7500005301584
 31
0.0
  0
LINE
  5
702
330
1F
100
AcDbEntity
  8
0
100
AcDbLine
 10
154.6999999619452
 20
198.7500005301586
 30
0.0
 11
163.6499999619454
 21
198.7500005301586
 31
0.0
  0
LINE
  5
703
330
1F
100
AcDbEntity
  8
0
100
AcDbLine
 10
76.74999996194515
 20
197.7500005301584
 30
0.0
 11
85.69999996194519
 21
197.7500005301584
 31
0.0
  0
LINE
  5
704
330
1F
100
AcDbEntity
  8
0
100
AcDbLine
 10
154.6999999619452
 20
197.7500005301586
 30
0.0
 11
163.6499999619454
 21
197.7500005301586
 31
0.0
  0
LINE
  5
705
330
1F
100
AcDbEntity
  8
0
100
AcDbLine
 10
76.74999996194515
 20
196.7500005301584
 30
0.0
 11
85.69999996194519
 21
196.7500005301584
 31
0.0
  0
LINE
  5
706
330
1F
100
AcDbEntity
  8
0
100
AcDbLine
 10
154.6999999619452
 20
196.7500005301586
 30
0.0
 11
163.6499999619454
 21
196.7500005301586
 31
0.0
  0
LINE
  5
707
330
1F
100
AcDbEntity
  8
0
100
AcDbLine
 10
76.74999996194515
 20
195.7500005301584
 30
0.0
 11
85.69999996194519
 21
195.7500005301584
 31
0.0
  0
LINE
  5
708
330
1F
100
AcDbEntity
  8
0
100
AcDbLine
 10
154.6999999619452
 20
195.7500005301586
 30
0.0
 11
163.6499999619454
 21
195.7500005301586
 31
0.0
  0
LINE
  5
709
330
1F
100
AcDbEntity
  8
0
100
AcDbLine
 10
76.74999996194515
 20
194.7500005301584
 30
0.0
 11
85.69999996194519
 21
194.7500005301584
 31
0.0
  0
LINE
  5
70A
330
1F
100
AcDbEntity
  8
0
100
AcDbLine
 10
154.6999999619452
 20
194.7500005301586
 30
0.0
 11
163.6499999619454
 21
194.7500005301586
 31
0.0
  0
LINE
  5
70B
330
1F
100
AcDbEntity
  8
0
100
AcDbLine
 10
76.74999996194515
 20
193.7500005301584
 30
0.0
 11
85.69999996194519
 21
193.7500005301584
 31
0.0
  0
LINE
  5
70C
330
1F
100
AcDbEntity
  8
0
100
AcDbLine
 10
154.6999999619452
 20
193.7500005301586
 30
0.0
 11
163.6499999619454
 21
193.7500005301586
 31
0.0
  0
LINE
  5
70D
330
1F
100
AcDbEntity
  8
0
100
AcDbLine
 10
76.74999996194515
 20
192.7500005301584
 30
0.0
 11
85.69999996194519
 21
192.7500005301584
 31
0.0
  0
LINE
  5
70E
330
1F
100
AcDbEntity
  8
0
100
AcDbLine
 10
154.6999999619452
 20
192.7500005301586
 30
0.0
 11
163.6499999619454
 21
192.7500005301586
 31
0.0
  0
LINE
  5
70F
330
1F
100
AcDbEntity
  8
0
100
AcDbLine
 10
76.74999996194515
 20
191.7500005301583
 30
0.0
 11
85.69999996194519
 21
191.7500005301583
 31
0.0
  0
LINE
  5
710
330
1F
100
AcDbEntity
  8
0
100
AcDbLine
 10
154.6999999619452
 20
191.7500005301586
 30
0.0
 11
163.6499999619454
 21
191.7500005301586
 31
0.0
  0
LINE
  5
711
330
1F
100
AcDbEntity
  8
0
100
AcDbLine
 10
76.74999996194515
 20
190.7500005301583
 30
0.0
 11
85.69999996194519
 21
190.7500005301583
 31
0.0
  0
LINE
  5
712
330
1F
100
AcDbEntity
  8
0
100
AcDbLine
 10
154.6999999619452
 20
190.7500005301585
 30
0.0
 11
163.6499999619454
 21
190.7500005301585
 31
0.0
  0
LINE
  5
713
330
1F
100
AcDbEntity
  8
0
100
AcDbLine
 10
76.74999996194515
 20
189.7500005301583
 30
0.0
 11
85.69999996194519
 21
189.7500005301583
 31
0.0
  0
LINE
  5
714
330
1F
100
AcDbEntity
  8
0
100
AcDbLine
 10
154.6999999619452
 20
189.7500005301585
 30
0.0
 11
163.6499999619454
 21
189.7500005301585
 31
0.0
  0
LINE
  5
715
330
1F
100
AcDbEntity
  8
0
100
AcDbLine
 10
76.74999996194515
 20
188.7500005301583
 30
0.0
 11
85.69999996194519
 21
188.7500005301583
 31
0.0
  0
LINE
  5
716
330
1F
100
AcDbEntity
  8
0
100
AcDbLine
 10
154.6999999619452
 20
188.7500005301586
 30
0.0
 11
163.6499999619454
 21
188.7500005301586
 31
0.0
  0
LINE
  5
717
330
1F
100
AcDbEntity
  8
0
100
AcDbLine
 10
76.74999996194515
 20
187.7500005301583
 30
0.0
 11
85.69999996194519
 21
187.7500005301583
 31
0.0
  0
LINE
  5
718
330
1F
100
AcDbEntity
  8
0
100
AcDbLine
 10
154.6999999619452
 20
187.7500005301586
 30
0.0
 11
163.6499999619454
 21
187.7500005301586
 31
0.0
  0
LINE
  5
719
330
1F
100
AcDbEntity
  8
0
100
AcDbLine
 10
76.74999996194515
 20
186.7500005301583
 30
0.0
 11
85.69999996194519
 21
186.7500005301583
 31
0.0
  0
LINE
  5
71A
330
1F
100
AcDbEntity
  8
0
100
AcDbLine
 10
154.6999999619452
 20
186.7500005301586
 30
0.0
 11
163.6499999619454
 21
186.7500005301586
 31
0.0
  0
LINE
  5
71B
330
1F
100
AcDbEntity
  8
0
100
AcDbLine
 10
76.74999996194515
 20
185.7500005301583
 30
0.0
 11
85.69999996194519
 21
185.7500005301583
 31
0.0
  0
LINE
  5
71C
330
1F
100
AcDbEntity
  8
0
100
AcDbLine
 10
154.6999999619452
 20
185.7500005301586
 30
0.0
 11
163.6499999619454
 21
185.7500005301586
 31
0.0
  0
LINE
  5
71D
330
1F
100
AcDbEntity
  8
0
100
AcDbLine
 10
76.74999996194515
 20
184.7500005301583
 30
0.0
 11
85.69999996194519
 21
184.7500005301583
 31
0.0
  0
LINE
  5
71E
330
1F
100
AcDbEntity
  8
0
100
AcDbLine
 10
154.6999999619452
 20
184.7500005301586
 30
0.0
 11
163.6499999619454
 21
184.7500005301586
 31
0.0
  0
LINE
  5
71F
330
1F
100
AcDbEntity
  8
0
100
AcDbLine
 10
76.74999996194515
 20
183.7500005301583
 30
0.0
 11
85.69999996194519
 21
183.7500005301583
 31
0.0
  0
LINE
  5
720
330
1F
100
AcDbEntity
  8
0
100
AcDbLine
 10
154.6999999619452
 20
183.7500005301585
 30
0.0
 11
163.6499999619454
 21
183.7500005301585
 31
0.0
  0
LINE
  5
721
330
1F
100
AcDbEntity
  8
0
100
AcDbLine
 10
76.74999996194515
 20
182.7500005301583
 30
0.0
 11
85.69999996194519
 21
182.7500005301583
 31
0.0
  0
LINE
  5
722
330
1F
100
AcDbEntity
  8
0
100
AcDbLine
 10
154.6999999619452
 20
182.7500005301585
 30
0.0
 11
163.6499999619454
 21
182.7500005301585
 31
0.0
  0
LINE
  5
723
330
1F
100
AcDbEntity
  8
0
100
AcDbLine
 10
76.74999996194515
 20
181.7500005301583
 30
0.0
 11
85.69999996194519
 21
181.7500005301583
 31
0.0
  0
LINE
  5
724
330
1F
100
AcDbEntity
  8
0
100
AcDbLine
 10
154.6999999619452
 20
181.7500005301586
 30
0.0
 11
163.6499999619454
 21
181.7500005301586
 31
0.0
  0
LINE
  5
725
330
1F
100
AcDbEntity
  8
0
100
AcDbLine
 10
76.74999996194515
 20
180.7500005301583
 30
0.0
 11
85.69999996194519
 21
180.7500005301583
 31
0.0
  0
LINE
  5
726
330
1F
100
AcDbEntity
  8
0
100
AcDbLine
 10
154.6999999619452
 20
180.7500005301586
 30
0.0
 11
163.6499999619454
 21
180.7500005301586
 31
0.0
  0
LINE
  5
727
330
1F
100
AcDbEntity
  8
0
100
AcDbLine
 10
76.74999996194515
 20
179.7500005301583
 30
0.0
 11
85.69999996194519
 21
179.7500005301583
 31
0.0
  0
LINE
  5
728
330
1F
100
AcDbEntity
  8
0
100
AcDbLine
 10
154.6999999619452
 20
179.7500005301586
 30
0.0
 11
163.6499999619454
 21
179.7500005301586
 31
0.0
  0
LINE
  5
729
330
1F
100
AcDbEntity
  8
0
100
AcDbLine
 10
76.74999996194515
 20
178.7500005301582
 30
0.0
 11
85.69999996194519
 21
178.7500005301583
 31
0.0
  0
LINE
  5
72A
330
1F
100
AcDbEntity
  8
0
100
AcDbLine
 10
154.6999999619452
 20
178.7500005301586
 30
0.0
 11
163.6499999619454
 21
178.7500005301586
 31
0.0
  0
LINE
  5
72B
330
1F
100
AcDbEntity
  8
0
100
AcDbLine
 10
76.74999996194515
 20
177.7500005301583
 30
0.0
 11
85.69999996194519
 21
177.7500005301583
 31
0.0
  0
LINE
  5
72C
330
1F
100
AcDbEntity
  8
0
100
AcDbLine
 10
154.6999999619452
 20
177.7500005301585
 30
0.0
 11
163.6499999619454
 21
177.7500005301586
 31
0.0
  0
LINE
  5
72D
330
1F
100
AcDbEntity
  8
0
100
AcDbLine
 10
76.74999996194515
 20
176.7500005301583
 30
0.0
 11
85.69999996194519
 21
176.7500005301583
 31
0.0
  0
LINE
  5
72E
330
1F
100
AcDbEntity
  8
0
100
AcDbLine
 10
154.6999999619452
 20
176.7500005301586
 30
0.0
 11
163.6499999619454
 21
176.7500005301586
 31
0.0
  0
LINE
  5
72F
330
1F
100
AcDbEntity
  8
0
100
AcDbLine
 10
76.74999996194515
 20
175.7500005301583
 30
0.0
 11
85.69999996194519
 21
175.7500005301583
 31
0.0
  0
LINE
  5
730
330
1F
100
AcDbEntity
  8
0
100
AcDbLine
 10
154.6999999619452
 20
175.7500005301585
 30
0.0
 11
163.6499999619454
 21
175.7500005301586
 31
0.0
  0
LINE
  5
731
330
1F
100
AcDbEntity
  8
0
100
AcDbLine
 10
76.74999996194515
 20
174.7500005301582
 30
0.0
 11
85.69999996194519
 21
174.7500005301583
 31
0.0
  0
LINE
  5
732
330
1F
100
AcDbEntity
  8
0
100
AcDbLine
 10
154.6999999619452
 20
174.7500005301586
 30
0.0
 11
163.6499999619454
 21
174.7500005301586
 31
0.0
  0
LINE
  5
733
330
1F
100
AcDbEntity
  8
0
100
AcDbLine
 10
76.74999996194515
 20
173.7500005301583
 30
0.0
 11
86.17321727430232
 21
173.7500005301583
 31
0.0
  0
LINE
  5
734
330
1F
100
AcDbEntity
  8
0
100
AcDbLine
 10
154.2267826495885
 20
173.7500005301585
 30
0.0
 11
163.6499999619454
 21
173.7500005301586
 31
0.0
  0
LINE
  5
735
330
1F
100
AcDbEntity
  8
0
100
AcDbLine
 10
76.74999996194515
 20
172.7500005301583
 30
0.0
 11
163.6499999619454
 21
172.7500005301586
 31
0.0
  0
LINE
  5
736
330
1F
100
AcDbEntity
  8
0
100
AcDbLine
 10
76.74999996194515
 20
171.7500005301582
 30
0.0
 11
163.6499999619454
 21
171.7500005301586
 31
0.0
  0
LINE
  5
737
330
1F
100
AcDbEntity
  8
0
100
AcDbLine
 10
76.74999996194515
 20
170.7500005301582
 30
0.0
 11
163.6499999619454
 21
170.7500005301586
 31
0.0
  0
LINE
  5
738
330
1F
100
AcDbEntity
  8
0
100
AcDbLine
 10
76.74999996194515
 20
169.7500005301582
 30
0.0
 11
163.6499999619454
 21
169.7500005301586
 31
0.0
  0
LINE
  5
739
330
1F
100
AcDbEntity
  8
0
100
AcDbLine
 10
154.6999999619452
 20
203.1000005301582
 30
0.0
 11
154.6999999619452
 21
174.6000005301582
 31
0.0
1001
GENIUS_GENREC_14
1002
{
1000
PYDIR
1011
159.1999999619452
1021
202.6000005301584
1031
0.0
1002
}
1002
{
1000
PXDIR
1011
219.1999999619453
1021
175.1000005301581
1031
0.0
1002
}
1002
{
1000
PORI
1011
159.1999999619452
1021
175.1000005301581
1031
0.0
1002
}
1002
{
1000
PINS
1011
159.1999999619452
1021
175.1000005301581
1031
0.0
1002
}
1002
{
1000
PINS2
1011
219.1999999619453
1021
202.6000005301584
1031
0.0
1002
}
1002
{
1000
C
1070
     1
1002
}
1001
GENIUS_GENOBJ-N-REC_13
1002
{
1000
OWNER
1000
GEN
1002
}
1001
GENIUS_GENODEF_13
1002
{
1000
HIER
1070
     0
1002
}
1002
{
1000
MANEDIT
1070
     0
1002
}
1002
{
1000
NOSEL
1070
     0
1002
}
1002
{
1000
BEHIND
1070
     0
1002
}
1002
{
1000
OTHER
1070
     0
1002
}
1002
{
1000
REACTOR
1002
}
  0
LINE
  5
73A
330
1F
100
AcDbEntity
  8
0
100
AcDbLine
 10
363.6999999619452
 20
214.3000005301581
 30
0.0
 11
276.6999999619454
 21
214.3000005301581
 31
0.0
  0
LINE
  5
73B
330
1F
100
AcDbEntity
  8
0
100
AcDbLine
 10
340.1999999619454
 20
202.0500005301582
 30
0.0
 11
300.1999999619453
 21
202.0500005301582
 31
0.0
  0
LINE
  5
73C
330
1F
100
AcDbEntity
  8
0
100
AcDbLine
 10
273.1999999619455
 20
210.8000005301581
 30
0.0
 11
273.1999999619455
 21
153.800000530158
 31
0.0
  0
ARC
  5
73D
330
1F
100
AcDbEntity
  8
0
100
AcDbCircle
 10
276.6999999619454
 20
210.8000005301581
 30
0.0
 40
3.5
100
AcDbArc
 50
90.0
 51
180.0
1001
GENIUS_GENOBJ-N-FIL_13
1002
{
1000
OWNER
1000
GEN
1002
}
1001
GENIUS_GENODEF_13
1002
{
1000
HIER
1070
     0
1002
}
1002
{
1000
MANEDIT
1070
     0
1002
}
1002
{
1000
NOSEL
1070
     0
1002
}
1002
{
1000
BEHIND
1070
     0
1002
}
1002
{
1000
OTHER
1070
     0
1002
}
1002
{
1000
REACTOR
1002
}
  0
LINE
  5
73E
330
1F
100
AcDbEntity
  8
0
100
AcDbLine
 10
367.1999999619454
 20
210.8000005301581
 30
0.0
 11
367.1999999619457
 21
153.800000530158
 31
0.0
  0
ARC
  5
73F
330
1F
100
AcDbEntity
  8
0
100
AcDbCircle
 10
363.6999999619456
 20
153.8000005301579
 30
0.0
 40
3.5
100
AcDbArc
 50
270.0
 51
0.0
1001
GENIUS_GENODEF_13
1002
{
1000
HIER
1070
     0
1002
}
1002
{
1000
MANEDIT
1070
     0
1002
}
1002
{
1000
NOSEL
1070
     0
1002
}
1002
{
1000
BEHIND
1070
     0
1002
}
1002
{
1000
OTHER
1070
     0
1002
}
1002
{
1000
REACTOR
1002
}
1001
GENIUS_GENOBJ-N-FIL_13
1002
{
1000
OWNER
1000
GEN
1002
}
  0
ARC
  5
740
330
1F
100
AcDbEntity
  8
0
100
AcDbCircle
 10
363.6999999619452
 20
210.8000005301581
 30
0.0
 40
3.5
100
AcDbArc
 50
0.0
 51
90.0
1001
GENIUS_GENODEF_13
1002
{
1000
HIER
1070
     0
1002
}
1002
{
1000
MANEDIT
1070
     0
1002
}
1002
{
1000
NOSEL
1070
     0
1002
}
1002
{
1000
BEHIND
1070
     0
1002
}
1002
{
1000
OTHER
1070
     0
1002
}
1002
{
1000
REACTOR
1002
}
1001
GENIUS_GENOBJ-N-FIL_13
1002
{
1000
OWNER
1000
GEN
1002
}
  0
LINE
  5
741
330
1F
100
AcDbEntity
  8
0
100
AcDbLine
 10
287.6999999619457
 20
201.300000530158
 30
0.0
 11
352.6999999619452
 21
201.3000005301579
 31
0.0
  0
LINE
  5
742
330
1F
100
AcDbEntity
  8
0
100
AcDbLine
 10
287.6999999619455
 20
150.3000005301579
 30
0.0
 11
287.6999999619457
 21
201.300000530158
 31
0.0
  0
LINE
  5
743
330
1F
100
AcDbEntity
  8
0
100
AcDbLine
 10
283.4499999619455
 20
151.8000005301579
 30
0.0
 11
283.4499999619457
 21
212.8000005301581
 31
0.0
  0
ARC
  5
744
330
1F
100
AcDbEntity
  8
0
100
AcDbCircle
 10
284.9499999619457
 20
212.8000005301581
 30
0.0
 40
1.5
100
AcDbArc
 50
90.0
 51
180.0
1001
GENIUS_GENODEF_13
1002
{
1000
HIER
1070
     0
1002
}
1002
{
1000
MANEDIT
1070
     0
1002
}
1002
{
1000
NOSEL
1070
     0
1002
}
1002
{
1000
BEHIND
1070
     0
1002
}
1002
{
1000
OTHER
1070
     0
1002
}
1002
{
1000
REACTOR
1002
}
1001
GENIUS_GENOBJ-N-FIL_13
1002
{
1000
OWNER
1000
GEN
1002
}
  0
ARC
  5
745
330
1F
100
AcDbEntity
  8
0
100
AcDbCircle
 10
284.9499999619454
 20
151.8000005301579
 30
0.0
 40
1.5
100
AcDbArc
 50
180.0
 51
270.0
1001
GENIUS_GENODEF_13
1002
{
1000
HIER
1070
     0
1002
}
1002
{
1000
MANEDIT
1070
     0
1002
}
1002
{
1000
NOSEL
1070
     0
1002
}
1002
{
1000
BEHIND
1070
     0
1002
}
1002
{
1000
OTHER
1070
     0
1002
}
1002
{
1000
REACTOR
1002
}
1001
GENIUS_GENOBJ-N-FIL_13
1002
{
1000
OWNER
1000
GEN
1002
}
  0
CIRCLE
  5
746
330
1F
100
AcDbEntity
  8
0
100
AcDbCircle
 10
360.1999999619454
 20
207.3000005301583
 30
0.0
 40
2.5
  0
CIRCLE
  5
747
330
1F
100
AcDbEntity
  8
0
100
AcDbCircle
 10
280.1999999619454
 20
207.3000005301584
 30
0.0
 40
2.5
  0
CIRCLE
  5
748
330
1F
100
AcDbEntity
  8
0
100
AcDbCircle
 10
280.1999999619453
 20
157.3000005301576
 30
0.0
 40
2.5
  0
LINE
  5
749
330
1F
100
AcDbEntity
  8
0
100
AcDbLine
 10
296.9499999619454
 20
209.8000005301581
 30
0.0
 11
296.9499999619454
 21
208.5386133176839
 31
0.0
  0
LINE
  5
74A
330
1F
100
AcDbEntity
  8
0
100
AcDbLine
 10
293.4499999619454
 20
209.8000005301581
 30
0.0
 11
293.4499999619454
 21
208.5386133176839
 31
0.0
  0
ARC
  5
74B
330
1F
100
AcDbEntity
  8
0
100
AcDbCircle
 10
295.1999999619452
 20
205.8000005301581
 30
0.0
 40
3.25
100
AcDbArc
 50
122.5789703928047
 51
57.42102960719503
  0
ARC
  5
74C
330
1F
100
AcDbEntity
  8
0
100
AcDbCircle
 10
295.1999999619454
 20
209.8000005301581
 30
0.0
 40
1.75
100
AcDbArc
 50
0.0000000000032569
 51
180.0
1001
GENIUS_GENODEF_13
1002
{
1000
HIER
1070
     0
1002
}
1002
{
1000
MANEDIT
1070
     0
1002
}
1002
{
1000
NOSEL
1070
     0
1002
}
1002
{
1000
BEHIND
1070
     0
1002
}
1002
{
1000
OTHER
1070
     0
1002
}
1002
{
1000
REACTOR
1002
}
1001
GENIUS_GENOBJ-N-FIL_13
1002
{
1000
OWNER
1000
GEN
1002
}
  0
LINE
  5
74D
330
1F
100
AcDbEntity
  8
0
100
AcDbLine
 10
300.1999999619453
 20
212.0500005301581
 30
0.0
 11
300.1999999619453
 21
202.0500005301582
 31
0.0
  0
LINE
  5
74E
330
1F
100
AcDbEntity
  8
0
100
AcDbLine
 10
340.1999999619454
 20
212.0500005301581
 30
0.0
 11
340.1999999619454
 21
202.0500005301582
 31
0.0
  0
CIRCLE
  5
74F
330
1F
100
AcDbEntity
  8
0
100
AcDbCircle
 10
360.1999999619454
 20
157.3000005301578
 30
0.0
 40
2.5
  0
LINE
  5
750
330
1F
100
AcDbEntity
  8
0
100
AcDbLine
 10
363.6999999619456
 20
150.3000005301579
 30
0.0
 11
276.6999999619454
 21
150.3000005301579
 31
0.0
  0
ARC
  5
752
330
1F
100
AcDbEntity
  8
0
100
AcDbCircle
 10
355.4499999619451
 20
151.8000005301579
 30
0.0
 40
1.5
100
AcDbArc
 50
270.0
 51
0.0
1001
GENIUS_GENODEF_13
1002
{
1000
HIER
1070
     0
1002
}
1002
{
1000
MANEDIT
1070
     0
1002
}
1002
{
1000
NOSEL
1070
     0
1002
}
1002
{
1000
BEHIND
1070
     0
1002
}
1002
{
1000
OTHER
1070
     0
1002
}
1002
{
1000
REACTOR
1002
}
1001
GENIUS_GENOBJ-N-FIL_13
1002
{
1000
OWNER
1000
GEN
1002
}
  0
ARC
  5
753
330
1F
100
AcDbEntity
  8
0
100
AcDbCircle
 10
276.6999999619454
 20
153.8000005301579
 30
0.0
 40
3.5
100
AcDbArc
 50
180.0
 51
270.0
1001
GENIUS_GENOBJ-N-FIL_13
1002
{
1000
OWNER
1000
GEN
1002
}
1001
GENIUS_GENODEF_13
1002
{
1000
HIER
1070
     0
1002
}
1002
{
1000
MANEDIT
1070
     0
1002
}
1002
{
1000
NOSEL
1070
     0
1002
}
1002
{
1000
BEHIND
1070
     0
1002
}
1002
{
1000
OTHER
1070
     0
1002
}
1002
{
1000
REACTOR
1002
}
  0
LINE
  5
754
330
1F
100
AcDbEntity
  8
0
100
AcDbLine
 10
352.6999999619452
 20
150.3000005301579
 30
0.0
 11
352.6999999619452
 21
201.3000005301579
 31
0.0
  0
LINE
  5
755
330
1F
100
AcDbEntity
  8
0
100
AcDbLine
 10
356.9499999619452
 20
151.8000005301579
 30
0.0
 11
356.9499999619452
 21
212.8000005301581
 31
0.0
  0
ARC
  5
756
330
1F
100
AcDbEntity
  8
0
100
AcDbCircle
 10
355.4499999619451
 20
212.8000005301581
 30
0.0
 40
1.5
100
AcDbArc
 50
0.0
 51
90.0
1001
GENIUS_GENOBJ-N-FIL_13
1002
{
1000
OWNER
1000
GEN
1002
}
1001
GENIUS_GENODEF_13
1002
{
1000
HIER
1070
     0
1002
}
1002
{
1000
MANEDIT
1070
     0
1002
}
1002
{
1000
NOSEL
1070
     0
1002
}
1002
{
1000
BEHIND
1070
     0
1002
}
1002
{
1000
OTHER
1070
     0
1002
}
1002
{
1000
REACTOR
1002
}
  0
LINE
  5
757
330
1F
100
AcDbEntity
  8
0
100
AcDbLine
 10
340.1999999619454
 20
212.0500005301581
 30
0.0
 11
300.1999999619453
 21
212.0500005301581
 31
0.0
  0
LINE
  5
758
330
1F
100
AcDbEntity
  8
0
100
AcDbLine
 10
343.4499999619454
 20
209.8000005301581
 30
0.0
 11
343.4499999619454
 21
208.5386133176839
 31
0.0
  0
LINE
  5
759
330
1F
100
AcDbEntity
  8
0
100
AcDbLine
 10
346.9499999619454
 20
209.8000005301581
 30
0.0
 11
346.9499999619454
 21
208.5386133176839
 31
0.0
  0
ARC
  5
75A
330
1F
100
AcDbEntity
  8
0
100
AcDbCircle
 10
345.1999999619454
 20
205.8000005301581
 30
0.0
 40
3.25
100
AcDbArc
 50
122.5789703928047
 51
57.42102960719503
  0
ARC
  5
75B
330
1F
100
AcDbEntity
  8
0
100
AcDbCircle
 10
345.1999999619454
 20
209.8000005301581
 30
0.0
 40
1.75
100
AcDbArc
 50
0.0
 51
179.9999999999966
1001
GENIUS_GENODEF_13
1002
{
1000
HIER
1070
     0
1002
}
1002
{
1000
MANEDIT
1070
     0
1002
}
1002
{
1000
NOSEL
1070
     0
1002
}
1002
{
1000
BEHIND
1070
     0
1002
}
1002
{
1000
OTHER
1070
     0
1002
}
1002
{
1000
REACTOR
1002
}
1001
GENIUS_GENOBJ-N-FIL_13
1002
{
1000
OWNER
1000
GEN
1002
}
  0
ARC
  5
75C
330
1F
100
AcDbEntity
  8
0
100
AcDbCircle
 10
273.6999999619456
 20
190.3000005301578
 30
0.0
 40
6.0
100
AcDbArc
 50
75.52248781407001
 51
90.0
  0
ARC
  5
75D
330
1F
100
AcDbEntity
  8
0
100
AcDbCircle
 10
273.6999999619456
 20
190.3000005301578
 30
0.0
 40
6.0
100
AcDbArc
 50
270.0
 51
284.47751218593
  0
LINE
  5
75E
330
1F
100
AcDbEntity
  8
0
100
AcDbLine
 10
283.4499999619455
 20
196.1094755494689
 30
0.0
 11
275.1999999619455
 21
196.1094755494689
 31
0.0
  0
LINE
  5
75F
330
1F
100
AcDbEntity
  8
0
100
AcDbLine
 10
273.1999999619455
 20
196.3000005301578
 30
0.0
 11
273.6999999619456
 21
196.3000005301578
 31
0.0
  0
LINE
  5
760
330
1F
100
AcDbEntity
  8
0
100
AcDbLine
 10
273.1999999619455
 20
184.3000005301578
 30
0.0
 11
273.6999999619456
 21
184.3000005301578
 31
0.0
  0
LINE
  5
761
330
1F
100
AcDbEntity
  8
0
100
AcDbLine
 10
275.1999999619455
 20
184.4905255108468
 30
0.0
 11
283.4499999619455
 21
184.4905255108468
 31
0.0
  0
ARC
  5
762
330
1F
100
AcDbEntity
  8
0
100
AcDbCircle
 10
366.6999999619453
 20
190.300000530158
 30
0.0
 40
6.0
100
AcDbArc
 50
90.0
 51
104.4775121859299
  0
ARC
  5
763
330
1F
100
AcDbEntity
  8
0
100
AcDbCircle
 10
366.6999999619453
 20
190.300000530158
 30
0.0
 40
6.0
100
AcDbArc
 50
255.52248781407
 51
270.0
  0
LINE
  5
764
330
1F
100
AcDbEntity
  8
0
100
AcDbLine
 10
356.9499999619454
 20
196.1094755494691
 30
0.0
 11
365.1999999619454
 21
196.1094755494691
 31
0.0
  0
LINE
  5
765
330
1F
100
AcDbEntity
  8
0
100
AcDbLine
 10
367.1999999619454
 20
196.300000530158
 30
0.0
 11
366.6999999619453
 21
196.300000530158
 31
0.0
  0
LINE
  5
766
330
1F
100
AcDbEntity
  8
0
100
AcDbLine
 10
367.1999999619454
 20
184.3000005301581
 30
0.0
 11
366.6999999619453
 21
184.3000005301581
 31
0.0
  0
LINE
  5
767
330
1F
100
AcDbEntity
  8
0
100
AcDbLine
 10
365.1999999619454
 20
184.4905255108469
 30
0.0
 11
356.9499999619454
 21
184.4905255108469
 31
0.0
  0
LINE
  5
768
330
1F
100
AcDbEntity
  8
0
100
AcDbLine
 10
288.1999999619454
 20
201.300000530158
 30
0.0
 11
288.1999999619456
 21
150.300000530158
 31
0.0
  0
LINE
  5
769
330
1F
100
AcDbEntity
  8
0
100
AcDbLine
 10
352.1999999619451
 20
201.300000530158
 30
0.0
 11
352.1999999619451
 21
150.300000530158
 31
0.0
  0
ARC
  5
76A
330
1F
100
AcDbEntity
  8
0
100
AcDbCircle
 10
320.1999999619454
 20
154.0500005301581
 30
0.0
 40
2.999999999999984
100
AcDbArc
 50
0.0
 51
180.0
  0
LINE
  5
76B
330
1F
100
AcDbEntity
  8
0
100
AcDbLine
 10
323.1999999619454
 20
154.0500005301581
 30
0.0
 11
323.1999999619454
 21
150.300000530158
 31
0.0
  0
LINE
  5
76C
330
1F
100
AcDbEntity
  8
0
100
AcDbLine
 10
317.1999999619454
 20
154.0500005301581
 30
0.0
 11
317.1999999619454
 21
150.300000530158
 31
0.0
  0
LINE
  5
76D
330
1F
100
AcDbEntity
  8
0
100
AcDbLine
 10
300.9499999619454
 20
202.3000005301581
 30
0.0
 11
339.4499999619454
 21
202.3000005301581
 31
0.0
1001
GENIUS_GENREC_14
1002
{
1000
PYDIR
1011
300.1999999619453
1021
212.0500005301581
1031
0.0
1002
}
1002
{
1000
PXDIR
1011
340.1999999619454
1021
202.0500005301581
1031
0.0
1002
}
1002
{
1000
PORI
1011
300.1999999619453
1021
202.0500005301581
1031
0.0
1002
}
1002
{
1000
PINS
1011
300.1999999619453
1021
202.0500005301581
1031
0.0
1002
}
1002
{
1000
PINS2
1011
340.1999999619454
1021
212.0500005301581
1031
0.0
1002
}
1002
{
1000
C
1070
     1
1002
}
1001
GENIUS_GENOBJ-N-REC_13
1002
{
1000
OWNER
1000
GEN
1002
}
1001
GENIUS_GENODEF_13
1002
{
1000
HIER
1070
     0
1002
}
1002
{
1000
MANEDIT
1070
     0
1002
}
1002
{
1000
NOSEL
1070
     0
1002
}
1002
{
1000
BEHIND
1070
     0
1002
}
1002
{
1000
OTHER
1070
     0
1002
}
1002
{
1000
REACTOR
1002
}
  0
ARC
  5
76E
330
1F
100
AcDbEntity
  8
0
100
AcDbCircle
 10
339.4499999619454
 20
202.800000530158
 30
0.0
 40
0.5
100
AcDbArc
 50
270.0
 51
0.0
1001
GENIUS_GENREC_14
1002
{
1000
PYDIR
1011
300.1999999619453
1021
212.0500005301581
1031
0.0
1002
}
1002
{
1000
PXDIR
1011
340.1999999619454
1021
202.0500005301581
1031
0.0
1002
}
1002
{
1000
PORI
1011
300.1999999619453
1021
202.0500005301581
1031
0.0
1002
}
1002
{
1000
PINS
1011
300.1999999619453
1021
202.0500005301581
1031
0.0
1002
}
1002
{
1000
PINS2
1011
340.1999999619454
1021
212.0500005301581
1031
0.0
1002
}
1002
{
1000
C
1070
     1
1002
}
1001
GENIUS_GENOBJ-N-REC_13
1002
{
1000
OWNER
1000
GEN
1002
}
1001
GENIUS_GENODEF_13
1002
{
1000
HIER
1070
     0
1002
}
1002
{
1000
MANEDIT
1070
     0
1002
}
1002
{
1000
NOSEL
1070
     0
1002
}
1002
{
1000
BEHIND
1070
     0
1002
}
1002
{
1000
OTHER
1070
     0
1002
}
1002
{
1000
REACTOR
1002
}
  0
LINE
  5
76F
330
1F
100
AcDbEntity
  8
0
100
AcDbLine
 10
339.9499999619454
 20
202.800000530158
 30
0.0
 11
339.9499999619454
 21
211.300000530158
 31
0.0
1001
GENIUS_GENREC_14
1002
{
1000
PYDIR
1011
300.1999999619453
1021
212.0500005301581
1031
0.0
1002
}
1002
{
1000
PXDIR
1011
340.1999999619454
1021
202.0500005301581
1031
0.0
1002
}
1002
{
1000
PORI
1011
300.1999999619453
1021
202.0500005301581
1031
0.0
1002
}
1002
{
1000
PINS
1011
300.1999999619453
1021
202.0500005301581
1031
0.0
1002
}
1002
{
1000
PINS2
1011
340.1999999619454
1021
212.0500005301581
1031
0.0
1002
}
1002
{
1000
C
1070
     1
1002
}
1001
GENIUS_GENOBJ-N-REC_13
1002
{
1000
OWNER
1000
GEN
1002
}
1001
GENIUS_GENODEF_13
1002
{
1000
HIER
1070
     0
1002
}
1002
{
1000
MANEDIT
1070
     0
1002
}
1002
{
1000
NOSEL
1070
     0
1002
}
1002
{
1000
BEHIND
1070
     0
1002
}
1002
{
1000
OTHER
1070
     0
1002
}
1002
{
1000
REACTOR
1002
}
  0
ARC
  5
770
330
1F
100
AcDbEntity
  8
0
100
AcDbCircle
 10
339.4499999619454
 20
211.300000530158
 30
0.0
 40
0.5
100
AcDbArc
 50
0.0
 51
90.0
1001
GENIUS_GENREC_14
1002
{
1000
PYDIR
1011
300.1999999619453
1021
212.0500005301581
1031
0.0
1002
}
1002
{
1000
PXDIR
1011
340.1999999619454
1021
202.0500005301581
1031
0.0
1002
}
1002
{
1000
PORI
1011
300.1999999619453
1021
202.0500005301581
1031
0.0
1002
}
1002
{
1000
PINS
1011
300.1999999619453
1021
202.0500005301581
1031
0.0
1002
}
1002
{
1000
PINS2
1011
340.1999999619454
1021
212.0500005301581
1031
0.0
1002
}
1002
{
1000
C
1070
     1
1002
}
1001
GENIUS_GENOBJ-N-REC_13
1002
{
1000
OWNER
1000
GEN
1002
}
1001
GENIUS_GENODEF_13
1002
{
1000
HIER
1070
     0
1002
}
1002
{
1000
MANEDIT
1070
     0
1002
}
1002
{
1000
NOSEL
1070
     0
1002
}
1002
{
1000
BEHIND
1070
     0
1002
}
1002
{
1000
OTHER
1070
     0
1002
}
1002
{
1000
REACTOR
1002
}
  0
LINE
  5
771
330
1F
100
AcDbEntity
  8
0
100
AcDbLine
 10
339.4499999619454
 20
211.8000005301581
 30
0.0
 11
300.9499999619454
 21
211.8000005301581
 31
0.0
1001
GENIUS_GENREC_14
1002
{
1000
PYDIR
1011
300.1999999619453
1021
212.0500005301581
1031
0.0
1002
}
1002
{
1000
PXDIR
1011
340.1999999619454
1021
202.0500005301581
1031
0.0
1002
}
1002
{
1000
PORI
1011
300.1999999619453
1021
202.0500005301581
1031
0.0
1002
}
1002
{
1000
PINS
1011
300.1999999619453
1021
202.0500005301581
1031
0.0
1002
}
1002
{
1000
PINS2
1011
340.1999999619454
1021
212.0500005301581
1031
0.0
1002
}
1002
{
1000
C
1070
     1
1002
}
1001
GENIUS_GENOBJ-N-REC_13
1002
{
1000
OWNER
1000
GEN
1002
}
1001
GENIUS_GENODEF_13
1002
{
1000
HIER
1070
     0
1002
}
1002
{
1000
MANEDIT
1070
     0
1002
}
1002
{
1000
NOSEL
1070
     0
1002
}
1002
{
1000
BEHIND
1070
     0
1002
}
1002
{
1000
OTHER
1070
     0
1002
}
1002
{
1000
REACTOR
1002
}
  0
ARC
  5
772
330
1F
100
AcDbEntity
  8
0
100
AcDbCircle
 10
300.9499999619454
 20
211.300000530158
 30
0.0
 40
0.5
100
AcDbArc
 50
90.0
 51
180.0
1001
GENIUS_GENREC_14
1002
{
1000
PYDIR
1011
300.1999999619453
1021
212.0500005301581
1031
0.0
1002
}
1002
{
1000
PXDIR
1011
340.1999999619454
1021
202.0500005301581
1031
0.0
1002
}
1002
{
1000
PORI
1011
300.1999999619453
1021
202.0500005301581
1031
0.0
1002
}
1002
{
1000
PINS
1011
300.1999999619453
1021
202.0500005301581
1031
0.0
1002
}
1002
{
1000
PINS2
1011
340.1999999619454
1021
212.0500005301581
1031
0.0
1002
}
1002
{
1000
C
1070
     1
1002
}
1001
GENIUS_GENOBJ-N-REC_13
1002
{
1000
OWNER
1000
GEN
1002
}
1001
GENIUS_GENODEF_13
1002
{
1000
HIER
1070
     0
1002
}
1002
{
1000
MANEDIT
1070
     0
1002
}
1002
{
1000
NOSEL
1070
     0
1002
}
1002
{
1000
BEHIND
1070
     0
1002
}
1002
{
1000
OTHER
1070
     0
1002
}
1002
{
1000
REACTOR
1002
}
  0
LINE
  5
773
330
1F
100
AcDbEntity
  8
0
100
AcDbLine
 10
300.4499999619454
 20
211.300000530158
 30
0.0
 11
300.4499999619454
 21
202.800000530158
 31
0.0
1001
GENIUS_GENREC_14
1002
{
1000
PYDIR
1011
300.1999999619453
1021
212.0500005301581
1031
0.0
1002
}
1002
{
1000
PXDIR
1011
340.1999999619454
1021
202.0500005301581
1031
0.0
1002
}
1002
{
1000
PORI
1011
300.1999999619453
1021
202.0500005301581
1031
0.0
1002
}
1002
{
1000
PINS
1011
300.1999999619453
1021
202.0500005301581
1031
0.0
1002
}
1002
{
1000
PINS2
1011
340.1999999619454
1021
212.0500005301581
1031
0.0
1002
}
1002
{
1000
C
1070
     1
1002
}
1001
GENIUS_GENOBJ-N-REC_13
1002
{
1000
OWNER
1000
GEN
1002
}
1001
GENIUS_GENODEF_13
1002
{
1000
HIER
1070
     0
1002
}
1002
{
1000
MANEDIT
1070
     0
1002
}
1002
{
1000
NOSEL
1070
     0
1002
}
1002
{
1000
BEHIND
1070
     0
1002
}
1002
{
1000
OTHER
1070
     0
1002
}
1002
{
1000
REACTOR
1002
}
  0
ARC
  5
774
330
1F
100
AcDbEntity
  8
0
100
AcDbCircle
 10
300.9499999619454
 20
202.800000530158
 30
0.0
 40
0.5
100
AcDbArc
 50
180.0
 51
270.0
1001
GENIUS_GENREC_14
1002
{
1000
PYDIR
1011
300.1999999619453
1021
212.0500005301581
1031
0.0
1002
}
1002
{
1000
PXDIR
1011
340.1999999619454
1021
202.0500005301581
1031
0.0
1002
}
1002
{
1000
PORI
1011
300.1999999619453
1021
202.0500005301581
1031
0.0
1002
}
1002
{
1000
PINS
1011
300.1999999619453
1021
202.0500005301581
1031
0.0
1002
}
1002
{
1000
PINS2
1011
340.1999999619454
1021
212.0500005301581
1031
0.0
1002
}
1002
{
1000
C
1070
     1
1002
}
1001
GENIUS_GENOBJ-N-REC_13
1002
{
1000
OWNER
1000
GEN
1002
}
1001
GENIUS_GENODEF_13
1002
{
1000
HIER
1070
     0
1002
}
1002
{
1000
MANEDIT
1070
     0
1002
}
1002
{
1000
NOSEL
1070
     0
1002
}
1002
{
1000
BEHIND
1070
     0
1002
}
1002
{
1000
OTHER
1070
     0
1002
}
1002
{
1000
REACTOR
1002
}
  0
ARC
  5
775
330
1F
100
AcDbEntity
  8
0
100
AcDbCircle
 10
328.7583332952788
 20
205.8000005301581
 30
0.0
 40
2.5
100
AcDbArc
 50
15.98866499138022
 51
340.5287793655102
  0
ARC
  5
776
330
1F
100
AcDbEntity
  8
0
100
AcDbCircle
 10
328.7583332952788
 20
205.8000005301581
 30
0.0
 40
2.166666666666666
100
AcDbArc
 50
25.00623305001797
 51
161.4936568715907
  0
ARC
  5
777
330
1F
100
AcDbEntity
  8
0
100
AcDbCircle
 10
328.7583332952788
 20
205.8000005301581
 30
0.0
 40
2.166666666666666
100
AcDbArc
 50
171.5353527878993
 51
337.3801350519577
  0
LINE
  5
778
330
1F
100
AcDbEntity
  8
0
100
AcDbLine
 10
328.9249999619455
 20
207.0829147638037
 30
0.0
 11
328.9249999619455
 21
206.2344089877719
 31
0.0
  0
LINE
  5
779
330
1F
100
AcDbEntity
  8
0
100
AcDbLine
 10
328.5916666286121
 20
206.64850630619
 30
0.0
 11
328.5916666286121
 21
205.8000005301581
 31
0.0
  0
LINE
  5
77A
330
1F
100
AcDbEntity
  8
0
100
AcDbLine
 10
327.4249999619454
 20
204.9666671968247
 30
0.0
 11
330.091666628612
 21
204.9666671968247
 31
0.0
  0
LINE
  5
77B
330
1F
100
AcDbEntity
  8
0
100
AcDbLine
 10
327.4249999619454
 20
204.5500005301581
 30
0.0
 11
328.5083332952788
 21
204.5500005301581
 31
0.0
  0
LINE
  5
77C
330
1F
100
AcDbEntity
  8
0
100
AcDbLine
 10
329.0083332952788
 20
204.5500005301581
 30
0.0
 11
330.091666628612
 21
204.5500005301581
 31
0.0
  0
LINE
  5
77D
330
1F
100
AcDbEntity
  8
0
100
AcDbLine
 10
328.5083332952788
 20
203.8833338634915
 30
0.0
 11
329.0083332952788
 21
203.8833338634915
 31
0.0
  0
LINE
  5
77E
330
1F
100
AcDbEntity
  8
0
100
AcDbLine
 10
328.5916666286121
 20
205.8000005301581
 30
0.0
 11
331.1616238136613
 21
206.4886184824747
 31
0.0
  0
LINE
  5
77F
330
1F
100
AcDbEntity
  8
0
100
AcDbLine
 10
328.9249999619455
 20
206.2344089877719
 30
0.0
 11
330.7219005420396
 21
206.7158870470871
 31
0.0
  0
LINE
  5
780
330
1F
100
AcDbEntity
  8
0
100
AcDbLine
 10
326.6152683954842
 20
206.1189319957012
 30
0.0
 11
328.5916666286121
 21
206.64850630619
 31
0.0
  0
LINE
  5
781
330
1F
100
AcDbEntity
  8
0
100
AcDbLine
 10
326.7037081662722
 20
206.4877214209992
 30
0.0
 11
328.9249999619455
 21
207.0829147638037
 31
0.0
  0
LINE
  5
782
330
1F
100
AcDbEntity
  8
0
100
AcDbLine
 10
329.0083332952788
 20
204.5500005301581
 30
0.0
 11
329.0083332952788
 21
203.8833338634915
 31
0.0
  0
LINE
  5
783
330
1F
100
AcDbEntity
  8
0
100
AcDbLine
 10
328.5083332952788
 20
204.5500005301581
 30
0.0
 11
328.5083332952788
 21
203.8833338634915
 31
0.0
  0
LINE
  5
784
330
1F
100
AcDbEntity
  8
0
100
AcDbLine
 10
330.091666628612
 20
204.9666671968247
 30
0.0
 11
330.091666628612
 21
204.5500005301581
 31
0.0
  0
LINE
  5
785
330
1F
100
AcDbEntity
  8
0
100
AcDbLine
 10
327.4249999619454
 20
204.9666671968247
 30
0.0
 11
327.4249999619454
 21
204.5500005301581
 31
0.0
  0
LINE
  5
786
330
1F
100
AcDbEntity
  8
0
100
AcDbLine
 10
327.4249999619454
 20
205.6333338634915
 30
0.0
 11
330.091666628612
 21
205.6333338634915
 31
0.0
  0
LINE
  5
787
330
1F
100
AcDbEntity
  8
0
100
AcDbLine
 10
327.4249999619454
 20
205.2166671968247
 30
0.0
 11
330.091666628612
 21
205.2166671968247
 31
0.0
  0
LINE
  5
788
330
1F
100
AcDbEntity
  8
0
100
AcDbLine
 10
330.091666628612
 20
205.6333338634915
 30
0.0
 11
330.091666628612
 21
205.2166671968247
 31
0.0
  0
LINE
  5
789
330
1F
100
AcDbEntity
  8
0
100
AcDbLine
 10
327.4249999619454
 20
205.6333338634915
 30
0.0
 11
327.4249999619454
 21
205.2166671968247
 31
0.0
  0
LINE
  5
78A
330
1F
100
AcDbEntity
  8
0
100
AcDbLine
 10
330.7583332952788
 20
204.9666671968247
 30
0.0
 11
331.1153558992339
 21
204.9666671968247
 31
0.0
  0
LINE
  5
78B
330
1F
100
AcDbEntity
  8
0
100
AcDbLine
 10
337.4499999619454
 20
203.8000005301582
 30
0.0
 11
337.4499999619454
 21
207.8000005301582
 31
0.0
1001
GENIUS_GENREC_14
1002
{
1000
PYDIR
1011
333.4499999619453
1021
203.8000005301582
1031
0.0
1002
}
1002
{
1000
PXDIR
1011
337.4499999619454
1021
207.8000005301582
1031
0.0
1002
}
1002
{
1000
PORI
1011
337.4499999619454
1021
203.8000005301582
1031
0.0
1002
}
1002
{
1000
PINS
1011
337.4499999619454
1021
203.8000005301582
1031
0.0
1002
}
1002
{
1000
HVAL
1000
4
1002
}
1002
{
1000
H
1070
     2
1002
}
1002
{
1000
WVAL
1000
4
1002
}
1002
{
1000
W
1070
     2
1002
}
1002
{
1000
C
1070
     1
1002
}
1001
GENIUS_GENOBJ-N-REC_13
1002
{
1000
OWNER
1000
GEN
1002
}
1001
GENIUS_GENODEF_13
1002
{
1000
HIER
1070
     0
1002
}
1002
{
1000
MANEDIT
1070
     0
1002
}
1002
{
1000
NOSEL
1070
     0
1002
}
1002
{
1000
BEHIND
1070
     0
1002
}
1002
{
1000
OTHER
1070
     0
1002
}
1002
{
1000
REACTOR
1002
}
  0
LINE
  5
78C
330
1F
100
AcDbEntity
  8
0
100
AcDbLine
 10
337.4499999619454
 20
207.8000005301582
 30
0.0
 11
333.4499999619453
 21
207.8000005301582
 31
0.0
1001
GENIUS_GENREC_14
1002
{
1000
PYDIR
1011
333.4499999619453
1021
203.8000005301582
1031
0.0
1002
}
1002
{
1000
PXDIR
1011
337.4499999619454
1021
207.8000005301582
1031
0.0
1002
}
1002
{
1000
PORI
1011
337.4499999619454
1021
203.8000005301582
1031
0.0
1002
}
1002
{
1000
PINS
1011
337.4499999619454
1021
203.8000005301582
1031
0.0
1002
}
1002
{
1000
HVAL
1000
4
1002
}
1002
{
1000
H
1070
     2
1002
}
1002
{
1000
WVAL
1000
4
1002
}
1002
{
1000
W
1070
     2
1002
}
1002
{
1000
C
1070
     1
1002
}
1001
GENIUS_GENOBJ-N-REC_13
1002
{
1000
OWNER
1000
GEN
1002
}
1001
GENIUS_GENODEF_13
1002
{
1000
HIER
1070
     0
1002
}
1002
{
1000
MANEDIT
1070
     0
1002
}
1002
{
1000
NOSEL
1070
     0
1002
}
1002
{
1000
BEHIND
1070
     0
1002
}
1002
{
1000
OTHER
1070
     0
1002
}
1002
{
1000
REACTOR
1002
}
  0
LINE
  5
78D
330
1F
100
AcDbEntity
  8
0
100
AcDbLine
 10
333.4499999619453
 20
207.8000005301582
 30
0.0
 11
333.4499999619453
 21
203.8000005301582
 31
0.0
1001
GENIUS_GENREC_14
1002
{
1000
PYDIR
1011
333.4499999619453
1021
203.8000005301582
1031
0.0
1002
}
1002
{
1000
PXDIR
1011
337.4499999619454
1021
207.8000005301582
1031
0.0
1002
}
1002
{
1000
PORI
1011
337.4499999619454
1021
203.8000005301582
1031
0.0
1002
}
1002
{
1000
PINS
1011
337.4499999619454
1021
203.8000005301582
1031
0.0
1002
}
1002
{
1000
HVAL
1000
4
1002
}
1002
{
1000
H
1070
     2
1002
}
1002
{
1000
WVAL
1000
4
1002
}
1002
{
1000
W
1070
     2
1002
}
1002
{
1000
C
1070
     1
1002
}
1001
GENIUS_GENOBJ-N-REC_13
1002
{
1000
OWNER
1000
GEN
1002
}
1001
GENIUS_GENODEF_13
1002
{
1000
HIER
1070
     0
1002
}
1002
{
1000
MANEDIT
1070
     0
1002
}
1002
{
1000
NOSEL
1070
     0
1002
}
1002
{
1000
BEHIND
1070
     0
1002
}
1002
{
1000
OTHER
1070
     0
1002
}
1002
{
1000
REACTOR
1002
}
  0
LINE
  5
78E
330
1F
100
AcDbEntity
  8
0
100
AcDbLine
 10
333.4499999619453
 20
203.8000005301582
 30
0.0
 11
337.4499999619454
 21
203.8000005301582
 31
0.0
1001
GENIUS_GENREC_14
1002
{
1000
PYDIR
1011
333.4499999619453
1021
203.8000005301582
1031
0.0
1002
}
1002
{
1000
PXDIR
1011
337.4499999619454
1021
207.8000005301582
1031
0.0
1002
}
1002
{
1000
PORI
1011
337.4499999619454
1021
203.8000005301582
1031
0.0
1002
}
1002
{
1000
PINS
1011
337.4499999619454
1021
203.8000005301582
1031
0.0
1002
}
1002
{
1000
HVAL
1000
4
1002
}
1002
{
1000
H
1070
     2
1002
}
1002
{
1000
WVAL
1000
4
1002
}
1002
{
1000
W
1070
     2
1002
}
1002
{
1000
C
1070
     1
1002
}
1001
GENIUS_GENOBJ-N-REC_13
1002
{
1000
OWNER
1000
GEN
1002
}
1001
GENIUS_GENODEF_13
1002
{
1000
HIER
1070
     0
1002
}
1002
{
1000
MANEDIT
1070
     0
1002
}
1002
{
1000
NOSEL
1070
     0
1002
}
1002
{
1000
BEHIND
1070
     0
1002
}
1002
{
1000
OTHER
1070
     0
1002
}
1002
{
1000
REACTOR
1002
}
  0
CIRCLE
  5
78F
330
1F
100
AcDbEntity
  8
0
100
AcDbCircle
 10
360.1999999619454
 20
207.3000005301583
 30
0.0
 40
1.75
  0
CIRCLE
  5
790
330
1F
100
AcDbEntity
  8
0
100
AcDbCircle
 10
360.1999999619454
 20
207.3000005301583
 30
0.0
 40
1.55
  0
CIRCLE
  5
791
330
1F
100
AcDbEntity
  8
0
100
AcDbCircle
 10
360.1999999619454
 20
207.3000005301583
 30
0.0
 40
0.9
  0
ARC
  5
792
330
1F
100
AcDbEntity
  8
0
100
AcDbCircle
 10
360.1999999619454
 20
208.3000005301582
 30
0.0
 40
0.4
100
AcDbArc
 50
205.9444797719997
 51
334.0555202279995
  0
ARC
  5
793
330
1F
100
AcDbEntity
  8
0
100
AcDbCircle
 10
359.3339745581608
 20
207.8000005301582
 30
0.0
 40
0.4
100
AcDbArc
 50
265.9444797725357
 51
34.05552022747366
  0
ARC
  5
794
330
1F
100
AcDbEntity
  8
0
100
AcDbCircle
 10
359.3339745581608
 20
206.8000005301583
 30
0.0
 40
0.4
100
AcDbArc
 50
325.9444797720361
 51
94.0555202279638
  0
ARC
  5
795
330
1F
100
AcDbEntity
  8
0
100
AcDbCircle
 10
360.1999999619454
 20
206.3000005301582
 30
0.0
 40
0.4
100
AcDbArc
 50
25.94447977135901
 51
154.055520228641
  0
ARC
  5
796
330
1F
100
AcDbEntity
  8
0
100
AcDbCircle
 10
361.0660253657297
 20
206.8000005301583
 30
0.0
 40
0.4
100
AcDbArc
 50
85.94447977219287
 51
214.0555202278116
  0
ARC
  5
797
330
1F
100
AcDbEntity
  8
0
100
AcDbCircle
 10
361.0660253657297
 20
207.8000005301584
 30
0.0
 40
0.4
100
AcDbArc
 50
145.9444797714079
 51
274.0555202286006
  0
CIRCLE
  5
798
330
1F
100
AcDbEntity
  8
0
100
AcDbCircle
 10
360.1999999619454
 20
207.3000005301583
 30
0.0
 40
0.4
  0
CIRCLE
  5
799
330
1F
100
AcDbEntity
  8
0
100
AcDbCircle
 10
360.1999999619454
 20
157.3000005301578
 30
0.0
 40
1.75
  0
CIRCLE
  5
79A
330
1F
100
AcDbEntity
  8
0
100
AcDbCircle
 10
360.1999999619454
 20
157.3000005301578
 30
0.0
 40
1.55
  0
CIRCLE
  5
79B
330
1F
100
AcDbEntity
  8
0
100
AcDbCircle
 10
360.1999999619454
 20
157.3000005301578
 30
0.0
 40
0.9
  0
ARC
  5
79C
330
1F
100
AcDbEntity
  8
0
100
AcDbCircle
 10
360.1999999619454
 20
158.3000005301578
 30
0.0
 40
0.4
100
AcDbArc
 50
205.9444797719997
 51
334.0555202279995
  0
ARC
  5
79D
330
1F
100
AcDbEntity
  8
0
100
AcDbCircle
 10
359.3339745581608
 20
157.8000005301577
 30
0.0
 40
0.4
100
AcDbArc
 50
265.9444797725357
 51
34.05552022747366
  0
ARC
  5
79E
330
1F
100
AcDbEntity
  8
0
100
AcDbCircle
 10
359.3339745581608
 20
156.8000005301578
 30
0.0
 40
0.4
100
AcDbArc
 50
325.9444797720361
 51
94.0555202279638
  0
ARC
  5
79F
330
1F
100
AcDbEntity
  8
0
100
AcDbCircle
 10
360.1999999619454
 20
156.3000005301578
 30
0.0
 40
0.4
100
AcDbArc
 50
25.94447977135901
 51
154.055520228641
  0
ARC
  5
7A0
330
1F
100
AcDbEntity
  8
0
100
AcDbCircle
 10
361.0660253657297
 20
156.8000005301578
 30
0.0
 40
0.4
100
AcDbArc
 50
85.94447977219287
 51
214.0555202278116
  0
ARC
  5
7A1
330
1F
100
AcDbEntity
  8
0
100
AcDbCircle
 10
361.0660253657297
 20
157.8000005301579
 30
0.0
 40
0.4
100
AcDbArc
 50
145.9444797714079
 51
274.0555202286006
  0
CIRCLE
  5
7A2
330
1F
100
AcDbEntity
  8
0
100
AcDbCircle
 10
360.1999999619454
 20
157.3000005301578
 30
0.0
 40
0.4
  0
CIRCLE
  5
7A3
330
1F
100
AcDbEntity
  8
0
100
AcDbCircle
 10
280.1999999619453
 20
157.3000005301576
 30
0.0
 40
1.75
  0
CIRCLE
  5
7A4
330
1F
100
AcDbEntity
  8
0
100
AcDbCircle
 10
280.1999999619453
 20
157.3000005301576
 30
0.0
 40
1.55
  0
CIRCLE
  5
7A5
330
1F
100
AcDbEntity
  8
0
100
AcDbCircle
 10
280.1999999619453
 20
157.3000005301576
 30
0.0
 40
0.9
  0
ARC
  5
7A6
330
1F
100
AcDbEntity
  8
0
100
AcDbCircle
 10
280.1999999619453
 20
158.3000005301576
 30
0.0
 40
0.4
100
AcDbArc
 50
205.9444797719997
 51
334.0555202279995
  0
ARC
  5
7A7
330
1F
100
AcDbEntity
  8
0
100
AcDbCircle
 10
279.3339745581609
 20
157.8000005301574
 30
0.0
 40
0.4
100
AcDbArc
 50
265.9444797725357
 51
34.05552022747366
  0
ARC
  5
7A8
330
1F
100
AcDbEntity
  8
0
100
AcDbCircle
 10
279.3339745581609
 20
156.8000005301575
 30
0.0
 40
0.4
100
AcDbArc
 50
325.9444797720361
 51
94.0555202279638
  0
ARC
  5
7A9
330
1F
100
AcDbEntity
  8
0
100
AcDbCircle
 10
280.1999999619453
 20
156.3000005301575
 30
0.0
 40
0.4
100
AcDbArc
 50
25.94447977135901
 51
154.055520228641
  0
ARC
  5
7AA
330
1F
100
AcDbEntity
  8
0
100
AcDbCircle
 10
281.0660253657297
 20
156.8000005301575
 30
0.0
 40
0.4
100
AcDbArc
 50
85.94447977219287
 51
214.0555202278116
  0
ARC
  5
7AB
330
1F
100
AcDbEntity
  8
0
100
AcDbCircle
 10
281.0660253657297
 20
157.8000005301577
 30
0.0
 40
0.4
100
AcDbArc
 50
145.9444797714079
 51
274.0555202286006
  0
CIRCLE
  5
7AC
330
1F
100
AcDbEntity
  8
0
100
AcDbCircle
 10
280.1999999619453
 20
157.3000005301576
 30
0.0
 40
0.4
  0
CIRCLE
  5
7AD
330
1F
100
AcDbEntity
  8
0
100
AcDbCircle
 10
280.1999999619454
 20
207.3000005301584
 30
0.0
 40
1.75
  0
CIRCLE
  5
7AE
330
1F
100
AcDbEntity
  8
0
100
AcDbCircle
 10
280.1999999619454
 20
207.3000005301584
 30
0.0
 40
1.55
  0
CIRCLE
  5
7AF
330
1F
100
AcDbEntity
  8
0
100
AcDbCircle
 10
280.1999999619454
 20
207.3000005301584
 30
0.0
 40
0.9
  0
ARC
  5
7B0
330
1F
100
AcDbEntity
  8
0
100
AcDbCircle
 10
280.1999999619454
 20
208.3000005301584
 30
0.0
 40
0.4
100
AcDbArc
 50
205.9444797719997
 51
334.0555202279995
  0
ARC
  5
7B1
330
1F
100
AcDbEntity
  8
0
100
AcDbCircle
 10
279.333974558161
 20
207.8000005301583
 30
0.0
 40
0.4
100
AcDbArc
 50
265.9444797725357
 51
34.05552022747366
  0
ARC
  5
7B2
330
1F
100
AcDbEntity
  8
0
100
AcDbCircle
 10
279.333974558161
 20
206.8000005301584
 30
0.0
 40
0.4
100
AcDbArc
 50
325.9444797720361
 51
94.0555202279638
  0
ARC
  5
7B3
330
1F
100
AcDbEntity
  8
0
100
AcDbCircle
 10
280.1999999619454
 20
206.3000005301584
 30
0.0
 40
0.4
100
AcDbArc
 50
25.94447977135901
 51
154.055520228641
  0
ARC
  5
7B4
330
1F
100
AcDbEntity
  8
0
100
AcDbCircle
 10
281.0660253657299
 20
206.8000005301584
 30
0.0
 40
0.4
100
AcDbArc
 50
85.94447977219287
 51
214.0555202278116
  0
ARC
  5
7B5
330
1F
100
AcDbEntity
  8
0
100
AcDbCircle
 10
281.0660253657299
 20
207.8000005301585
 30
0.0
 40
0.4
100
AcDbArc
 50
145.9444797714079
 51
274.0555202286006
  0
CIRCLE
  5
7B6
330
1F
100
AcDbEntity
  8
0
100
AcDbCircle
 10
280.1999999619454
 20
207.3000005301584
 30
0.0
 40
0.4
  0
CIRCLE
  5
7B7
330
1F
100
AcDbEntity
  8
0
100
AcDbCircle
 10
320.1999999619454
 20
154.0500005301581
 30
0.0
 40
2.75
  0
LINE
  5
7B8
330
1F
100
AcDbEntity
  8
0
100
AcDbLine
 10
318.0362532115142
 20
155.5066404994022
 30
0.0
 11
318.7433599927007
 21
156.2137472805888
 31
0.0
  0
LINE
  5
7B9
330
1F
100
AcDbEntity
  8
0
100
AcDbLine
 10
321.6566399311895
 20
151.8862537797271
 30
0.0
 11
322.3637467123761
 21
152.5933605609137
 31
0.0
  0
LINE
  5
7BA
330
1F
100
AcDbEntity
  8
0
100
AcDbLine
 10
322.3637467123761
 20
152.5933605609137
 30
0.0
 11
320.8010407259537
 21
154.156066547336
 31
0.0
  0
LINE
  5
7BB
330
1F
100
AcDbEntity
  8
0
100
AcDbLine
 10
321.6566399311895
 20
151.8862537797271
 30
0.0
 11
320.0939339447672
 21
153.4489597661494
 31
0.0
  0
LINE
  5
7BC
330
1F
100
AcDbEntity
  8
0
100
AcDbLine
 10
321.0838834384285
 20
155.4288587534719
 30
0.0
 11
321.578858185259
 21
154.9338840066413
 31
0.0
  0
LINE
  5
7BD
330
1F
100
AcDbEntity
  8
0
100
AcDbLine
 10
318.8211417386316
 20
153.1661170536749
 30
0.0
 11
319.3161164854621
 21
152.6711423068443
 31
0.0
  0
LINE
  5
7BE
330
1F
100
AcDbEntity
  8
0
100
AcDbLine
 10
318.8211417386316
 20
153.1661170536749
 30
0.0
 11
319.5989591979365
 21
153.94393451298
 31
0.0
  0
LINE
  5
7BF
330
1F
100
AcDbEntity
  8
0
100
AcDbLine
 10
319.3161164854621
 20
152.6711423068443
 30
0.0
 11
320.0939339447672
 21
153.4489597661494
 31
0.0
  0
LINE
  5
7C0
330
1F
100
AcDbEntity
  8
0
100
AcDbLine
 10
319.5989591979365
 20
153.94393451298
 30
0.0
 11
318.0362532115142
 21
155.5066404994022
 31
0.0
  0
LINE
  5
7C1
330
1F
100
AcDbEntity
  8
0
100
AcDbLine
 10
320.3060659791231
 20
154.6510412941665
 30
0.0
 11
318.7433599927007
 21
156.2137472805888
 31
0.0
  0
LINE
  5
7C2
330
1F
100
AcDbEntity
  8
0
100
AcDbLine
 10
320.3060659791231
 20
154.6510412941665
 30
0.0
 11
321.0838834384285
 21
155.4288587534719
 31
0.0
  0
LINE
  5
7C3
330
1F
100
AcDbEntity
  8
0
100
AcDbLine
 10
320.8010407259537
 20
154.156066547336
 30
0.0
 11
321.578858185259
 21
154.9338840066413
 31
0.0
  0
LINE
  5
7C4
330
1F
100
AcDbEntity
  8
0
100
AcDbLine
 10
363.6999999619452
 20
214.6000005301582
 30
0.0
 11
276.6999999619454
 21
214.6000005301582
 31
0.0
  0
LINE
  5
7C5
330
1F
100
AcDbEntity
  8
0
100
AcDbLine
 10
272.8999999619452
 20
210.8000005301581
 30
0.0
 11
272.8999999619452
 21
195.3000005301579
 31
0.0
  0
LINE
  5
7C6
330
1F
100
AcDbEntity
  8
0
100
AcDbLine
 10
272.8999999619452
 20
185.300000530158
 30
0.0
 11
272.8999999619452
 21
153.8000005301579
 31
0.0
  0
ARC
  5
7C7
330
1F
100
AcDbEntity
  8
0
100
AcDbCircle
 10
276.6999999619454
 20
210.8000005301581
 30
0.0
 40
3.799999999999998
100
AcDbArc
 50
90.0
 51
180.0
1001
GENIUS_GENOBJ-N-FIL_13
1002
{
1000
OWNER
1000
GEN
1002
}
1001
GENIUS_GENODEF_13
1002
{
1000
HIER
1070
     0
1002
}
1002
{
1000
MANEDIT
1070
     0
1002
}
1002
{
1000
NOSEL
1070
     0
1002
}
1002
{
1000
BEHIND
1070
     0
1002
}
1002
{
1000
OTHER
1070
     0
1002
}
1002
{
1000
REACTOR
1002
}
  0
LINE
  5
7C8
330
1F
100
AcDbEntity
  8
0
100
AcDbLine
 10
367.4999999619452
 20
210.8000005301581
 30
0.0
 11
367.4999999619453
 21
195.3000005301579
 31
0.0
  0
LINE
  5
7C9
330
1F
100
AcDbEntity
  8
0
100
AcDbLine
 10
367.4999999619453
 20
185.300000530158
 30
0.0
 11
367.4999999619453
 21
153.8000005301579
 31
0.0
  0
ARC
  5
7CA
330
1F
100
AcDbEntity
  8
0
100
AcDbCircle
 10
363.6999999619454
 20
153.8000005301579
 30
0.0
 40
3.799999999999998
100
AcDbArc
 50
270.0
 51
0.0
1001
GENIUS_GENODEF_13
1002
{
1000
HIER
1070
     0
1002
}
1002
{
1000
MANEDIT
1070
     0
1002
}
1002
{
1000
NOSEL
1070
     0
1002
}
1002
{
1000
BEHIND
1070
     0
1002
}
1002
{
1000
OTHER
1070
     0
1002
}
1002
{
1000
REACTOR
1002
}
1001
GENIUS_GENOBJ-N-FIL_13
1002
{
1000
OWNER
1000
GEN
1002
}
  0
ARC
  5
7CB
330
1F
100
AcDbEntity
  8
0
100
AcDbCircle
 10
363.6999999619452
 20
210.8000005301581
 30
0.0
 40
3.799999999999998
100
AcDbArc
 50
0.0
 51
90.0
1001
GENIUS_GENODEF_13
1002
{
1000
HIER
1070
     0
1002
}
1002
{
1000
MANEDIT
1070
     0
1002
}
1002
{
1000
NOSEL
1070
     0
1002
}
1002
{
1000
BEHIND
1070
     0
1002
}
1002
{
1000
OTHER
1070
     0
1002
}
1002
{
1000
REACTOR
1002
}
1001
GENIUS_GENOBJ-N-FIL_13
1002
{
1000
OWNER
1000
GEN
1002
}
  0
LINE
  5
7CC
330
1F
100
AcDbEntity
  8
0
100
AcDbLine
 10
363.6999999619454
 20
150.0000005301579
 30
0.0
 11
276.6999999619453
 21
150.0000005301579
 31
0.0
  0
ARC
  5
7CD
330
1F
100
AcDbEntity
  8
0
100
AcDbCircle
 10
276.6999999619453
 20
153.8000005301579
 30
0.0
 40
3.799999999999998
100
AcDbArc
 50
180.0
 51
270.0
1001
GENIUS_GENOBJ-N-FIL_13
1002
{
1000
OWNER
1000
GEN
1002
}
1001
GENIUS_GENODEF_13
1002
{
1000
HIER
1070
     0
1002
}
1002
{
1000
MANEDIT
1070
     0
1002
}
1002
{
1000
NOSEL
1070
     0
1002
}
1002
{
1000
BEHIND
1070
     0
1002
}
1002
{
1000
OTHER
1070
     0
1002
}
1002
{
1000
REACTOR
1002
}
  0
LINE
  5
7CE
330
1F
100
AcDbEntity
  8
0
100
AcDbLine
 10
368.3999999619452
 20
178.3000005301581
 30
0.0
 11
380.3999999619454
 21
178.300000530158
 31
0.0
  0
LINE
  5
7CF
330
1F
100
AcDbEntity
  8
0
100
AcDbLine
 10
367.2999999619453
 20
195.3000005301579
 30
0.0
 11
368.3999999619452
 21
195.3000005301579
 31
0.0
  0
LINE
  5
7D0
330
1F
100
AcDbEntity
  8
0
100
AcDbLine
 10
367.2999999619453
 20
185.3000005301581
 30
0.0
 11
368.3999999619452
 21
185.3000005301577
 31
0.0
  0
LINE
  5
7D1
330
1F
100
AcDbEntity
  8
0
100
AcDbLine
 10
380.3999999619452
 20
171.8000005301581
 30
0.0
 11
380.3999999619452
 21
196.8000005301485
 31
0.0
  0
LINE
  5
7D2
330
1F
100
AcDbEntity
  8
0
100
AcDbLine
 10
368.3999999619452
 20
171.800000530158
 30
0.0
 11
368.3999999619452
 21
185.3000005301577
 31
0.0
  0
LINE
  5
7D3
330
1F
100
AcDbEntity
  8
0
100
AcDbLine
 10
368.3999999619452
 20
195.3000005301579
 30
0.0
 11
368.3999999619452
 21
196.8000005301485
 31
0.0
  0
LINE
  5
7D4
330
1F
100
AcDbEntity
  8
0
100
AcDbLine
 10
368.3999999619452
 20
196.8000005301485
 30
0.0
 11
380.3999999619452
 21
196.8000005301485
 31
0.0
  0
LINE
  5
7D5
330
1F
100
AcDbEntity
  8
0
100
AcDbLine
 10
379.8999999619454
 20
197.3000005301484
 30
0.0
 11
380.3999999619452
 21
196.8000005301486
 31
0.0
1001
GENIUS_GENFIL_13
1070
     0
1040
0.5
1040
0.5
1040
0.5
1040
45.00000000000325
1002
{
1002
}
1001
GENIUS_GENOBJ-N-CHA_13
1002
{
1000
OWNER
1000
GEN
1002
}
1001
GENIUS_GENODEF_13
1002
{
1000
HIER
1070
     0
1002
}
1002
{
1000
MANEDIT
1070
     0
1002
}
1002
{
1000
NOSEL
1070
     0
1002
}
1002
{
1000
BEHIND
1070
     0
1002
}
1002
{
1000
OTHER
1070
     0
1002
}
1002
{
1000
REACTOR
1002
}
  0
LINE
  5
7D6
330
1F
100
AcDbEntity
  8
0
100
AcDbLine
 10
379.8999999619454
 20
197.3000005301484
 30
0.0
 11
368.8999999619452
 21
197.3000005301484
 31
0.0
  0
LINE
  5
7D7
330
1F
100
AcDbEntity
  8
0
100
AcDbLine
 10
368.3999999619452
 20
196.8000005301485
 30
0.0
 11
368.8999999619452
 21
197.3000005301484
 31
0.0
1001
GENIUS_GENFIL_13
1070
     0
1040
0.5
1040
0.5
1040
0.5
1040
45.00000000000325
1002
{
1002
}
1001
GENIUS_GENOBJ-N-CHA_13
1002
{
1000
OWNER
1000
GEN
1002
}
1001
GENIUS_GENODEF_13
1002
{
1000
HIER
1070
     0
1002
}
1002
{
1000
MANEDIT
1070
     0
1002
}
1002
{
1000
NOSEL
1070
     0
1002
}
1002
{
1000
BEHIND
1070
     0
1002
}
1002
{
1000
OTHER
1070
     0
1002
}
1002
{
1000
REACTOR
1002
}
  0
SPLINE
  5
7D8
330
1F
100
AcDbEntity
  8
0
100
AcDbSpline
210
0.0
220
0.0
230
1.0
 70
     8
 71
     3
 72
    38
 73
    34
 74
     0
 42
0.0000000001
 43
0.0000000001
 40
8.160870181059902
 40
8.160870181059902
 40
8.160870181059902
 40
8.160870181059902
 40
9.159821244704103
 40
9.159821244704103
 40
10.15877230834831
 40
10.15877230834831
 40
11.15772337199251
 40
11.15772337199251
 40
12.15667443563672
 40
12.15667443563672
 40
13.19794091725749
 40
13.19794091725749
 40
14.23920739887826
 40
14.23920739887826
 40
15.28047388049904
 40
15.28047388049904
 40
16.32174036211981
 40
16.32174036211981
 40
17.36300684374058
 40
17.36300684374058
 40
18.40427332536135
 40
18.40427332536135
 40
19.44553980698212
 40
19.44553980698212
 40
20.48680628860289
 40
20.48680628860289
 40
21.4857573522471
 40
21.4857573522471
 40
22.48470841589131
 40
22.48470841589131
 40
23.48365947953551
 40
23.48365947953551
 40
24.48261054317971
 40
24.48261054317971
 40
24.48261054317971
 40
24.48261054317971
 10
368.3999999619452
 20
195.300000530158
 30
0.0
 10
368.3999999619452
 20
195.300000530158
 30
0.0
 10
368.4282510504674
 20
195.2662099110767
 30
0.0
 10
368.5407488590026
 20
195.1303497971124
 30
0.0
 10
368.6249380590998
 20
195.0283413348994
 30
0.0
 10
368.8372845686897
 20
194.7665057826371
 30
0.0
 10
368.9655984074613
 20
194.6064489706628
 30
0.0
 10
369.2468501245357
 20
194.2455969559872
 30
0.0
 10
369.3996972814212
 20
194.0448003079641
 30
0.0
 10
369.7114080076469
 20
193.617404093115
 30
0.0
 10
369.8828197064299
 20
193.3733803543317
 30
0.0
 10
370.2247257098788
 20
192.8443395816829
 30
0.0
 10
370.3952314154367
 20
192.5594334020937
 30
0.0
 10
370.7007202947341
 20
191.9587762896399
 30
0.0
 10
370.8356076493853
 20
191.6428221308214
 30
0.0
 10
371.0274819935555
 20
190.9871356398575
 30
0.0
 10
371.08337517159
 20
190.6470893573649
 30
0.0
 10
371.08337517159
 20
189.9529117029511
 30
0.0
 10
371.0274819935555
 20
189.6128654204585
 30
0.0
 10
370.8356076493853
 20
188.9571789294945
 30
0.0
 10
370.7007202947341
 20
188.641224770676
 30
0.0
 10
370.3952314154367
 20
188.0405676582223
 30
0.0
 10
370.2247257098788
 20
187.7556614786333
 30
0.0
 10
369.8828197064299
 20
187.2266207059843
 30
0.0
 10
369.7114080076469
 20
186.982596967201
 30
0.0
 10
369.3996972814212
 20
186.5552007523521
 30
0.0
 10
369.2468501245357
 20
186.3544041043289
 30
0.0
 10
368.9655984074613
 20
185.9935520896532
 30
0.0
 10
368.8372845686897
 20
185.8334952776789
 30
0.0
 10
368.6249380590998
 20
185.5716597254166
 30
0.0
 10
368.5407488590026
 20
185.4696512632037
 30
0.0
 10
368.4282510504674
 20
185.3337911492394
 30
0.0
 10
368.3999999619452
 20
185.300000530158
 30
0.0
 10
368.3999999619452
 20
185.300000530158
 30
0.0
  0
LINE
  5
7D9
330
1F
100
AcDbEntity
  8
0
100
AcDbLine
 10
380.3999999619454
 20
178.3000005301581
 30
0.0
 11
368.3999999619452
 21
178.300000530158
 31
0.0
  0
LINE
  5
7DA
330
1F
100
AcDbEntity
  8
0
100
AcDbLine
 10
380.3999999619452
 20
178.300000530158
 30
0.0
 11
368.3999999619452
 21
178.300000530158
 31
0.0
  0
LINE
  5
7DB
330
1F
100
AcDbEntity
  8
0
100
AcDbLine
 10
374.3999999618853
 20
176.800000530158
 30
0.0
 11
374.3999999618853
 21
171.800000530158
 31
0.0
  0
LINE
  5
7DC
330
1F
100
AcDbEntity
  8
0
100
AcDbLine
 10
380.3999999619452
 20
170.300000530158
 30
0.0
 11
380.3999999619452
 21
162.300000530158
 31
0.0
  0
LINE
  5
7DD
330
1F
100
AcDbEntity
  8
0
100
AcDbLine
 10
374.3999999618853
 20
170.300000530158
 30
0.0
 11
374.3999999618853
 21
162.300000530158
 31
0.0
  0
LINE
  5
7DE
330
1F
100
AcDbEntity
  8
0
100
AcDbLine
 10
368.3999999619452
 20
170.300000530158
 30
0.0
 11
368.3999999619452
 21
162.300000530158
 31
0.0
  0
LINE
  5
7DF
330
1F
100
AcDbEntity
  8
0
100
AcDbLine
 10
380.3999999619452
 20
176.800000530158
 30
0.0
 11
368.3999999619452
 21
176.800000530158
 31
0.0
  0
LINE
  5
7E0
330
1F
100
AcDbEntity
  8
0
100
AcDbLine
 10
379.3999999619452
 20
170.300000530158
 30
0.0
 11
379.3999999619452
 21
171.800000530158
 31
0.0
  0
LINE
  5
7E1
330
1F
100
AcDbEntity
  8
0
100
AcDbLine
 10
369.3999999619452
 20
170.300000530158
 30
0.0
 11
369.3999999619452
 21
171.800000530158
 31
0.0
  0
LINE
  5
7E2
330
1F
100
AcDbEntity
  8
0
100
AcDbLine
 10
368.8999999619452
 20
162.300000530158
 30
0.0
 11
368.8999999619452
 21
161.300000530158
 31
0.0
  0
LINE
  5
7E3
330
1F
100
AcDbEntity
  8
0
100
AcDbLine
 10
379.8999999619452
 20
162.300000530158
 30
0.0
 11
379.8999999619452
 21
161.300000530158
 31
0.0
  0
LINE
  5
7E4
330
1F
100
AcDbEntity
  8
0
100
AcDbLine
 10
377.8999999619452
 20
159.300000530158
 30
0.0
 11
370.8999999619452
 21
159.300000530158
 31
0.0
  0
ARC
  5
7E5
330
1F
100
AcDbEntity
  8
0
100
AcDbCircle
 10
370.8999999619452
 20
161.300000530158
 30
0.0
 40
2.0
100
AcDbArc
 50
180.0
 51
270.0
  0
ARC
  5
7E6
330
1F
100
AcDbEntity
  8
0
100
AcDbCircle
 10
377.8999999619452
 20
161.300000530158
 30
0.0
 40
2.0
100
AcDbArc
 50
270.0
 51
0.0
  0
LINE
  5
7E7
330
1F
100
AcDbEntity
  8
0
100
AcDbLine
 10
368.3999999619452
 20
171.800000530158
 30
0.0
 11
380.3999999619452
 21
171.8000005301581
 31
0.0
  0
LINE
  5
7E8
330
1F
100
AcDbEntity
  8
0
100
AcDbLine
 10
368.3999999619452
 20
170.300000530158
 30
0.0
 11
380.3999999619452
 21
170.300000530158
 31
0.0
  0
LINE
  5
7E9
330
1F
100
AcDbEntity
  8
0
100
AcDbLine
 10
368.3999999619452
 20
162.300000530158
 30
0.0
 11
380.3999999619452
 21
162.300000530158
 31
0.0
  0
LINE
  5
7EA
330
1F
100
AcDbEntity
  8
0
100
AcDbLine
 10
271.9999999619464
 20
178.3000005301581
 30
0.0
 11
261.9999999619464
 21
178.300000530158
 31
0.0
  0
LINE
  5
7EB
330
1F
100
AcDbEntity
  8
0
100
AcDbLine
 10
273.0999999619454
 20
195.3000005301579
 30
0.0
 11
271.9999999619464
 21
195.300000530158
 31
0.0
  0
LINE
  5
7EC
330
1F
100
AcDbEntity
  8
0
100
AcDbLine
 10
273.0999999619454
 20
185.3000005301581
 30
0.0
 11
271.9999999619464
 21
185.3000005301579
 31
0.0
  0
LINE
  5
7ED
330
1F
100
AcDbEntity
  8
0
100
AcDbLine
 10
268.1999999619463
 20
181.700000530158
 30
0.0
 11
265.7999999619462
 21
181.700000530158
 31
0.0
1001
GENIUS_GENREC_14
1002
{
1000
PYDIR
1011
267.9999999619464
1021
183.9000005301576
1031
0.0
1002
}
1002
{
1000
PXDIR
1011
265.9999999619464
1021
181.900000530158
1031
0.0
1002
}
1002
{
1000
PORI
1011
267.9999999619464
1021
181.900000530158
1031
0.0
1002
}
1002
{
1000
PINS
1011
267.9999999619464
1021
181.900000530158
1031
0.0
1002
}
1002
{
1000
PINS2
1011
265.9999999619464
1021
183.9000005301576
1031
0.0
1002
}
1002
{
1000
C
1070
     1
1002
}
1001
GENIUS_GENODEF_13
1002
{
1000
HIER
1070
     0
1002
}
1002
{
1000
MANEDIT
1070
     0
1002
}
1002
{
1000
NOSEL
1070
     0
1002
}
1002
{
1000
BEHIND
1070
     0
1002
}
1002
{
1000
OTHER
1070
     0
1002
}
1002
{
1000
REACTOR
1002
}
1001
GENIUS_GENOBJ-N-REC_13
1002
{
1000
OWNER
1000
GEN
1002
}
  0
LINE
  5
7EE
330
1F
100
AcDbEntity
  8
0
100
AcDbLine
 10
265.7999999619462
 20
181.700000530158
 30
0.0
 11
265.7999999619462
 21
183.9000005301576
 31
0.0
1001
GENIUS_GENREC_14
1002
{
1000
PYDIR
1011
267.9999999619464
1021
183.7000005301575
1031
0.0
1002
}
1002
{
1000
PXDIR
1011
265.9999999619464
1021
181.900000530158
1031
0.0
1002
}
1002
{
1000
PORI
1011
267.9999999619464
1021
181.900000530158
1031
0.0
1002
}
1002
{
1000
PINS
1011
267.9999999619464
1021
181.900000530158
1031
0.0
1002
}
1002
{
1000
PINS2
1011
265.9999999619464
1021
183.7000005301575
1031
0.0
1002
}
1002
{
1000
C
1070
     1
1002
}
1001
GENIUS_GENODEF_13
1002
{
1000
HIER
1070
     0
1002
}
1002
{
1000
MANEDIT
1070
     0
1002
}
1002
{
1000
NOSEL
1070
     0
1002
}
1002
{
1000
BEHIND
1070
     0
1002
}
1002
{
1000
OTHER
1070
     0
1002
}
1002
{
1000
REACTOR
1002
}
1001
GENIUS_GENOBJ-N-REC_13
1002
{
1000
OWNER
1000
GEN
1002
}
  0
LINE
  5
7EF
330
1F
100
AcDbEntity
  8
0
100
AcDbLine
 10
265.7999999619462
 20
183.9000005301576
 30
0.0
 11
268.1999999619463
 21
183.9000005301576
 31
0.0
1001
GENIUS_GENREC_14
1002
{
1000
PYDIR
1011
267.9999999619464
1021
183.7000005301575
1031
0.0
1002
}
1002
{
1000
PXDIR
1011
265.9999999619464
1021
181.900000530158
1031
0.0
1002
}
1002
{
1000
PORI
1011
267.9999999619464
1021
181.900000530158
1031
0.0
1002
}
1002
{
1000
PINS
1011
267.9999999619464
1021
181.900000530158
1031
0.0
1002
}
1002
{
1000
PINS2
1011
265.9999999619464
1021
183.7000005301575
1031
0.0
1002
}
1002
{
1000
C
1070
     1
1002
}
1001
GENIUS_GENODEF_13
1002
{
1000
HIER
1070
     0
1002
}
1002
{
1000
MANEDIT
1070
     0
1002
}
1002
{
1000
NOSEL
1070
     0
1002
}
1002
{
1000
BEHIND
1070
     0
1002
}
1002
{
1000
OTHER
1070
     0
1002
}
1002
{
1000
REACTOR
1002
}
1001
GENIUS_GENOBJ-N-REC_13
1002
{
1000
OWNER
1000
GEN
1002
}
  0
LINE
  5
7F0
330
1F
100
AcDbEntity
  8
0
100
AcDbLine
 10
268.1999999619463
 20
183.9000005301576
 30
0.0
 11
268.1999999619463
 21
181.700000530158
 31
0.0
1001
GENIUS_GENREC_14
1002
{
1000
PYDIR
1011
267.9999999619464
1021
183.7000005301575
1031
0.0
1002
}
1002
{
1000
PXDIR
1011
265.9999999619464
1021
181.900000530158
1031
0.0
1002
}
1002
{
1000
PORI
1011
267.9999999619464
1021
181.900000530158
1031
0.0
1002
}
1002
{
1000
PINS
1011
267.9999999619464
1021
181.900000530158
1031
0.0
1002
}
1002
{
1000
PINS2
1011
265.9999999619464
1021
183.7000005301575
1031
0.0
1002
}
1002
{
1000
C
1070
     1
1002
}
1001
GENIUS_GENODEF_13
1002
{
1000
HIER
1070
     0
1002
}
1002
{
1000
MANEDIT
1070
     0
1002
}
1002
{
1000
NOSEL
1070
     0
1002
}
1002
{
1000
BEHIND
1070
     0
1002
}
1002
{
1000
OTHER
1070
     0
1002
}
1002
{
1000
REACTOR
1002
}
1001
GENIUS_GENOBJ-N-REC_13
1002
{
1000
OWNER
1000
GEN
1002
}
  0
LINE
  5
7F1
330
1F
100
AcDbEntity
  8
0
100
AcDbLine
 10
261.9999999619464
 20
178.3000005301677
 30
0.0
 11
261.9999999619464
 21
202.3000005301581
 31
0.0
  0
LINE
  5
7F2
330
1F
100
AcDbEntity
  8
0
100
AcDbLine
 10
271.9999999619464
 20
178.3000005301677
 30
0.0
 11
271.9999999619464
 21
185.3000005301579
 31
0.0
  0
LINE
  5
7F3
330
1F
100
AcDbEntity
  8
0
100
AcDbLine
 10
271.9999999619464
 20
195.300000530158
 30
0.0
 11
271.9999999619464
 21
202.3000005301581
 31
0.0
  0
LINE
  5
7F4
330
1F
100
AcDbEntity
  8
0
100
AcDbLine
 10
271.9999999619464
 20
195.300000530158
 30
0.0
 11
266.9999999619462
 21
190.300000530158
 31
0.0
  0
LINE
  5
7F5
330
1F
100
AcDbEntity
  8
0
100
AcDbLine
 10
266.9999999619462
 20
190.300000530158
 30
0.0
 11
271.9999999619464
 21
185.3000005301581
 31
0.0
  0
LINE
  5
7F6
330
1F
100
AcDbEntity
  8
0
100
AcDbLine
 10
262.9999999619461
 20
255.3000005301583
 30
0.0
 11
270.9999999619462
 21
255.3000005301582
 31
0.0
  0
LINE
  5
7F7
330
1F
100
AcDbEntity
  8
0
100
AcDbLine
 10
271.9999999619464
 20
202.3000005301581
 30
0.0
 11
270.9999999619462
 21
255.3000005301582
 31
0.0
  0
LINE
  5
7F8
330
1F
100
AcDbEntity
  8
0
100
AcDbLine
 10
261.9999999619464
 20
202.3000005301581
 30
0.0
 11
262.9999999619461
 21
255.3000005301583
 31
0.0
  0
LINE
  5
7F9
330
1F
100
AcDbEntity
  8
0
100
AcDbLine
 10
270.8999999619467
 20
255.3000005301582
 30
0.0
 11
270.8442018287575
 21
257.201503455997
 31
0.0
  0
LINE
  5
7FA
330
1F
100
AcDbEntity
  8
0
100
AcDbLine
 10
263.0999999619468
 20
255.3000005301582
 30
0.0
 11
263.155798095136
 21
257.2015034559965
 31
0.0
  0
ARC
  5
7FB
330
1F
100
AcDbEntity
  8
0
100
AcDbCircle
 10
263.6557056651509
 20
257.191889848881
 30
0.0
 40
0.5
100
AcDbArc
 50
110.6115892566145
 51
178.8982938847989
1001
GENIUS_GENODEF_13
1002
{
1000
HIER
1070
     0
1002
}
1002
{
1000
MANEDIT
1070
     0
1002
}
1002
{
1000
NOSEL
1070
     0
1002
}
1002
{
1000
BEHIND
1070
     0
1002
}
1002
{
1000
OTHER
1070
     0
1002
}
1002
{
1000
REACTOR
1002
}
1001
GENIUS_GENOBJ-N-FIL_13
1002
{
1000
OWNER
1000
GEN
1002
}
  0
ARC
  5
7FC
330
1F
100
AcDbEntity
  8
0
100
AcDbCircle
 10
270.3442942587426
 20
257.1918898488811
 30
0.0
 40
0.5
100
AcDbArc
 50
1.101706115207571
 51
69.38841074338871
1001
GENIUS_GENOBJ-N-FIL_13
1002
{
1000
OWNER
1000
GEN
1002
}
1001
GENIUS_GENODEF_13
1002
{
1000
HIER
1070
     0
1002
}
1002
{
1000
MANEDIT
1070
     0
1002
}
1002
{
1000
NOSEL
1070
     0
1002
}
1002
{
1000
BEHIND
1070
     0
1002
}
1002
{
1000
OTHER
1070
     0
1002
}
1002
{
1000
REACTOR
1002
}
  0
ARC
  5
7FD
330
1F
100
AcDbEntity
  8
0
100
AcDbCircle
 10
266.999999961947
 20
248.3000005301581
 30
0.0
 40
10.0
100
AcDbArc
 50
98.62692656528871
 51
110.6115892566145
  0
ARC
  5
7FE
330
1F
100
AcDbEntity
  8
0
100
AcDbCircle
 10
266.999999961947
 20
248.3000005301581
 30
0.0
 40
10.0
100
AcDbArc
 50
81.37307343471137
 51
98.62692656528871
  0
ARC
  5
7FF
330
1F
100
AcDbEntity
  8
0
100
AcDbCircle
 10
266.999999961947
 20
248.3000005301581
 30
0.0
 40
10.0
100
AcDbArc
 50
69.38841074338871
 51
81.37307343471137
  0
LINE
  5
800
330
1F
100
AcDbEntity
  8
0
100
AcDbLine
 10
265.4999999608062
 20
258.1868604966277
 30
0.0
 11
268.4999999630877
 21
258.1868604966277
 31
0.0
  0
LINE
  5
801
330
1F
100
AcDbEntity
  8
0
100
AcDbLine
 10
265.9999999619464
 20
182.2000005301581
 30
0.0
 11
267.9999999619464
 21
182.200000530158
 31
0.0
  0
LINE
  5
802
330
1F
100
AcDbEntity
  8
0
100
AcDbLine
 10
262.4999999619461
 20
176.800000530158
 30
0.0
 11
271.4999999619465
 21
176.800000530158
 31
0.0
  0
LINE
  5
803
330
1F
100
AcDbEntity
  8
0
100
AcDbLine
 10
271.9999999619464
 20
177.300000530158
 30
0.0
 11
271.4999999619465
 21
176.800000530158
 31
0.0
1001
GENIUS_GENFIL_13
1070
     0
1040
0.5
1040
0.5
1040
20.0
1040
0.0
1002
{
1002
}
1001
GENIUS_GENODEF_13
1002
{
1000
HIER
1070
     0
1002
}
1002
{
1000
MANEDIT
1070
     0
1002
}
1002
{
1000
NOSEL
1070
     0
1002
}
1002
{
1000
BEHIND
1070
     0
1002
}
1002
{
1000
OTHER
1070
     0
1002
}
1002
{
1000
REACTOR
1002
}
1001
GENIUS_GENOBJ-N-CHA_13
1002
{
1000
OWNER
1000
GEN
1002
}
  0
LINE
  5
804
330
1F
100
AcDbEntity
  8
0
100
AcDbLine
 10
261.9999999619464
 20
178.3000005301581
 30
0.0
 11
261.999999961946
 21
177.3000005301581
 31
0.0
  0
LINE
  5
805
330
1F
100
AcDbEntity
  8
0
100
AcDbLine
 10
262.4999999619461
 20
176.800000530158
 30
0.0
 11
261.999999961946
 21
177.3000005301581
 31
0.0
1001
GENIUS_GENFIL_13
1070
     0
1040
0.5
1040
0.5
1040
0.4999999999999787
1040
45.00000000000446
1000
~T
  0
LINE
  5
806
330
1F
100
AcDbEntity
  8
0
100
AcDbLine
 10
271.9999999619461
 20
178.300000530158
 30
0.0
 11
271.9999999619464
 21
177.300000530158
 31
0.0
  0
LINE
  5
807
330
1F
100
AcDbEntity
  8
0
100
AcDbLine
 10
261.999999961946
 20
177.3000005301585
 30
0.0
 11
271.9999999619464
 21
177.300000530158
 31
0.0
  0
LINE
  5
808
330
1F
100
AcDbEntity
  8
0
100
AcDbLine
 10
265.9999999619464
 20
183.7000005301575
 30
0.0
 11
267.9999999619464
 21
183.7000005301575
 31
0.0
  0
LINE
  5
809
330
1F
100
AcDbEntity
  8
0
100
AcDbLine
 10
267.9999999619464
 20
181.700000530158
 30
0.0
 11
267.9999999619464
 21
183.7000005301575
 31
0.0
  0
LINE
  5
80A
330
1F
100
AcDbEntity
  8
0
100
AcDbLine
 10
265.9999999619464
 20
181.700000530158
 30
0.0
 11
265.9999999619464
 21
183.7000005301575
 31
0.0
  0
LINE
  5
80B
330
1F
100
AcDbEntity
  8
0
100
AcDbLine
 10
205.1999999619453
 20
214.3000005301586
 30
0.0
 11
210.1999999619454
 21
214.3000005301584
 31
0.0
  0
LINE
  5
80C
330
1F
100
AcDbEntity
  8
0
100
AcDbLine
 10
205.1999999619453
 20
150.3000005301581
 30
0.0
 11
210.1999999619454
 21
150.3000005301582
 31
0.0
  0
LINE
  5
80D
330
1F
100
AcDbEntity
  8
0
100
AcDbLine
 10
203.1999999619453
 20
152.3000005301581
 30
0.0
 11
205.1999999619453
 21
150.3000005301581
 31
0.0
1001
GENIUS_GENFIL_13
1070
     0
1040
2.0
1040
2.0
1040
2.0
1040
45.0000000000008
1002
{
1002
}
1001
GENIUS_GENOBJ-N-CHA_13
1002
{
1000
OWNER
1000
GEN
1002
}
1001
GENIUS_GENODEF_13
1002
{
1000
HIER
1070
     0
1002
}
1002
{
1000
MANEDIT
1070
     0
1002
}
1002
{
1000
NOSEL
1070
     0
1002
}
1002
{
1000
BEHIND
1070
     0
1002
}
1002
{
1000
OTHER
1070
     0
1002
}
1002
{
1000
REACTOR
1002
}
  0
LINE
  5
80E
330
1F
100
AcDbEntity
  8
0
100
AcDbLine
 10
203.1999999619453
 20
212.3000005301585
 30
0.0
 11
203.1999999619453
 21
152.3000005301581
 31
0.0
  0
LINE
  5
80F
330
1F
100
AcDbEntity
  8
0
100
AcDbLine
 10
205.1999999619453
 20
214.3000005301586
 30
0.0
 11
203.1999999619453
 21
212.3000005301585
 31
0.0
1001
GENIUS_GENFIL_13
1070
     0
1040
2.0
1040
2.0
1040
2.0
1040
45.00000000000055
1000
~T
  0
LINE
  5
810
330
1F
100
AcDbEntity
  8
0
100
AcDbLine
 10
210.1999999619454
 20
214.3000005301584
 30
0.0
 11
210.1999999619454
 21
150.3000005301582
 31
0.0
  0
LINE
  5
811
330
1F
100
AcDbEntity
  8
0
100
AcDbLine
 10
220.1999999619446
 20
176.8000005301583
 30
0.0
 11
220.1999999619454
 21
152.3000005301582
 31
0.0
1001
GENIUS_GENODEF_13
1002
{
1000
HIER
1070
     0
1002
}
1002
{
1000
MANEDIT
1070
     0
1002
}
1002
{
1000
NOSEL
1070
     0
1002
}
1002
{
1000
BEHIND
1070
     0
1002
}
1002
{
1000
OTHER
1070
     0
1002
}
1002
{
1000
REACTOR
1002
}
1001
GENIUS_GENOBJ-N-CEN_13
1002
{
1000
OWNER
1000
GEN
1002
}
1001
GENIUS_GENCEN_19
1002
{
1040
2.793999999999998
1002
}
  0
LINE
  5
812
330
1F
100
AcDbEntity
  8
0
100
AcDbLine
 10
213.1999999619453
 20
214.3000005301584
 30
0.0
 11
213.9264150562834
 21
214.3000005301584
 31
0.0
  0
LINE
  5
813
330
1F
100
AcDbEntity
  8
0
100
AcDbLine
 10
213.1999999619454
 20
150.3000005301582
 30
0.0
 11
238.6999999619454
 21
150.3000005301582
 31
0.0
  0
LINE
  5
814
330
1F
100
AcDbEntity
  8
0
100
AcDbLine
 10
220.1999999619454
 20
152.3000005301582
 30
0.0
 11
218.1999999619454
 21
150.3000005301582
 31
0.0
1001
GENIUS_GENFIL_13
1070
     0
1040
2.0
1040
2.0
1040
2.000000000000024
1040
45.00000000000031
1000
~T
  0
LINE
  5
815
330
1F
100
AcDbEntity
  8
0
100
AcDbLine
 10
213.1999999619452
 20
150.3000005301585
 30
0.0
 11
213.1999999619452
 21
214.3000005301582
 31
0.0
  0
ARC
  5
816
330
1F
100
AcDbEntity
  8
0
100
AcDbCircle
 10
212.8999999619452
 20
150.3000005301585
 30
0.0
 40
0.3
100
AcDbArc
 50
270.0
 51
0.0
1001
GENIUS_GENODEF_13
1002
{
1000
HIER
1070
     0
1002
}
1002
{
1000
MANEDIT
1070
     0
1002
}
1002
{
1000
NOSEL
1070
     0
1002
}
1002
{
1000
BEHIND
1070
     0
1002
}
1002
{
1000
OTHER
1070
     0
1002
}
1002
{
1000
REACTOR
1002
}
1001
GENIUS_GENOBJ-N-FIL_13
1002
{
1000
OWNER
1000
GEN
1002
}
  0
ARC
  5
817
330
1F
100
AcDbEntity
  8
0
100
AcDbCircle
 10
212.8999999619451
 20
214.3000005301582
 30
0.0
 40
0.3
100
AcDbArc
 50
0.0
 51
90.00000000000317
1001
GENIUS_GENOBJ-N-FIL_13
1002
{
1000
OWNER
1000
GEN
1002
}
1001
GENIUS_GENODEF_13
1002
{
1000
HIER
1070
     0
1002
}
1002
{
1000
MANEDIT
1070
     0
1002
}
1002
{
1000
NOSEL
1070
     0
1002
}
1002
{
1000
BEHIND
1070
     0
1002
}
1002
{
1000
OTHER
1070
     0
1002
}
1002
{
1000
REACTOR
1002
}
  0
ARC
  5
818
330
1F
100
AcDbEntity
  8
0
100
AcDbCircle
 10
210.4999999619452
 20
150.3000005301585
 30
0.0
 40
0.3
100
AcDbArc
 50
180.0
 51
270.0
1001
GENIUS_GENOBJ-N-FIL_13
1002
{
1000
OWNER
1000
GEN
1002
}
1001
GENIUS_GENODEF_13
1002
{
1000
HIER
1070
     0
1002
}
1002
{
1000
MANEDIT
1070
     0
1002
}
1002
{
1000
NOSEL
1070
     0
1002
}
1002
{
1000
BEHIND
1070
     0
1002
}
1002
{
1000
OTHER
1070
     0
1002
}
1002
{
1000
REACTOR
1002
}
  0
ARC
  5
819
330
1F
100
AcDbEntity
  8
0
100
AcDbCircle
 10
210.4999999619452
 20
214.3000005301581
 30
0.0
 40
0.3
100
AcDbArc
 50
90.00000000000317
 51
180.0
1001
GENIUS_GENODEF_13
1002
{
1000
HIER
1070
     0
1002
}
1002
{
1000
MANEDIT
1070
     0
1002
}
1002
{
1000
NOSEL
1070
     0
1002
}
1002
{
1000
BEHIND
1070
     0
1002
}
1002
{
1000
OTHER
1070
     0
1002
}
1002
{
1000
REACTOR
1002
}
1001
GENIUS_GENOBJ-N-FIL_13
1002
{
1000
OWNER
1000
GEN
1002
}
  0
LINE
  5
81A
330
1F
100
AcDbEntity
  8
0
100
AcDbLine
 10
212.8999999619451
 20
214.6000005301582
 30
0.0
 11
210.4999999619452
 21
214.6000005301582
 31
0.0
  0
LINE
  5
81B
330
1F
100
AcDbEntity
  8
0
100
AcDbLine
 10
212.8999999619452
 20
150.0000005301584
 30
0.0
 11
210.4999999619452
 21
150.0000005301585
 31
0.0
  0
LINE
  5
81C
330
1F
100
AcDbEntity
  8
0
100
AcDbLine
 10
213.6999999619436
 20
178.3000005301585
 30
0.0
 11
223.6999999619437
 21
178.3000005301582
 31
0.0
  0
LINE
  5
81D
330
1F
100
AcDbEntity
  8
0
100
AcDbLine
 10
223.6999999619436
 20
178.300000530168
 30
0.0
 11
223.6999999619436
 21
181.7000005301582
 31
0.0
  0
LINE
  5
81E
330
1F
100
AcDbEntity
  8
0
100
AcDbLine
 10
223.6999999619436
 20
183.9000005301585
 30
0.0
 11
223.6999999619436
 21
202.3000005301585
 31
0.0
  0
LINE
  5
81F
330
1F
100
AcDbEntity
  8
0
100
AcDbLine
 10
213.6999999619436
 20
178.3000005301585
 30
0.0
 11
213.6999999619436
 21
181.7000005301582
 31
0.0
  0
LINE
  5
820
330
1F
100
AcDbEntity
  8
0
100
AcDbLine
 10
213.6999999619436
 20
183.9000005301585
 30
0.0
 11
213.6999999619436
 21
202.3000005301514
 31
0.0
  0
LINE
  5
821
330
1F
100
AcDbEntity
  8
0
100
AcDbLine
 10
223.6999999619437
 20
183.9000005301585
 30
0.0
 11
223.5538644017481
 21
183.9000005301585
 31
0.0
  0
LINE
  5
822
330
1F
100
AcDbEntity
  8
0
100
AcDbLine
 10
223.5538644017481
 20
183.9000005301585
 30
0.0
 11
223.5538644017484
 21
181.7000005301582
 31
0.0
  0
LINE
  5
823
330
1F
100
AcDbEntity
  8
0
100
AcDbLine
 10
223.5538644017484
 20
181.7000005301582
 30
0.0
 11
223.6999999619437
 21
181.7000005301582
 31
0.0
  0
LINE
  5
824
330
1F
100
AcDbEntity
  8
0
100
AcDbLine
 10
213.6999999619436
 20
183.9000005301585
 30
0.0
 11
213.8461355221389
 21
183.9000005301585
 31
0.0
  0
LINE
  5
825
330
1F
100
AcDbEntity
  8
0
100
AcDbLine
 10
213.8461355221389
 20
183.9000005301585
 30
0.0
 11
213.8461355221389
 21
181.7000005301582
 31
0.0
  0
LINE
  5
826
330
1F
100
AcDbEntity
  8
0
100
AcDbLine
 10
213.8461355221389
 20
181.7000005301582
 30
0.0
 11
213.6999999619436
 21
181.7000005301582
 31
0.0
  0
LINE
  5
827
330
1F
100
AcDbEntity
  8
0
100
AcDbLine
 10
222.6999999619437
 20
255.3000005301585
 30
0.0
 11
214.6999999619436
 21
255.3000005301585
 31
0.0
  0
LINE
  5
828
330
1F
100
AcDbEntity
  8
0
100
AcDbLine
 10
213.6999999619436
 20
202.3000005301514
 30
0.0
 11
214.6999999619436
 21
255.3000005301585
 31
0.0
  0
LINE
  5
829
330
1F
100
AcDbEntity
  8
0
100
AcDbLine
 10
223.6999999619436
 20
202.3000005301621
 30
0.0
 11
222.6999999619437
 21
255.3000005301585
 31
0.0
  0
LINE
  5
82A
330
1F
100
AcDbEntity
  8
0
100
AcDbLine
 10
214.7999999619432
 20
255.3000005301585
 30
0.0
 11
214.8557980951323
 21
257.2015034559971
 31
0.0
  0
LINE
  5
82B
330
1F
100
AcDbEntity
  8
0
100
AcDbLine
 10
222.5999999619431
 20
255.3000005301585
 30
0.0
 11
222.544201828754
 21
257.201503455997
 31
0.0
  0
ARC
  5
82C
330
1F
100
AcDbEntity
  8
0
100
AcDbCircle
 10
222.044294258739
 20
257.1918898488813
 30
0.0
 40
0.5
100
AcDbArc
 50
1.101706115201055
 51
69.38841074338538
1001
GENIUS_GENODEF_13
1002
{
1000
HIER
1070
     0
1002
}
1002
{
1000
MANEDIT
1070
     0
1002
}
1002
{
1000
NOSEL
1070
     0
1002
}
1002
{
1000
BEHIND
1070
     0
1002
}
1002
{
1000
OTHER
1070
     0
1002
}
1002
{
1000
REACTOR
1002
}
1001
GENIUS_GENOBJ-N-FIL_13
1002
{
1000
OWNER
1000
GEN
1002
}
  0
ARC
  5
82D
330
1F
100
AcDbEntity
  8
0
100
AcDbCircle
 10
222.044294258739
 20
257.1918898488813
 30
0.0
 40
0.5
100
AcDbArc
 50
69.38841074338538
 51
69.38841074338538
1001
GENIUS_GENODEF_13
1002
{
1000
HIER
1070
     0
1002
}
1002
{
1000
MANEDIT
1070
     0
1002
}
1002
{
1000
NOSEL
1070
     0
1002
}
1002
{
1000
BEHIND
1070
     0
1002
}
1002
{
1000
OTHER
1070
     0
1002
}
1002
{
1000
REACTOR
1002
}
1001
GENIUS_GENOBJ-N-FIL_13
1002
{
1000
OWNER
1000
GEN
1002
}
  0
ARC
  5
82E
330
1F
100
AcDbEntity
  8
0
100
AcDbCircle
 10
215.3557056651474
 20
257.1918898488814
 30
0.0
 40
0.5
100
AcDbArc
 50
110.6115892566112
 51
178.8982938847924
1001
GENIUS_GENOBJ-N-FIL_13
1002
{
1000
OWNER
1000
GEN
1002
}
1001
GENIUS_GENODEF_13
1002
{
1000
HIER
1070
     0
1002
}
1002
{
1000
MANEDIT
1070
     0
1002
}
1002
{
1000
NOSEL
1070
     0
1002
}
1002
{
1000
BEHIND
1070
     0
1002
}
1002
{
1000
OTHER
1070
     0
1002
}
1002
{
1000
REACTOR
1002
}
  0
ARC
  5
82F
330
1F
100
AcDbEntity
  8
0
100
AcDbCircle
 10
218.6999999619428
 20
248.3000005301585
 30
0.0
 40
10.0
100
AcDbArc
 50
69.38841074338538
 51
81.37307343471137
  0
ARC
  5
830
330
1F
100
AcDbEntity
  8
0
100
AcDbCircle
 10
218.6999999619428
 20
248.3000005301585
 30
0.0
 40
10.0
100
AcDbArc
 50
81.37307343471137
 51
98.62692656528871
  0
ARC
  5
831
330
1F
100
AcDbEntity
  8
0
100
AcDbCircle
 10
218.6999999619428
 20
248.3000005301585
 30
0.0
 40
10.0
100
AcDbArc
 50
98.62692656528871
 51
110.6115892566112
  0
LINE
  5
832
330
1F
100
AcDbEntity
  8
0
100
AcDbLine
 10
220.1999999630836
 20
258.186860496628
 30
0.0
 11
217.1999999608021
 21
258.186860496628
 31
0.0
  0
LINE
  5
833
330
1F
100
AcDbEntity
  8
0
100
AcDbLine
 10
213.6999999619436
 20
178.3000005301585
 30
0.0
 11
223.6999999619437
 21
178.3000005301582
 31
0.0
  0
LINE
  5
834
330
1F
100
AcDbEntity
  8
0
100
AcDbLine
 10
223.1999999619439
 20
176.8000005301583
 30
0.0
 11
214.1999999619433
 21
176.8000005301582
 31
0.0
  0
LINE
  5
835
330
1F
100
AcDbEntity
  8
0
100
AcDbLine
 10
213.6999999619436
 20
177.3000005301582
 30
0.0
 11
214.1999999619433
 21
176.8000005301582
 31
0.0
1001
GENIUS_GENFIL_13
1070
     0
1040
0.5
1040
0.5
1040
20.0
1040
0.0
1002
{
1002
}
1001
GENIUS_GENODEF_13
1002
{
1000
HIER
1070
     0
1002
}
1002
{
1000
MANEDIT
1070
     0
1002
}
1002
{
1000
NOSEL
1070
     0
1002
}
1002
{
1000
BEHIND
1070
     0
1002
}
1002
{
1000
OTHER
1070
     0
1002
}
1002
{
1000
REACTOR
1002
}
1001
GENIUS_GENOBJ-N-CHA_13
1002
{
1000
OWNER
1000
GEN
1002
}
  0
LINE
  5
836
330
1F
100
AcDbEntity
  8
0
100
AcDbLine
 10
223.6999999619437
 20
178.3000005301585
 30
0.0
 11
223.6999999619437
 21
177.3000005301583
 31
0.0
  0
LINE
  5
837
330
1F
100
AcDbEntity
  8
0
100
AcDbLine
 10
223.1999999619439
 20
176.8000005301583
 30
0.0
 11
223.6999999619437
 21
177.3000005301583
 31
0.0
1001
GENIUS_GENFIL_13
1070
     0
1040
0.5
1040
0.5
1040
0.4999999999999787
1040
45.00000000000446
1000
~T
  0
LINE
  5
838
330
1F
100
AcDbEntity
  8
0
100
AcDbLine
 10
213.6999999619439
 20
178.3000005301582
 30
0.0
 11
213.6999999619436
 21
177.3000005301582
 31
0.0
  0
LINE
  5
839
330
1F
100
AcDbEntity
  8
0
100
AcDbLine
 10
223.6999999619439
 20
177.3000005301588
 30
0.0
 11
213.6999999619436
 21
177.3000005301582
 31
0.0
  0
LINE
  5
83A
330
1F
100
AcDbEntity
  8
0
100
AcDbLine
 10
202.6999999619453
 20
159.2160259339427
 30
0.0
 11
202.6999999619454
 21
163.4839751263739
 31
0.0
  0
ARC
  5
83B
330
1F
100
AcDbEntity
  8
0
100
AcDbCircle
 10
202.6999999619453
 20
158.3500005301583
 30
0.0
 40
0.5
100
AcDbArc
 50
0.0
 51
60.0000000000001
  0
ARC
  5
83C
330
1F
100
AcDbEntity
  8
0
100
AcDbCircle
 10
203.1999999619453
 20
159.2160259339427
 30
0.0
 40
0.5
100
AcDbArc
 50
180.0
 51
240.0
  0
ARC
  5
83D
330
1F
100
AcDbEntity
  8
0
100
AcDbCircle
 10
202.6999999619453
 20
164.3500005301583
 30
0.0
 40
0.5
100
AcDbArc
 50
299.9999999999999
 51
0.0
  0
ARC
  5
83E
330
1F
100
AcDbEntity
  8
0
100
AcDbCircle
 10
203.1999999619453
 20
163.4839751263739
 30
0.0
 40
0.5
100
AcDbArc
 50
119.9999999999998
 51
180.0
  0
ARC
  5
83F
330
1F
100
AcDbEntity
  8
0
100
AcDbCircle
 10
218.6999999619436
 20
190.3000005301603
 30
0.0
 40
6.0
100
AcDbArc
 50
326.442690238078
 51
33.55730976192204
1001
GENIUS_GENODEF_13
1002
{
1000
HIER
1070
     0
1002
}
1002
{
1000
MANEDIT
1070
     0
1002
}
1002
{
1000
NOSEL
1070
     0
1002
}
1002
{
1000
BEHIND
1070
     0
1002
}
1002
{
1000
OTHER
1070
     0
1002
}
1002
{
1000
REACTOR
1002
}
1001
GENIUS_GENOBJ-N-FIL_13
1002
{
1000
OWNER
1000
GEN
1002
}
  0
LINE
  5
840
330
1F
100
AcDbEntity
  8
0
100
AcDbLine
 10
240.1999999619453
 20
212.8000005301585
 30
0.0
 11
240.1999999619454
 21
151.8000005301582
 31
0.0
1001
GENIUS_GENODEF_13
1002
{
1000
HIER
1070
     0
1002
}
1002
{
1000
MANEDIT
1070
     0
1002
}
1002
{
1000
NOSEL
1070
     0
1002
}
1002
{
1000
BEHIND
1070
     0
1002
}
1002
{
1000
OTHER
1070
     0
1002
}
1002
{
1000
REACTOR
1002
}
1001
GENIUS_GENOBJ-N-CEN_13
1002
{
1000
OWNER
1000
GEN
1002
}
1001
GENIUS_GENCEN_19
1002
{
1040
2.793999999999998
1002
}
  0
ARC
  5
841
330
1F
100
AcDbEntity
  8
0
100
AcDbCircle
 10
238.6999999619453
 20
212.8000005301585
 30
0.0
 40
1.5
100
AcDbArc
 50
0.0
 51
90.0
1001
GENIUS_GENOBJ-N-CEN_13
1002
{
1000
OWNER
1000
GEN
1002
}
1001
GENIUS_GENCEN_19
1002
{
1040
2.793999999999998
1002
}
1001
GENIUS_GENODEF_13
1002
{
1000
HIER
1070
     0
1002
}
1002
{
1000
MANEDIT
1070
     0
1002
}
1002
{
1000
NOSEL
1070
     0
1002
}
1002
{
1000
BEHIND
1070
     0
1002
}
1002
{
1000
OTHER
1070
     0
1002
}
1002
{
1000
REACTOR
1002
}
1001
GENIUS_GENOBJ-N-FIL_13
1002
{
1000
OWNER
1000
GEN
1002
}
  0
ARC
  5
842
330
1F
100
AcDbEntity
  8
0
100
AcDbCircle
 10
238.6999999619454
 20
151.8000005301582
 30
0.0
 40
1.5
100
AcDbArc
 50
270.0
 51
0.0
1001
GENIUS_GENOBJ-N-FIL_13
1002
{
1000
OWNER
1000
GEN
1002
}
1001
GENIUS_GENODEF_13
1002
{
1000
HIER
1070
     0
1002
}
1002
{
1000
MANEDIT
1070
     0
1002
}
1002
{
1000
NOSEL
1070
     0
1002
}
1002
{
1000
BEHIND
1070
     0
1002
}
1002
{
1000
OTHER
1070
     0
1002
}
1002
{
1000
REACTOR
1002
}
  0
LINE
  5
843
330
1F
100
AcDbEntity
  8
0
100
AcDbLine
 10
223.473584867604
 20
214.3000005301584
 30
0.0
 11
238.6999999619453
 21
214.3000005301585
 31
0.0
  0
CIRCLE
  5
844
330
1F
100
AcDbEntity
  8
0
100
AcDbCircle
 10
226.1999999619456
 20
172.3000005301575
 30
0.0
 40
4.75
  0
CIRCLE
  5
845
330
1F
100
AcDbEntity
  8
0
100
AcDbCircle
 10
226.1999999619456
 20
172.3000005301575
 30
0.0
 40
4.0
  0
CIRCLE
  5
846
330
1F
100
AcDbEntity
  8
0
100
AcDbCircle
 10
226.1999999619456
 20
172.3000005301575
 30
0.0
 40
3.5
  0
LINE
  5
847
330
1F
100
AcDbEntity
  8
0
100
AcDbLine
 10
376.4499999619443
 20
76.30000053015826
 30
0.0
 11
376.4499999619443
 21
115.6285719587297
 31
0.0
  0
LINE
  5
848
330
1F
100
AcDbEntity
  8
0
100
AcDbLine
 10
376.4499999619443
 20
117.6285719587297
 30
0.0
 11
376.4499999619443
 21
159.3000005301581
 31
0.0
  0
LINE
  5
849
330
1F
100
AcDbEntity
  8
0
100
AcDbLine
 10
372.3499999619459
 20
76.30000053015826
 30
0.0
 11
372.3499999619459
 21
117.971429101586
 31
0.0
  0
LINE
  5
84A
330
1F
100
AcDbEntity
  8
0
100
AcDbLine
 10
372.3499999619459
 20
119.971429101586
 30
0.0
 11
372.3499999619459
 21
159.3000005301581
 31
0.0
  0
LINE
  5
84B
330
1F
100
AcDbEntity
  8
0
100
AcDbLine
 10
216.6499999619444
 20
76.30000053015817
 30
0.0
 11
216.6499999619444
 21
117.9714291015868
 31
0.0
  0
LINE
  5
84C
330
1F
100
AcDbEntity
  8
0
100
AcDbLine
 10
216.6499999619444
 20
119.9714291015868
 30
0.0
 11
216.6499999619444
 21
150.3000005301581
 31
0.0
  0
LINE
  5
84D
330
1F
100
AcDbEntity
  8
0
100
AcDbLine
 10
220.7499999619428
 20
76.30000053015837
 30
0.0
 11
220.7499999619428
 21
115.6285719587305
 31
0.0
  0
LINE
  5
84E
330
1F
100
AcDbEntity
  8
0
100
AcDbLine
 10
220.7499999619428
 20
117.6285719587306
 30
0.0
 11
220.7499999619428
 21
150.3000005301582
 31
0.0
  0
LINE
  5
84F
330
1F
100
AcDbEntity
  8
0
100
AcDbLine
 10
73.29999996194453
 20
29.00000053015819
 30
0.0
 11
73.2999999619447
 21
31.50000053015822
 31
0.0
  0
LINE
  5
850
330
1F
100
AcDbEntity
  8
0
100
AcDbLine
 10
58.69999996194451
 20
29.00000053015819
 30
0.0
 11
58.69999996194451
 21
31.50000053015822
 31
0.0
  0
LINE
  5
851
330
1F
100
AcDbEntity
  8
0
100
AcDbLine
 10
57.1999999619445
 20
55.50000053015827
 30
0.0
 11
57.1999999619445
 21
8.800000530158143
 31
0.0
  0
LINE
  5
852
330
1F
100
AcDbEntity
  8
0
100
AcDbLine
 10
74.79999996194471
 20
55.50000053015833
 30
0.0
 11
74.79999996194471
 21
8.800000530158143
 31
0.0
  0
LINE
  5
853
330
1F
100
AcDbEntity
  8
0
100
AcDbLine
 10
57.1999999619445
 20
35.5000005301582
 30
0.0
 11
74.79999996194471
 21
35.5000005301582
 31
0.0
  0
LINE
  5
854
330
1F
100
AcDbEntity
  8
0
100
AcDbLine
 10
57.1999999619445
 20
33.00000053015822
 30
0.0
 11
74.79999996194471
 21
33.00000053015822
 31
0.0
  0
LINE
  5
855
330
1F
100
AcDbEntity
  8
0
100
AcDbLine
 10
57.1999999619445
 20
31.50000053015822
 30
0.0
 11
74.79999996194471
 21
31.50000053015822
 31
0.0
  0
LINE
  5
856
330
1F
100
AcDbEntity
  8
0
100
AcDbLine
 10
58.69999996194451
 20
33.00000053015822
 30
0.0
 11
58.69999996194451
 21
35.5000005301582
 31
0.0
  0
LINE
  5
857
330
1F
100
AcDbEntity
  8
0
100
AcDbLine
 10
73.2999999619447
 20
33.00000053015822
 30
0.0
 11
73.2999999619447
 21
35.5000005301582
 31
0.0
  0
ARC
  5
858
330
1F
100
AcDbEntity
  8
0
100
AcDbCircle
 10
65.99999996194452
 20
8.800000530158143
 30
0.0
 40
8.800000000000006
100
AcDbArc
 50
180.0
 51
0.0
  0
LINE
  5
859
330
1F
100
AcDbEntity
  8
0
100
AcDbLine
 10
74.79999996194471
 20
9.000000530158159
 30
0.0
 11
57.1999999619445
 21
9.000000530158159
 31
0.0
  0
LINE
  5
85A
330
1F
100
AcDbEntity
  8
0
100
AcDbLine
 10
57.1999999619445
 20
27.50000053015819
 30
0.0
 11
74.79999996194471
 21
27.50000053015819
 31
0.0
  0
LINE
  5
85B
330
1F
100
AcDbEntity
  8
0
100
AcDbLine
 10
57.1999999619445
 20
29.00000053015819
 30
0.0
 11
74.79999996194471
 21
29.00000053015819
 31
0.0
  0
LINE
  5
85C
330
1F
100
AcDbEntity
  8
0
100
AcDbLine
 10
57.1999999619445
 20
25.00000053015819
 30
0.0
 11
74.79999996194471
 21
25.00000053015819
 31
0.0
  0
LINE
  5
85D
330
1F
100
AcDbEntity
  8
0
100
AcDbLine
 10
57.1999999619445
 20
23.50000053015819
 30
0.0
 11
74.79999996194471
 21
23.50000053015819
 31
0.0
  0
LINE
  5
85E
330
1F
100
AcDbEntity
  8
0
100
AcDbLine
 10
57.1999999619445
 20
19.50000053015816
 30
0.0
 11
74.79999996194471
 21
19.50000053015816
 31
0.0
  0
LINE
  5
85F
330
1F
100
AcDbEntity
  8
0
100
AcDbLine
 10
57.1999999619445
 20
21.00000053015819
 30
0.0
 11
74.79999996194471
 21
21.00000053015819
 31
0.0
  0
LINE
  5
860
330
1F
100
AcDbEntity
  8
0
100
AcDbLine
 10
57.1999999619445
 20
17.00000053015816
 30
0.0
 11
74.79999996194471
 21
17.00000053015816
 31
0.0
  0
LINE
  5
861
330
1F
100
AcDbEntity
  8
0
100
AcDbLine
 10
57.1999999619445
 20
15.50000053015816
 30
0.0
 11
74.79999996194471
 21
15.50000053015816
 31
0.0
  0
LINE
  5
862
330
1F
100
AcDbEntity
  8
0
100
AcDbLine
 10
57.1999999619445
 20
13.00000053015816
 30
0.0
 11
74.79999996194471
 21
13.00000053015816
 31
0.0
  0
LINE
  5
863
330
1F
100
AcDbEntity
  8
0
100
AcDbLine
 10
57.1999999619445
 20
11.50000053015816
 30
0.0
 11
74.79999996194471
 21
11.50000053015816
 31
0.0
  0
LINE
  5
864
330
1F
100
AcDbEntity
  8
0
100
AcDbLine
 10
58.69999996194451
 20
17.00000053015816
 30
0.0
 11
58.69999996194451
 21
19.50000053015816
 31
0.0
  0
LINE
  5
865
330
1F
100
AcDbEntity
  8
0
100
AcDbLine
 10
58.69999996194451
 20
25.00000053015819
 30
0.0
 11
58.69999996194451
 21
27.50000053015819
 31
0.0
  0
LINE
  5
866
330
1F
100
AcDbEntity
  8
0
100
AcDbLine
 10
58.69999996194451
 20
21.00000053015819
 30
0.0
 11
58.69999996194451
 21
23.50000053015819
 31
0.0
  0
LINE
  5
867
330
1F
100
AcDbEntity
  8
0
100
AcDbLine
 10
58.69999996194451
 20
13.00000053015816
 30
0.0
 11
58.69999996194451
 21
15.50000053015816
 31
0.0
  0
LINE
  5
868
330
1F
100
AcDbEntity
  8
0
100
AcDbLine
 10
58.69999996194451
 20
9.000000530158159
 30
0.0
 11
58.69999996194451
 21
11.50000053015816
 31
0.0
  0
LINE
  5
869
330
1F
100
AcDbEntity
  8
0
100
AcDbLine
 10
73.29999996194453
 20
17.00000053015816
 30
0.0
 11
73.29999996194453
 21
19.50000053015816
 31
0.0
  0
LINE
  5
86A
330
1F
100
AcDbEntity
  8
0
100
AcDbLine
 10
73.29999996194453
 20
25.00000053015819
 30
0.0
 11
73.29999996194453
 21
27.50000053015819
 31
0.0
  0
LINE
  5
86B
330
1F
100
AcDbEntity
  8
0
100
AcDbLine
 10
73.29999996194453
 20
21.00000053015819
 30
0.0
 11
73.29999996194453
 21
23.50000053015819
 31
0.0
  0
LINE
  5
86C
330
1F
100
AcDbEntity
  8
0
100
AcDbLine
 10
73.29999996194453
 20
13.00000053015816
 30
0.0
 11
73.29999996194453
 21
15.50000053015816
 31
0.0
  0
LINE
  5
86D
330
1F
100
AcDbEntity
  8
0
100
AcDbLine
 10
73.29999996194453
 20
9.000000530158159
 30
0.0
 11
73.29999996194453
 21
11.50000053015816
 31
0.0
  0
CIRCLE
  5
86E
330
1F
100
AcDbEntity
  8
0
100
AcDbCircle
 10
65.99999996194452
 20
4.00000053015816
 30
0.0
 40
2.000000000000003
  0
LINE
  5
86F
330
1F
100
AcDbEntity
  8
0
100
AcDbLine
 10
73.44999996194456
 20
58.50000053015827
 30
0.0
 11
73.44999996194456
 21
56.50000053015833
 31
0.0
1001
GENIUS_GENODEF_13
1002
{
1000
HIER
1070
     0
1002
}
1002
{
1000
MANEDIT
1070
     0
1002
}
1002
{
1000
NOSEL
1070
     0
1002
}
1002
{
1000
BEHIND
1070
     0
1002
}
1002
{
1000
OTHER
1070
     0
1002
}
1002
{
1000
REACTOR
1002
}
1001
GENIUS_GENOBJ-N-CEN_13
1002
{
1000
OWNER
1000
GEN
1002
}
  0
LINE
  5
870
330
1F
100
AcDbEntity
  8
0
100
AcDbLine
 10
58.54999996194447
 20
58.50000053015827
 30
0.0
 11
58.54999996194447
 21
56.50000053015827
 31
0.0
1001
GENIUS_GENODEF_13
1002
{
1000
HIER
1070
     0
1002
}
1002
{
1000
MANEDIT
1070
     0
1002
}
1002
{
1000
NOSEL
1070
     0
1002
}
1002
{
1000
BEHIND
1070
     0
1002
}
1002
{
1000
OTHER
1070
     0
1002
}
1002
{
1000
REACTOR
1002
}
1001
GENIUS_GENOBJ-N-CEN_13
1002
{
1000
OWNER
1000
GEN
1002
}
  0
LINE
  5
871
330
1F
100
AcDbEntity
  8
0
100
AcDbLine
 10
72.94999996194455
 20
59.00000053015827
 30
0.0
 11
59.04999996194447
 21
59.00000053015827
 31
0.0
  0
ARC
  5
872
330
1F
100
AcDbEntity
  8
0
100
AcDbCircle
 10
59.04999996194447
 20
58.50000053015827
 30
0.0
 40
0.5000000000000009
100
AcDbArc
 50
90.0
 51
180.0
1001
GENIUS_GENOBJ-N-FIL_13
1002
{
1000
OWNER
1000
GEN
1002
}
1001
GENIUS_GENODEF_13
1002
{
1000
HIER
1070
     0
1002
}
1002
{
1000
MANEDIT
1070
     0
1002
}
1002
{
1000
NOSEL
1070
     0
1002
}
1002
{
1000
BEHIND
1070
     0
1002
}
1002
{
1000
OTHER
1070
     0
1002
}
1002
{
1000
REACTOR
1002
}
  0
ARC
  5
873
330
1F
100
AcDbEntity
  8
0
100
AcDbCircle
 10
72.94999996194455
 20
58.50000053015827
 30
0.0
 40
0.5000000000000009
100
AcDbArc
 50
0.0
 51
90.0
1001
GENIUS_GENOBJ-N-CEN_13
1002
{
1000
OWNER
1000
GEN
1002
}
1001
GENIUS_GENOBJ-N-FIL_13
1002
{
1000
OWNER
1000
GEN
1002
}
1001
GENIUS_GENODEF_13
1002
{
1000
HIER
1070
     0
1002
}
1002
{
1000
MANEDIT
1070
     0
1002
}
1002
{
1000
NOSEL
1070
     0
1002
}
1002
{
1000
BEHIND
1070
     0
1002
}
1002
{
1000
OTHER
1070
     0
1002
}
1002
{
1000
REACTOR
1002
}
  0
LINE
  5
874
330
1F
100
AcDbEntity
  8
0
100
AcDbLine
 10
73.7999999619447
 20
56.50000053015833
 30
0.0
 11
58.1999999619445
 21
56.50000053015827
 31
0.0
  0
LINE
  5
875
330
1F
100
AcDbEntity
  8
0
100
AcDbLine
 10
73.7999999619447
 20
43.50000053015825
 30
0.0
 11
58.19999996194468
 21
43.50000053015825
 31
0.0
  0
ARC
  5
876
330
1F
100
AcDbEntity
  8
0
100
AcDbCircle
 10
58.1999999619445
 20
55.50000053015827
 30
0.0
 40
1.000000000000001
100
AcDbArc
 50
90.0
 51
180.0
1001
GENIUS_GENODEF_13
1002
{
1000
HIER
1070
     0
1002
}
1002
{
1000
MANEDIT
1070
     0
1002
}
1002
{
1000
NOSEL
1070
     0
1002
}
1002
{
1000
BEHIND
1070
     0
1002
}
1002
{
1000
OTHER
1070
     0
1002
}
1002
{
1000
REACTOR
1002
}
1001
GENIUS_GENOBJ-N-FIL_13
1002
{
1000
OWNER
1000
GEN
1002
}
  0
ARC
  5
877
330
1F
100
AcDbEntity
  8
0
100
AcDbCircle
 10
58.19999996194468
 20
44.50000053015824
 30
0.0
 40
1.000000000000001
100
AcDbArc
 50
180.0
 51
270.0
1001
GENIUS_GENODEF_13
1002
{
1000
HIER
1070
     0
1002
}
1002
{
1000
MANEDIT
1070
     0
1002
}
1002
{
1000
NOSEL
1070
     0
1002
}
1002
{
1000
BEHIND
1070
     0
1002
}
1002
{
1000
OTHER
1070
     0
1002
}
1002
{
1000
REACTOR
1002
}
1001
GENIUS_GENOBJ-N-FIL_13
1002
{
1000
OWNER
1000
GEN
1002
}
  0
ARC
  5
878
330
1F
100
AcDbEntity
  8
0
100
AcDbCircle
 10
73.7999999619447
 20
55.50000053015833
 30
0.0
 40
1.000000000000001
100
AcDbArc
 50
0.0
 51
90.0
1001
GENIUS_GENOBJ-N-FIL_13
1002
{
1000
OWNER
1000
GEN
1002
}
1001
GENIUS_GENODEF_13
1002
{
1000
HIER
1070
     0
1002
}
1002
{
1000
MANEDIT
1070
     0
1002
}
1002
{
1000
NOSEL
1070
     0
1002
}
1002
{
1000
BEHIND
1070
     0
1002
}
1002
{
1000
OTHER
1070
     0
1002
}
1002
{
1000
REACTOR
1002
}
  0
ARC
  5
879
330
1F
100
AcDbEntity
  8
0
100
AcDbCircle
 10
73.7999999619447
 20
44.50000053015824
 30
0.0
 40
1.000000000000001
100
AcDbArc
 50
270.0
 51
0.0
1001
GENIUS_GENOBJ-N-FIL_13
1002
{
1000
OWNER
1000
GEN
1002
}
1001
GENIUS_GENODEF_13
1002
{
1000
HIER
1070
     0
1002
}
1002
{
1000
MANEDIT
1070
     0
1002
}
1002
{
1000
NOSEL
1070
     0
1002
}
1002
{
1000
BEHIND
1070
     0
1002
}
1002
{
1000
OTHER
1070
     0
1002
}
1002
{
1000
REACTOR
1002
}
  0
LINE
  5
87A
330
1F
100
AcDbEntity
  8
0
100
AcDbLine
 10
72.44999996194455
 20
65.48054052641467
 30
0.0
 11
72.44999996194455
 21
59.00000053015827
 31
0.0
  0
LINE
  5
87B
330
1F
100
AcDbEntity
  8
0
100
AcDbLine
 10
59.5499999619447
 20
65.48054052641461
 30
0.0
 11
59.54999996194486
 21
59.00000053015827
 31
0.0
  0
LINE
  5
87C
330
1F
100
AcDbEntity
  8
0
100
AcDbLine
 10
69.95147887188284
 20
76.30000053015831
 30
0.0
 11
62.04852105200638
 21
76.30000053015831
 31
0.0
  0
LINE
  5
87D
330
1F
100
AcDbEntity
  8
0
100
AcDbLine
 10
61.06186176113857
 20
75.46279931315154
 30
0.0
 11
59.68340705326568
 21
67.10852835634661
 31
0.0
  0
LINE
  5
87E
330
1F
100
AcDbEntity
  8
0
100
AcDbLine
 10
70.9381381627507
 20
75.46279931315154
 30
0.0
 11
72.31659287062377
 21
67.10852835634674
 31
0.0
  0
ARC
  5
87F
330
1F
100
AcDbEntity
  8
0
100
AcDbCircle
 10
62.44999996194451
 20
65.48054052641467
 30
0.0
 40
10.00000000000001
100
AcDbArc
 50
0.0
 51
9.36938509648692
1001
GENIUS_GENODEF_13
1002
{
1000
HIER
1070
     0
1002
}
1002
{
1000
MANEDIT
1070
     0
1002
}
1002
{
1000
NOSEL
1070
     0
1002
}
1002
{
1000
BEHIND
1070
     0
1002
}
1002
{
1000
OTHER
1070
     0
1002
}
1002
{
1000
REACTOR
1002
}
1001
GENIUS_GENOBJ-N-FIL_13
1002
{
1000
OWNER
1000
GEN
1002
}
  0
ARC
  5
880
330
1F
100
AcDbEntity
  8
0
100
AcDbCircle
 10
69.5499999619447
 20
65.48054052641461
 30
0.0
 40
10.00000000000001
100
AcDbArc
 50
170.6306149035131
 51
180.0
1001
GENIUS_GENOBJ-N-FIL_13
1002
{
1000
OWNER
1000
GEN
1002
}
1001
GENIUS_GENODEF_13
1002
{
1000
HIER
1070
     0
1002
}
1002
{
1000
MANEDIT
1070
     0
1002
}
1002
{
1000
NOSEL
1070
     0
1002
}
1002
{
1000
BEHIND
1070
     0
1002
}
1002
{
1000
OTHER
1070
     0
1002
}
1002
{
1000
REACTOR
1002
}
  0
ARC
  5
881
330
1F
100
AcDbEntity
  8
0
100
AcDbCircle
 10
69.95147887188284
 20
75.30000053015831
 30
0.0
 40
1.000000000000001
100
AcDbArc
 50
9.36938509648692
 51
90.0
1001
GENIUS_GENOBJ-N-FIL_13
1002
{
1000
OWNER
1000
GEN
1002
}
1001
GENIUS_GENODEF_13
1002
{
1000
HIER
1070
     0
1002
}
1002
{
1000
MANEDIT
1070
     0
1002
}
1002
{
1000
NOSEL
1070
     0
1002
}
1002
{
1000
BEHIND
1070
     0
1002
}
1002
{
1000
OTHER
1070
     0
1002
}
1002
{
1000
REACTOR
1002
}
  0
ARC
  5
882
330
1F
100
AcDbEntity
  8
0
100
AcDbCircle
 10
62.04852105200638
 20
75.30000053015831
 30
0.0
 40
1.000000000000001
100
AcDbArc
 50
90.0
 51
170.6306149035131
1001
GENIUS_GENODEF_13
1002
{
1000
HIER
1070
     0
1002
}
1002
{
1000
MANEDIT
1070
     0
1002
}
1002
{
1000
NOSEL
1070
     0
1002
}
1002
{
1000
BEHIND
1070
     0
1002
}
1002
{
1000
OTHER
1070
     0
1002
}
1002
{
1000
REACTOR
1002
}
1001
GENIUS_GENOBJ-N-FIL_13
1002
{
1000
OWNER
1000
GEN
1002
}
  0
LINE
  5
883
330
1F
100
AcDbEntity
  8
0
100
AcDbLine
 10
63.94999996194467
 20
76.30000053015809
 30
0.0
 11
63.94999996194365
 21
117.9714291015872
 31
0.0
  0
LINE
  5
884
330
1F
100
AcDbEntity
  8
0
100
AcDbLine
 10
68.04999996194471
 20
76.30000053015826
 30
0.0
 11
68.04999996194389
 21
115.6285719587291
 31
0.0
  0
LINE
  5
885
330
1F
100
AcDbEntity
  8
0
100
AcDbLine
 10
68.04999996194389
 20
117.6285719587301
 30
0.0
 11
68.04999996194493
 21
159.3000005301581
 31
0.0
  0
LINE
  5
886
330
1F
100
AcDbEntity
  8
0
100
AcDbLine
 10
68.04999996194389
 20
117.6285719587301
 30
0.0
 11
63.94999996194531
 21
119.9714291015864
 31
0.0
  0
LINE
  5
887
330
1F
100
AcDbEntity
  8
0
100
AcDbLine
 10
68.04999996194531
 20
115.6285719587293
 30
0.0
 11
63.94999996194531
 21
117.9714291015864
 31
0.0
  0
LINE
  5
888
330
1F
100
AcDbEntity
  8
0
100
AcDbLine
 10
63.94999996194531
 20
119.9714291015864
 30
0.0
 11
63.94999996194632
 21
159.3000005301581
 31
0.0
  0
LINE
  5
889
330
1F
100
AcDbEntity
  8
0
100
AcDbLine
 10
73.2560319354139
 20
6.500000530158074
 30
0.0
 11
58.74396798847533
 21
6.500000530158074
 31
0.0
  0
ARC
  5
88A
330
1F
100
AcDbEntity
  8
0
100
AcDbCircle
 10
73.2560319354139
 20
8.000000530158075
 30
0.0
 40
1.5
100
AcDbArc
 50
270.0
 51
353.70837386061
1001
GENIUS_GENODEF_13
1002
{
1000
HIER
1070
     0
1002
}
1002
{
1000
MANEDIT
1070
     0
1002
}
1002
{
1000
NOSEL
1070
     0
1002
}
1002
{
1000
BEHIND
1070
     0
1002
}
1002
{
1000
OTHER
1070
     0
1002
}
1002
{
1000
REACTOR
1002
}
1001
GENIUS_GENOBJ-N-FIL_13
1002
{
1000
OWNER
1000
GEN
1002
}
  0
ARC
  5
88B
330
1F
100
AcDbEntity
  8
0
100
AcDbCircle
 10
58.74396798847533
 20
8.000000530158075
 30
0.0
 40
1.5
100
AcDbArc
 50
186.2916261393899
 51
270.0
1001
GENIUS_GENODEF_13
1002
{
1000
HIER
1070
     0
1002
}
1002
{
1000
MANEDIT
1070
     0
1002
}
1002
{
1000
NOSEL
1070
     0
1002
}
1002
{
1000
BEHIND
1070
     0
1002
}
1002
{
1000
OTHER
1070
     0
1002
}
1002
{
1000
REACTOR
1002
}
1001
GENIUS_GENOBJ-N-FIL_13
1002
{
1000
OWNER
1000
GEN
1002
}
  0
LINE
  5
88C
330
1F
100
AcDbEntity
  8
0
100
AcDbLine
 10
212.5999999619443
 20
55.50000053015811
 30
0.0
 11
212.5999999619443
 21
44.00000053015809
 31
0.0
  0
LINE
  5
88D
330
1F
100
AcDbEntity
  8
0
100
AcDbLine
 10
226.5999999619444
 20
55.50000053015811
 30
0.0
 11
226.5999999619443
 21
44.00000053015827
 31
0.0
  0
LINE
  5
88E
330
1F
100
AcDbEntity
  8
0
100
AcDbLine
 10
213.9999999619444
 20
52.50000053015813
 30
0.0
 11
213.9999999619444
 21
44.00000053015809
 31
0.0
  0
LINE
  5
88F
330
1F
100
AcDbEntity
  8
0
100
AcDbLine
 10
225.1999999619441
 20
52.50000053015813
 30
0.0
 11
225.1999999619441
 21
44.00000053015827
 31
0.0
  0
LINE
  5
890
330
1F
100
AcDbEntity
  8
0
100
AcDbLine
 10
214.7499999619444
 20
75.30000053015813
 30
0.0
 11
214.7499999619444
 21
59.00000053015809
 31
0.0
  0
LINE
  5
891
330
1F
100
AcDbEntity
  8
0
100
AcDbLine
 10
222.6499999619442
 20
75.30000053015843
 30
0.0
 11
222.6499999619442
 21
59.00000053015809
 31
0.0
  0
LINE
  5
892
330
1F
100
AcDbEntity
  8
0
100
AcDbLine
 10
218.6999999619443
 20
59.00000053015809
 30
0.0
 11
218.6999999619443
 21
76.30000053015812
 31
0.0
  0
LINE
  5
893
330
1F
100
AcDbEntity
  8
0
100
AcDbLine
 10
215.7499999619445
 20
76.30000053015812
 30
0.0
 11
221.6499999619442
 21
76.3000005301584
 31
0.0
  0
ARC
  5
894
330
1F
100
AcDbEntity
  8
0
100
AcDbCircle
 10
215.7499999619445
 20
75.30000053015806
 30
0.0
 40
1.0
100
AcDbArc
 50
90.0
 51
180.0
1001
GENIUS_GENOBJ-N-FIL_13
1002
{
1000
OWNER
1000
GEN
1002
}
1001
GENIUS_GENODEF_13
1002
{
1000
HIER
1070
     0
1002
}
1002
{
1000
MANEDIT
1070
     0
1002
}
1002
{
1000
NOSEL
1070
     0
1002
}
1002
{
1000
BEHIND
1070
     0
1002
}
1002
{
1000
OTHER
1070
     0
1002
}
1002
{
1000
REACTOR
1002
}
  0
ARC
  5
895
330
1F
100
AcDbEntity
  8
0
100
AcDbCircle
 10
221.6499999619442
 20
75.30000053015836
 30
0.0
 40
1.0
100
AcDbArc
 50
0.0
 51
90.0
1001
GENIUS_GENOBJ-N-FIL_13
1002
{
1000
OWNER
1000
GEN
1002
}
1001
GENIUS_GENODEF_13
1002
{
1000
HIER
1070
     0
1002
}
1002
{
1000
MANEDIT
1070
     0
1002
}
1002
{
1000
NOSEL
1070
     0
1002
}
1002
{
1000
BEHIND
1070
     0
1002
}
1002
{
1000
OTHER
1070
     0
1002
}
1002
{
1000
REACTOR
1002
}
  0
LINE
  5
896
330
1F
100
AcDbEntity
  8
0
100
AcDbLine
 10
214.7499999619444
 20
59.00000053015827
 30
0.0
 11
222.6499999619442
 21
59.00000053015809
 31
0.0
  0
LINE
  5
897
330
1F
100
AcDbEntity
  8
0
100
AcDbLine
 10
213.5999999619444
 20
56.50000053015809
 30
0.0
 11
225.5999999619444
 21
56.50000053015809
 31
0.0
  0
LINE
  5
898
330
1F
100
AcDbEntity
  8
0
100
AcDbLine
 10
213.9999999619444
 20
52.50000053015813
 30
0.0
 11
225.1999999619441
 21
52.50000053015813
 31
0.0
  0
ARC
  5
899
330
1F
100
AcDbEntity
  8
0
100
AcDbCircle
 10
213.5999999619444
 20
55.50000053015825
 30
0.0
 40
1.0
100
AcDbArc
 50
90.0
 51
180.0
1001
GENIUS_GENOBJ-N-FIL_13
1002
{
1000
OWNER
1000
GEN
1002
}
1001
GENIUS_GENODEF_13
1002
{
1000
HIER
1070
     0
1002
}
1002
{
1000
MANEDIT
1070
     0
1002
}
1002
{
1000
NOSEL
1070
     0
1002
}
1002
{
1000
BEHIND
1070
     0
1002
}
1002
{
1000
OTHER
1070
     0
1002
}
1002
{
1000
REACTOR
1002
}
  0
ARC
  5
89A
330
1F
100
AcDbEntity
  8
0
100
AcDbCircle
 10
214.7499999619444
 20
58.00000053015839
 30
0.0
 40
1.0
100
AcDbArc
 50
90.0
 51
180.0
1001
GENIUS_GENODEF_13
1002
{
1000
HIER
1070
     0
1002
}
1002
{
1000
MANEDIT
1070
     0
1002
}
1002
{
1000
NOSEL
1070
     0
1002
}
1002
{
1000
BEHIND
1070
     0
1002
}
1002
{
1000
OTHER
1070
     0
1002
}
1002
{
1000
REACTOR
1002
}
1001
GENIUS_GENOBJ-N-FIL_13
1002
{
1000
OWNER
1000
GEN
1002
}
  0
LINE
  5
89B
330
1F
100
AcDbEntity
  8
0
100
AcDbLine
 10
213.7499999619445
 20
58.00000053015811
 30
0.0
 11
213.7499999619445
 21
56.50000053015809
 31
0.0
  0
ARC
  5
89C
330
1F
100
AcDbEntity
  8
0
100
AcDbCircle
 10
222.6499999619442
 20
58.00000053015804
 30
0.0
 40
1.0
100
AcDbArc
 50
0.0
 51
90.0
1001
GENIUS_GENODEF_13
1002
{
1000
HIER
1070
     0
1002
}
1002
{
1000
MANEDIT
1070
     0
1002
}
1002
{
1000
NOSEL
1070
     0
1002
}
1002
{
1000
BEHIND
1070
     0
1002
}
1002
{
1000
OTHER
1070
     0
1002
}
1002
{
1000
REACTOR
1002
}
1001
GENIUS_GENOBJ-N-FIL_13
1002
{
1000
OWNER
1000
GEN
1002
}
  0
ARC
  5
89D
330
1F
100
AcDbEntity
  8
0
100
AcDbCircle
 10
225.5999999619444
 20
55.50000053015804
 30
0.0
 40
1.0
100
AcDbArc
 50
0.0
 51
90.0
1001
GENIUS_GENODEF_13
1002
{
1000
HIER
1070
     0
1002
}
1002
{
1000
MANEDIT
1070
     0
1002
}
1002
{
1000
NOSEL
1070
     0
1002
}
1002
{
1000
BEHIND
1070
     0
1002
}
1002
{
1000
OTHER
1070
     0
1002
}
1002
{
1000
REACTOR
1002
}
1001
GENIUS_GENOBJ-N-FIL_13
1002
{
1000
OWNER
1000
GEN
1002
}
  0
LINE
  5
89E
330
1F
100
AcDbEntity
  8
0
100
AcDbLine
 10
223.6499999619442
 20
58.00000053015811
 30
0.0
 11
223.6499999619442
 21
56.50000053015809
 31
0.0
  0
ARC
  5
89F
330
1F
100
AcDbEntity
  8
0
100
AcDbCircle
 10
213.0999999619444
 20
44.00000053015824
 30
0.0
 40
0.5
100
AcDbArc
 50
180.0
 51
270.0
1001
GENIUS_GENOBJ-N-FIL_13
1002
{
1000
OWNER
1000
GEN
1002
}
1001
GENIUS_GENODEF_13
1002
{
1000
HIER
1070
     0
1002
}
1002
{
1000
MANEDIT
1070
     0
1002
}
1002
{
1000
NOSEL
1070
     0
1002
}
1002
{
1000
BEHIND
1070
     0
1002
}
1002
{
1000
OTHER
1070
     0
1002
}
1002
{
1000
REACTOR
1002
}
  0
LINE
  5
8A0
330
1F
100
AcDbEntity
  8
0
100
AcDbLine
 10
213.0999999619444
 20
43.5000005301581
 30
0.0
 11
213.4999999619445
 21
43.5000005301581
 31
0.0
  0
ARC
  5
8A1
330
1F
100
AcDbEntity
  8
0
100
AcDbCircle
 10
213.4999999619442
 20
44.00000053015824
 30
0.0
 40
0.5
100
AcDbArc
 50
270.0
 51
0.0
1001
GENIUS_GENODEF_13
1002
{
1000
HIER
1070
     0
1002
}
1002
{
1000
MANEDIT
1070
     0
1002
}
1002
{
1000
NOSEL
1070
     0
1002
}
1002
{
1000
BEHIND
1070
     0
1002
}
1002
{
1000
OTHER
1070
     0
1002
}
1002
{
1000
REACTOR
1002
}
1001
GENIUS_GENOBJ-N-FIL_13
1002
{
1000
OWNER
1000
GEN
1002
}
  0
ARC
  5
8A2
330
1F
100
AcDbEntity
  8
0
100
AcDbCircle
 10
226.0999999619444
 20
44.00000053015839
 30
0.0
 40
0.5
100
AcDbArc
 50
270.0
 51
0.0
1001
GENIUS_GENOBJ-N-FIL_13
1002
{
1000
OWNER
1000
GEN
1002
}
1001
GENIUS_GENODEF_13
1002
{
1000
HIER
1070
     0
1002
}
1002
{
1000
MANEDIT
1070
     0
1002
}
1002
{
1000
NOSEL
1070
     0
1002
}
1002
{
1000
BEHIND
1070
     0
1002
}
1002
{
1000
OTHER
1070
     0
1002
}
1002
{
1000
REACTOR
1002
}
  0
LINE
  5
8A3
330
1F
100
AcDbEntity
  8
0
100
AcDbLine
 10
225.699999961944
 20
43.50000053015827
 30
0.0
 11
226.099999961944
 21
43.50000053015827
 31
0.0
  0
ARC
  5
8A4
330
1F
100
AcDbEntity
  8
0
100
AcDbCircle
 10
225.699999961944
 20
44.00000053015839
 30
0.0
 40
0.5
100
AcDbArc
 50
180.0
 51
270.0
1001
GENIUS_GENOBJ-N-FIL_13
1002
{
1000
OWNER
1000
GEN
1002
}
1001
GENIUS_GENODEF_13
1002
{
1000
HIER
1070
     0
1002
}
1002
{
1000
MANEDIT
1070
     0
1002
}
1002
{
1000
NOSEL
1070
     0
1002
}
1002
{
1000
BEHIND
1070
     0
1002
}
1002
{
1000
OTHER
1070
     0
1002
}
1002
{
1000
REACTOR
1002
}
  0
LINE
  5
8A5
330
1F
100
AcDbEntity
  8
0
100
AcDbLine
 10
223.5999999619444
 20
21.0000005301581
 30
0.0
 11
223.5999999619444
 21
23.5000005301581
 31
0.0
  0
LINE
  5
8A6
330
1F
100
AcDbEntity
  8
0
100
AcDbLine
 10
219.5999999619444
 20
52.50000053015813
 30
0.0
 11
219.5999999619444
 21
6.500000530158132
 31
0.0
  0
LINE
  5
8A7
330
1F
100
AcDbEntity
  8
0
100
AcDbLine
 10
223.5999999619444
 20
6.500000530158446
 30
0.0
 11
219.5999999619444
 21
6.500000530158132
 31
0.0
  0
LINE
  5
8A8
330
1F
100
AcDbEntity
  8
0
100
AcDbLine
 10
223.5999999619444
 20
13.00000053015813
 30
0.0
 11
223.5999999619444
 21
15.50000053015827
 31
0.0
  0
LINE
  5
8A9
330
1F
100
AcDbEntity
  8
0
100
AcDbLine
 10
223.5999999619444
 20
9.000000530158132
 30
0.0
 11
223.5999999619444
 21
11.5000005301583
 31
0.0
  0
LINE
  5
8AA
330
1F
100
AcDbEntity
  8
0
100
AcDbLine
 10
225.0999999619443
 20
9.000000530158132
 30
0.0
 11
223.5999999619444
 21
9.000000530158132
 31
0.0
  0
LINE
  5
8AB
330
1F
100
AcDbEntity
  8
0
100
AcDbLine
 10
225.0999999619443
 20
11.5000005301583
 30
0.0
 11
223.5999999619444
 21
11.5000005301583
 31
0.0
  0
LINE
  5
8AC
330
1F
100
AcDbEntity
  8
0
100
AcDbLine
 10
225.0999999619443
 20
13.00000053015813
 30
0.0
 11
223.5999999619444
 21
13.00000053015813
 31
0.0
  0
LINE
  5
8AD
330
1F
100
AcDbEntity
  8
0
100
AcDbLine
 10
225.0999999619443
 20
13.00000053015813
 30
0.0
 11
225.0999999619443
 21
11.5000005301583
 31
0.0
  0
LINE
  5
8AE
330
1F
100
AcDbEntity
  8
0
100
AcDbLine
 10
225.0999999619443
 20
1.500000530158274
 30
0.0
 11
225.0999999619443
 21
9.000000530158132
 31
0.0
  0
LINE
  5
8AF
330
1F
100
AcDbEntity
  8
0
100
AcDbLine
 10
225.0999999619443
 20
15.50000053015827
 30
0.0
 11
223.5999999619444
 21
15.50000053015827
 31
0.0
  0
LINE
  5
8B0
330
1F
100
AcDbEntity
  8
0
100
AcDbLine
 10
225.0999999619443
 20
17.00000053015813
 30
0.0
 11
223.5999999619444
 21
17.00000053015813
 31
0.0
  0
LINE
  5
8B1
330
1F
100
AcDbEntity
  8
0
100
AcDbLine
 10
225.0999999619443
 20
21.0000005301581
 30
0.0
 11
225.0999999619443
 21
19.5000005301583
 31
0.0
  0
LINE
  5
8B2
330
1F
100
AcDbEntity
  8
0
100
AcDbLine
 10
225.0999999619443
 20
19.5000005301583
 30
0.0
 11
223.5999999619444
 21
19.5000005301583
 31
0.0
  0
LINE
  5
8B3
330
1F
100
AcDbEntity
  8
0
100
AcDbLine
 10
225.0999999619443
 20
21.0000005301581
 30
0.0
 11
223.5999999619444
 21
21.0000005301581
 31
0.0
  0
LINE
  5
8B4
330
1F
100
AcDbEntity
  8
0
100
AcDbLine
 10
223.5999999619444
 20
17.00000053015813
 30
0.0
 11
223.5999999619444
 21
19.5000005301583
 31
0.0
  0
LINE
  5
8B5
330
1F
100
AcDbEntity
  8
0
100
AcDbLine
 10
225.0999999619443
 20
17.00000053015813
 30
0.0
 11
225.0999999619443
 21
15.50000053015827
 31
0.0
  0
LINE
  5
8B6
330
1F
100
AcDbEntity
  8
0
100
AcDbLine
 10
223.5999999619444
 20
29.00000053015813
 30
0.0
 11
223.5999999619444
 21
31.50000053015812
 31
0.0
  0
LINE
  5
8B7
330
1F
100
AcDbEntity
  8
0
100
AcDbLine
 10
225.0999999619443
 20
23.5000005301581
 30
0.0
 11
223.5999999619444
 21
23.5000005301581
 31
0.0
  0
LINE
  5
8B8
330
1F
100
AcDbEntity
  8
0
100
AcDbLine
 10
225.0999999619443
 20
25.0000005301581
 30
0.0
 11
223.5999999619444
 21
25.0000005301581
 31
0.0
  0
LINE
  5
8B9
330
1F
100
AcDbEntity
  8
0
100
AcDbLine
 10
225.0999999619443
 20
25.0000005301581
 30
0.0
 11
225.0999999619443
 21
23.5000005301581
 31
0.0
  0
LINE
  5
8BA
330
1F
100
AcDbEntity
  8
0
100
AcDbLine
 10
225.0999999619443
 20
27.50000053015813
 30
0.0
 11
223.5999999619444
 21
27.50000053015813
 31
0.0
  0
LINE
  5
8BB
330
1F
100
AcDbEntity
  8
0
100
AcDbLine
 10
225.0999999619443
 20
29.00000053015813
 30
0.0
 11
223.5999999619444
 21
29.00000053015813
 31
0.0
  0
LINE
  5
8BC
330
1F
100
AcDbEntity
  8
0
100
AcDbLine
 10
225.0999999619443
 20
29.00000053015813
 30
0.0
 11
225.0999999619443
 21
27.50000053015813
 31
0.0
  0
LINE
  5
8BD
330
1F
100
AcDbEntity
  8
0
100
AcDbLine
 10
223.5999999619444
 20
25.0000005301581
 30
0.0
 11
223.5999999619444
 21
27.50000053015813
 31
0.0
  0
LINE
  5
8BE
330
1F
100
AcDbEntity
  8
0
100
AcDbLine
 10
225.0999999619443
 20
31.50000053015812
 30
0.0
 11
223.5999999619444
 21
31.50000053015812
 31
0.0
  0
LINE
  5
8BF
330
1F
100
AcDbEntity
  8
0
100
AcDbLine
 10
225.0999999619443
 20
33.00000053015812
 30
0.0
 11
223.5999999619444
 21
33.00000053015812
 31
0.0
  0
LINE
  5
8C0
330
1F
100
AcDbEntity
  8
0
100
AcDbLine
 10
225.0999999619443
 20
33.00000053015812
 30
0.0
 11
225.0999999619443
 21
31.50000053015812
 31
0.0
  0
LINE
  5
8C1
330
1F
100
AcDbEntity
  8
0
100
AcDbLine
 10
225.0999999619443
 20
35.50000053015811
 30
0.0
 11
223.5999999619444
 21
35.50000053015811
 31
0.0
  0
LINE
  5
8C2
330
1F
100
AcDbEntity
  8
0
100
AcDbLine
 10
225.0999999619443
 20
52.00000053015809
 30
0.0
 11
225.0999999619443
 21
35.50000053015811
 31
0.0
  0
LINE
  5
8C3
330
1F
100
AcDbEntity
  8
0
100
AcDbLine
 10
223.5999999619444
 20
33.00000053015812
 30
0.0
 11
223.5999999619444
 21
35.50000053015811
 31
0.0
  0
LINE
  5
8C4
330
1F
100
AcDbEntity
  8
0
100
AcDbLine
 10
224.5999999619443
 20
52.50000053015813
 30
0.0
 11
219.5999999619444
 21
52.50000053015813
 31
0.0
  0
ARC
  5
8C5
330
1F
100
AcDbEntity
  8
0
100
AcDbCircle
 10
224.5999999619443
 20
52.00000053015804
 30
0.0
 40
0.5
100
AcDbArc
 50
0.0
 51
90.0
1001
GENIUS_GENOBJ-N-FIL_13
1002
{
1000
OWNER
1000
GEN
1002
}
1001
GENIUS_GENODEF_13
1002
{
1000
HIER
1070
     0
1002
}
1002
{
1000
MANEDIT
1070
     0
1002
}
1002
{
1000
NOSEL
1070
     0
1002
}
1002
{
1000
BEHIND
1070
     0
1002
}
1002
{
1000
OTHER
1070
     0
1002
}
1002
{
1000
REACTOR
1002
}
  0
ARC
  5
8C6
330
1F
100
AcDbEntity
  8
0
100
AcDbCircle
 10
223.5999999619444
 20
1.500000530158216
 30
0.0
 40
1.5
100
AcDbArc
 50
270.0
 51
0.0
1001
GENIUS_GENODEF_13
1002
{
1000
HIER
1070
     0
1002
}
1002
{
1000
MANEDIT
1070
     0
1002
}
1002
{
1000
NOSEL
1070
     0
1002
}
1002
{
1000
BEHIND
1070
     0
1002
}
1002
{
1000
OTHER
1070
     0
1002
}
1002
{
1000
REACTOR
1002
}
1001
GENIUS_GENOBJ-N-FIL_13
1002
{
1000
OWNER
1000
GEN
1002
}
  0
LINE
  5
8C7
330
1F
100
AcDbEntity
  8
0
100
AcDbLine
 10
223.5999999619445
 20
0.0000005301582746
 30
0.0
 11
223.5999999619444
 21
6.500000530158446
 31
0.0
  0
LINE
  5
8C8
330
1F
100
AcDbEntity
  8
0
100
AcDbLine
 10
225.1999999619441
 20
46.70000053015843
 30
0.0
 11
225.0999999619443
 21
46.70000053015843
 31
0.0
  0
LINE
  5
8C9
330
1F
100
AcDbEntity
  8
0
100
AcDbLine
 10
225.0999999619443
 20
49.20000053015828
 30
0.0
 11
225.1999999619441
 21
49.07500053015843
 31
0.0
  0
LINE
  5
8CA
330
1F
100
AcDbEntity
  8
0
100
AcDbLine
 10
215.5999999619444
 20
21.0000005301581
 30
0.0
 11
215.5999999619444
 21
23.5000005301581
 31
0.0
  0
ARC
  5
8CB
330
1F
100
AcDbEntity
  8
0
100
AcDbCircle
 10
215.5999999619444
 20
8.000000530158388
 30
0.0
 40
1.5
100
AcDbArc
 50
180.0
 51
270.0
1001
GENIUS_GENODEF_13
1002
{
1000
HIER
1070
     0
1002
}
1002
{
1000
MANEDIT
1070
     0
1002
}
1002
{
1000
NOSEL
1070
     0
1002
}
1002
{
1000
BEHIND
1070
     0
1002
}
1002
{
1000
OTHER
1070
     0
1002
}
1002
{
1000
REACTOR
1002
}
1001
GENIUS_GENOBJ-N-FIL_13
1002
{
1000
OWNER
1000
GEN
1002
}
  0
LINE
  5
8CC
330
1F
100
AcDbEntity
  8
0
100
AcDbLine
 10
215.5999999619444
 20
6.500000530158132
 30
0.0
 11
219.5999999619444
 21
6.500000530158132
 31
0.0
  0
LINE
  5
8CD
330
1F
100
AcDbEntity
  8
0
100
AcDbLine
 10
215.5999999619444
 20
13.00000053015813
 30
0.0
 11
215.5999999619444
 21
15.50000053015813
 31
0.0
  0
LINE
  5
8CE
330
1F
100
AcDbEntity
  8
0
100
AcDbLine
 10
215.5999999619444
 20
9.000000530158132
 30
0.0
 11
215.5999999619444
 21
11.50000053015813
 31
0.0
  0
LINE
  5
8CF
330
1F
100
AcDbEntity
  8
0
100
AcDbLine
 10
214.0999999619443
 20
9.000000530158132
 30
0.0
 11
215.5999999619444
 21
9.000000530158132
 31
0.0
  0
LINE
  5
8D0
330
1F
100
AcDbEntity
  8
0
100
AcDbLine
 10
214.0999999619443
 20
11.50000053015813
 30
0.0
 11
215.5999999619444
 21
11.50000053015813
 31
0.0
  0
LINE
  5
8D1
330
1F
100
AcDbEntity
  8
0
100
AcDbLine
 10
214.0999999619443
 20
13.00000053015813
 30
0.0
 11
215.5999999619444
 21
13.00000053015813
 31
0.0
  0
LINE
  5
8D2
330
1F
100
AcDbEntity
  8
0
100
AcDbLine
 10
214.0999999619443
 20
13.00000053015813
 30
0.0
 11
214.0999999619443
 21
11.50000053015813
 31
0.0
  0
LINE
  5
8D3
330
1F
100
AcDbEntity
  8
0
100
AcDbLine
 10
214.0999999619443
 20
8.000000530158132
 30
0.0
 11
214.0999999619443
 21
9.000000530158132
 31
0.0
  0
LINE
  5
8D4
330
1F
100
AcDbEntity
  8
0
100
AcDbLine
 10
214.0999999619443
 20
15.50000053015813
 30
0.0
 11
215.5999999619444
 21
15.50000053015813
 31
0.0
  0
LINE
  5
8D5
330
1F
100
AcDbEntity
  8
0
100
AcDbLine
 10
214.0999999619443
 20
17.00000053015813
 30
0.0
 11
215.5999999619444
 21
17.00000053015813
 31
0.0
  0
LINE
  5
8D6
330
1F
100
AcDbEntity
  8
0
100
AcDbLine
 10
214.0999999619443
 20
21.0000005301581
 30
0.0
 11
214.0999999619443
 21
19.5000005301581
 31
0.0
  0
LINE
  5
8D7
330
1F
100
AcDbEntity
  8
0
100
AcDbLine
 10
214.0999999619443
 20
19.5000005301581
 30
0.0
 11
215.5999999619444
 21
19.5000005301581
 31
0.0
  0
LINE
  5
8D8
330
1F
100
AcDbEntity
  8
0
100
AcDbLine
 10
214.0999999619443
 20
21.0000005301581
 30
0.0
 11
215.5999999619444
 21
21.0000005301581
 31
0.0
  0
LINE
  5
8D9
330
1F
100
AcDbEntity
  8
0
100
AcDbLine
 10
215.5999999619444
 20
17.00000053015813
 30
0.0
 11
215.5999999619444
 21
19.5000005301581
 31
0.0
  0
LINE
  5
8DA
330
1F
100
AcDbEntity
  8
0
100
AcDbLine
 10
214.0999999619443
 20
17.00000053015813
 30
0.0
 11
214.0999999619443
 21
15.50000053015813
 31
0.0
  0
LINE
  5
8DB
330
1F
100
AcDbEntity
  8
0
100
AcDbLine
 10
217.0999999619443
 20
37.00000053015811
 30
0.0
 11
217.0999999619443
 21
39.50000053015811
 31
0.0
  0
LINE
  5
8DC
330
1F
100
AcDbEntity
  8
0
100
AcDbLine
 10
215.5999999619444
 20
29.00000053015813
 30
0.0
 11
215.5999999619444
 21
31.50000053015812
 31
0.0
  0
LINE
  5
8DD
330
1F
100
AcDbEntity
  8
0
100
AcDbLine
 10
214.0999999619443
 20
23.5000005301581
 30
0.0
 11
215.5999999619444
 21
23.5000005301581
 31
0.0
  0
LINE
  5
8DE
330
1F
100
AcDbEntity
  8
0
100
AcDbLine
 10
214.0999999619443
 20
25.0000005301581
 30
0.0
 11
215.5999999619444
 21
25.0000005301581
 31
0.0
  0
LINE
  5
8DF
330
1F
100
AcDbEntity
  8
0
100
AcDbLine
 10
214.0999999619443
 20
25.0000005301581
 30
0.0
 11
214.0999999619443
 21
23.5000005301581
 31
0.0
  0
LINE
  5
8E0
330
1F
100
AcDbEntity
  8
0
100
AcDbLine
 10
214.0999999619443
 20
27.50000053015813
 30
0.0
 11
215.5999999619444
 21
27.50000053015813
 31
0.0
  0
LINE
  5
8E1
330
1F
100
AcDbEntity
  8
0
100
AcDbLine
 10
214.0999999619443
 20
29.00000053015813
 30
0.0
 11
215.5999999619444
 21
29.00000053015813
 31
0.0
  0
LINE
  5
8E2
330
1F
100
AcDbEntity
  8
0
100
AcDbLine
 10
214.0999999619443
 20
29.00000053015813
 30
0.0
 11
214.0999999619443
 21
27.50000053015813
 31
0.0
  0
LINE
  5
8E3
330
1F
100
AcDbEntity
  8
0
100
AcDbLine
 10
215.5999999619444
 20
25.0000005301581
 30
0.0
 11
215.5999999619444
 21
27.50000053015813
 31
0.0
  0
LINE
  5
8E4
330
1F
100
AcDbEntity
  8
0
100
AcDbLine
 10
214.0999999619443
 20
31.50000053015812
 30
0.0
 11
215.5999999619444
 21
31.50000053015812
 31
0.0
  0
LINE
  5
8E5
330
1F
100
AcDbEntity
  8
0
100
AcDbLine
 10
214.0999999619443
 20
33.00000053015812
 30
0.0
 11
215.5999999619444
 21
33.00000053015812
 31
0.0
  0
LINE
  5
8E6
330
1F
100
AcDbEntity
  8
0
100
AcDbLine
 10
214.0999999619443
 20
33.00000053015812
 30
0.0
 11
214.0999999619443
 21
31.50000053015812
 31
0.0
  0
LINE
  5
8E7
330
1F
100
AcDbEntity
  8
0
100
AcDbLine
 10
214.0999999619443
 20
35.50000053015811
 30
0.0
 11
215.5999999619444
 21
35.50000053015811
 31
0.0
  0
LINE
  5
8E8
330
1F
100
AcDbEntity
  8
0
100
AcDbLine
 10
214.0999999619443
 20
37.00000053015811
 30
0.0
 11
217.0999999619443
 21
37.00000053015811
 31
0.0
  0
LINE
  5
8E9
330
1F
100
AcDbEntity
  8
0
100
AcDbLine
 10
214.0999999619443
 20
37.00000053015811
 30
0.0
 11
214.0999999619443
 21
35.50000053015811
 31
0.0
  0
LINE
  5
8EA
330
1F
100
AcDbEntity
  8
0
100
AcDbLine
 10
215.5999999619444
 20
33.00000053015812
 30
0.0
 11
215.5999999619444
 21
35.50000053015811
 31
0.0
  0
LINE
  5
8EB
330
1F
100
AcDbEntity
  8
0
100
AcDbLine
 10
214.5999999619443
 20
52.50000053015813
 30
0.0
 11
219.5999999619444
 21
52.50000053015813
 31
0.0
  0
LINE
  5
8EC
330
1F
100
AcDbEntity
  8
0
100
AcDbLine
 10
214.0999999619443
 20
52.00000053015809
 30
0.0
 11
214.0999999619443
 21
39.50000053015811
 31
0.0
  0
LINE
  5
8ED
330
1F
100
AcDbEntity
  8
0
100
AcDbLine
 10
214.0999999619443
 20
39.50000053015811
 30
0.0
 11
217.0999999619443
 21
39.50000053015811
 31
0.0
  0
ARC
  5
8EE
330
1F
100
AcDbEntity
  8
0
100
AcDbCircle
 10
214.5999999619443
 20
52.00000053015804
 30
0.0
 40
0.5
100
AcDbArc
 50
90.0
 51
180.0
1001
GENIUS_GENOBJ-N-FIL_13
1002
{
1000
OWNER
1000
GEN
1002
}
1001
GENIUS_GENODEF_13
1002
{
1000
HIER
1070
     0
1002
}
1002
{
1000
MANEDIT
1070
     0
1002
}
1002
{
1000
NOSEL
1070
     0
1002
}
1002
{
1000
BEHIND
1070
     0
1002
}
1002
{
1000
OTHER
1070
     0
1002
}
1002
{
1000
REACTOR
1002
}
  0
LINE
  5
8EF
330
1F
100
AcDbEntity
  8
0
100
AcDbLine
 10
219.5999999619444
 20
39.50000053015832
 30
0.0
 11
219.5999999619444
 21
16.0000005301583
 31
0.0
  0
LINE
  5
8F0
330
1F
100
AcDbEntity
  8
0
100
AcDbLine
 10
219.0999999619443
 20
42.50000053015809
 30
0.0
 11
219.5999999619444
 21
42.50000053015809
 31
0.0
  0
LINE
  5
8F1
330
1F
100
AcDbEntity
  8
0
100
AcDbLine
 10
219.0999999619443
 20
39.50000053015811
 30
0.0
 11
219.5999999619444
 21
39.50000053015811
 31
0.0
  0
LINE
  5
8F2
330
1F
100
AcDbEntity
  8
0
100
AcDbLine
 10
219.0999999619443
 20
42.50000053015809
 30
0.0
 11
219.0999999619443
 21
39.50000053015811
 31
0.0
  0
LINE
  5
8F3
330
1F
100
AcDbEntity
  8
0
100
AcDbLine
 10
219.0999999619443
 20
13.00000053015813
 30
0.0
 11
219.5999999619444
 21
13.00000053015813
 31
0.0
  0
LINE
  5
8F4
330
1F
100
AcDbEntity
  8
0
100
AcDbLine
 10
219.0999999619443
 20
16.0000005301583
 30
0.0
 11
219.5999999619444
 21
16.0000005301583
 31
0.0
  0
LINE
  5
8F5
330
1F
100
AcDbEntity
  8
0
100
AcDbLine
 10
219.0999999619443
 20
16.0000005301583
 30
0.0
 11
219.0999999619443
 21
13.00000053015813
 31
0.0
  0
LINE
  5
8F6
330
1F
100
AcDbEntity
  8
0
100
AcDbLine
 10
381.6999999619444
 20
29.0000005301583
 30
0.0
 11
381.6999999619444
 21
31.5000005301583
 31
0.0
  0
LINE
  5
8F7
330
1F
100
AcDbEntity
  8
0
100
AcDbLine
 10
367.0999999619443
 20
29.0000005301583
 30
0.0
 11
367.0999999619443
 21
31.5000005301583
 31
0.0
  0
LINE
  5
8F8
330
1F
100
AcDbEntity
  8
0
100
AcDbLine
 10
365.5999999619443
 20
55.5000005301583
 30
0.0
 11
365.5999999619443
 21
8.800000530158143
 31
0.0
  0
LINE
  5
8F9
330
1F
100
AcDbEntity
  8
0
100
AcDbLine
 10
383.1999999619443
 20
55.5000005301583
 30
0.0
 11
383.1999999619443
 21
8.800000530158143
 31
0.0
  0
LINE
  5
8FA
330
1F
100
AcDbEntity
  8
0
100
AcDbLine
 10
365.5999999619443
 20
35.50000053015832
 30
0.0
 11
383.1999999619443
 21
35.50000053015832
 31
0.0
  0
LINE
  5
8FB
330
1F
100
AcDbEntity
  8
0
100
AcDbLine
 10
365.5999999619443
 20
33.00000053015831
 30
0.0
 11
383.1999999619443
 21
33.00000053015831
 31
0.0
  0
LINE
  5
8FC
330
1F
100
AcDbEntity
  8
0
100
AcDbLine
 10
365.5999999619443
 20
31.5000005301583
 30
0.0
 11
383.1999999619443
 21
31.5000005301583
 31
0.0
  0
LINE
  5
8FD
330
1F
100
AcDbEntity
  8
0
100
AcDbLine
 10
370.0999999619443
 20
49.20000053015828
 30
0.0
 11
370.0999999619443
 21
46.70000053015828
 31
0.0
1001
GENIUS_GENOBJ-N-CEN_13
1002
{
1000
OWNER
1000
GEN
1002
}
1001
GENIUS_GENODEF_13
1002
{
1000
HIER
1070
     0
1002
}
1002
{
1000
MANEDIT
1070
     0
1002
}
1002
{
1000
NOSEL
1070
     0
1002
}
1002
{
1000
BEHIND
1070
     0
1002
}
1002
{
1000
OTHER
1070
     0
1002
}
1002
{
1000
REACTOR
1002
}
  0
LINE
  5
8FE
330
1F
100
AcDbEntity
  8
0
100
AcDbLine
 10
372.6999999619443
 20
49.20000053015828
 30
0.0
 11
372.6999999619443
 21
46.70000053015828
 31
0.0
1001
GENIUS_GENOBJ-N-CEN_13
1002
{
1000
OWNER
1000
GEN
1002
}
1001
GENIUS_GENODEF_13
1002
{
1000
HIER
1070
     0
1002
}
1002
{
1000
MANEDIT
1070
     0
1002
}
1002
{
1000
NOSEL
1070
     0
1002
}
1002
{
1000
BEHIND
1070
     0
1002
}
1002
{
1000
OTHER
1070
     0
1002
}
1002
{
1000
REACTOR
1002
}
  0
LINE
  5
8FF
330
1F
100
AcDbEntity
  8
0
100
AcDbLine
 10
370.0999999619443
 20
49.20000053015828
 30
0.0
 11
372.6999999619443
 21
49.20000053015828
 31
0.0
  0
LINE
  5
900
330
1F
100
AcDbEntity
  8
0
100
AcDbLine
 10
370.0999999619443
 20
48.2000005301581
 30
0.0
 11
372.6999999619443
 21
48.20000053015828
 31
0.0
  0
LINE
  5
901
330
1F
100
AcDbEntity
  8
0
100
AcDbLine
 10
370.0999999619443
 20
46.70000053015828
 30
0.0
 11
372.6999999619443
 21
46.70000053015828
 31
0.0
  0
LINE
  5
902
330
1F
100
AcDbEntity
  8
0
100
AcDbLine
 10
367.0999999619443
 20
33.00000053015831
 30
0.0
 11
367.0999999619443
 21
35.50000053015832
 31
0.0
  0
LINE
  5
903
330
1F
100
AcDbEntity
  8
0
100
AcDbLine
 10
378.6999999619447
 20
49.20000053015828
 30
0.0
 11
378.6999999619447
 21
46.70000053015828
 31
0.0
1001
GENIUS_GENOBJ-N-CEN_13
1002
{
1000
OWNER
1000
GEN
1002
}
1001
GENIUS_GENODEF_13
1002
{
1000
HIER
1070
     0
1002
}
1002
{
1000
MANEDIT
1070
     0
1002
}
1002
{
1000
NOSEL
1070
     0
1002
}
1002
{
1000
BEHIND
1070
     0
1002
}
1002
{
1000
OTHER
1070
     0
1002
}
1002
{
1000
REACTOR
1002
}
  0
LINE
  5
904
330
1F
100
AcDbEntity
  8
0
100
AcDbLine
 10
376.0999999619443
 20
49.20000053015828
 30
0.0
 11
376.0999999619443
 21
46.70000053015828
 31
0.0
1001
GENIUS_GENOBJ-N-CEN_13
1002
{
1000
OWNER
1000
GEN
1002
}
1001
GENIUS_GENODEF_13
1002
{
1000
HIER
1070
     0
1002
}
1002
{
1000
MANEDIT
1070
     0
1002
}
1002
{
1000
NOSEL
1070
     0
1002
}
1002
{
1000
BEHIND
1070
     0
1002
}
1002
{
1000
OTHER
1070
     0
1002
}
1002
{
1000
REACTOR
1002
}
  0
LINE
  5
905
330
1F
100
AcDbEntity
  8
0
100
AcDbLine
 10
378.6999999619447
 20
49.20000053015828
 30
0.0
 11
376.0999999619443
 21
49.20000053015828
 31
0.0
  0
LINE
  5
906
330
1F
100
AcDbEntity
  8
0
100
AcDbLine
 10
378.6999999619447
 20
48.2000005301581
 30
0.0
 11
376.0999999619443
 21
48.20000053015828
 31
0.0
  0
LINE
  5
907
330
1F
100
AcDbEntity
  8
0
100
AcDbLine
 10
378.6999999619447
 20
46.70000053015828
 30
0.0
 11
376.0999999619443
 21
46.70000053015828
 31
0.0
  0
LINE
  5
908
330
1F
100
AcDbEntity
  8
0
100
AcDbLine
 10
381.6999999619444
 20
33.00000053015831
 30
0.0
 11
381.6999999619444
 21
35.50000053015832
 31
0.0
  0
ARC
  5
909
330
1F
100
AcDbEntity
  8
0
100
AcDbCircle
 10
374.3999999619443
 20
8.800000530158115
 30
0.0
 40
8.799999999999991
100
AcDbArc
 50
180.0
 51
0.0
  0
LINE
  5
90A
330
1F
100
AcDbEntity
  8
0
100
AcDbLine
 10
383.1999999619443
 20
9.000000530158303
 30
0.0
 11
365.5999999619443
 21
9.000000530158303
 31
0.0
  0
LINE
  5
90B
330
1F
100
AcDbEntity
  8
0
100
AcDbLine
 10
365.5999999619443
 20
27.5000005301583
 30
0.0
 11
383.1999999619443
 21
27.5000005301583
 31
0.0
  0
LINE
  5
90C
330
1F
100
AcDbEntity
  8
0
100
AcDbLine
 10
365.5999999619443
 20
29.0000005301583
 30
0.0
 11
383.1999999619443
 21
29.0000005301583
 31
0.0
  0
LINE
  5
90D
330
1F
100
AcDbEntity
  8
0
100
AcDbLine
 10
365.5999999619443
 20
25.0000005301583
 30
0.0
 11
383.1999999619443
 21
25.0000005301583
 31
0.0
  0
LINE
  5
90E
330
1F
100
AcDbEntity
  8
0
100
AcDbLine
 10
365.5999999619443
 20
23.50000053015827
 30
0.0
 11
383.1999999619443
 21
23.50000053015827
 31
0.0
  0
LINE
  5
90F
330
1F
100
AcDbEntity
  8
0
100
AcDbLine
 10
365.5999999619443
 20
19.5000005301583
 30
0.0
 11
383.1999999619443
 21
19.5000005301583
 31
0.0
  0
LINE
  5
910
330
1F
100
AcDbEntity
  8
0
100
AcDbLine
 10
365.5999999619443
 20
21.0000005301583
 30
0.0
 11
383.1999999619443
 21
21.0000005301583
 31
0.0
  0
LINE
  5
911
330
1F
100
AcDbEntity
  8
0
100
AcDbLine
 10
365.5999999619443
 20
17.0000005301583
 30
0.0
 11
383.1999999619443
 21
17.0000005301583
 31
0.0
  0
LINE
  5
912
330
1F
100
AcDbEntity
  8
0
100
AcDbLine
 10
365.5999999619443
 20
15.5000005301583
 30
0.0
 11
383.1999999619443
 21
15.5000005301583
 31
0.0
  0
LINE
  5
913
330
1F
100
AcDbEntity
  8
0
100
AcDbLine
 10
365.5999999619443
 20
13.0000005301583
 30
0.0
 11
383.1999999619443
 21
13.0000005301583
 31
0.0
  0
LINE
  5
914
330
1F
100
AcDbEntity
  8
0
100
AcDbLine
 10
365.5999999619443
 20
11.5000005301583
 30
0.0
 11
383.1999999619443
 21
11.5000005301583
 31
0.0
  0
LINE
  5
915
330
1F
100
AcDbEntity
  8
0
100
AcDbLine
 10
367.0999999619444
 20
17.0000005301583
 30
0.0
 11
367.0999999619444
 21
19.5000005301583
 31
0.0
  0
LINE
  5
916
330
1F
100
AcDbEntity
  8
0
100
AcDbLine
 10
367.0999999619444
 20
25.0000005301583
 30
0.0
 11
367.0999999619443
 21
27.5000005301583
 31
0.0
  0
LINE
  5
917
330
1F
100
AcDbEntity
  8
0
100
AcDbLine
 10
367.0999999619444
 20
21.0000005301583
 30
0.0
 11
367.0999999619444
 21
23.50000053015827
 31
0.0
  0
LINE
  5
918
330
1F
100
AcDbEntity
  8
0
100
AcDbLine
 10
367.0999999619444
 20
13.0000005301583
 30
0.0
 11
367.0999999619444
 21
15.5000005301583
 31
0.0
  0
LINE
  5
919
330
1F
100
AcDbEntity
  8
0
100
AcDbLine
 10
367.0999999619443
 20
9.000000530158303
 30
0.0
 11
367.0999999619444
 21
11.5000005301583
 31
0.0
  0
LINE
  5
91A
330
1F
100
AcDbEntity
  8
0
100
AcDbLine
 10
381.6999999619444
 20
17.0000005301583
 30
0.0
 11
381.6999999619444
 21
19.5000005301583
 31
0.0
  0
LINE
  5
91B
330
1F
100
AcDbEntity
  8
0
100
AcDbLine
 10
381.6999999619444
 20
25.0000005301583
 30
0.0
 11
381.6999999619444
 21
27.5000005301583
 31
0.0
  0
LINE
  5
91C
330
1F
100
AcDbEntity
  8
0
100
AcDbLine
 10
381.6999999619444
 20
21.0000005301583
 30
0.0
 11
381.6999999619444
 21
23.50000053015827
 31
0.0
  0
LINE
  5
91D
330
1F
100
AcDbEntity
  8
0
100
AcDbLine
 10
381.6999999619444
 20
13.0000005301583
 30
0.0
 11
381.6999999619444
 21
15.5000005301583
 31
0.0
  0
LINE
  5
91E
330
1F
100
AcDbEntity
  8
0
100
AcDbLine
 10
381.6999999619444
 20
9.000000530158303
 30
0.0
 11
381.6999999619444
 21
11.5000005301583
 31
0.0
  0
CIRCLE
  5
91F
330
1F
100
AcDbEntity
  8
0
100
AcDbCircle
 10
374.3999999619443
 20
4.000000530158274
 30
0.0
 40
2.0
  0
LINE
  5
920
330
1F
100
AcDbEntity
  8
0
100
AcDbLine
 10
381.8499999619443
 20
58.50000053015829
 30
0.0
 11
381.8499999619443
 21
56.50000053015829
 31
0.0
1001
GENIUS_GENODEF_13
1002
{
1000
HIER
1070
     0
1002
}
1002
{
1000
MANEDIT
1070
     0
1002
}
1002
{
1000
NOSEL
1070
     0
1002
}
1002
{
1000
BEHIND
1070
     0
1002
}
1002
{
1000
OTHER
1070
     0
1002
}
1002
{
1000
REACTOR
1002
}
1001
GENIUS_GENOBJ-N-CEN_13
1002
{
1000
OWNER
1000
GEN
1002
}
  0
LINE
  5
921
330
1F
100
AcDbEntity
  8
0
100
AcDbLine
 10
366.9499999619445
 20
58.50000053015829
 30
0.0
 11
366.9499999619445
 21
56.50000053015829
 31
0.0
1001
GENIUS_GENODEF_13
1002
{
1000
HIER
1070
     0
1002
}
1002
{
1000
MANEDIT
1070
     0
1002
}
1002
{
1000
NOSEL
1070
     0
1002
}
1002
{
1000
BEHIND
1070
     0
1002
}
1002
{
1000
OTHER
1070
     0
1002
}
1002
{
1000
REACTOR
1002
}
1001
GENIUS_GENOBJ-N-CEN_13
1002
{
1000
OWNER
1000
GEN
1002
}
  0
LINE
  5
922
330
1F
100
AcDbEntity
  8
0
100
AcDbLine
 10
381.3499999619443
 20
59.00000053015829
 30
0.0
 11
367.4499999619444
 21
59.00000053015829
 31
0.0
  0
ARC
  5
923
330
1F
100
AcDbEntity
  8
0
100
AcDbCircle
 10
367.4499999619444
 20
58.50000053015827
 30
0.0
 40
0.5
100
AcDbArc
 50
90.0
 51
180.0
1001
GENIUS_GENOBJ-N-FIL_13
1002
{
1000
OWNER
1000
GEN
1002
}
1001
GENIUS_GENODEF_13
1002
{
1000
HIER
1070
     0
1002
}
1002
{
1000
MANEDIT
1070
     0
1002
}
1002
{
1000
NOSEL
1070
     0
1002
}
1002
{
1000
BEHIND
1070
     0
1002
}
1002
{
1000
OTHER
1070
     0
1002
}
1002
{
1000
REACTOR
1002
}
  0
ARC
  5
924
330
1F
100
AcDbEntity
  8
0
100
AcDbCircle
 10
381.3499999619443
 20
58.50000053015827
 30
0.0
 40
0.5
100
AcDbArc
 50
0.0
 51
90.0
1001
GENIUS_GENOBJ-N-CEN_13
1002
{
1000
OWNER
1000
GEN
1002
}
1001
GENIUS_GENOBJ-N-FIL_13
1002
{
1000
OWNER
1000
GEN
1002
}
1001
GENIUS_GENODEF_13
1002
{
1000
HIER
1070
     0
1002
}
1002
{
1000
MANEDIT
1070
     0
1002
}
1002
{
1000
NOSEL
1070
     0
1002
}
1002
{
1000
BEHIND
1070
     0
1002
}
1002
{
1000
OTHER
1070
     0
1002
}
1002
{
1000
REACTOR
1002
}
  0
LINE
  5
925
330
1F
100
AcDbEntity
  8
0
100
AcDbLine
 10
378.8999999619443
 20
46.50000053015829
 30
0.0
 11
375.8999999619447
 21
46.50000053015829
 31
0.0
  0
LINE
  5
926
330
1F
100
AcDbEntity
  8
0
100
AcDbLine
 10
379.8999999619447
 20
49.40000053015828
 30
0.0
 11
368.8999999619444
 21
49.40000053015828
 31
0.0
  0
LINE
  5
927
330
1F
100
AcDbEntity
  8
0
100
AcDbLine
 10
379.8999999619447
 20
55.40000053015828
 30
0.0
 11
368.8999999619444
 21
55.40000053015828
 31
0.0
  0
LINE
  5
928
330
1F
100
AcDbEntity
  8
0
100
AcDbLine
 10
382.1999999619447
 20
56.50000053015829
 30
0.0
 11
366.5999999619443
 21
56.50000053015829
 31
0.0
  0
LINE
  5
929
330
1F
100
AcDbEntity
  8
0
100
AcDbLine
 10
382.1999999619447
 20
43.50000053015828
 30
0.0
 11
366.5999999619444
 21
43.50000053015828
 31
0.0
  0
LINE
  5
92A
330
1F
100
AcDbEntity
  8
0
100
AcDbLine
 10
369.8999999619442
 20
49.40000053015828
 30
0.0
 11
369.8999999619442
 21
46.50000053015829
 31
0.0
1001
GENIUS_GENODEF_13
1002
{
1000
HIER
1070
     0
1002
}
1002
{
1000
MANEDIT
1070
     0
1002
}
1002
{
1000
NOSEL
1070
     0
1002
}
1002
{
1000
BEHIND
1070
     0
1002
}
1002
{
1000
OTHER
1070
     0
1002
}
1002
{
1000
REACTOR
1002
}
1001
GENIUS_GENOBJ-N-CEN_13
1002
{
1000
OWNER
1000
GEN
1002
}
  0
LINE
  5
92B
330
1F
100
AcDbEntity
  8
0
100
AcDbLine
 10
372.8999999619443
 20
49.40000053015828
 30
0.0
 11
372.8999999619443
 21
46.50000053015829
 31
0.0
1001
GENIUS_GENODEF_13
1002
{
1000
HIER
1070
     0
1002
}
1002
{
1000
MANEDIT
1070
     0
1002
}
1002
{
1000
NOSEL
1070
     0
1002
}
1002
{
1000
BEHIND
1070
     0
1002
}
1002
{
1000
OTHER
1070
     0
1002
}
1002
{
1000
REACTOR
1002
}
1001
GENIUS_GENOBJ-N-CEN_13
1002
{
1000
OWNER
1000
GEN
1002
}
  0
LINE
  5
92C
330
1F
100
AcDbEntity
  8
0
100
AcDbLine
 10
375.8999999619447
 20
49.40000053015828
 30
0.0
 11
375.8999999619447
 21
46.50000053015829
 31
0.0
1001
GENIUS_GENODEF_13
1002
{
1000
HIER
1070
     0
1002
}
1002
{
1000
MANEDIT
1070
     0
1002
}
1002
{
1000
NOSEL
1070
     0
1002
}
1002
{
1000
BEHIND
1070
     0
1002
}
1002
{
1000
OTHER
1070
     0
1002
}
1002
{
1000
REACTOR
1002
}
1001
GENIUS_GENOBJ-N-CEN_13
1002
{
1000
OWNER
1000
GEN
1002
}
  0
ARC
  5
92D
330
1F
100
AcDbEntity
  8
0
100
AcDbCircle
 10
366.5999999619443
 20
55.50000053015827
 30
0.0
 40
1.0
100
AcDbArc
 50
90.0
 51
180.0
1001
GENIUS_GENODEF_13
1002
{
1000
HIER
1070
     0
1002
}
1002
{
1000
MANEDIT
1070
     0
1002
}
1002
{
1000
NOSEL
1070
     0
1002
}
1002
{
1000
BEHIND
1070
     0
1002
}
1002
{
1000
OTHER
1070
     0
1002
}
1002
{
1000
REACTOR
1002
}
1001
GENIUS_GENOBJ-N-FIL_13
1002
{
1000
OWNER
1000
GEN
1002
}
  0
LINE
  5
92E
330
1F
100
AcDbEntity
  8
0
100
AcDbLine
 10
368.8999999619444
 20
55.40000053015828
 30
0.0
 11
368.8999999619444
 21
49.40000053015828
 31
0.0
1001
GENIUS_GENODEF_13
1002
{
1000
HIER
1070
     0
1002
}
1002
{
1000
MANEDIT
1070
     0
1002
}
1002
{
1000
NOSEL
1070
     0
1002
}
1002
{
1000
BEHIND
1070
     0
1002
}
1002
{
1000
OTHER
1070
     0
1002
}
1002
{
1000
REACTOR
1002
}
1001
GENIUS_GENOBJ-N-CEN_13
1002
{
1000
OWNER
1000
GEN
1002
}
  0
ARC
  5
92F
330
1F
100
AcDbEntity
  8
0
100
AcDbCircle
 10
366.5999999619444
 20
44.50000053015826
 30
0.0
 40
1.0
100
AcDbArc
 50
180.0
 51
270.0
1001
GENIUS_GENODEF_13
1002
{
1000
HIER
1070
     0
1002
}
1002
{
1000
MANEDIT
1070
     0
1002
}
1002
{
1000
NOSEL
1070
     0
1002
}
1002
{
1000
BEHIND
1070
     0
1002
}
1002
{
1000
OTHER
1070
     0
1002
}
1002
{
1000
REACTOR
1002
}
1001
GENIUS_GENOBJ-N-FIL_13
1002
{
1000
OWNER
1000
GEN
1002
}
  0
LINE
  5
930
330
1F
100
AcDbEntity
  8
0
100
AcDbLine
 10
372.8999999619443
 20
46.50000053015829
 30
0.0
 11
369.8999999619442
 21
46.50000053015829
 31
0.0
  0
LINE
  5
931
330
1F
100
AcDbEntity
  8
0
100
AcDbLine
 10
378.8999999619443
 20
49.40000053015828
 30
0.0
 11
378.8999999619443
 21
46.50000053015829
 31
0.0
1001
GENIUS_GENODEF_13
1002
{
1000
HIER
1070
     0
1002
}
1002
{
1000
MANEDIT
1070
     0
1002
}
1002
{
1000
NOSEL
1070
     0
1002
}
1002
{
1000
BEHIND
1070
     0
1002
}
1002
{
1000
OTHER
1070
     0
1002
}
1002
{
1000
REACTOR
1002
}
1001
GENIUS_GENOBJ-N-CEN_13
1002
{
1000
OWNER
1000
GEN
1002
}
  0
LINE
  5
932
330
1F
100
AcDbEntity
  8
0
100
AcDbLine
 10
379.8999999619447
 20
55.40000053015828
 30
0.0
 11
379.8999999619447
 21
49.40000053015828
 31
0.0
1001
GENIUS_GENODEF_13
1002
{
1000
HIER
1070
     0
1002
}
1002
{
1000
MANEDIT
1070
     0
1002
}
1002
{
1000
NOSEL
1070
     0
1002
}
1002
{
1000
BEHIND
1070
     0
1002
}
1002
{
1000
OTHER
1070
     0
1002
}
1002
{
1000
REACTOR
1002
}
1001
GENIUS_GENOBJ-N-CEN_13
1002
{
1000
OWNER
1000
GEN
1002
}
  0
ARC
  5
933
330
1F
100
AcDbEntity
  8
0
100
AcDbCircle
 10
382.1999999619447
 20
55.50000053015827
 30
0.0
 40
1.0
100
AcDbArc
 50
0.0
 51
90.0
1001
GENIUS_GENOBJ-N-FIL_13
1002
{
1000
OWNER
1000
GEN
1002
}
1001
GENIUS_GENODEF_13
1002
{
1000
HIER
1070
     0
1002
}
1002
{
1000
MANEDIT
1070
     0
1002
}
1002
{
1000
NOSEL
1070
     0
1002
}
1002
{
1000
BEHIND
1070
     0
1002
}
1002
{
1000
OTHER
1070
     0
1002
}
1002
{
1000
REACTOR
1002
}
  0
ARC
  5
934
330
1F
100
AcDbEntity
  8
0
100
AcDbCircle
 10
382.1999999619447
 20
44.50000053015826
 30
0.0
 40
1.0
100
AcDbArc
 50
270.0
 51
0.0
1001
GENIUS_GENOBJ-N-FIL_13
1002
{
1000
OWNER
1000
GEN
1002
}
1001
GENIUS_GENODEF_13
1002
{
1000
HIER
1070
     0
1002
}
1002
{
1000
MANEDIT
1070
     0
1002
}
1002
{
1000
NOSEL
1070
     0
1002
}
1002
{
1000
BEHIND
1070
     0
1002
}
1002
{
1000
OTHER
1070
     0
1002
}
1002
{
1000
REACTOR
1002
}
  0
LINE
  5
935
330
1F
100
AcDbEntity
  8
0
100
AcDbLine
 10
380.8499999619444
 20
65.4805405264146
 30
0.0
 11
380.8499999619444
 21
59.00000053015829
 31
0.0
  0
LINE
  5
936
330
1F
100
AcDbEntity
  8
0
100
AcDbLine
 10
367.9499999619447
 20
65.48054052641454
 30
0.0
 11
367.9499999619447
 21
59.00000053015829
 31
0.0
  0
LINE
  5
937
330
1F
100
AcDbEntity
  8
0
100
AcDbLine
 10
378.3514788718826
 20
76.30000053015826
 30
0.0
 11
370.4485210520064
 21
76.30000053015826
 31
0.0
  0
LINE
  5
938
330
1F
100
AcDbEntity
  8
0
100
AcDbLine
 10
369.4618617611384
 20
75.46279931315145
 30
0.0
 11
368.0834070532656
 21
67.10852835634661
 31
0.0
  0
LINE
  5
939
330
1F
100
AcDbEntity
  8
0
100
AcDbLine
 10
379.3381381627506
 20
75.46279931315145
 30
0.0
 11
380.7165928706234
 21
67.10852835634678
 31
0.0
  0
ARC
  5
93A
330
1F
100
AcDbEntity
  8
0
100
AcDbCircle
 10
370.8499999619444
 20
65.48054052641457
 30
0.0
 40
10.0
100
AcDbArc
 50
0.0
 51
9.36938509648692
1001
GENIUS_GENODEF_13
1002
{
1000
HIER
1070
     0
1002
}
1002
{
1000
MANEDIT
1070
     0
1002
}
1002
{
1000
NOSEL
1070
     0
1002
}
1002
{
1000
BEHIND
1070
     0
1002
}
1002
{
1000
OTHER
1070
     0
1002
}
1002
{
1000
REACTOR
1002
}
1001
GENIUS_GENOBJ-N-FIL_13
1002
{
1000
OWNER
1000
GEN
1002
}
  0
ARC
  5
93B
330
1F
100
AcDbEntity
  8
0
100
AcDbCircle
 10
377.9499999619444
 20
65.4805405264145
 30
0.0
 40
10.0
100
AcDbArc
 50
170.6306149035131
 51
180.0
1001
GENIUS_GENOBJ-N-FIL_13
1002
{
1000
OWNER
1000
GEN
1002
}
1001
GENIUS_GENODEF_13
1002
{
1000
HIER
1070
     0
1002
}
1002
{
1000
MANEDIT
1070
     0
1002
}
1002
{
1000
NOSEL
1070
     0
1002
}
1002
{
1000
BEHIND
1070
     0
1002
}
1002
{
1000
OTHER
1070
     0
1002
}
1002
{
1000
REACTOR
1002
}
  0
ARC
  5
93C
330
1F
100
AcDbEntity
  8
0
100
AcDbCircle
 10
378.3514788718826
 20
75.30000053015823
 30
0.0
 40
1.0
100
AcDbArc
 50
9.36938509648692
 51
90.0
1001
GENIUS_GENOBJ-N-FIL_13
1002
{
1000
OWNER
1000
GEN
1002
}
1001
GENIUS_GENODEF_13
1002
{
1000
HIER
1070
     0
1002
}
1002
{
1000
MANEDIT
1070
     0
1002
}
1002
{
1000
NOSEL
1070
     0
1002
}
1002
{
1000
BEHIND
1070
     0
1002
}
1002
{
1000
OTHER
1070
     0
1002
}
1002
{
1000
REACTOR
1002
}
  0
ARC
  5
93D
330
1F
100
AcDbEntity
  8
0
100
AcDbCircle
 10
370.4485210520064
 20
75.30000053015823
 30
0.0
 40
1.0
100
AcDbArc
 50
90.0
 51
170.6306149035131
1001
GENIUS_GENODEF_13
1002
{
1000
HIER
1070
     0
1002
}
1002
{
1000
MANEDIT
1070
     0
1002
}
1002
{
1000
NOSEL
1070
     0
1002
}
1002
{
1000
BEHIND
1070
     0
1002
}
1002
{
1000
OTHER
1070
     0
1002
}
1002
{
1000
REACTOR
1002
}
1001
GENIUS_GENOBJ-N-FIL_13
1002
{
1000
OWNER
1000
GEN
1002
}
  0
LINE
  5
93E
330
1F
100
AcDbEntity
  8
0
100
AcDbLine
 10
224.9999999619444
 20
52.30000053015813
 30
0.0
 11
224.9999999619444
 21
52.50000053015845
 31
0.0
  0
LINE
  5
93F
330
1F
100
AcDbEntity
  8
0
100
AcDbLine
 10
225.0999999619443
 20
44.70000053015843
 30
0.0
 11
225.1999999619441
 21
44.70000053015843
 31
0.0
  0
LINE
  5
941
330
1F
100
AcDbEntity
  8
0
100
AcDbLine
 10
220.7499999619436
 20
117.6285719587301
 30
0.0
 11
216.649999961945
 21
119.9714291015864
 31
0.0
  0
LINE
  5
942
330
1F
100
AcDbEntity
  8
0
100
AcDbLine
 10
220.749999961945
 20
115.6285719587292
 30
0.0
 11
216.649999961945
 21
117.9714291015864
 31
0.0
  0
LINE
  5
943
330
1F
100
AcDbEntity
  8
0
100
AcDbLine
 10
376.4499999619439
 20
117.6285719587301
 30
0.0
 11
372.3499999619452
 21
119.9714291015864
 31
0.0
  0
LINE
  5
944
330
1F
100
AcDbEntity
  8
0
100
AcDbLine
 10
376.4499999619452
 20
115.6285719587292
 30
0.0
 11
372.3499999619452
 21
117.9714291015864
 31
0.0
  0
LINE
  5
945
330
1F
100
AcDbEntity
  8
0
100
AcDbLine
 10
17.49999899753335
 20
254.400030296807
 30
0.0
 11
16.73032516077704
 21
214.3000003609846
 31
0.0
  0
LINE
  5
946
330
1F
100
AcDbEntity
  8
0
100
AcDbLine
 10
25.49999899753335
 20
254.4000302968068
 30
0.0
 11
26.26967283428967
 21
214.3000003609846
 31
0.0
  0
LINE
  5
947
330
1F
100
AcDbEntity
  8
0
100
AcDbLine
 10
17.65375494217603
 20
257.2007166219196
 30
0.0
 11
17.59999899753335
 21
254.400030296807
 31
0.0
  0
LINE
  5
948
330
1F
100
AcDbEntity
  8
0
100
AcDbLine
 10
25.34624305289068
 20
257.2007166219198
 30
0.0
 11
25.39999899753336
 21
254.4000302968068
 31
0.0
  0
LINE
  5
949
330
1F
100
AcDbEntity
  8
0
100
AcDbLine
 10
25.49999899753335
 20
254.400030296807
 30
0.0
 11
17.49999899753335
 21
254.400030296807
 31
0.0
  0
LINE
  5
94A
330
1F
100
AcDbEntity
  8
0
100
AcDbLine
 10
19.99999899753332
 20
258.1868603276273
 30
0.0
 11
22.99999899753335
 21
258.1868603276273
 31
0.0
  0
ARC
  5
94B
330
1F
100
AcDbEntity
  8
0
100
AcDbCircle
 10
21.49999899753336
 20
248.3000003609848
 30
0.0
 40
10.0
100
AcDbArc
 50
69.3752534127774
 51
81.37307344132102
  0
ARC
  5
94C
330
1F
100
AcDbEntity
  8
0
100
AcDbCircle
 10
21.49999899753336
 20
248.3000003609848
 30
0.0
 40
10.0
100
AcDbArc
 50
98.62692655867896
 51
110.6247465872226
  0
ARC
  5
94D
330
1F
100
AcDbEntity
  8
0
100
AcDbCircle
 10
18.1536628666759
 20
257.1911214657341
 30
0.0
 40
0.5
100
AcDbArc
 50
110.6247465872191
 51
178.9004085958266
  0
ARC
  5
94E
330
1F
100
AcDbEntity
  8
0
100
AcDbCircle
 10
24.84633512839081
 20
257.1911214657341
 30
0.0
 40
0.5
100
AcDbArc
 50
1.099591404147371
 51
69.37525341279479
  0
LINE
  5
94F
330
1F
100
AcDbEntity
  8
0
100
AcDbLine
 10
12.29999899753331
 20
171.5000003609848
 30
0.0
 11
12.40000266294295
 21
171.5000003609848
 31
0.0
  0
LINE
  5
950
330
1F
100
AcDbEntity
  8
0
100
AcDbLine
 10
12.40000266294295
 20
171.5000003609848
 30
0.0
 11
12.29999899753331
 21
171.5000003609848
 31
0.0
  0
LINE
  5
951
330
1F
100
AcDbEntity
  8
0
100
AcDbLine
 10
12.29999899753331
 20
166.5000003609848
 30
0.0
 11
12.40000266294295
 21
166.5000003609848
 31
0.0
  0
LINE
  5
952
330
1F
100
AcDbEntity
  8
0
100
AcDbLine
 10
14.57179576708561
 20
166.5000003609848
 30
0.0
 11
14.50000113672145
 21
166.5000003609848
 31
0.0
  0
LINE
  5
953
330
1F
100
AcDbEntity
  8
0
100
AcDbLine
 10
21.99999899753335
 20
214.3000003609847
 30
0.0
 11
19.99999899753335
 21
212.3000003609847
 31
0.0
  0
LINE
  5
954
330
1F
100
AcDbEntity
  8
0
100
AcDbLine
 10
26.99999899753335
 20
214.3000003609847
 30
0.0
 11
21.99999899753335
 21
214.3000003609847
 31
0.0
  0
LINE
  5
955
330
1F
100
AcDbEntity
  8
0
100
AcDbLine
 10
21.99999899753335
 20
214.3000003609847
 30
0.0
 11
1.499998997533352
 21
214.3000003609847
 31
0.0
  0
LINE
  5
956
330
1F
100
AcDbEntity
  8
0
100
AcDbLine
 10
-0.0000010024666466
 20
212.8000003609848
 30
0.0
 11
-0.0000010024666466
 21
151.8000003609846
 31
0.0
  0
LINE
  5
957
330
1F
100
AcDbEntity
  8
0
100
AcDbLine
 10
19.44999899753408
 20
150.3000003609846
 30
0.0
 11
1.499998997533352
 21
150.3000003609846
 31
0.0
  0
LINE
  5
958
330
1F
100
AcDbEntity
  8
0
100
AcDbLine
 10
26.99999899753335
 20
150.3000003609846
 30
0.0
 11
23.54999899753263
 21
150.3000003609846
 31
0.0
  0
LINE
  5
959
330
1F
100
AcDbEntity
  8
0
100
AcDbLine
 10
12.29999899753333
 20
166.3000003609848
 30
0.0
 11
12.29999899753333
 21
178.3000003609848
 31
0.0
  0
LINE
  5
95A
330
1F
100
AcDbEntity
  8
0
100
AcDbLine
 10
12.29999899753333
 20
178.3000003609847
 30
0.0
 11
19.99999899753332
 21
178.3000003609847
 31
0.0
  0
LINE
  5
95B
330
1F
100
AcDbEntity
  8
0
100
AcDbLine
 10
14.57179576708561
 20
166.3000003609847
 30
0.0
 11
12.29999899753333
 21
166.3000003609847
 31
0.0
  0
LINE
  5
95C
330
1F
100
AcDbEntity
  8
0
100
AcDbLine
 10
26.99999899753335
 20
153.8000003609847
 30
0.0
 11
26.99999899753335
 21
162.3000003609847
 31
0.0
  0
LINE
  5
95D
330
1F
100
AcDbEntity
  8
0
100
AcDbLine
 10
26.99999899753335
 20
170.3000003609847
 30
0.0
 11
26.99999899753335
 21
171.8000003609847
 31
0.0
  0
LINE
  5
95E
330
1F
100
AcDbEntity
  8
0
100
AcDbLine
 10
26.99999899753335
 20
197.3000003609847
 30
0.0
 11
26.99999899753335
 21
210.8000003609846
 31
0.0
  0
LINE
  5
95F
330
1F
100
AcDbEntity
  8
0
100
AcDbLine
 10
26.99999899753335
 20
153.8000003609846
 30
0.0
 11
26.99999899753335
 21
150.3000003609846
 31
0.0
  0
LINE
  5
960
330
1F
100
AcDbEntity
  8
0
100
AcDbLine
 10
26.99999899753335
 20
214.3000003609847
 30
0.0
 11
26.99999899753335
 21
210.8000003609846
 31
0.0
  0
ARC
  5
961
330
1F
100
AcDbEntity
  8
0
100
AcDbCircle
 10
1.499998997533352
 20
212.8000003609848
 30
0.0
 40
1.5
100
AcDbArc
 50
90.0
 51
180.0
  0
ARC
  5
962
330
1F
100
AcDbEntity
  8
0
100
AcDbCircle
 10
1.499998997533352
 20
151.8000003609847
 30
0.0
 40
1.500000000000145
100
AcDbArc
 50
180.0000000000032
 51
270.0
  0
LINE
  5
963
330
1F
100
AcDbEntity
  8
0
100
AcDbLine
 10
19.99999899753335
 20
197.3000003609847
 30
0.0
 11
19.99999899753335
 21
212.3000003609847
 31
0.0
  0
LINE
  5
964
330
1F
100
AcDbEntity
  8
0
100
AcDbLine
 10
29.99999899753336
 20
150.3000003609846
 30
0.0
 11
34.99999899753336
 21
150.3000003609846
 31
0.0
  0
LINE
  5
965
330
1F
100
AcDbEntity
  8
0
100
AcDbLine
 10
36.99999899753335
 20
212.3000003609847
 30
0.0
 11
34.99999899753336
 21
214.3000003609847
 31
0.0
  0
LINE
  5
966
330
1F
100
AcDbEntity
  8
0
100
AcDbLine
 10
34.99999899753336
 20
150.3000003609846
 30
0.0
 11
36.99999899753335
 21
152.3000003609847
 31
0.0
  0
LINE
  5
967
330
1F
100
AcDbEntity
  8
0
100
AcDbLine
 10
36.99999899753335
 20
153.8000003609847
 30
0.0
 11
36.99999899753335
 21
210.8000003609848
 31
0.0
  0
LINE
  5
968
330
1F
100
AcDbEntity
  8
0
100
AcDbLine
 10
29.99999899753336
 20
214.3000003609847
 30
0.0
 11
34.99999899753336
 21
214.3000003609847
 31
0.0
  0
LINE
  5
969
330
1F
100
AcDbEntity
  8
0
100
AcDbLine
 10
29.99999899753336
 20
210.8000003609848
 30
0.0
 11
29.99999899753336
 21
153.8000003609847
 31
0.0
  0
LINE
  5
96A
330
1F
100
AcDbEntity
  8
0
100
AcDbLine
 10
36.99999899753335
 20
212.3000003609847
 30
0.0
 11
36.99999899753335
 21
210.8000003609848
 31
0.0
  0
LINE
  5
96B
330
1F
100
AcDbEntity
  8
0
100
AcDbLine
 10
36.99999899753335
 20
153.8000003609847
 30
0.0
 11
36.99999899753335
 21
152.3000003609847
 31
0.0
  0
LINE
  5
96C
330
1F
100
AcDbEntity
  8
0
100
AcDbLine
 10
29.99999899753336
 20
210.8000003609848
 30
0.0
 11
29.99999899753336
 21
214.3000003609847
 31
0.0
  0
LINE
  5
96D
330
1F
100
AcDbEntity
  8
0
100
AcDbLine
 10
29.99999899753336
 20
150.3000003609846
 30
0.0
 11
29.99999899753336
 21
153.8000003609847
 31
0.0
  0
LINE
  5
96E
330
1F
100
AcDbEntity
  8
0
100
AcDbLine
 10
29.69999899753337
 20
150.0000003609848
 30
0.0
 11
27.29999899753337
 21
150.0000003609848
 31
0.0
  0
LINE
  5
96F
330
1F
100
AcDbEntity
  8
0
100
AcDbLine
 10
29.99999899753336
 20
153.8000003609847
 30
0.0
 11
29.99999899753336
 21
210.8000003609848
 31
0.0
  0
LINE
  5
970
330
1F
100
AcDbEntity
  8
0
100
AcDbLine
 10
29.69999899753337
 20
214.6000003609848
 30
0.0
 11
27.29999899753337
 21
214.6000003609848
 31
0.0
  0
LINE
  5
971
330
1F
100
AcDbEntity
  8
0
100
AcDbLine
 10
27.29999899753334
 20
170.3000003609847
 30
0.0
 11
27.29999899753334
 21
171.8000003609847
 31
0.0
  0
LINE
  5
972
330
1F
100
AcDbEntity
  8
0
100
AcDbLine
 10
26.99999899753335
 20
210.8000003609848
 30
0.0
 11
26.99999899753335
 21
197.3000003609847
 31
0.0
  0
LINE
  5
973
330
1F
100
AcDbEntity
  8
0
100
AcDbLine
 10
26.99999899753335
 20
171.8000003609847
 30
0.0
 11
26.99999899753335
 21
170.3000003609847
 31
0.0
  0
LINE
  5
974
330
1F
100
AcDbEntity
  8
0
100
AcDbLine
 10
26.99999899753335
 20
162.3000003609847
 30
0.0
 11
26.99999899753335
 21
153.8000003609847
 31
0.0
  0
LINE
  5
975
330
1F
100
AcDbEntity
  8
0
100
AcDbLine
 10
29.99999899753336
 20
153.8000003609847
 30
0.0
 11
29.99999899753336
 21
150.3000003609846
 31
0.0
  0
ARC
  5
976
330
1F
100
AcDbEntity
  8
0
100
AcDbCircle
 10
29.69999899753337
 20
150.3000003609846
 30
0.0
 40
0.3000000000000114
100
AcDbArc
 50
270.0
 51
0.0
  0
LINE
  5
977
330
1F
100
AcDbEntity
  8
0
100
AcDbLine
 10
29.99999899753336
 20
214.3000003609847
 30
0.0
 11
29.99999899753336
 21
210.8000003609848
 31
0.0
  0
ARC
  5
978
330
1F
100
AcDbEntity
  8
0
100
AcDbCircle
 10
29.69999899753337
 20
214.3000003609847
 30
0.0
 40
0.3000000000000007
100
AcDbArc
 50
0.0
 51
90.0
  0
LINE
  5
979
330
1F
100
AcDbEntity
  8
0
100
AcDbLine
 10
26.99999899753335
 20
150.3000003609846
 30
0.0
 11
26.99999899753335
 21
153.8000003609847
 31
0.0
  0
ARC
  5
97A
330
1F
100
AcDbEntity
  8
0
100
AcDbCircle
 10
27.29999899753334
 20
150.3000003609846
 30
0.0
 40
0.3
100
AcDbArc
 50
180.0
 51
270.0
  0
LINE
  5
97B
330
1F
100
AcDbEntity
  8
0
100
AcDbLine
 10
26.99999899753335
 20
210.8000003609848
 30
0.0
 11
26.99999899753335
 21
214.3000003609847
 31
0.0
  0
ARC
  5
97C
330
1F
100
AcDbEntity
  8
0
100
AcDbCircle
 10
27.29999899753334
 20
214.3000003609847
 30
0.0
 40
0.3000000000000043
100
AcDbArc
 50
90.0
 51
180.0
  0
LINE
  5
97D
330
1F
100
AcDbEntity
  8
0
100
AcDbLine
 10
12.29999899753309
 20
178.300000360984
 30
0.0
 11
12.29999899753302
 21
166.5000003609848
 31
0.0
  0
LINE
  5
97E
330
1F
100
AcDbEntity
  8
0
100
AcDbLine
 10
14.57179576708561
 20
166.5000003609848
 30
0.0
 11
12.29999899753304
 21
166.5000003609848
 31
0.0
  0
LINE
  5
97F
330
1F
100
AcDbEntity
  8
0
100
AcDbLine
 10
14.57179576708561
 20
166.5000003609848
 30
0.0
 11
12.29999899753304
 21
166.5000003609848
 31
0.0
  0
LINE
  5
980
330
1F
100
AcDbEntity
  8
0
100
AcDbLine
 10
16.49999899753332
 20
171.5000003609848
 30
0.0
 11
12.29999899753304
 21
171.5000003609848
 31
0.0
  0
ARC
  5
981
330
1F
100
AcDbEntity
  8
0
100
AcDbCircle
 10
16.79999899753345
 20
169.0000003609848
 30
0.0
 40
1.7
100
AcDbArc
 50
100.1642486217273
 51
130.1191668984071
  0
LINE
  5
982
330
1F
100
AcDbEntity
  8
0
100
AcDbLine
 10
16.49999899753332
 20
171.5000003609848
 30
0.0
 11
12.29999899753304
 21
171.5000003609848
 31
0.0
  0
LINE
  5
983
330
1F
100
AcDbEntity
  8
0
100
AcDbLine
 10
14.57179576708561
 20
176.5000003609848
 30
0.0
 11
12.29999899753304
 21
176.5000003609848
 31
0.0
  0
LINE
  5
984
330
1F
100
AcDbEntity
  8
0
100
AcDbLine
 10
15.49999899753332
 20
178.1000003609849
 30
0.0
 11
12.29999899753309
 21
178.1000003609848
 31
0.0
  0
LINE
  5
985
330
1F
100
AcDbEntity
  8
0
100
AcDbLine
 10
14.49999899753303
 20
178.1000003609845
 30
0.0
 11
14.49999899753395
 21
166.5000003609848
 31
0.0
  0
LINE
  5
986
330
1F
100
AcDbEntity
  8
0
100
AcDbLine
 10
12.49999899753303
 20
178.1000003609843
 30
0.0
 11
12.49999899753395
 21
166.5000003609848
 31
0.0
  0
LINE
  5
987
330
1F
100
AcDbEntity
  8
0
100
AcDbLine
 10
14.49999899753445
 20
168.1000003609848
 30
0.0
 11
12.49999899753445
 21
168.1000003609848
 31
0.0
  0
LINE
  5
988
330
1F
100
AcDbEntity
  8
0
100
AcDbLine
 10
14.49999899753445
 20
173.1000003609848
 30
0.0
 11
12.49999899753445
 21
173.1000003609848
 31
0.0
  0
LINE
  5
989
330
1F
100
AcDbEntity
  8
0
100
AcDbLine
 10
14.14999899753431
 20
168.4000003609849
 30
0.0
 11
13.09999899753435
 21
168.4000003609846
 31
0.0
  0
LINE
  5
98A
330
1F
100
AcDbEntity
  8
0
100
AcDbLine
 10
12.7999989975344
 20
169.3000003609848
 30
0.0
 11
12.7999989975344
 21
170.3000003609848
 31
0.0
  0
LINE
  5
98B
330
1F
100
AcDbEntity
  8
0
100
AcDbLine
 10
13.09999899753435
 20
168.4000003609846
 30
0.0
 11
13.09999899753435
 21
169.3000003609848
 31
0.0
  0
LINE
  5
98C
330
1F
100
AcDbEntity
  8
0
100
AcDbLine
 10
13.09999899753435
 20
170.3000003609848
 30
0.0
 11
13.09999899753435
 21
171.2000003609848
 31
0.0
  0
LINE
  5
98D
330
1F
100
AcDbEntity
  8
0
100
AcDbLine
 10
14.14999899753431
 20
171.2000003609848
 30
0.0
 11
13.09999899753435
 21
171.2000003609848
 31
0.0
  0
LINE
  5
98E
330
1F
100
AcDbEntity
  8
0
100
AcDbLine
 10
14.14999899753431
 20
168.4000003609849
 30
0.0
 11
14.14999899753431
 21
171.2000003609848
 31
0.0
  0
LINE
  5
98F
330
1F
100
AcDbEntity
  8
0
100
AcDbLine
 10
13.09999899753435
 20
169.3000003609848
 30
0.0
 11
12.7999989975344
 21
169.3000003609848
 31
0.0
  0
LINE
  5
990
330
1F
100
AcDbEntity
  8
0
100
AcDbLine
 10
13.09999899753435
 20
170.3000003609848
 30
0.0
 11
12.7999989975344
 21
170.3000003609848
 31
0.0
  0
LINE
  5
991
330
1F
100
AcDbEntity
  8
0
100
AcDbLine
 10
14.14999899753425
 20
173.4000003609849
 30
0.0
 11
13.09999899753424
 21
173.4000003609847
 31
0.0
  0
LINE
  5
992
330
1F
100
AcDbEntity
  8
0
100
AcDbLine
 10
12.79999899753429
 20
174.3000003609848
 30
0.0
 11
12.79999899753429
 21
175.3000003609848
 31
0.0
  0
LINE
  5
993
330
1F
100
AcDbEntity
  8
0
100
AcDbLine
 10
13.09999899753424
 20
173.4000003609847
 30
0.0
 11
13.0999989975343
 21
174.3000003609848
 31
0.0
  0
LINE
  5
994
330
1F
100
AcDbEntity
  8
0
100
AcDbLine
 10
13.09999899753424
 20
175.3000003609848
 30
0.0
 11
13.09999899753424
 21
176.2000003609848
 31
0.0
  0
LINE
  5
995
330
1F
100
AcDbEntity
  8
0
100
AcDbLine
 10
14.14999899753431
 20
176.2000003609848
 30
0.0
 11
13.09999899753424
 21
176.2000003609848
 31
0.0
  0
LINE
  5
996
330
1F
100
AcDbEntity
  8
0
100
AcDbLine
 10
14.14999899753425
 20
173.4000003609849
 30
0.0
 11
14.14999899753431
 21
176.2000003609848
 31
0.0
  0
LINE
  5
997
330
1F
100
AcDbEntity
  8
0
100
AcDbLine
 10
13.0999989975343
 20
174.3000003609848
 30
0.0
 11
12.79999899753429
 21
174.3000003609848
 31
0.0
  0
LINE
  5
998
330
1F
100
AcDbEntity
  8
0
100
AcDbLine
 10
13.09999899753424
 20
175.3000003609848
 30
0.0
 11
12.79999899753429
 21
175.3000003609848
 31
0.0
  0
LINE
  5
999
330
1F
100
AcDbEntity
  8
0
100
AcDbLine
 10
27.49999899753333
 20
178.3000003609847
 30
0.0
 11
27.49999899753333
 21
196.8000003609846
 31
0.0
  0
LINE
  5
99A
330
1F
100
AcDbEntity
  8
0
100
AcDbLine
 10
15.49999899753332
 20
178.3000003609847
 30
0.0
 11
15.49999899753332
 21
196.8000003609846
 31
0.0
  0
LINE
  5
99B
330
1F
100
AcDbEntity
  8
0
100
AcDbLine
 10
15.99999899753332
 20
197.3000003609847
 30
0.0
 11
15.49999899753332
 21
196.8000003609846
 31
0.0
  0
LINE
  5
99C
330
1F
100
AcDbEntity
  8
0
100
AcDbLine
 10
26.99999899753333
 20
197.3000003609847
 30
0.0
 11
27.49999899753333
 21
196.8000003609846
 31
0.0
  0
LINE
  5
99D
330
1F
100
AcDbEntity
  8
0
100
AcDbLine
 10
15.99999899753332
 20
197.3000003609847
 30
0.0
 11
26.99999899753333
 21
197.3000003609847
 31
0.0
  0
LINE
  5
99E
330
1F
100
AcDbEntity
  8
0
100
AcDbLine
 10
27.49999899753333
 20
196.8000003609846
 30
0.0
 11
15.49999899753332
 21
196.8000003609846
 31
0.0
  0
LINE
  5
99F
330
1F
100
AcDbEntity
  8
0
100
AcDbLine
 10
28.42820222794659
 20
176.8000003609847
 30
0.0
 11
28.42820222794659
 21
171.8000003609847
 31
0.0
  0
LINE
  5
9A0
330
1F
100
AcDbEntity
  8
0
100
AcDbLine
 10
24.96410061267102
 20
176.8000003609847
 30
0.0
 11
24.96410061267102
 21
171.8000003609847
 31
0.0
  0
LINE
  5
9A1
330
1F
100
AcDbEntity
  8
0
100
AcDbLine
 10
18.03589738249887
 20
176.8000003609847
 30
0.0
 11
18.03589738249887
 21
171.8000003609847
 31
0.0
  0
LINE
  5
9A2
330
1F
100
AcDbEntity
  8
0
100
AcDbLine
 10
14.57179576708561
 20
171.8000003609847
 30
0.0
 11
28.42820222794659
 21
171.8000003609847
 31
0.0
  0
LINE
  5
9A3
330
1F
100
AcDbEntity
  8
0
100
AcDbLine
 10
14.57179576708561
 20
176.8000003609847
 30
0.0
 11
14.57179576708561
 21
171.8000003609847
 31
0.0
  0
LINE
  5
9A4
330
1F
100
AcDbEntity
  8
0
100
AcDbLine
 10
28.42820222794659
 20
170.3000003609847
 30
0.0
 11
28.42820222794659
 21
162.3000003609847
 31
0.0
  0
LINE
  5
9A5
330
1F
100
AcDbEntity
  8
0
100
AcDbLine
 10
24.96410061267102
 20
162.3000003609847
 30
0.0
 11
28.42820222794659
 21
162.3000003609847
 31
0.0
  0
LINE
  5
9A6
330
1F
100
AcDbEntity
  8
0
100
AcDbLine
 10
24.96410061267102
 20
170.3000003609847
 30
0.0
 11
24.96410061267102
 21
162.3000003609847
 31
0.0
  0
LINE
  5
9A7
330
1F
100
AcDbEntity
  8
0
100
AcDbLine
 10
18.03589738249887
 20
162.3000003609847
 30
0.0
 11
24.96410061267102
 21
162.3000003609847
 31
0.0
  0
LINE
  5
9A8
330
1F
100
AcDbEntity
  8
0
100
AcDbLine
 10
18.03589738249887
 20
170.3000003609847
 30
0.0
 11
18.03589738249887
 21
162.3000003609847
 31
0.0
  0
LINE
  5
9A9
330
1F
100
AcDbEntity
  8
0
100
AcDbLine
 10
14.57179576708561
 20
162.3000003609847
 30
0.0
 11
18.03589738249887
 21
162.3000003609847
 31
0.0
  0
LINE
  5
9AA
330
1F
100
AcDbEntity
  8
0
100
AcDbLine
 10
14.57179576708561
 20
170.3000003609847
 30
0.0
 11
14.57179576708561
 21
162.3000003609847
 31
0.0
  0
LINE
  5
9AB
330
1F
100
AcDbEntity
  8
0
100
AcDbLine
 10
28.42820222794659
 20
170.3000003609847
 30
0.0
 11
24.96410061267102
 21
170.3000003609847
 31
0.0
  0
LINE
  5
9AC
330
1F
100
AcDbEntity
  8
0
100
AcDbLine
 10
24.96410061267102
 20
170.3000003609847
 30
0.0
 11
18.03589738249887
 21
170.3000003609847
 31
0.0
  0
LINE
  5
9AD
330
1F
100
AcDbEntity
  8
0
100
AcDbLine
 10
18.03589738249887
 20
170.3000003609847
 30
0.0
 11
14.57179576708561
 21
170.3000003609847
 31
0.0
  0
LINE
  5
9AE
330
1F
100
AcDbEntity
  8
0
100
AcDbLine
 10
28.42820222794659
 20
176.8000003609847
 30
0.0
 11
26.6961514202399
 21
176.8000003609847
 31
0.0
  0
LINE
  5
9AF
330
1F
100
AcDbEntity
  8
0
100
AcDbLine
 10
16.30384657490417
 20
176.8000003609847
 30
0.0
 11
14.57179576708561
 21
176.8000003609847
 31
0.0
  0
LINE
  5
9B0
330
1F
100
AcDbEntity
  8
0
100
AcDbLine
 10
21.49999899753332
 20
176.8000003609847
 30
0.0
 11
18.03589738249887
 21
176.8000003609847
 31
0.0
  0
LINE
  5
9B1
330
1F
100
AcDbEntity
  8
0
100
AcDbLine
 10
18.03589738249887
 20
176.8000003609847
 30
0.0
 11
16.30384657490417
 21
176.8000003609847
 31
0.0
  0
LINE
  5
9B2
330
1F
100
AcDbEntity
  8
0
100
AcDbLine
 10
26.69615142023996
 20
176.8000003609847
 30
0.0
 11
24.96410061267106
 21
176.8000003609847
 31
0.0
  0
LINE
  5
9B3
330
1F
100
AcDbEntity
  8
0
100
AcDbLine
 10
24.96410061267102
 20
176.8000003609847
 30
0.0
 11
21.49999899753332
 21
176.8000003609847
 31
0.0
  0
LINE
  5
9B4
330
1F
100
AcDbEntity
  8
0
100
AcDbLine
 10
26.49999899753332
 20
170.3000003609847
 30
0.0
 11
26.49999899753332
 21
171.8000003609847
 31
0.0
  0
LINE
  5
9B5
330
1F
100
AcDbEntity
  8
0
100
AcDbLine
 10
16.49999899753332
 20
170.3000003609847
 30
0.0
 11
16.49999899753332
 21
171.8000003609847
 31
0.0
  0
LINE
  5
9B6
330
1F
100
AcDbEntity
  8
0
100
AcDbLine
 10
15.99999899753344
 20
162.3000003609847
 30
0.0
 11
15.99999899753344
 21
161.3000003609847
 31
0.0
  0
LINE
  5
9B7
330
1F
100
AcDbEntity
  8
0
100
AcDbLine
 10
27.49999899753333
 20
176.8000003609847
 30
0.0
 11
27.49999899753333
 21
178.3000003609847
 31
0.0
  0
LINE
  5
9B8
330
1F
100
AcDbEntity
  8
0
100
AcDbLine
 10
15.49999899753332
 20
176.8000003609847
 30
0.0
 11
15.49999899753332
 21
178.3000003609847
 31
0.0
  0
LINE
  5
9B9
330
1F
100
AcDbEntity
  8
0
100
AcDbLine
 10
24.99999899753345
 20
159.3000003609847
 30
0.0
 11
17.99999899753344
 21
159.3000003609847
 31
0.0
  0
LINE
  5
9BA
330
1F
100
AcDbEntity
  8
0
100
AcDbLine
 10
15.49999899753332
 20
178.3000003609847
 30
0.0
 11
27.49999899753333
 21
178.3000003609847
 31
0.0
  0
ARC
  5
9BB
330
1F
100
AcDbEntity
  8
0
100
AcDbCircle
 10
17.99999899753344
 20
161.3000003609847
 30
0.0
 40
2.0
100
AcDbArc
 50
180.0
 51
270.0
  0
ARC
  5
9BC
330
1F
100
AcDbEntity
  8
0
100
AcDbCircle
 10
24.99999899753345
 20
161.3000003609847
 30
0.0
 40
2.0
100
AcDbArc
 50
270.0
 51
0.0
  0
LINE
  5
9BD
330
1F
100
AcDbEntity
  8
0
100
AcDbLine
 10
15.49999899753332
 20
176.8000003609847
 30
0.0
 11
27.49999899753333
 21
176.8000003609847
 31
0.0
  0
LINE
  5
9BE
330
1F
100
AcDbEntity
  8
0
100
AcDbLine
 10
37.49999899753344
 20
159.21602576477
 30
0.0
 11
37.49999899753333
 21
163.4839749572012
 31
0.0
  0
ARC
  5
9BF
330
1F
100
AcDbEntity
  8
0
100
AcDbCircle
 10
37.49999899753344
 20
158.3500003609856
 30
0.0
 40
0.5
100
AcDbArc
 50
119.999999999999
 51
180.0
  0
ARC
  5
9C0
330
1F
100
AcDbEntity
  8
0
100
AcDbCircle
 10
36.99999899753344
 20
159.21602576477
 30
0.0
 40
0.5
100
AcDbArc
 50
299.9999999999996
 51
0.0
  0
ARC
  5
9C1
330
1F
100
AcDbEntity
  8
0
100
AcDbCircle
 10
37.49999899753344
 20
164.3500003609855
 30
0.0
 40
0.5
100
AcDbArc
 50
180.0
 51
240.0000000000009
  0
ARC
  5
9C2
330
1F
100
AcDbEntity
  8
0
100
AcDbCircle
 10
36.99999899753344
 20
163.4839749572012
 30
0.0
 40
0.5
100
AcDbArc
 50
0.0
 51
60.000000000001
  0
LINE
  5
9C3
330
1F
100
AcDbEntity
  8
0
100
AcDbLine
 10
27.59999899753254
 20
55.50000053015831
 30
0.0
 11
27.59999899753254
 21
44.00000053015831
 31
0.0
  0
LINE
  5
9C4
330
1F
100
AcDbEntity
  8
0
100
AcDbLine
 10
13.59999899753245
 20
55.50000053015831
 30
0.0
 11
13.59999899753254
 21
44.00000053015847
 31
0.0
  0
LINE
  5
9C5
330
1F
100
AcDbEntity
  8
0
100
AcDbLine
 10
26.19999899753245
 20
52.50000053015835
 30
0.0
 11
26.19999899753245
 21
44.00000053015831
 31
0.0
  0
LINE
  5
9C6
330
1F
100
AcDbEntity
  8
0
100
AcDbLine
 10
14.99999899753277
 20
52.50000053015835
 30
0.0
 11
14.99999899753277
 21
44.00000053015847
 31
0.0
  0
LINE
  5
9C7
330
1F
100
AcDbEntity
  8
0
100
AcDbLine
 10
25.44999899753245
 20
75.30000053015834
 30
0.0
 11
25.44999899753245
 21
59.00000053015831
 31
0.0
  0
LINE
  5
9C8
330
1F
100
AcDbEntity
  8
0
100
AcDbLine
 10
17.54999899753267
 20
75.30000053015864
 30
0.0
 11
17.54999899753267
 21
59.00000053015831
 31
0.0
  0
LINE
  5
9C9
330
1F
100
AcDbEntity
  8
0
100
AcDbLine
 10
21.49999899753254
 20
59.00000053015831
 30
0.0
 11
21.49999899753254
 21
76.30000053015831
 31
0.0
  0
ARC
  5
9CA
330
1F
100
AcDbEntity
  8
0
100
AcDbCircle
 10
24.44999899753245
 20
75.30000053015825
 30
0.0
 40
1.0
100
AcDbArc
 50
0.0
 51
90.0
1001
GENIUS_GENOBJ-N-FIL_13
1002
{
1000
OWNER
1000
GEN
1002
}
1001
GENIUS_GENODEF_13
1002
{
1000
HIER
1070
     0
1002
}
1002
{
1000
MANEDIT
1070
     0
1002
}
1002
{
1000
NOSEL
1070
     0
1002
}
1002
{
1000
BEHIND
1070
     0
1002
}
1002
{
1000
OTHER
1070
     0
1002
}
1002
{
1000
REACTOR
1002
}
  0
ARC
  5
9CB
330
1F
100
AcDbEntity
  8
0
100
AcDbCircle
 10
18.54999899753267
 20
75.30000053015855
 30
0.0
 40
1.0
100
AcDbArc
 50
90.0
 51
180.0
1001
GENIUS_GENOBJ-N-FIL_13
1002
{
1000
OWNER
1000
GEN
1002
}
1001
GENIUS_GENODEF_13
1002
{
1000
HIER
1070
     0
1002
}
1002
{
1000
MANEDIT
1070
     0
1002
}
1002
{
1000
NOSEL
1070
     0
1002
}
1002
{
1000
BEHIND
1070
     0
1002
}
1002
{
1000
OTHER
1070
     0
1002
}
1002
{
1000
REACTOR
1002
}
  0
LINE
  5
9CC
330
1F
100
AcDbEntity
  8
0
100
AcDbLine
 10
25.44999899753245
 20
59.00000053015848
 30
0.0
 11
17.54999899753267
 21
59.00000053015831
 31
0.0
  0
LINE
  5
9CD
330
1F
100
AcDbEntity
  8
0
100
AcDbLine
 10
26.59999899753254
 20
56.50000053015831
 30
0.0
 11
14.59999899753245
 21
56.50000053015831
 31
0.0
  0
LINE
  5
9CE
330
1F
100
AcDbEntity
  8
0
100
AcDbLine
 10
26.19999899753245
 20
52.50000053015835
 30
0.0
 11
14.99999899753277
 21
52.50000053015835
 31
0.0
  0
ARC
  5
9CF
330
1F
100
AcDbEntity
  8
0
100
AcDbCircle
 10
26.59999899753254
 20
55.50000053015845
 30
0.0
 40
1.0
100
AcDbArc
 50
0.0
 51
90.0
1001
GENIUS_GENOBJ-N-FIL_13
1002
{
1000
OWNER
1000
GEN
1002
}
1001
GENIUS_GENODEF_13
1002
{
1000
HIER
1070
     0
1002
}
1002
{
1000
MANEDIT
1070
     0
1002
}
1002
{
1000
NOSEL
1070
     0
1002
}
1002
{
1000
BEHIND
1070
     0
1002
}
1002
{
1000
OTHER
1070
     0
1002
}
1002
{
1000
REACTOR
1002
}
  0
ARC
  5
9D0
330
1F
100
AcDbEntity
  8
0
100
AcDbCircle
 10
25.44999899753245
 20
58.00000053015859
 30
0.0
 40
1.0
100
AcDbArc
 50
0.0
 51
90.0
1001
GENIUS_GENODEF_13
1002
{
1000
HIER
1070
     0
1002
}
1002
{
1000
MANEDIT
1070
     0
1002
}
1002
{
1000
NOSEL
1070
     0
1002
}
1002
{
1000
BEHIND
1070
     0
1002
}
1002
{
1000
OTHER
1070
     0
1002
}
1002
{
1000
REACTOR
1002
}
1001
GENIUS_GENOBJ-N-FIL_13
1002
{
1000
OWNER
1000
GEN
1002
}
  0
LINE
  5
9D1
330
1F
100
AcDbEntity
  8
0
100
AcDbLine
 10
26.44999899753245
 20
58.00000053015831
 30
0.0
 11
26.44999899753245
 21
56.50000053015831
 31
0.0
  0
ARC
  5
9D2
330
1F
100
AcDbEntity
  8
0
100
AcDbCircle
 10
17.54999899753267
 20
58.00000053015825
 30
0.0
 40
1.0
100
AcDbArc
 50
90.0
 51
180.0
1001
GENIUS_GENODEF_13
1002
{
1000
HIER
1070
     0
1002
}
1002
{
1000
MANEDIT
1070
     0
1002
}
1002
{
1000
NOSEL
1070
     0
1002
}
1002
{
1000
BEHIND
1070
     0
1002
}
1002
{
1000
OTHER
1070
     0
1002
}
1002
{
1000
REACTOR
1002
}
1001
GENIUS_GENOBJ-N-FIL_13
1002
{
1000
OWNER
1000
GEN
1002
}
  0
ARC
  5
9D3
330
1F
100
AcDbEntity
  8
0
100
AcDbCircle
 10
14.59999899753254
 20
55.50000053015825
 30
0.0
 40
1.0
100
AcDbArc
 50
90.0
 51
180.0
1001
GENIUS_GENODEF_13
1002
{
1000
HIER
1070
     0
1002
}
1002
{
1000
MANEDIT
1070
     0
1002
}
1002
{
1000
NOSEL
1070
     0
1002
}
1002
{
1000
BEHIND
1070
     0
1002
}
1002
{
1000
OTHER
1070
     0
1002
}
1002
{
1000
REACTOR
1002
}
1001
GENIUS_GENOBJ-N-FIL_13
1002
{
1000
OWNER
1000
GEN
1002
}
  0
LINE
  5
9D4
330
1F
100
AcDbEntity
  8
0
100
AcDbLine
 10
16.54999899753267
 20
58.00000053015831
 30
0.0
 11
16.54999899753267
 21
56.50000053015831
 31
0.0
  0
ARC
  5
9D5
330
1F
100
AcDbEntity
  8
0
100
AcDbCircle
 10
27.09999899753245
 20
44.00000053015845
 30
0.0
 40
0.5
100
AcDbArc
 50
270.0
 51
0.0
1001
GENIUS_GENOBJ-N-FIL_13
1002
{
1000
OWNER
1000
GEN
1002
}
1001
GENIUS_GENODEF_13
1002
{
1000
HIER
1070
     0
1002
}
1002
{
1000
MANEDIT
1070
     0
1002
}
1002
{
1000
NOSEL
1070
     0
1002
}
1002
{
1000
BEHIND
1070
     0
1002
}
1002
{
1000
OTHER
1070
     0
1002
}
1002
{
1000
REACTOR
1002
}
  0
LINE
  5
9D6
330
1F
100
AcDbEntity
  8
0
100
AcDbLine
 10
27.09999899753245
 20
43.50000053015831
 30
0.0
 11
26.69999899753245
 21
43.50000053015831
 31
0.0
  0
ARC
  5
9D7
330
1F
100
AcDbEntity
  8
0
100
AcDbCircle
 10
26.69999899753268
 20
44.00000053015845
 30
0.0
 40
0.5
100
AcDbArc
 50
180.0
 51
270.0
1001
GENIUS_GENODEF_13
1002
{
1000
HIER
1070
     0
1002
}
1002
{
1000
MANEDIT
1070
     0
1002
}
1002
{
1000
NOSEL
1070
     0
1002
}
1002
{
1000
BEHIND
1070
     0
1002
}
1002
{
1000
OTHER
1070
     0
1002
}
1002
{
1000
REACTOR
1002
}
1001
GENIUS_GENOBJ-N-FIL_13
1002
{
1000
OWNER
1000
GEN
1002
}
  0
ARC
  5
9D8
330
1F
100
AcDbEntity
  8
0
100
AcDbCircle
 10
14.09999899753254
 20
44.00000053015859
 30
0.0
 40
0.5
100
AcDbArc
 50
180.0
 51
270.0
1001
GENIUS_GENOBJ-N-FIL_13
1002
{
1000
OWNER
1000
GEN
1002
}
1001
GENIUS_GENODEF_13
1002
{
1000
HIER
1070
     0
1002
}
1002
{
1000
MANEDIT
1070
     0
1002
}
1002
{
1000
NOSEL
1070
     0
1002
}
1002
{
1000
BEHIND
1070
     0
1002
}
1002
{
1000
OTHER
1070
     0
1002
}
1002
{
1000
REACTOR
1002
}
  0
LINE
  5
9D9
330
1F
100
AcDbEntity
  8
0
100
AcDbLine
 10
14.49999899753285
 20
43.50000053015847
 30
0.0
 11
14.09999899753288
 21
43.50000053015847
 31
0.0
  0
ARC
  5
9DA
330
1F
100
AcDbEntity
  8
0
100
AcDbCircle
 10
14.49999899753285
 20
44.00000053015859
 30
0.0
 40
0.5
100
AcDbArc
 50
270.0
 51
0.0
1001
GENIUS_GENOBJ-N-FIL_13
1002
{
1000
OWNER
1000
GEN
1002
}
1001
GENIUS_GENODEF_13
1002
{
1000
HIER
1070
     0
1002
}
1002
{
1000
MANEDIT
1070
     0
1002
}
1002
{
1000
NOSEL
1070
     0
1002
}
1002
{
1000
BEHIND
1070
     0
1002
}
1002
{
1000
OTHER
1070
     0
1002
}
1002
{
1000
REACTOR
1002
}
  0
LINE
  5
9DB
330
1F
100
AcDbEntity
  8
0
100
AcDbLine
 10
16.59999899753245
 20
21.00000053015831
 30
0.0
 11
16.59999899753245
 21
23.50000053015831
 31
0.0
  0
LINE
  5
9DC
330
1F
100
AcDbEntity
  8
0
100
AcDbLine
 10
20.59999899753254
 20
52.50000053015835
 30
0.0
 11
20.59999899753254
 21
6.500000530158337
 31
0.0
  0
LINE
  5
9DD
330
1F
100
AcDbEntity
  8
0
100
AcDbLine
 10
16.59999899753245
 20
6.500000530158651
 30
0.0
 11
20.59999899753254
 21
6.500000530158337
 31
0.0
  0
LINE
  5
9DE
330
1F
100
AcDbEntity
  8
0
100
AcDbLine
 10
16.59999899753245
 20
13.00000053015834
 30
0.0
 11
16.59999899753245
 21
15.50000053015848
 31
0.0
  0
LINE
  5
9DF
330
1F
100
AcDbEntity
  8
0
100
AcDbLine
 10
16.59999899753245
 20
9.000000530158336
 30
0.0
 11
16.59999899753245
 21
11.50000053015851
 31
0.0
  0
LINE
  5
9E0
330
1F
100
AcDbEntity
  8
0
100
AcDbLine
 10
15.09999899753253
 20
9.000000530158336
 30
0.0
 11
16.59999899753245
 21
9.000000530158336
 31
0.0
  0
LINE
  5
9E1
330
1F
100
AcDbEntity
  8
0
100
AcDbLine
 10
15.09999899753253
 20
11.50000053015851
 30
0.0
 11
16.59999899753245
 21
11.50000053015851
 31
0.0
  0
LINE
  5
9E2
330
1F
100
AcDbEntity
  8
0
100
AcDbLine
 10
15.09999899753253
 20
13.00000053015834
 30
0.0
 11
16.59999899753245
 21
13.00000053015834
 31
0.0
  0
LINE
  5
9E3
330
1F
100
AcDbEntity
  8
0
100
AcDbLine
 10
15.09999899753253
 20
13.00000053015834
 30
0.0
 11
15.09999899753253
 21
11.50000053015851
 31
0.0
  0
LINE
  5
9E4
330
1F
100
AcDbEntity
  8
0
100
AcDbLine
 10
15.09999899753253
 20
1.500000530158479
 30
0.0
 11
15.09999899753253
 21
9.000000530158336
 31
0.0
  0
LINE
  5
9E5
330
1F
100
AcDbEntity
  8
0
100
AcDbLine
 10
15.09999899753253
 20
15.50000053015848
 30
0.0
 11
16.59999899753245
 21
15.50000053015848
 31
0.0
  0
LINE
  5
9E6
330
1F
100
AcDbEntity
  8
0
100
AcDbLine
 10
15.09999899753253
 20
17.00000053015834
 30
0.0
 11
16.59999899753245
 21
17.00000053015834
 31
0.0
  0
LINE
  5
9E7
330
1F
100
AcDbEntity
  8
0
100
AcDbLine
 10
15.09999899753253
 20
21.00000053015831
 30
0.0
 11
15.09999899753253
 21
19.50000053015851
 31
0.0
  0
LINE
  5
9E8
330
1F
100
AcDbEntity
  8
0
100
AcDbLine
 10
15.09999899753253
 20
19.50000053015851
 30
0.0
 11
16.59999899753245
 21
19.50000053015851
 31
0.0
  0
LINE
  5
9E9
330
1F
100
AcDbEntity
  8
0
100
AcDbLine
 10
15.09999899753253
 20
21.00000053015831
 30
0.0
 11
16.59999899753245
 21
21.00000053015831
 31
0.0
  0
LINE
  5
9EA
330
1F
100
AcDbEntity
  8
0
100
AcDbLine
 10
16.59999899753245
 20
17.00000053015834
 30
0.0
 11
16.59999899753245
 21
19.50000053015851
 31
0.0
  0
LINE
  5
9EB
330
1F
100
AcDbEntity
  8
0
100
AcDbLine
 10
15.09999899753253
 20
17.00000053015834
 30
0.0
 11
15.09999899753253
 21
15.50000053015848
 31
0.0
  0
LINE
  5
9EC
330
1F
100
AcDbEntity
  8
0
100
AcDbLine
 10
16.59999899753245
 20
29.00000053015834
 30
0.0
 11
16.59999899753245
 21
31.50000053015832
 31
0.0
  0
LINE
  5
9ED
330
1F
100
AcDbEntity
  8
0
100
AcDbLine
 10
15.09999899753253
 20
23.50000053015831
 30
0.0
 11
16.59999899753245
 21
23.50000053015831
 31
0.0
  0
LINE
  5
9EE
330
1F
100
AcDbEntity
  8
0
100
AcDbLine
 10
15.09999899753253
 20
25.00000053015831
 30
0.0
 11
16.59999899753245
 21
25.00000053015831
 31
0.0
  0
LINE
  5
9EF
330
1F
100
AcDbEntity
  8
0
100
AcDbLine
 10
15.09999899753253
 20
25.00000053015831
 30
0.0
 11
15.09999899753253
 21
23.50000053015831
 31
0.0
  0
LINE
  5
9F0
330
1F
100
AcDbEntity
  8
0
100
AcDbLine
 10
15.09999899753253
 20
27.50000053015834
 30
0.0
 11
16.59999899753245
 21
27.50000053015834
 31
0.0
  0
LINE
  5
9F1
330
1F
100
AcDbEntity
  8
0
100
AcDbLine
 10
15.09999899753253
 20
29.00000053015834
 30
0.0
 11
16.59999899753245
 21
29.00000053015834
 31
0.0
  0
LINE
  5
9F2
330
1F
100
AcDbEntity
  8
0
100
AcDbLine
 10
15.09999899753253
 20
29.00000053015834
 30
0.0
 11
15.09999899753253
 21
27.50000053015834
 31
0.0
  0
LINE
  5
9F3
330
1F
100
AcDbEntity
  8
0
100
AcDbLine
 10
16.59999899753245
 20
25.00000053015831
 30
0.0
 11
16.59999899753245
 21
27.50000053015834
 31
0.0
  0
LINE
  5
9F4
330
1F
100
AcDbEntity
  8
0
100
AcDbLine
 10
15.09999899753253
 20
31.50000053015832
 30
0.0
 11
16.59999899753245
 21
31.50000053015832
 31
0.0
  0
LINE
  5
9F5
330
1F
100
AcDbEntity
  8
0
100
AcDbLine
 10
15.09999899753253
 20
33.00000053015832
 30
0.0
 11
16.59999899753245
 21
33.00000053015832
 31
0.0
  0
LINE
  5
9F6
330
1F
100
AcDbEntity
  8
0
100
AcDbLine
 10
15.09999899753253
 20
33.00000053015832
 30
0.0
 11
15.09999899753253
 21
31.50000053015832
 31
0.0
  0
LINE
  5
9F7
330
1F
100
AcDbEntity
  8
0
100
AcDbLine
 10
15.09999899753253
 20
35.50000053015832
 30
0.0
 11
16.59999899753245
 21
35.50000053015832
 31
0.0
  0
LINE
  5
9F8
330
1F
100
AcDbEntity
  8
0
100
AcDbLine
 10
15.09999899753253
 20
52.00000053015831
 30
0.0
 11
15.09999899753253
 21
35.50000053015832
 31
0.0
  0
LINE
  5
9F9
330
1F
100
AcDbEntity
  8
0
100
AcDbLine
 10
16.59999899753245
 20
33.00000053015832
 30
0.0
 11
16.59999899753245
 21
35.50000053015832
 31
0.0
  0
LINE
  5
9FA
330
1F
100
AcDbEntity
  8
0
100
AcDbLine
 10
15.59999899753254
 20
52.50000053015835
 30
0.0
 11
20.59999899753254
 21
52.50000053015835
 31
0.0
  0
ARC
  5
9FB
330
1F
100
AcDbEntity
  8
0
100
AcDbCircle
 10
15.59999899753254
 20
52.00000053015825
 30
0.0
 40
0.5
100
AcDbArc
 50
90.0
 51
180.0
1001
GENIUS_GENOBJ-N-FIL_13
1002
{
1000
OWNER
1000
GEN
1002
}
1001
GENIUS_GENODEF_13
1002
{
1000
HIER
1070
     0
1002
}
1002
{
1000
MANEDIT
1070
     0
1002
}
1002
{
1000
NOSEL
1070
     0
1002
}
1002
{
1000
BEHIND
1070
     0
1002
}
1002
{
1000
OTHER
1070
     0
1002
}
1002
{
1000
REACTOR
1002
}
  0
ARC
  5
9FC
330
1F
100
AcDbEntity
  8
0
100
AcDbCircle
 10
16.59999899753254
 20
1.500000530158423
 30
0.0
 40
1.5
100
AcDbArc
 50
180.0
 51
270.0
1001
GENIUS_GENODEF_13
1002
{
1000
HIER
1070
     0
1002
}
1002
{
1000
MANEDIT
1070
     0
1002
}
1002
{
1000
NOSEL
1070
     0
1002
}
1002
{
1000
BEHIND
1070
     0
1002
}
1002
{
1000
OTHER
1070
     0
1002
}
1002
{
1000
REACTOR
1002
}
1001
GENIUS_GENOBJ-N-FIL_13
1002
{
1000
OWNER
1000
GEN
1002
}
  0
LINE
  5
9FD
330
1F
100
AcDbEntity
  8
0
100
AcDbLine
 10
16.59999899753237
 20
0.0000005301584807
 30
0.0
 11
16.59999899753245
 21
6.500000530158651
 31
0.0
  0
LINE
  5
9FE
330
1F
100
AcDbEntity
  8
0
100
AcDbLine
 10
14.99999899753277
 20
46.70000053015864
 30
0.0
 11
15.09999899753253
 21
46.70000053015864
 31
0.0
  0
LINE
  5
9FF
330
1F
100
AcDbEntity
  8
0
100
AcDbLine
 10
15.09999899753253
 20
49.20000053015847
 30
0.0
 11
14.99999899753277
 21
49.07500053015866
 31
0.0
  0
LINE
  5
A00
330
1F
100
AcDbEntity
  8
0
100
AcDbLine
 10
24.59999899753254
 20
21.00000053015831
 30
0.0
 11
24.59999899753254
 21
23.50000053015831
 31
0.0
  0
ARC
  5
A01
330
1F
100
AcDbEntity
  8
0
100
AcDbCircle
 10
24.59999899753254
 20
8.000000530158594
 30
0.0
 40
1.5
100
AcDbArc
 50
270.0
 51
0.0
1001
GENIUS_GENODEF_13
1002
{
1000
HIER
1070
     0
1002
}
1002
{
1000
MANEDIT
1070
     0
1002
}
1002
{
1000
NOSEL
1070
     0
1002
}
1002
{
1000
BEHIND
1070
     0
1002
}
1002
{
1000
OTHER
1070
     0
1002
}
1002
{
1000
REACTOR
1002
}
1001
GENIUS_GENOBJ-N-FIL_13
1002
{
1000
OWNER
1000
GEN
1002
}
  0
LINE
  5
A02
330
1F
100
AcDbEntity
  8
0
100
AcDbLine
 10
24.59999899753254
 20
6.500000530158337
 30
0.0
 11
20.59999899753254
 21
6.500000530158337
 31
0.0
  0
LINE
  5
A03
330
1F
100
AcDbEntity
  8
0
100
AcDbLine
 10
24.59999899753254
 20
13.00000053015834
 30
0.0
 11
24.59999899753254
 21
15.50000053015834
 31
0.0
  0
LINE
  5
A04
330
1F
100
AcDbEntity
  8
0
100
AcDbLine
 10
24.59999899753254
 20
9.000000530158336
 30
0.0
 11
24.59999899753254
 21
11.50000053015834
 31
0.0
  0
LINE
  5
A05
330
1F
100
AcDbEntity
  8
0
100
AcDbLine
 10
26.09999899753254
 20
9.000000530158336
 30
0.0
 11
24.59999899753254
 21
9.000000530158336
 31
0.0
  0
LINE
  5
A06
330
1F
100
AcDbEntity
  8
0
100
AcDbLine
 10
26.09999899753254
 20
11.50000053015834
 30
0.0
 11
24.59999899753254
 21
11.50000053015834
 31
0.0
  0
LINE
  5
A07
330
1F
100
AcDbEntity
  8
0
100
AcDbLine
 10
26.09999899753254
 20
13.00000053015834
 30
0.0
 11
24.59999899753254
 21
13.00000053015834
 31
0.0
  0
LINE
  5
A08
330
1F
100
AcDbEntity
  8
0
100
AcDbLine
 10
26.09999899753254
 20
13.00000053015834
 30
0.0
 11
26.09999899753254
 21
11.50000053015834
 31
0.0
  0
LINE
  5
A09
330
1F
100
AcDbEntity
  8
0
100
AcDbLine
 10
26.09999899753254
 20
8.000000530158336
 30
0.0
 11
26.09999899753254
 21
9.000000530158336
 31
0.0
  0
LINE
  5
A0A
330
1F
100
AcDbEntity
  8
0
100
AcDbLine
 10
26.09999899753254
 20
15.50000053015834
 30
0.0
 11
24.59999899753254
 21
15.50000053015834
 31
0.0
  0
LINE
  5
A0B
330
1F
100
AcDbEntity
  8
0
100
AcDbLine
 10
26.09999899753254
 20
17.00000053015834
 30
0.0
 11
24.59999899753254
 21
17.00000053015834
 31
0.0
  0
LINE
  5
A0C
330
1F
100
AcDbEntity
  8
0
100
AcDbLine
 10
26.09999899753254
 20
21.00000053015831
 30
0.0
 11
26.09999899753254
 21
19.50000053015831
 31
0.0
  0
LINE
  5
A0D
330
1F
100
AcDbEntity
  8
0
100
AcDbLine
 10
26.09999899753254
 20
19.50000053015831
 30
0.0
 11
24.59999899753254
 21
19.50000053015831
 31
0.0
  0
LINE
  5
A0E
330
1F
100
AcDbEntity
  8
0
100
AcDbLine
 10
26.09999899753254
 20
21.00000053015831
 30
0.0
 11
24.59999899753254
 21
21.00000053015831
 31
0.0
  0
LINE
  5
A0F
330
1F
100
AcDbEntity
  8
0
100
AcDbLine
 10
24.59999899753254
 20
17.00000053015834
 30
0.0
 11
24.59999899753254
 21
19.50000053015831
 31
0.0
  0
LINE
  5
A10
330
1F
100
AcDbEntity
  8
0
100
AcDbLine
 10
26.09999899753254
 20
17.00000053015834
 30
0.0
 11
26.09999899753254
 21
15.50000053015834
 31
0.0
  0
LINE
  5
A11
330
1F
100
AcDbEntity
  8
0
100
AcDbLine
 10
23.09999899753254
 20
37.00000053015832
 30
0.0
 11
23.09999899753254
 21
39.50000053015832
 31
0.0
  0
LINE
  5
A12
330
1F
100
AcDbEntity
  8
0
100
AcDbLine
 10
24.59999899753254
 20
29.00000053015834
 30
0.0
 11
24.59999899753254
 21
31.50000053015832
 31
0.0
  0
LINE
  5
A13
330
1F
100
AcDbEntity
  8
0
100
AcDbLine
 10
26.09999899753254
 20
23.50000053015831
 30
0.0
 11
24.59999899753254
 21
23.50000053015831
 31
0.0
  0
LINE
  5
A14
330
1F
100
AcDbEntity
  8
0
100
AcDbLine
 10
26.09999899753254
 20
25.00000053015831
 30
0.0
 11
24.59999899753254
 21
25.00000053015831
 31
0.0
  0
LINE
  5
A15
330
1F
100
AcDbEntity
  8
0
100
AcDbLine
 10
26.09999899753254
 20
25.00000053015831
 30
0.0
 11
26.09999899753254
 21
23.50000053015831
 31
0.0
  0
LINE
  5
A16
330
1F
100
AcDbEntity
  8
0
100
AcDbLine
 10
26.09999899753254
 20
27.50000053015834
 30
0.0
 11
24.59999899753254
 21
27.50000053015834
 31
0.0
  0
LINE
  5
A17
330
1F
100
AcDbEntity
  8
0
100
AcDbLine
 10
26.09999899753254
 20
29.00000053015834
 30
0.0
 11
24.59999899753254
 21
29.00000053015834
 31
0.0
  0
LINE
  5
A18
330
1F
100
AcDbEntity
  8
0
100
AcDbLine
 10
26.09999899753254
 20
29.00000053015834
 30
0.0
 11
26.09999899753254
 21
27.50000053015834
 31
0.0
  0
LINE
  5
A19
330
1F
100
AcDbEntity
  8
0
100
AcDbLine
 10
24.59999899753254
 20
25.00000053015831
 30
0.0
 11
24.59999899753254
 21
27.50000053015834
 31
0.0
  0
LINE
  5
A1A
330
1F
100
AcDbEntity
  8
0
100
AcDbLine
 10
26.09999899753254
 20
31.50000053015832
 30
0.0
 11
24.59999899753254
 21
31.50000053015832
 31
0.0
  0
LINE
  5
A1B
330
1F
100
AcDbEntity
  8
0
100
AcDbLine
 10
26.09999899753254
 20
33.00000053015832
 30
0.0
 11
24.59999899753254
 21
33.00000053015832
 31
0.0
  0
LINE
  5
A1C
330
1F
100
AcDbEntity
  8
0
100
AcDbLine
 10
26.09999899753254
 20
33.00000053015832
 30
0.0
 11
26.09999899753254
 21
31.50000053015832
 31
0.0
  0
LINE
  5
A1D
330
1F
100
AcDbEntity
  8
0
100
AcDbLine
 10
26.09999899753254
 20
35.50000053015832
 30
0.0
 11
24.59999899753254
 21
35.50000053015832
 31
0.0
  0
LINE
  5
A1E
330
1F
100
AcDbEntity
  8
0
100
AcDbLine
 10
26.09999899753254
 20
37.00000053015832
 30
0.0
 11
23.09999899753254
 21
37.00000053015832
 31
0.0
  0
LINE
  5
A1F
330
1F
100
AcDbEntity
  8
0
100
AcDbLine
 10
26.09999899753254
 20
37.00000053015832
 30
0.0
 11
26.09999899753254
 21
35.50000053015832
 31
0.0
  0
LINE
  5
A20
330
1F
100
AcDbEntity
  8
0
100
AcDbLine
 10
24.59999899753254
 20
33.00000053015832
 30
0.0
 11
24.59999899753254
 21
35.50000053015832
 31
0.0
  0
LINE
  5
A21
330
1F
100
AcDbEntity
  8
0
100
AcDbLine
 10
25.59999899753254
 20
52.50000053015835
 30
0.0
 11
20.59999899753254
 21
52.50000053015835
 31
0.0
  0
LINE
  5
A22
330
1F
100
AcDbEntity
  8
0
100
AcDbLine
 10
26.09999899753254
 20
52.00000053015831
 30
0.0
 11
26.09999899753254
 21
39.50000053015832
 31
0.0
  0
LINE
  5
A23
330
1F
100
AcDbEntity
  8
0
100
AcDbLine
 10
26.09999899753254
 20
39.50000053015832
 30
0.0
 11
23.09999899753254
 21
39.50000053015832
 31
0.0
  0
ARC
  5
A24
330
1F
100
AcDbEntity
  8
0
100
AcDbCircle
 10
25.59999899753254
 20
52.00000053015825
 30
0.0
 40
0.5
100
AcDbArc
 50
0.0
 51
90.0
1001
GENIUS_GENOBJ-N-FIL_13
1002
{
1000
OWNER
1000
GEN
1002
}
1001
GENIUS_GENODEF_13
1002
{
1000
HIER
1070
     0
1002
}
1002
{
1000
MANEDIT
1070
     0
1002
}
1002
{
1000
NOSEL
1070
     0
1002
}
1002
{
1000
BEHIND
1070
     0
1002
}
1002
{
1000
OTHER
1070
     0
1002
}
1002
{
1000
REACTOR
1002
}
  0
LINE
  5
A25
330
1F
100
AcDbEntity
  8
0
100
AcDbLine
 10
20.59999899753254
 20
39.5000005301585
 30
0.0
 11
20.59999899753254
 21
16.00000053015851
 31
0.0
  0
LINE
  5
A26
330
1F
100
AcDbEntity
  8
0
100
AcDbLine
 10
21.09999899753254
 20
42.50000053015829
 30
0.0
 11
20.59999899753254
 21
42.50000053015829
 31
0.0
  0
LINE
  5
A27
330
1F
100
AcDbEntity
  8
0
100
AcDbLine
 10
21.09999899753254
 20
39.50000053015832
 30
0.0
 11
20.59999899753254
 21
39.50000053015832
 31
0.0
  0
LINE
  5
A28
330
1F
100
AcDbEntity
  8
0
100
AcDbLine
 10
21.09999899753254
 20
42.50000053015829
 30
0.0
 11
21.09999899753254
 21
39.50000053015832
 31
0.0
  0
LINE
  5
A29
330
1F
100
AcDbEntity
  8
0
100
AcDbLine
 10
21.09999899753254
 20
13.00000053015834
 30
0.0
 11
20.59999899753254
 21
13.00000053015834
 31
0.0
  0
LINE
  5
A2A
330
1F
100
AcDbEntity
  8
0
100
AcDbLine
 10
21.09999899753254
 20
16.00000053015851
 30
0.0
 11
20.59999899753254
 21
16.00000053015851
 31
0.0
  0
LINE
  5
A2B
330
1F
100
AcDbEntity
  8
0
100
AcDbLine
 10
21.09999899753254
 20
16.00000053015851
 30
0.0
 11
21.09999899753254
 21
13.00000053015834
 31
0.0
  0
LINE
  5
A2C
330
1F
100
AcDbEntity
  8
0
100
AcDbLine
 10
15.19999899753244
 20
52.30000053015833
 30
0.0
 11
15.19999899753244
 21
52.50000053015864
 31
0.0
  0
LINE
  5
A2D
330
1F
100
AcDbEntity
  8
0
100
AcDbLine
 10
15.09999899753253
 20
44.70000053015865
 30
0.0
 11
14.99999899753277
 21
44.70000053015865
 31
0.0
  0
LINE
  5
A2E
330
1F
100
AcDbEntity
  8
0
100
AcDbLine
 10
24.44999899753245
 20
76.30000053015826
 30
0.0
 11
18.54999899753267
 21
76.30000053015855
 31
0.0
  0
LINE
  5
A2F
330
1F
100
AcDbEntity
  8
0
100
AcDbLine
 10
19.44999899753264
 20
76.30000053015831
 30
0.0
 11
19.44999899753264
 21
117.9714291015869
 31
0.0
  0
LINE
  5
A30
330
1F
100
AcDbEntity
  8
0
100
AcDbLine
 10
19.44999899753264
 20
119.9714291015869
 30
0.0
 11
19.44999899753264
 21
159.3000003609847
 31
0.0
  0
LINE
  5
A31
330
1F
100
AcDbEntity
  8
0
100
AcDbLine
 10
23.54999899753105
 20
76.30000053015852
 30
0.0
 11
23.54999899753105
 21
115.6285719587307
 31
0.0
  0
LINE
  5
A32
330
1F
100
AcDbEntity
  8
0
100
AcDbLine
 10
23.54999899753105
 20
117.6285719587307
 30
0.0
 11
23.54999899753105
 21
159.3000003609847
 31
0.0
  0
LINE
  5
A33
330
1F
100
AcDbEntity
  8
0
100
AcDbLine
 10
23.54999899753182
 20
117.6285719587303
 30
0.0
 11
19.44999899753321
 21
119.9714291015866
 31
0.0
  0
LINE
  5
A34
330
1F
100
AcDbEntity
  8
0
100
AcDbLine
 10
23.54999899753324
 20
115.6285719587294
 30
0.0
 11
19.44999899753321
 21
117.9714291015866
 31
0.0
  0
ENDSEC
  0
SECTION
  2
OBJECTS
  0
DICTIONARY
  5
C
330
0
100
AcDbDictionary
281
     1
  3
ACAD_COLOR
350
BE
  3
ACAD_GROUP
350
D
  3
ACAD_LAYOUT
350
1A
  3
ACAD_MATERIAL
350
BD
  3
ACAD_MLINESTYLE
350
17
  3
ACAD_PLOTSETTINGS
350
19
  3
ACAD_PLOTSTYLENAME
350
E
  3
ACAD_TABLESTYLE
350
11A
  3
ACDBHEADERROUNDTRIPXREC
350
AE8
  3
AcDbVariableDictionary
350
94
  3
AcmDictionary
350
5B
  3
AMG
350
41
  3
AMGSNAPSETTINGS
350
1B8
  3
DWGPROPS
350
AE7
  0
DICTIONARY
  5
218
330
2
100
AcDbDictionary
280
     1
281
     1
  3
ACAD_LAYERSTATES
360
219
  0
DICTIONARY
  5
8F
330
1F
100
AcDbDictionary
280
     1
281
     1
  0
DICTIONARY
  5
BE
102
{ACAD_REACTORS
330
C
102
}
330
C
100
AcDbDictionary
281
     1
  0
DICTIONARY
  5
D
102
{ACAD_REACTORS
330
C
102
}
330
C
100
AcDbDictionary
281
     1
  0
DICTIONARY
  5
1A
102
{ACAD_REACTORS
330
C
102
}
330
C
100
AcDbDictionary
281
     1
  3
Model
350
22
  3
レイアウト1
350
1E
  3
レイアウト2
350
26
  0
DICTIONARY
  5
BD
102
{ACAD_REACTORS
330
C
102
}
330
C
100
AcDbDictionary
281
     1
  0
DICTIONARY
  5
17
102
{ACAD_REACTORS
330
C
102
}
330
C
100
AcDbDictionary
281
     1
  3
Standard
350
18
  0
DICTIONARY
  5
19
102
{ACAD_REACTORS
330
C
102
}
330
C
100
AcDbDictionary
281
     1
  0
ACDBDICTIONARYWDFLT
  5
E
102
{ACAD_REACTORS
330
C
102
}
330
C
100
AcDbDictionary
281
     1
  3
Normal
350
F
100
AcDbDictionaryWithDefault
340
F
  0
DICTIONARY
  5
11A
102
{ACAD_REACTORS
330
C
102
}
330
C
100
AcDbDictionary
281
     1
  3
Standard
350
11B
  0
DICTIONARY
  5
AE8
102
{ACAD_REACTORS
330
C
102
}
330
C
100
AcDbDictionary
281
     1
  0
DICTIONARY
  5
94
102
{ACAD_REACTORS
330
C
102
}
330
C
100
AcDbDictionary
281
     1
  3
CTABLESTYLE
350
138
  3
DIMASSOC
350
96
  3
INDEXCTL
350
95
  3
PROJECTNAME
350
A43
  0
DICTIONARY
  5
5B
102
{ACAD_REACTORS
330
C
102
}
330
C
100
AcDbDictionary
281
     1
  3
AcmBOM
350
1B5
  3
AcmStdDictionary
350
61
  3
AMDTSECTSYM_ARROWCOLOR
350
123
  0
DICTIONARY
  5
41
102
{ACAD_REACTORS
330
C
102
}
330
C
100
AcDbDictionary
281
     1
  0
DICTIONARY
  5
1B8
102
{ACAD_REACTORS
330
C
102
}
330
C
100
AcDbDictionary
281
     1
  0
XRECORD
  5
AE7
102
{ACAD_REACTORS
330
C
102
}
330
C
100
AcDbXrecord
280
     1
  1
DWGPROPS COOKIE
  2

  3

  4

  6

  7

  8

  9

300
AmdtFileType=84
301
=
302
=
303
=
304
=
305
=
306
=
307
=
308
=
309
=
 40
0.0019400694444444
 41
2456406.670529699
 42
2456406.679119491
  1

 90
        1
  0
DICTIONARY
  5
219
102
{ACAD_REACTORS
330
218
102
}
330
218
100
AcDbDictionary
281
     1
  0
LAYOUT
  5
22
102
{ACAD_XDICTIONARY
360
AEB
102
}
102
{ACAD_REACTORS
330
1A
102
}
330
1A
100
AcDbPlotSettings
  1

  2

  4

  6

 40
0.0
 41
0.0
 42
0.0
 43
0.0
 44
0.0
 45
0.0
 46
0.0
 47
0.0
 48
0.0
 49
0.0
140
0.0
141
0.0
142
1.0
143
1.0
 70
  1712
 72
     0
 73
     0
 74
     0
  7

 75
     0
147
1.0
148
0.0
149
0.0
100
AcDbLayout
  1
Model
 70
     1
 71
     0
 10
0.0
 20
0.0
 11
12.0
 21
9.0
 12
0.0
 22
0.0
 32
0.0
 14
0.0
 24
0.0
 34
0.0
 15
0.0
 25
0.0
 35
0.0
146
0.0
 13
0.0
 23
0.0
 33
0.0
 16
1.0
 26
0.0
 36
0.0
 17
0.0
 27
1.0
 37
0.0
 76
     0
330
1F
  0
LAYOUT
  5
1E
102
{ACAD_XDICTIONARY
360
AE9
102
}
102
{ACAD_REACTORS
330
1A
102
}
330
1A
100
AcDbPlotSettings
  1

  2

  4

  6

 40
0.0
 41
0.0
 42
0.0
 43
0.0
 44
0.0
 45
0.0
 46
0.0
 47
0.0
 48
0.0
 49
0.0
140
0.0
141
0.0
142
1.0
143
1.0
 70
   688
 72
     0
 73
     0
 74
     5
  7

 75
    16
147
1.0
148
0.0
149
0.0
100
AcDbLayout
  1
レイアウト1
 70
     1
 71
     1
 10
0.0
 20
0.0
 11
420.0
 21
297.0
 12
0.0
 22
0.0
 32
0.0
 14
1.000000000000000E+20
 24
1.000000000000000E+20
 34
1.000000000000000E+20
 15
-1.000000000000000E+20
 25
-1.000000000000000E+20
 35
-1.000000000000000E+20
146
0.0
 13
0.0
 23
0.0
 33
0.0
 16
1.0
 26
0.0
 36
0.0
 17
0.0
 27
1.0
 37
0.0
 76
     0
330
1B
  0
LAYOUT
  5
26
102
{ACAD_XDICTIONARY
360
AED
102
}
102
{ACAD_REACTORS
330
1A
102
}
330
1A
100
AcDbPlotSettings
  1

  2

  4

  6

 40
0.0
 41
0.0
 42
0.0
 43
0.0
 44
0.0
 45
0.0
 46
0.0
 47
0.0
 48
0.0
 49
0.0
140
0.0
141
0.0
142
1.0
143
1.0
 70
   688
 72
     0
 73
     0
 74
     5
  7

 75
    16
147
1.0
148
0.0
149
0.0
100
AcDbLayout
  1
レイアウト2
 70
     1
 71
     2
 10
0.0
 20
0.0
 11
12.0
 21
9.0
 12
0.0
 22
0.0
 32
0.0
 14
0.0
 24
0.0
 34
0.0
 15
0.0
 25
0.0
 35
0.0
146
0.0
 13
0.0
 23
0.0
 33
0.0
 16
1.0
 26
0.0
 36
0.0
 17
0.0
 27
1.0
 37
0.0
 76
     0
330
23
  0
MLINESTYLE
  5
18
102
{ACAD_REACTORS
330
17
102
}
330
17
100
AcDbMlineStyle
  2
STANDARD
 70
     0
  3

 62
   256
 51
90.0
 52
90.0
 71
     2
 49
0.5
 62
   256
  6
BYLAYER
 49
-0.5
 62
   256
  6
BYLAYER
  0
ACDBPLACEHOLDER
  5
F
102
{ACAD_REACTORS
330
E
102
}
330
E
  0
TABLESTYLE
  5
11B
102
{ACAD_REACTORS
330
11A
102
}
330
11A
100
AcDbTableStyle
  3
Standard
 70
     0
 71
     0
 40
1.5
 41
1.5
280
     0
281
     0
  7
STANDARD
140
4.5
170
     2
 62
     0
 63
     7
283
     0
274
    -2
284
     1
 64
     0
275
    -2
285
     1
 65
     0
276
    -2
286
     1
 66
     0
277
    -2
287
     1
 67
     0
278
    -2
288
     1
 68
     0
279
    -2
289
     1
 69
     0
  7
STANDARD
140
6.0
170
     5
 62
     0
 63
     7
283
     0
274
    -2
284
     1
 64
     0
275
    -2
285
     1
 65
     0
276
    -2
286
     1
 66
     0
277
    -2
287
     1
 67
     0
278
    -2
288
     1
 68
     0
279
    -2
289
     1
 69
     0
  7
STANDARD
140
4.5
170
     5
 62
     0
 63
     7
283
     0
274
    -2
284
     1
 64
     0
275
    -2
285
     1
 65
     0
276
    -2
286
     1
 66
     0
277
    -2
287
     1
 67
     0
278
    -2
288
     1
 68
     0
279
    -2
289
     1
 69
     0
  0
DICTIONARYVAR
  5
138
102
{ACAD_REACTORS
330
94
102
}
330
94
100
DictionaryVariables
280
     0
  1
STANDARD
  0
DICTIONARYVAR
  5
96
102
{ACAD_REACTORS
330
94
102
}
330
94
100
DictionaryVariables
280
     0
  1
2
  0
DICTIONARYVAR
  5
95
102
{ACAD_REACTORS
330
94
102
}
330
94
100
DictionaryVariables
280
     0
  1
0
  0
DICTIONARYVAR
  5
A43
102
{ACAD_REACTORS
330
94
102
}
330
94
100
DictionaryVariables
280
     0
  1

  0
DICTIONARY
  5
1B5
102
{ACAD_REACTORS
330
5B
102
}
330
5B
100
AcDbDictionary
281
     1
  0
DICTIONARY
  5
61
102
{ACAD_REACTORS
330
5B
102
}
330
5B
100
AcDbDictionary
281
     1
  0
XRECORD
  5
123
102
{ACAD_REACTORS
330
5B
102
}
330
5B
100
AcDbXrecord
280
     1
 90
-1023410169
  0
DICTIONARY
  5
AEB
330
22
100
AcDbDictionary
280
     1
281
     1
  3
ACAD_XREC_ROUNDTRIP
360
AEC
  0
DICTIONARY
  5
AE9
330
1E
100
AcDbDictionary
280
     1
281
     1
  3
ACAD_XREC_ROUNDTRIP
360
AEA
  0
DICTIONARY
  5
AED
330
26
100
AcDbDictionary
280
     1
281
     1
  3
ACAD_XREC_ROUNDTRIP
360
AEE
  0
XRECORD
  5
AEC
102
{ACAD_REACTORS
330
AEB
102
}
330
AEB
100
AcDbXrecord
280
     1
102
SHADEPLOT
 70
     0
102
SHADEPLOTRESLEVEL
 70
     2
102
SHADEPLOTCUSTOMDPI
 70
   300
  0
XRECORD
  5
AEA
102
{ACAD_REACTORS
330
AE9
102
}
330
AE9
100
AcDbXrecord
280
     1
102
SHADEPLOT
 70
     0
102
SHADEPLOTRESLEVEL
 70
     2
102
SHADEPLOTCUSTOMDPI
 70
   300
  0
XRECORD
  5
AEE
102
{ACAD_REACTORS
330
AED
102
}
330
AED
100
AcDbXrecord
280
     1
102
SHADEPLOT
 70
     0
102
SHADEPLOTRESLEVEL
 70
     2
102
SHADEPLOTCUSTOMDPI
 70
   300
  0
ENDSEC
  0
EOF
