  0
SECTION
  2
HEADER
  9
$ACADVER
  1
AC1015
  9
$ACADMAINTVER
 70
    20
  9
$DWGCODEPAGE
  3
ANSI_932
  9
$INSBASE
 10
0.0
 20
0.0
 30
0.0
  9
$EXTMIN
 10
-0.3332509756241961
 20
-0.2129967452643768
 30
-0.0015258207003583
  9
$EXTMAX
 10
395.4034433320671
 20
172.858749936636
 30
0.0000000349246037
  9
$LIMMIN
 10
0.0
 20
0.0
  9
$LIMMAX
 10
420.0
 20
297.0
  9
$ORTHOMODE
 70
     0
  9
$REGENMODE
 70
     1
  9
$FILLMODE
 70
     1
  9
$QTEXTMODE
 70
     0
  9
$MIRRTEXT
 70
     1
  9
$LTSCALE
 40
1.0
  9
$ATTMODE
 70
     1
  9
$TEXTSIZE
 40
1.0
  9
$TRACEWID
 40
1.0
  9
$TEXTSTYLE
  7
ACISOTS
  9
$CLAYER
  8
AM_0
  9
$CELTYPE
  6
ByLayer
  9
$CECOLOR
 62
   256
  9
$CELTSCALE
 40
1.0
  9
$DISPSILH
 70
     0
  9
$DIMSCALE
 40
1.0
  9
$DIMASZ
 40
2.5
  9
$DIMEXO
 40
1.0
  9
$DIMDLI
 40
10.0
  9
$DIMRND
 40
0.0
  9
$DIMDLE
 40
0.0
  9
$DIMEXE
 40
1.0
  9
$DIMTP
 40
0.1
  9
$DIMTM
 40
0.1
  9
$DIMTXT
 40
3.5
  9
$DIMCEN
 40
0.0
  9
$DIMTSZ
 40
0.0
  9
$DIMTOL
 70
     0
  9
$DIMLIM
 70
     0
  9
$DIMTIH
 70
     0
  9
$DIMTOH
 70
     0
  9
$DIMSE1
 70
     0
  9
$DIMSE2
 70
     0
  9
$DIMTAD
 70
     1
  9
$DIMZIN
 70
     8
  9
$DIMBLK
  1

  9
$DIMASO
 70
     1
  9
$DIMSHO
 70
     1
  9
$DIMPOST
  1

  9
$DIMAPOST
  1
"
  9
$DIMALT
 70
     0
  9
$DIMALTD
 70
     2
  9
$DIMALTF
 40
0.0393701
  9
$DIMLFAC
 40
1.0
  9
$DIMTOFL
 70
     1
  9
$DIMTVP
 40
0.0
  9
$DIMTIX
 70
     0
  9
$DIMSOXD
 70
     0
  9
$DIMSAH
 70
     0
  9
$DIMBLK1
  1

  9
$DIMBLK2
  1

  9
$DIMSTYLE
  2
AM_ISO
  9
$DIMCLRD
 70
   256
  9
$DIMCLRE
 70
   256
  9
$DIMCLRT
 70
     2
  9
$DIMTFAC
 40
0.71
  9
$DIMGAP
 40
1.5
  9
$DIMJUST
 70
     0
  9
$DIMSD1
 70
     0
  9
$DIMSD2
 70
     0
  9
$DIMTOLJ
 70
     0
  9
$DIMTZIN
 70
     8
  9
$DIMALTZ
 70
     0
  9
$DIMALTTZ
 70
     0
  9
$DIMUPT
 70
     0
  9
$DIMDEC
 70
     2
  9
$DIMTDEC
 70
     3
  9
$DIMALTU
 70
     2
  9
$DIMALTTD
 70
     4
  9
$DIMTXSTY
  7
STANDARD
  9
$DIMAUNIT
 70
     0
  9
$DIMADEC
 70
     0
  9
$DIMALTRND
 40
0.0
  9
$DIMAZIN
 70
     2
  9
$DIMDSEP
 70
    46
  9
$DIMATFIT
 70
     3
  9
$DIMFRAC
 70
     0
  9
$DIMLDRBLK
  1

  9
$DIMLUNIT
 70
     2
  9
$DIMLWD
 70
    -1
  9
$DIMLWE
 70
    -1
  9
$DIMTMOVE
 70
     0
  9
$LUNITS
 70
     2
  9
$LUPREC
 70
     2
  9
$SKETCHINC
 40
1.0
  9
$FILLETRAD
 40
2.5
  9
$AUNITS
 70
     0
  9
$AUPREC
 70
     0
  9
$MENU
  1
.
  9
$ELEVATION
 40
0.0
  9
$PELEVATION
 40
0.0
  9
$THICKNESS
 40
0.0
  9
$LIMCHECK
 70
     0
  9
$CHAMFERA
 40
2.5
  9
$CHAMFERB
 40
2.5
  9
$CHAMFERC
 40
20.0
  9
$CHAMFERD
 40
0.0
  9
$SKPOLY
 70
     0
  9
$TDCREATE
 40
2456406.674284873
  9
$TDUCREATE
 40
2456406.299284873
  9
$TDUPDATE
 40
2456406.679404850
  9
$TDUUPDATE
 40
2456406.304404850
  9
$TDINDWG
 40
0.0051255903
  9
$TDUSRTIMER
 40
0.0051203472
  9
$USRTIMER
 70
     1
  9
$ANGBASE
 50
0.0
  9
$ANGDIR
 70
     0
  9
$PDMODE
 70
     0
  9
$PDSIZE
 40
0.0
  9
$PLINEWID
 40
0.0
  9
$SPLFRAME
 70
     0
  9
$SPLINETYPE
 70
     6
  9
$SPLINESEGS
 70
     8
  9
$HANDSEED
  5
9AF
  9
$SURFTAB1
 70
     6
  9
$SURFTAB2
 70
     6
  9
$SURFTYPE
 70
     6
  9
$SURFU
 70
     6
  9
$SURFV
 70
     6
  9
$UCSBASE
  2

  9
$UCSNAME
  2

  9
$UCSORG
 10
0.0
 20
0.0
 30
0.0
  9
$UCSXDIR
 10
1.0
 20
0.0
 30
0.0
  9
$UCSYDIR
 10
0.0
 20
1.0
 30
0.0
  9
$UCSORTHOREF
  2

  9
$UCSORTHOVIEW
 70
     0
  9
$UCSORGTOP
 10
0.0
 20
0.0
 30
0.0
  9
$UCSORGBOTTOM
 10
0.0
 20
0.0
 30
0.0
  9
$UCSORGLEFT
 10
0.0
 20
0.0
 30
0.0
  9
$UCSORGRIGHT
 10
0.0
 20
0.0
 30
0.0
  9
$UCSORGFRONT
 10
0.0
 20
0.0
 30
0.0
  9
$UCSORGBACK
 10
0.0
 20
0.0
 30
0.0
  9
$PUCSBASE
  2

  9
$PUCSNAME
  2

  9
$PUCSORG
 10
0.0
 20
0.0
 30
0.0
  9
$PUCSXDIR
 10
1.0
 20
0.0
 30
0.0
  9
$PUCSYDIR
 10
0.0
 20
1.0
 30
0.0
  9
$PUCSORTHOREF
  2

  9
$PUCSORTHOVIEW
 70
     0
  9
$PUCSORGTOP
 10
0.0
 20
0.0
 30
0.0
  9
$PUCSORGBOTTOM
 10
0.0
 20
0.0
 30
0.0
  9
$PUCSORGLEFT
 10
0.0
 20
0.0
 30
0.0
  9
$PUCSORGRIGHT
 10
0.0
 20
0.0
 30
0.0
  9
$PUCSORGFRONT
 10
0.0
 20
0.0
 30
0.0
  9
$PUCSORGBACK
 10
0.0
 20
0.0
 30
0.0
  9
$USERI1
 70
     0
  9
$USERI2
 70
     0
  9
$USERI3
 70
     0
  9
$USERI4
 70
     0
  9
$USERI5
 70
     0
  9
$USERR1
 40
0.0
  9
$USERR2
 40
0.0
  9
$USERR3
 40
0.0
  9
$USERR4
 40
0.0
  9
$USERR5
 40
0.0
  9
$WORLDVIEW
 70
     1
  9
$SHADEDGE
 70
     3
  9
$SHADEDIF
 70
    70
  9
$TILEMODE
 70
     1
  9
$MAXACTVP
 70
    64
  9
$PINSBASE
 10
0.0
 20
0.0
 30
0.0
  9
$PLIMCHECK
 70
     0
  9
$PEXTMIN
 10
1.000000000000000E+20
 20
1.000000000000000E+20
 30
1.000000000000000E+20
  9
$PEXTMAX
 10
-1.000000000000000E+20
 20
-1.000000000000000E+20
 30
-1.000000000000000E+20
  9
$PLIMMIN
 10
0.0
 20
0.0
  9
$PLIMMAX
 10
420.0
 20
297.0
  9
$UNITMODE
 70
     0
  9
$VISRETAIN
 70
     1
  9
$PLINEGEN
 70
     0
  9
$PSLTSCALE
 70
     1
  9
$TREEDEPTH
 70
  3020
  9
$CMLSTYLE
  2
Standard
  9
$CMLJUST
 70
     0
  9
$CMLSCALE
 40
20.0
  9
$PROXYGRAPHICS
 70
     1
  9
$MEASUREMENT
 70
     1
  9
$CELWEIGHT
370
    -1
  9
$ENDCAPS
280
     0
  9
$JOINSTYLE
280
     0
  9
$LWDISPLAY
290
     0
  9
$INSUNITS
 70
     4
  9
$HYPERLINKBASE
  1

  9
$STYLESHEET
  1

  9
$XEDIT
290
     1
  9
$CEPSNTYPE
380
     0
  9
$PSTYLEMODE
290
     1
  9
$FINGERPRINTGUID
  2
{A6609831-04C8-4705-864B-2EAEA87CA2FF}
  9
$VERSIONGUID
  2
{7722201D-E46B-4B19-9911-D01DACA36713}
  9
$EXTNAMES
290
     1
  9
$PSVPSCALE
 40
0.0
  9
$OLESTARTUP
290
     0
  0
ENDSEC
  0
SECTION
  2
CLASSES
  0
CLASS
  1
ACDBDICTIONARYWDFLT
  2
AcDbDictionaryWithDefault
  3
ObjectDBX Classes
 90
        0
280
     0
281
     0
  0
CLASS
  1
ACDBPLACEHOLDER
  2
AcDbPlaceHolder
  3
ObjectDBX Classes
 90
        0
280
     0
281
     0
  0
CLASS
  1
LAYOUT
  2
AcDbLayout
  3
ObjectDBX Classes
 90
        0
280
     0
281
     0
  0
CLASS
  1
ACME_DOCUMENT
  2
AcMeDbDoc
  3
AcMeServices
 90
        0
280
     0
281
     0
  0
CLASS
  1
AMGSETTINGSOBJ
  2
AmgSettingsObj
  3
"AcadM|Product Description: AutoCAD Mechanical 2000|Company: Autodesk"
 90
        0
280
     0
281
     0
  0
CLASS
  1
ACMESCOPE
  2
AcMeScope
  3
AcMeServices
 90
        0
280
     0
281
     0
  0
CLASS
  1
ACMECOMMANDHISTORY
  2
AcMeCommandHistory
  3
AcMeServices
 90
        0
280
     0
281
     0
  0
CLASS
  1
ACIMSYSVARMAN
  2
AcImSysVarManager
  3
AcMeServices
 90
        0
280
     0
281
     0
  0
CLASS
  1
ACIMREALSYSVAR
  2
AcImRealSysVar
  3
AcMeServices
 90
        0
280
     0
281
     0
  0
CLASS
  1
ACIMINTSYSVAR
  2
AcImIntSysVar
  3
AcMeServices
 90
        0
280
     0
281
     0
  0
CLASS
  1
ACMEDRAWINGMAN
  2
AcMeDrawingMan
  3
AcMeServices
 90
        0
280
     0
281
     0
  0
CLASS
  1
ACMEVIEW
  2
AcMeView
  3
AcMeServices
 90
        0
280
     0
281
     0
  0
CLASS
  1
ACDBENTITYCACHE
  2
AcMeEntityCache
  3
AcMeServices
 90
        0
280
     0
281
     0
  0
CLASS
  1
GSMANAGER
  2
AcMeGSManager
  3
AcMeServices
 90
        0
280
     0
281
     0
  0
CLASS
  1
AMDTINTERNALREACTOR
  2
AmdtInternalReactor
  3
AcMeServices
 90
        0
280
     0
281
     0
  0
CLASS
  1
ACMESTATEMGR
  2
AcMeStateMgr
  3
AcMeServices
 90
        0
280
     0
281
     0
  0
CLASS
  1
ACGREFMASTER
  2
AcGrefMaster
  3
AcAttribServices
 90
        0
280
     0
281
     0
  0
CLASS
  1
ACME_DATABASE
  2
AcMeDbDatabase
  3
AcMeServices
 90
        0
280
     0
281
     0
  0
CLASS
  1
ACRFINSADJUSTERMGR
  2
AcRfInsAdjusterMgr
  3
AcMeServices
 90
        0
280
     0
281
     0
  0
CLASS
  1
ACGREFACADMASTER
  2
AcGrefacadMaster
  3
AcGrefServices
 90
        0
280
     0
281
     0
  0
CLASS
  1
AMIMASTER
  2
AmiMaster
  3
AmiServices
 90
        0
280
     0
281
     0
  0
CLASS
  1
ACMDATADICTIONARY
  2
AcmDataDictionary
  3
"AcmSymBB|Product Description: AutoCAD Mechanical 2004 DX|Company: Autodesk"
 90
        0
280
     0
281
     0
  0
CLASS
  1
ACMDATAENTRYBLOCK
  2
AcmDataEntryBlock
  3
"AcmSymBB|Product Description: AutoCAD Mechanical 2004 DX|Company: Autodesk"
 90
        0
280
     0
281
     0
  0
CLASS
  1
ACIMSTRSYSVAR
  2
AcImStrSysVar
  3
AcMeServices
 90
        0
280
     0
281
     0
  0
CLASS
  1
ACMSTANDARDISO
  2
AcmStandardISO
  3
"Amdt_StdImp|Product Description: AutoCAD Mechanical 2004 DX|Company: Autodesk"
 90
        0
280
     0
281
     0
  0
CLASS
  1
AMGOBJPROPCFG
  2
AmgObjPropCfg
  3
"AmgLay|Product Description: AutoCAD Mechanical 2000|Company: Autodesk"
 90
        1
280
     0
281
     0
  0
CLASS
  1
AMDTEDGESTANDARDISO
  2
AmdtEdgeStdISO
  3
"Amdt_StdImp|Product Description: AutoCAD Mechanical 2004 DX|Company: Autodesk"
 90
        0
280
     0
281
     0
  0
CLASS
  1
ACMSURFSTANDARDISO
  2
AcmSurfTextStdISO
  3
"Amdt_StdImp|Product Description: AutoCAD Mechanical 2004 DX|Company: Autodesk"
 90
        0
280
     0
281
     0
  0
CLASS
  1
ACMFCFSTANDARDISO
  2
AcmFCFStdISO
  3
"Amdt_StdImp|Product Description: AutoCAD Mechanical 2004 DX|Company: Autodesk"
 90
        0
280
     0
281
     0
  0
CLASS
  1
ACMWELDSTANDARDISO
  2
AcmWeldingStdISO
  3
"Amdt_StdImp|Product Description: AutoCAD Mechanical 2004 DX|Company: Autodesk"
 90
        0
280
     0
281
     0
  0
CLASS
  1
ACMIDSTANDARDISO
  2
AcmIdStdISO
  3
"Amdt_StdImp|Product Description: AutoCAD Mechanical 2004 DX|Company: Autodesk"
 90
        0
280
     0
281
     0
  0
CLASS
  1
ACMDATUMSTANDARDISO
  2
AcmDatumStdISO
  3
"Amdt_StdImp|Product Description: AutoCAD Mechanical 2004 DX|Company: Autodesk"
 90
        0
280
     0
281
     0
  0
CLASS
  1
ACMBOMSTANDARDISO
  2
AcmBOMStdISO
  3
"Amdt_StdImp|Product Description: AutoCAD Mechanical 2004 DX|Company: Autodesk"
 90
        0
280
     0
281
     0
  0
CLASS
  1
ACMDETAILSTANDARDISO
  2
AmdtDetailSymStdISO
  3
"Amdt_StdImp|Product Description: AutoCAD Mechanical 2004 DX|Company: Autodesk"
 90
        0
280
     0
281
     0
  0
CLASS
  1
ACMSECTIONSTANDARDISO
  2
AmdtSectionSymStdISO
  3
"Amdt_StdImp|Product Description: AutoCAD Mechanical 2004 DX|Company: Autodesk"
 90
        0
280
     0
281
     0
  0
CLASS
  1
ACMCENTERLINESTANDARDISO
  2
AmdtCenterLineStdISO
  3
"Amdt_StdImp|Product Description: AutoCAD Mechanical 2004 DX|Company: Autodesk"
 90
        0
280
     0
281
     0
  0
CLASS
  1
ACMNOTESTANDARDISO
  2
AmdtNoteStdISO
  3
"Amdt_StdImp|Product Description: AutoCAD Mechanical 2004 DX|Company: Autodesk"
 90
        0
280
     0
281
     0
  0
CLASS
  1
ACAMGLAYSTD
  2
AcAmgLayStd
  3
"AcAmgLayStd|Product Description: AutoCAD Mechanical 2000|Company: Autodesk"
 90
        0
280
     0
281
     0
  0
CLASS
  1
ACAMGDIMSTD
  2
AcAmgDimStd
  3
"AcAmgDimStd|Product Description: AutoCAD Mechanical 2000|Company: Autodesk"
 90
        0
280
     0
281
     0
  0
CLASS
  1
ACAMGHOLECHARTSTDISO
  2
AcAmgHoleChartStdISO
  3
ACMSYMBB_MODULE_NAME
 90
        0
280
     0
281
     0
  0
CLASS
  1
ACAMGTITLESTD
  2
AcAmgTitleStd
  3
"TITLEAPP"
 90
        0
280
     0
281
     0
  0
CLASS
  1
LAYER_INDEX
  2
AcDbLayerIndex
  3
ObjectDBX Classes
 90
    32768
280
     0
281
     0
  0
CLASS
  1
IDBUFFER
  2
AcDbIdBuffer
  3
ObjectDBX Classes
 90
    32768
280
     0
281
     0
  0
CLASS
  1
DICTIONARYVAR
  2
AcDbDictionaryVar
  3
ObjectDBX Classes
 90
        0
280
     0
281
     0
  0
CLASS
  1
AM_DRAWING_MGR
  2
AcDmDwgMgr
  3
AcMechDwgViewMgmt
 90
        0
280
     0
281
     0
  0
CLASS
  1
AM_DWG_DOCUMENT
  2
AcDmDwgDocument
  3
AcMechDwgViewMgmt
 90
        0
280
     0
281
     0
  0
CLASS
  1
AM_DWG_SHEET
  2
AcDmSheet
  3
AcMechDwgViewMgmt
 90
        0
280
     0
281
     0
  0
CLASS
  1
AM_VIEWDIMPARMAP
  2
AcDmViewDimParMap
  3
AcMechDwgViewMgmt
 90
        0
280
     0
281
     0
  0
CLASS
  1
AM_DWGMGR_NAME
  2
AcDmDwgMgrName
  3
AcMechDwgViewMgmt
 90
        0
280
     0
281
     0
  0
CLASS
  1
AMDTMENUSTATEMGR
  2
AmdtMenuStateMgr
  3
McadcomServices
 90
        0
280
     0
281
     0
  0
CLASS
  1
AMDTMCOMMENUSTATE
  2
AmdtMcomMenuState
  3
McadcomServices
 90
        0
280
     0
281
     0
  0
CLASS
  1
MAPIAMMOUDLE
  2
MApiAmModule
  3
MApiAmServices
 90
        0
280
     0
281
     0
  0
CLASS
  1
AMDTADMENUSTATE
  2
AmdtAdMenuState
  3
DesignerServices
 90
        0
280
     0
281
     0
  0
CLASS
  1
ADAPPL
  2
AcAdAppl
  3
DesignerServices
 90
        0
280
     0
281
     0
  0
CLASS
  1
DEPMGR
  2
AcAdDepMgr
  3
DesignerServices
 90
        0
280
     0
281
     0
  0
CLASS
  1
PARAMMGR
  2
AcAdParamMgr
  3
DesignerServices
 90
        0
280
     0
281
     0
  0
CLASS
  1
PARAMSCOPE
  2
AcAdParamScope
  3
DesignerServices
 90
        0
280
     0
281
     0
  0
CLASS
  1
NAMEDAPPL
  2
AcAdNamedAppl
  3
DesignerServices
 90
        0
280
     0
281
     0
  0
CLASS
  1
AMDTDMMENUSTATE
  2
AmdtDmMenuState
  3
AcMechDwgViewMgmt
 90
        0
280
     0
281
     0
  0
CLASS
  1
AMDTAMMENUSTATE
  2
AmdtAmMenuState
  3
DesignerAssemblies
 90
        0
280
     0
281
     0
  0
CLASS
  1
ACAMPROJECT
  2
AcAmProject
  3
DesignerAssemblies
 90
        0
280
     0
281
     0
  0
CLASS
  1
ACAMGRCOMPDEF
  2
AcAmGrCompDef
  3
DesignerAssemblies
 90
        0
280
     0
281
     0
  0
CLASS
  1
ACCMCONTEXT
  2
AcCmContext
  3
DesignerAssemblies
 90
        0
280
     0
281
     0
  0
CLASS
  1
ACAMCOMPDEF
  2
AcAmCompDef
  3
DesignerAssemblies
 90
        0
280
     0
281
     0
  0
CLASS
  1
ACAMCOMPDEFMGR
  2
AcAmCompDefMgr
  3
DesignerAssemblies
 90
        0
280
     0
281
     0
  0
CLASS
  1
AMCONTEXTMGR
  2
AcAmContextMgr
  3
DesignerAssemblies
 90
        0
280
     0
281
     0
  0
CLASS
  1
ACAMCONTEXTMODELER
  2
AcAmContextModeler
  3
DesignerAssemblies
 90
        0
280
     0
281
     0
  0
CLASS
  1
ACMTHREADLINESTANDARDISO
  2
AmdtThreadLineStdISO
  3
"Amdt_StdImp|Product Description: AutoCAD Mechanical 2004 DX|Company: Autodesk"
 90
        0
280
     0
281
     0
  0
CLASS
  1
CATALOGSTATE
  2
AcAmCatalogState
  3
DesignerAssemblies
 90
        0
280
     0
281
     0
  0
CLASS
  1
ACAMGRCOMPDEFSET
  2
AcAmGrCompDefSet
  3
DesignerAssemblies
 90
        0
280
     0
281
     0
  0
CLASS
  1
AMDTBROWSERDBTAB
  2
AmdtBrowserDbTab
  3
McadcomServices
 90
        0
280
     0
281
     0
  0
CLASS
  1
CBROWSERAPPOBJECT
  2
CBrowserAppObject
  3
McadcomServices
 90
        0
280
     0
281
     0
  0
CLASS
  1
DM_PLACEHOLDER
  2
AcDmSelsetPlaceholder
  3
AcMechDwgViewMgmt
 90
        0
280
     0
281
     0
  0
CLASS
  1
TABLESTYLE
  2
AcDbTableStyle
  3
ObjectDBX Classes
 90
     2047
280
     0
281
     0
  0
CLASS
  1
VAACXREFPANELOBJECT
  2
VaAcXREFPanelObject
  3
VAAC_ADDIN
 90
    32768
280
     0
281
     0
  0
CLASS
  1
VAACIMAGEINVENTORY
  2
VaAcImageInventory
  3
VAAC_ADDIN
 90
    32768
280
     0
281
     0
  0
CLASS
  1
AMDTNOTETEMPLATEDB
  2
AmdtNoteTemplateDB
  3
AMDT_STDIMP_MODULE_NAME
 90
        0
280
     0
281
     0
  0
CLASS
  1
ACMBOM
  2
AcmBom
  3
"AcmSymBB|Product Description: AutoCAD Mechanical 2004 DX|Company: Autodesk"
 90
    32768
280
     0
281
     0
  0
CLASS
  1
AMDTFORMULAUPDATEDISPATCHER
  2
AmdtFormulaUpdateDispatcher
  3
AcMeServices
 90
    32768
280
     0
281
     0
  0
CLASS
  1
ACMPARTLIST
  2
AcmPartList
  3
"AcmSymBB|Product Description: AutoCAD Mechanical 2004 DX|Company: Autodesk"
 90
    33791
280
     0
281
     1
  0
CLASS
  1
ACAMGFILTERDAT
  2
AcAmgFilterDat
  3
"AcadM|Product Description: AutoCAD Mechanical 2000|Company: Autodesk"
 90
        0
280
     0
281
     0
  0
CLASS
  1
SORTENTSTABLE
  2
AcDbSortentsTable
  3
ObjectDBX Classes
 90
        0
280
     0
281
     0
  0
CLASS
  1
ACMSTANDARDJIS
  2
AcmStandardJIS
  3
"Amdt_StdImp|Product Description: AutoCAD Mechanical 2004 DX|Company: Autodesk"
 90
        0
280
     0
281
     0
  0
CLASS
  1
ACMSURFSTANDARDJIS
  2
AcmSurfTextStdJIS
  3
"Amdt_StdImp|Product Description: AutoCAD Mechanical 2004 DX|Company: Autodesk"
 90
        0
280
     0
281
     0
  0
CLASS
  1
ACMFCFSTANDARDJIS
  2
AcmFCFStdJIS
  3
"Amdt_StdImp|Product Description: AutoCAD Mechanical 2004 DX|Company: Autodesk"
 90
        0
280
     0
281
     0
  0
CLASS
  1
ACMWELDSTANDARDJIS
  2
AcmWeldingStdJIS
  3
"Amdt_StdImp|Product Description: AutoCAD Mechanical 2004 DX|Company: Autodesk"
 90
        0
280
     0
281
     0
  0
CLASS
  1
ACMIDSTANDARDJIS
  2
AcmIdStdJIS
  3
"Amdt_StdImp|Product Description: AutoCAD Mechanical 2004 DX|Company: Autodesk"
 90
        0
280
     0
281
     0
  0
CLASS
  1
ACMDATUMSTANDARDJIS
  2
AcmDatumStdJIS
  3
"Amdt_StdImp|Product Description: AutoCAD Mechanical 2004 DX|Company: Autodesk"
 90
        0
280
     0
281
     0
  0
CLASS
  1
ACMBOMSTANDARDJIS
  2
AcmBOMStdJIS
  3
"Amdt_StdImp|Product Description: AutoCAD Mechanical 2004 DX|Company: Autodesk"
 90
        0
280
     0
281
     0
  0
CLASS
  1
ACMDETAILSTANDARDJIS
  2
AmdtDetailSymStdJIS
  3
"Amdt_StdImp|Product Description: AutoCAD Mechanical 2004 DX|Company: Autodesk"
 90
        0
280
     0
281
     0
  0
CLASS
  1
ACMSECTIONSTANDARDJIS
  2
AmdtSectionSymStdJIS
  3
"Amdt_StdImp|Product Description: AutoCAD Mechanical 2004 DX|Company: Autodesk"
 90
        0
280
     0
281
     0
  0
CLASS
  1
ACMCENTERLINESTANDARDJIS
  2
AmdtCenterLineStdJIS
  3
"Amdt_StdImp|Product Description: AutoCAD Mechanical 2004 DX|Company: Autodesk"
 90
        0
280
     0
281
     0
  0
CLASS
  1
ACMTHREADLINESTANDARDJIS
  2
AmdtThreadLineStdJIS
  3
"Amdt_StdImp|Product Description: AutoCAD Mechanical 2004 DX|Company: Autodesk"
 90
        0
280
     0
281
     0
  0
CLASS
  1
ACMNOTESTANDARDJIS
  2
AmdtNoteStdJIS
  3
"Amdt_StdImp|Product Description: AutoCAD Mechanical 2004 DX|Company: Autodesk"
 90
        0
280
     0
281
     0
  0
CLASS
  1
ACAMGHOLECHARTSTDJIS
  2
AcAmgHoleChartStdJIS
  3
ACMSYMBB_MODULE_NAME
 90
        0
280
     0
281
     0
  0
CLASS
  1
ACRFATTGENMGR
  2
AcRfAttGeneralMgr
  3
AcAttribServices
 90
        0
280
     0
281
     0
  0
ENDSEC
  0
SECTION
  2
TABLES
  0
TABLE
  2
VPORT
  5
8
330
0
100
AcDbSymbolTable
 70
     3
  0
VPORT
  5
9A6
330
8
100
AcDbSymbolTableRecord
100
AcDbViewportTableRecord
  2
*Active
 70
     0
 10
0.0
 20
0.0
 11
1.0
 21
1.0
 12
197.5350961782215
 22
86.32287659568584
 13
0.0
 23
0.0
 14
2.5
 24
2.5
 15
10.0
 25
10.0
 16
0.0
 26
0.0
 36
1.0
 17
0.0
 27
0.0
 37
0.0
 40
406.3350434572229
 41
1.954070981210855
 42
50.0
 43
0.0
 44
0.0
 50
0.0
 51
0.0
 71
     0
 72
   100
 73
     1
 74
     3
 75
     0
 76
     0
 77
     0
 78
     0
281
     0
 65
     1
110
0.0
120
0.0
130
0.0
111
1.0
121
0.0
131
0.0
112
0.0
122
1.0
132
0.0
 79
     0
146
0.0
  0
ENDTAB
  0
TABLE
  2
LTYPE
  5
5
330
0
100
AcDbSymbolTable
 70
    16
  0
LTYPE
  5
14
330
5
100
AcDbSymbolTableRecord
100
AcDbLinetypeTableRecord
  2
ByBlock
 70
     0
  3

 72
    65
 73
     0
 40
0.0
  0
LTYPE
  5
15
330
5
100
AcDbSymbolTableRecord
100
AcDbLinetypeTableRecord
  2
ByLayer
 70
     0
  3

 72
    65
 73
     0
 40
0.0
  0
LTYPE
  5
16
330
5
100
AcDbSymbolTableRecord
100
AcDbLinetypeTableRecord
  2
Continuous
 70
     0
  3
Solid line
 72
    65
 73
     0
 40
0.0
  0
LTYPE
  5
64
330
5
100
AcDbSymbolTableRecord
100
AcDbLinetypeTableRecord
  2
AM_ISO02W050
 70
     0
  3
__ __ __ __ __ __ __ __ __ __ __ __ __ __ __
 72
    65
 73
     2
 40
7.5
 49
6.0
 74
     0
 49
-1.5
 74
     0
  0
LTYPE
  5
65
330
5
100
AcDbSymbolTableRecord
100
AcDbLinetypeTableRecord
  2
AM_ISO08W050
 70
     0
  3
____ . ____ . ____ . ____ . ____ . ____ . ____
 72
    65
 73
     4
 40
18.0
 49
12.0
 74
     0
 49
-1.5
 74
     0
 49
3.0
 74
     0
 49
-1.5
 74
     0
  0
LTYPE
  5
66
330
5
100
AcDbSymbolTableRecord
100
AcDbLinetypeTableRecord
  2
AM_ISO09W050
 70
     0
  3
_____ . . _____ . . _____ . . ____ .. ____
 72
    65
 73
     6
 40
22.5
 49
12.0
 74
     0
 49
-1.5
 74
     0
 49
3.0
 74
     0
 49
-1.5
 74
     0
 49
3.0
 74
     0
 49
-1.5
 74
     0
  0
LTYPE
  5
67
330
5
100
AcDbSymbolTableRecord
100
AcDbLinetypeTableRecord
  2
Amconstr
 70
     0
  3
_______________________
 72
    65
 73
     2
 40
9999.0
 49
9999.0
 74
     0
 49
0.0
 74
     0
  0
LTYPE
  5
68
330
5
100
AcDbSymbolTableRecord
100
AcDbLinetypeTableRecord
  2
AM_ISO08W050x2
 70
     0
  3
__ . __ . __ . __ . __ . __
 72
    65
 73
     4
 40
9.0
 49
6.0
 74
     0
 49
-0.75
 74
     0
 49
1.5
 74
     0
 49
-0.75
 74
     0
  0
LTYPE
  5
69
330
5
100
AcDbSymbolTableRecord
100
AcDbLinetypeTableRecord
  2
AM_ISO02W050x2
 70
     0
  3
 _ _ _ _ _ _ _ _ _ _ _ _
 72
    65
 73
     2
 40
3.75
 49
3.0
 74
     0
 49
-0.75
 74
     0
  0
LTYPE
  5
6C
330
5
100
AcDbSymbolTableRecord
100
AcDbLinetypeTableRecord
  2
Amzigzag
 70
     0
  3
/\/-/\/-/\/-/\/-/\/-/\/
 72
    65
 73
     2
 40
11.0001
 49
0.0001
 74
     4
 75
   135
340
6B
 46
0.04
 50
0.0
 44
0.0
 45
0.0
 49
-11.0
 74
     0
  0
LTYPE
  5
7A
330
5
100
AcDbSymbolTableRecord
100
AcDbLinetypeTableRecord
  2
ACISOWELD
 70
     0
  3
_ _ _ _ _
 72
    65
 73
     2
 40
2.0
 49
2.0
 74
     0
 49
-1.0
 74
     0
  0
LTYPE
  5
7B
330
5
100
AcDbSymbolTableRecord
100
AcDbLinetypeTableRecord
  2
ACISOTGB
 70
     0
  3
__ . . __ . .
 72
    65
 73
     6
 40
9.0
 49
4.0
 74
     0
 49
-1.0
 74
     0
 49
1.0
 74
     0
 49
-1.0
 74
     0
 49
1.0
 74
     0
 49
-1.0
 74
     0
  0
LTYPE
  5
7C
330
5
100
AcDbSymbolTableRecord
100
AcDbLinetypeTableRecord
  2
ACISOTGL
 70
     0
  3
_ _ _ _ _
 72
    65
 73
     2
 40
3.0
 49
2.0
 74
     0
 49
-1.0
 74
     0
  0
LTYPE
  5
7E
330
5
100
AcDbSymbolTableRecord
100
AcDbLinetypeTableRecord
  2
CENTER
 70
     0
  3
__ . __
 72
    65
 73
     4
 40
7.0
 49
4.0
 74
     0
 49
-1.0
 74
     0
 49
1.0
 74
     0
 49
-1.0
 74
     0
  0
LTYPE
  5
D8
330
5
100
AcDbSymbolTableRecord
100
AcDbLinetypeTableRecord
  2
HIDDEN
 70
     0
  3
Hidden __ __ __ __ __ __ __ __ __ __ __ __ __ _
 72
    65
 73
     2
 40
9.524999999999998
 49
6.349999999999999
 74
     0
 49
-3.174999999999999
 74
     0
  0
LTYPE
  5
D9
330
5
100
AcDbSymbolTableRecord
100
AcDbLinetypeTableRecord
  2
PHANTOM2
 70
     0
  3
Phantom (.5x) ___ _ _ ___ _ _ ___ _ _ ___ _ _
 72
    65
 73
     6
 40
31.75
 49
15.875
 74
     0
 49
-3.174999999999999
 74
     0
 49
3.174999999999999
 74
     0
 49
-3.174999999999999
 74
     0
 49
3.174999999999999
 74
     0
 49
-3.174999999999999
 74
     0
  0
LTYPE
  5
207
330
5
100
AcDbSymbolTableRecord
100
AcDbLinetypeTableRecord
  2
ACJISTGB
 70
     0
  3
__ . . __ . .
 72
    65
 73
     6
 40
9.0
 49
4.0
 74
     0
 49
-1.0
 74
     0
 49
1.0
 74
     0
 49
-1.0
 74
     0
 49
1.0
 74
     0
 49
-1.0
 74
     0
  0
LTYPE
  5
208
330
5
100
AcDbSymbolTableRecord
100
AcDbLinetypeTableRecord
  2
ACJISTGL
 70
     0
  3
_ _ _ _ _
 72
    65
 73
     2
 40
3.0
 49
2.0
 74
     0
 49
-1.0
 74
     0
  0
ENDTAB
  0
TABLE
  2
LAYER
  5
2
102
{ACAD_XDICTIONARY
360
218
102
}
330
0
100
AcDbSymbolTable
 70
     3
  0
LAYER
  5
10
330
2
100
AcDbSymbolTableRecord
100
AcDbLayerTableRecord
  2
0
 70
     0
 62
     7
  6
Continuous
370
    -3
390
F
  0
LAYER
  5
1B0
330
2
100
AcDbSymbolTableRecord
100
AcDbLayerTableRecord
  2
AM_5
 70
     0
 62
     3
  6
Continuous
370
    25
390
F
  0
LAYER
  5
1FD
330
2
100
AcDbSymbolTableRecord
100
AcDbLayerTableRecord
  2
AM_0
 70
     0
 62
     7
  6
Continuous
370
    50
390
F
  0
ENDTAB
  0
TABLE
  2
STYLE
  5
3
330
0
100
AcDbSymbolTable
 70
     9
  0
STYLE
  5
11
330
3
100
AcDbSymbolTableRecord
100
AcDbTextStyleTableRecord
  2
STANDARD
 70
     0
 40
0.0
 41
1.0
 50
0.0
 71
     0
 42
2.5
  3
ISOCP.SHX
  4
extfont.shx
  0
STYLE
  5
6B
330
3
100
AcDbSymbolTableRecord
100
AcDbTextStyleTableRecord
  2

 70
     1
 40
0.0
 41
1.0
 50
0.0
 71
     0
 42
2.5
  3
ltypeshp.shx
  4

  0
STYLE
  5
6D
330
3
100
AcDbSymbolTableRecord
100
AcDbTextStyleTableRecord
  2
ACISOTS
 70
     0
 40
1.0
 41
1.0
 50
0.0
 71
     0
 42
1.0
  3
isocp.shx
  4
extfont.shx
  0
STYLE
  5
79
330
3
100
AcDbSymbolTableRecord
100
AcDbTextStyleTableRecord
  2
ACISOGDT
 70
     0
 40
0.0
 41
1.0
 50
0.0
 71
     0
 42
2.5
  3
amgdt.shx
  4
extfont.shx
  0
STYLE
  5
1F8
330
3
100
AcDbSymbolTableRecord
100
AcDbTextStyleTableRecord
  2
USER1
 70
     0
 40
0.0
 41
1.0
 50
0.0
 71
     0
 42
1.0
  3
TXT.SHX
  4

  0
STYLE
  5
1F9
330
3
100
AcDbSymbolTableRecord
100
AcDbTextStyleTableRecord
  2
USER2
 70
     0
 40
0.0
 41
1.0
 50
0.0
 71
     0
 42
1.0
  3
SIMPLEX.SHX
  4

  0
STYLE
  5
1FA
330
3
100
AcDbSymbolTableRecord
100
AcDbTextStyleTableRecord
  2
USER3
 70
     0
 40
0.0
 41
1.0
 50
0.0
 71
     0
 42
1.0
  3
ITALIC.SHX
  4

  0
STYLE
  5
1FB
330
3
100
AcDbSymbolTableRecord
100
AcDbTextStyleTableRecord
  2
ACJISTS
 70
     0
 40
1.0
 41
1.0
 50
0.0
 71
     0
 42
2.5
  3
isocp.shx
  4
extfont.shx
  0
STYLE
  5
1FC
330
3
100
AcDbSymbolTableRecord
100
AcDbTextStyleTableRecord
  2
ACJISGDT
 70
     0
 40
0.0
 41
1.0
 50
0.0
 71
     0
 42
2.5
  3
amgdt.shx
  4
extfont.shx
  0
ENDTAB
  0
TABLE
  2
VIEW
  5
6
330
0
100
AcDbSymbolTable
 70
     0
  0
ENDTAB
  0
TABLE
  2
UCS
  5
7
330
0
100
AcDbSymbolTable
 70
     0
  0
ENDTAB
  0
TABLE
  2
APPID
  5
9
330
0
100
AcDbSymbolTable
 70
    17
  0
APPID
  5
12
330
9
100
AcDbSymbolTableRecord
100
AcDbRegAppTableRecord
  2
ACAD
 70
     0
  0
APPID
  5
46
330
9
100
AcDbSymbolTableRecord
100
AcDbRegAppTableRecord
  2
MCAD_NO_VIS
 70
     0
  0
APPID
  5
47
330
9
100
AcDbSymbolTableRecord
100
AcDbRegAppTableRecord
  2
ACAD_TEMP_GRAPHIC
 70
     0
  0
APPID
  5
58
330
9
100
AcDbSymbolTableRecord
100
AcDbRegAppTableRecord
  2
ACATTRIBSERVICES
 70
     0
  0
APPID
  5
EE
330
9
100
AcDbSymbolTableRecord
100
AcDbRegAppTableRecord
  2
AD_DRAW
 70
     0
  0
APPID
  5
10C
330
9
100
AcDbSymbolTableRecord
100
AcDbRegAppTableRecord
  2
DESIGNERASSEMBLIES
 70
     0
  0
APPID
  5
111
330
9
100
AcDbSymbolTableRecord
100
AcDbRegAppTableRecord
  2
ACADM_DIM_EDIT
 70
     0
  0
APPID
  5
112
330
9
100
AcDbSymbolTableRecord
100
AcDbRegAppTableRecord
  2
AMDT_DM_ADJ
 70
     0
  0
APPID
  5
20F
330
9
100
AcDbSymbolTableRecord
100
AcDbRegAppTableRecord
  2
GENIUS_GENREC_14
 70
     0
  0
APPID
  5
210
330
9
100
AcDbSymbolTableRecord
100
AcDbRegAppTableRecord
  2
GENIUS_GENODEF_13
 70
     0
  0
APPID
  5
211
330
9
100
AcDbSymbolTableRecord
100
AcDbRegAppTableRecord
  2
GENIUS_GENOBJ-N-REC_13
 70
     0
  0
APPID
  5
212
330
9
100
AcDbSymbolTableRecord
100
AcDbRegAppTableRecord
  2
GENIUS_GENOBJ-N-FIL_13
 70
     0
  0
APPID
  5
213
330
9
100
AcDbSymbolTableRecord
100
AcDbRegAppTableRecord
  2
GENIUS_GENOREF_13
 70
     0
  0
APPID
  5
214
330
9
100
AcDbSymbolTableRecord
100
AcDbRegAppTableRecord
  2
GENIUS_GENOBJ-N-CEN_13
 70
     0
  0
APPID
  5
215
330
9
100
AcDbSymbolTableRecord
100
AcDbRegAppTableRecord
  2
GENIUS_GENCEN_19
 70
     0
  0
APPID
  5
216
330
9
100
AcDbSymbolTableRecord
100
AcDbRegAppTableRecord
  2
GENIUS_GENFIL_13
 70
     0
  0
APPID
  5
217
330
9
100
AcDbSymbolTableRecord
100
AcDbRegAppTableRecord
  2
GENIUS_GENOBJ-N-CHA_13
 70
     0
  0
ENDTAB
  0
TABLE
  2
DIMSTYLE
  5
A
330
0
100
AcDbSymbolTable
 70
    15
100
AcDbDimStyleTable
 71
     2
340
81
340
1FE
  0
DIMSTYLE
105
27
330
A
100
AcDbSymbolTableRecord
100
AcDbDimStyleTableRecord
  2
ISO-25
 70
     0
 41
2.5
 42
0.625
 43
3.75
 44
1.25
 73
     0
 74
     0
 77
     1
 78
     8
140
2.5
141
2.5
143
0.03937007874016
147
0.625
171
     3
172
     1
271
     2
272
     2
274
     3
278
    44
283
     0
284
     8
340
11
  0
DIMSTYLE
105
81
330
A
100
AcDbSymbolTableRecord
100
AcDbDimStyleTableRecord
  2
AM_ISO
 70
     0
  4
"
 41
2.5
 42
1.0
 43
10.0
 44
1.0
 47
0.1
 48
0.1
 73
     0
 74
     0
 77
     1
 78
     8
 79
     2
140
3.5
141
0.0
143
0.0393701
146
0.71
147
1.5
172
     1
176
   256
177
   256
178
     2
271
     2
272
     3
274
     4
283
     0
284
     8
340
11
371
    -1
372
    -1
  0
DIMSTYLE
105
82
330
A
100
AcDbSymbolTableRecord
100
AcDbDimStyleTableRecord
  2
AM_ISO$3
 70
     0
  4
"
 41
2.5
 42
1.0
 43
10.0
 44
1.0
 47
0.1
 48
0.1
 73
     0
 77
     1
 78
     8
 79
     2
140
3.5
141
0.0
143
0.0393701
146
0.71
147
1.5
176
   256
177
   256
178
     2
271
     2
272
     3
274
     4
283
     0
284
     8
288
     1
289
     0
340
11
371
    -1
372
    -1
  0
DIMSTYLE
105
83
330
A
100
AcDbSymbolTableRecord
100
AcDbDimStyleTableRecord
  2
AM_ISO$4
 70
     0
  4
"
 41
2.5
 42
1.0
 43
10.0
 44
1.0
 47
0.1
 48
0.1
 73
     0
 77
     1
 78
     8
 79
     2
140
3.5
141
0.0
143
0.0393701
146
0.71
147
1.5
176
   256
177
   256
178
     2
271
     2
272
     3
274
     4
283
     0
284
     8
288
     1
289
     0
340
11
371
    -1
372
    -1
  0
DIMSTYLE
105
84
330
A
100
AcDbSymbolTableRecord
100
AcDbDimStyleTableRecord
  2
AM_ISO$6
 70
     0
  4
"
 41
2.5
 42
1.0
 43
10.0
 44
1.0
 47
0.1
 48
0.1
 73
     0
 74
     0
 78
     8
 79
     2
140
3.5
141
0.0
143
0.0393701
146
0.71
147
1.5
172
     1
176
   256
177
   256
178
     2
271
     2
272
     3
274
     4
283
     0
284
     8
340
11
371
    -1
372
    -1
  0
DIMSTYLE
105
85
330
A
100
AcDbSymbolTableRecord
100
AcDbDimStyleTableRecord
  2
AM_ISO$7
 70
     0
  4
"
 41
2.5
 42
1.0
 43
10.0
 44
1.0
 47
0.1
 48
0.1
 73
     0
 74
     0
 77
     1
 78
     8
 79
     2
140
5.0
141
0.0
143
0.0393701
146
0.71
147
1.5
172
     1
176
   256
177
   256
178
     2
271
     2
272
     3
274
     4
283
     0
284
     8
340
11
371
    -1
372
    -1
  0
DIMSTYLE
105
86
330
A
100
AcDbSymbolTableRecord
100
AcDbDimStyleTableRecord
  2
AM_ISO$SF
 70
     0
  4
"
 41
2.5
 42
1.0
 43
10.0
 44
1.0
 47
0.1
 48
0.1
 73
     0
 74
     0
 75
     1
 76
     1
 77
     1
 78
     8
 79
     2
140
3.5
141
0.0
143
0.0393701
146
0.71
147
1.5
172
     1
176
   256
177
   256
178
     2
271
     2
272
     3
274
     4
283
     0
284
     8
340
11
371
    -1
372
    -1
  0
DIMSTYLE
105
8B
330
A
100
AcDbSymbolTableRecord
100
AcDbDimStyleTableRecord
  2
AM_ISO$SH
 70
     0
  4
"
 41
2.5
 42
1.0
 43
10.0
 44
1.0
 47
0.1
 48
0.1
 73
     0
 74
     0
 75
     1
 76
     1
 77
     1
 78
     8
 79
     2
140
3.5
141
0.0
143
0.0393701
144
2.0
146
0.71
147
1.5
172
     1
173
     1
176
   256
177
   256
178
     2
271
     2
272
     3
274
     4
283
     0
284
     8
340
11
343
87
371
    -1
372
    -1
  0
DIMSTYLE
105
1FE
330
A
100
AcDbSymbolTableRecord
100
AcDbDimStyleTableRecord
  2
AM_JIS
 70
     0
  4
"
 41
2.5
 42
1.0
 43
10.0
 44
1.0
 47
0.1
 48
0.1
 73
     0
 74
     0
 77
     3
 78
     8
 79
     2
140
3.5
141
0.0
143
0.0393701
146
0.71
147
1.5
172
     1
176
   256
177
   256
178
     2
271
     2
272
     3
274
     4
283
     0
284
     8
340
11
341
1FF
342
1FF
343
1FF
344
1FF
371
    -1
372
    -1
  0
DIMSTYLE
105
209
330
A
100
AcDbSymbolTableRecord
100
AcDbDimStyleTableRecord
  2
AM_JIS$3
 70
     0
  4
"
 41
2.5
 42
1.0
 43
10.0
 44
1.0
 47
0.1
 48
0.1
 73
     0
 77
     3
 78
     8
 79
     2
140
3.5
141
0.0
143
0.0393701
146
0.71
147
1.5
176
   256
177
   256
178
     2
271
     2
272
     3
274
     4
283
     0
284
     8
288
     1
289
     0
340
11
341
1FF
342
1FF
343
1FF
344
1FF
371
    -1
372
    -1
  0
DIMSTYLE
105
20A
330
A
100
AcDbSymbolTableRecord
100
AcDbDimStyleTableRecord
  2
AM_JIS$4
 70
     0
  4
"
 41
2.5
 42
1.0
 43
10.0
 44
1.0
 47
0.1
 48
0.1
 73
     0
 77
     3
 78
     8
 79
     2
140
3.5
141
0.0
143
0.0393701
146
0.71
147
1.5
176
   256
177
   256
178
     2
271
     2
272
     3
274
     4
283
     0
284
     8
288
     1
289
     0
340
11
341
1FF
342
1FF
343
1FF
344
1FF
371
    -1
372
    -1
  0
DIMSTYLE
105
20B
330
A
100
AcDbSymbolTableRecord
100
AcDbDimStyleTableRecord
  2
AM_JIS$6
 70
     0
  4
"
 41
2.5
 42
1.0
 43
10.0
 44
1.0
 47
0.1
 48
0.1
 73
     0
 74
     0
 78
     8
 79
     2
140
3.5
141
0.0
143
0.0393701
146
0.71
147
1.5
172
     1
176
   256
177
   256
178
     2
271
     2
272
     3
274
     4
283
     0
284
     8
340
11
341
1FF
342
1FF
343
1FF
344
1FF
371
    -1
372
    -1
  0
DIMSTYLE
105
20C
330
A
100
AcDbSymbolTableRecord
100
AcDbDimStyleTableRecord
  2
AM_JIS$7
 70
     0
  4
"
 41
2.5
 42
1.0
 43
10.0
 44
1.0
 47
0.1
 48
0.1
 73
     0
 74
     0
 77
     3
 78
     8
 79
     2
140
3.5
141
0.0
143
0.0393701
146
0.71
147
1.5
172
     1
176
   256
177
   256
178
     2
271
     2
272
     3
274
     4
283
     0
284
     8
340
11
341
1FF
342
1FF
343
1FF
344
1FF
371
    -1
372
    -1
  0
DIMSTYLE
105
20D
330
A
100
AcDbSymbolTableRecord
100
AcDbDimStyleTableRecord
  2
AM_JIS$SF
 70
     0
  4
"
 41
2.5
 42
1.0
 43
10.0
 44
1.0
 47
0.1
 48
0.1
 73
     0
 74
     0
 75
     1
 76
     1
 77
     3
 78
     8
 79
     2
140
3.5
141
0.0
143
0.0393701
146
0.71
147
1.5
172
     1
176
   256
177
   256
178
     2
271
     2
272
     3
274
     4
283
     0
284
     8
340
11
341
1FF
342
1FF
343
1FF
344
1FF
371
    -1
372
    -1
  0
DIMSTYLE
105
20E
330
A
100
AcDbSymbolTableRecord
100
AcDbDimStyleTableRecord
  2
AM_JIS$SH
 70
     0
  4
"
 41
2.5
 42
1.0
 43
10.0
 44
1.0
 47
0.1
 48
0.1
 73
     0
 74
     0
 75
     1
 76
     1
 77
     3
 78
     8
 79
     2
140
3.5
141
0.0
143
0.0393701
144
2.0
146
0.71
147
1.5
172
     1
173
     1
176
   256
177
   256
178
     2
271
     2
272
     3
274
     4
283
     0
284
     8
340
11
341
1FF
342
1FF
343
87
344
1FF
371
    -1
372
    -1
  0
ENDTAB
  0
TABLE
  2
BLOCK_RECORD
  5
1
330
0
100
AcDbSymbolTable
 70
     5
  0
BLOCK_RECORD
  5
1F
102
{ACAD_XDICTIONARY
360
8F
102
}
330
1
100
AcDbSymbolTableRecord
100
AcDbBlockTableRecord
  2
*Model_Space
340
22
  0
BLOCK_RECORD
  5
1B
330
1
100
AcDbSymbolTableRecord
100
AcDbBlockTableRecord
  2
*Paper_Space
340
1E
  0
BLOCK_RECORD
  5
23
330
1
100
AcDbSymbolTableRecord
100
AcDbBlockTableRecord
  2
*Paper_Space0
340
26
  0
BLOCK_RECORD
  5
87
330
1
100
AcDbSymbolTableRecord
100
AcDbBlockTableRecord
  2
GENAXEH
340
0
  0
BLOCK_RECORD
  5
1FF
330
1
100
AcDbSymbolTableRecord
100
AcDbBlockTableRecord
  2
_Open30
340
0
  0
ENDTAB
  0
ENDSEC
  0
SECTION
  2
BLOCKS
  0
BLOCK
  5
20
330
1F
100
AcDbEntity
  8
0
100
AcDbBlockBegin
  2
*Model_Space
 70
     0
 10
0.0
 20
0.0
 30
0.0
  3
*Model_Space
  1

  0
ENDBLK
  5
21
330
1F
100
AcDbEntity
  8
0
100
AcDbBlockEnd
  0
BLOCK
  5
1C
330
1B
100
AcDbEntity
 67
     1
  8
0
100
AcDbBlockBegin
  2
*Paper_Space
 70
     0
 10
0.0
 20
0.0
 30
0.0
  3
*Paper_Space
  1

  0
ENDBLK
  5
1D
330
1B
100
AcDbEntity
 67
     1
  8
0
100
AcDbBlockEnd
  0
BLOCK
  5
24
330
23
100
AcDbEntity
  8
0
100
AcDbBlockBegin
  2
*Paper_Space0
 70
     0
 10
0.0
 20
0.0
 30
0.0
  3
*Paper_Space0
  1

  0
ENDBLK
  5
25
330
23
100
AcDbEntity
  8
0
100
AcDbBlockEnd
  0
BLOCK
  5
89
330
87
100
AcDbEntity
  8
0
100
AcDbBlockBegin
  2
GENAXEH
 70
     0
 10
0.0
 20
0.0
 30
0.0
  3
GENAXEH
  1

  0
LINE
  5
88
330
87
100
AcDbEntity
  8
0
100
AcDbLine
 10
-1.0
 20
0.0
 30
0.0
 11
1.0
 21
0.0
 31
0.0
  0
ENDBLK
  5
8A
330
87
100
AcDbEntity
  8
0
100
AcDbBlockEnd
  0
BLOCK
  5
200
330
1FF
100
AcDbEntity
  8
0
100
AcDbBlockBegin
  2
_Open30
 70
     0
 10
0.0
 20
0.0
 30
0.0
  3
_Open30
  1

  0
LINE
  5
201
330
1FF
100
AcDbEntity
  8
0
  6
ByBlock
 62
     0
370
    -2
100
AcDbLine
 10
-1.0
 20
0.26794919
 30
0.0
 11
0.0
 21
0.0
 31
0.0
  0
LINE
  5
202
330
1FF
100
AcDbEntity
  8
0
  6
ByBlock
 62
     0
370
    -2
100
AcDbLine
 10
0.0
 20
0.0
 30
0.0
 11
-1.0
 21
-0.26794919
 31
0.0
  0
LINE
  5
203
330
1FF
100
AcDbEntity
  8
0
  6
ByBlock
 62
     0
370
    -2
100
AcDbLine
 10
0.0
 20
0.0
 30
0.0
 11
-1.0
 21
0.0
 31
0.0
  0
ENDBLK
  5
204
330
1FF
100
AcDbEntity
  8
0
100
AcDbBlockEnd
  0
ENDSEC
  0
SECTION
  2
ENTITIES
  0
LINE
  5
5E6
330
1F
100
AcDbEntity
  8
0
100
AcDbLine
 10
163.6500008775328
 20
68.40000039447094
 30
0.0
 11
163.6500008775328
 21
125.3000003944711
 31
0.0
  0
LINE
  5
5E7
330
1F
100
AcDbEntity
  8
0
100
AcDbLine
 10
167.2000008775327
 20
125.3500003944708
 30
0.0
 11
167.2000008775326
 21
68.35000039447081
 31
0.0
  0
LINE
  5
5E8
330
1F
100
AcDbEntity
  8
0
100
AcDbLine
 10
167.5000008775327
 20
125.3500003944708
 30
0.0
 11
167.5000008775327
 21
109.8500003944708
 31
0.0
  0
LINE
  5
5E9
330
1F
100
AcDbEntity
  8
0
100
AcDbLine
 10
167.5000008775327
 20
99.85000039447081
 30
0.0
 11
167.5000008775327
 21
68.35000039447081
 31
0.0
  0
ARC
  5
5EA
330
1F
100
AcDbEntity
  8
0
100
AcDbCircle
 10
163.7000008775326
 20
125.3500003944708
 30
0.0
 40
3.5
100
AcDbArc
 50
0.0
 51
90.0
1001
GENIUS_GENODEF_13
1002
{
1000
HIER
1070
     0
1002
}
1002
{
1000
MANEDIT
1070
     0
1002
}
1002
{
1000
NOSEL
1070
     0
1002
}
1002
{
1000
BEHIND
1070
     0
1002
}
1002
{
1000
OTHER
1070
     0
1002
}
1002
{
1000
REACTOR
1002
}
1001
GENIUS_GENOBJ-N-FIL_13
1002
{
1000
OWNER
1000
GEN
1002
}
  0
ARC
  5
5EB
330
1F
100
AcDbEntity
  8
0
100
AcDbCircle
 10
163.7000008775326
 20
125.3500003944708
 30
0.0
 40
3.799999999999998
100
AcDbArc
 50
0.0
 51
90.0
1001
GENIUS_GENODEF_13
1002
{
1000
HIER
1070
     0
1002
}
1002
{
1000
MANEDIT
1070
     0
1002
}
1002
{
1000
NOSEL
1070
     0
1002
}
1002
{
1000
BEHIND
1070
     0
1002
}
1002
{
1000
OTHER
1070
     0
1002
}
1002
{
1000
REACTOR
1002
}
1001
GENIUS_GENOBJ-N-FIL_13
1002
{
1000
OWNER
1000
GEN
1002
}
  0
LINE
  5
5EC
330
1F
100
AcDbEntity
  8
0
100
AcDbLine
 10
76.70000087753272
 20
125.3500003944708
 30
0.0
 11
76.70000087753283
 21
68.35000039447081
 31
0.0
  0
LINE
  5
5ED
330
1F
100
AcDbEntity
  8
0
100
AcDbLine
 10
76.70000087753272
 20
128.8500003944707
 30
0.0
 11
163.7000008775326
 21
128.8500003944707
 31
0.0
  0
LINE
  5
5EE
330
1F
100
AcDbEntity
  8
0
100
AcDbLine
 10
76.70000087753272
 20
129.1500003944708
 30
0.0
 11
163.7000008775326
 21
129.1500003944708
 31
0.0
  0
LINE
  5
5EF
330
1F
100
AcDbEntity
  8
0
100
AcDbLine
 10
76.70000087753272
 20
125.3500003944708
 30
0.0
 11
163.7000008775326
 21
125.3500003944708
 31
0.0
  0
LINE
  5
5F0
330
1F
100
AcDbEntity
  8
0
100
AcDbLine
 10
76.70000087753283
 20
64.85000039447081
 30
0.0
 11
163.7000008775327
 21
64.85000039447081
 31
0.0
  0
LINE
  5
5F1
330
1F
100
AcDbEntity
  8
0
100
AcDbLine
 10
76.70000087753283
 20
64.55000039447082
 30
0.0
 11
163.7000008775327
 21
64.55000039447082
 31
0.0
  0
LINE
  5
5F2
330
1F
100
AcDbEntity
  8
0
100
AcDbLine
 10
76.70000087753283
 20
68.35000039447081
 30
0.0
 11
163.7000008775327
 21
68.35000039447081
 31
0.0
  0
ARC
  5
5F3
330
1F
100
AcDbEntity
  8
0
100
AcDbCircle
 10
163.7000008775326
 20
68.35000039447081
 30
0.0
 40
3.5
100
AcDbArc
 50
270.0
 51
0.0
1001
GENIUS_GENODEF_13
1002
{
1000
HIER
1070
     0
1002
}
1002
{
1000
MANEDIT
1070
     0
1002
}
1002
{
1000
NOSEL
1070
     0
1002
}
1002
{
1000
BEHIND
1070
     0
1002
}
1002
{
1000
OTHER
1070
     0
1002
}
1002
{
1000
REACTOR
1002
}
1001
GENIUS_GENOBJ-N-FIL_13
1002
{
1000
OWNER
1000
GEN
1002
}
  0
ARC
  5
5F4
330
1F
100
AcDbEntity
  8
0
100
AcDbCircle
 10
163.7000008775326
 20
68.35000039447081
 30
0.0
 40
3.799999999999998
100
AcDbArc
 50
270.0
 51
0.0
1001
GENIUS_GENODEF_13
1002
{
1000
HIER
1070
     0
1002
}
1002
{
1000
MANEDIT
1070
     0
1002
}
1002
{
1000
NOSEL
1070
     0
1002
}
1002
{
1000
BEHIND
1070
     0
1002
}
1002
{
1000
OTHER
1070
     0
1002
}
1002
{
1000
REACTOR
1002
}
1001
GENIUS_GENOBJ-N-FIL_13
1002
{
1000
OWNER
1000
GEN
1002
}
  0
LINE
  5
5F5
330
1F
100
AcDbEntity
  8
0
100
AcDbLine
 10
73.20000087753271
 20
125.3500003944708
 30
0.0
 11
73.20000087753271
 21
68.35000039447081
 31
0.0
  0
LINE
  5
5F6
330
1F
100
AcDbEntity
  8
0
100
AcDbLine
 10
72.90000087753276
 20
125.3500003944708
 30
0.0
 11
72.90000087753276
 21
68.35000039447081
 31
0.0
  0
ARC
  5
5F7
330
1F
100
AcDbEntity
  8
0
100
AcDbCircle
 10
76.70000087753272
 20
125.3500003944708
 30
0.0
 40
3.5
100
AcDbArc
 50
90.0
 51
180.0
1001
GENIUS_GENODEF_13
1002
{
1000
HIER
1070
     0
1002
}
1002
{
1000
MANEDIT
1070
     0
1002
}
1002
{
1000
NOSEL
1070
     0
1002
}
1002
{
1000
BEHIND
1070
     0
1002
}
1002
{
1000
OTHER
1070
     0
1002
}
1002
{
1000
REACTOR
1002
}
1001
GENIUS_GENOBJ-N-FIL_13
1002
{
1000
OWNER
1000
GEN
1002
}
  0
ARC
  5
5F8
330
1F
100
AcDbEntity
  8
0
100
AcDbCircle
 10
76.70000087753272
 20
125.3500003944708
 30
0.0
 40
3.799999999999998
100
AcDbArc
 50
90.0
 51
180.0
1001
GENIUS_GENODEF_13
1002
{
1000
HIER
1070
     0
1002
}
1002
{
1000
MANEDIT
1070
     0
1002
}
1002
{
1000
NOSEL
1070
     0
1002
}
1002
{
1000
BEHIND
1070
     0
1002
}
1002
{
1000
OTHER
1070
     0
1002
}
1002
{
1000
REACTOR
1002
}
1001
GENIUS_GENOBJ-N-FIL_13
1002
{
1000
OWNER
1000
GEN
1002
}
  0
ARC
  5
5F9
330
1F
100
AcDbEntity
  8
0
100
AcDbCircle
 10
76.70000087753272
 20
68.35000039447081
 30
0.0
 40
3.5
100
AcDbArc
 50
180.0
 51
270.0
1001
GENIUS_GENODEF_13
1002
{
1000
HIER
1070
     0
1002
}
1002
{
1000
MANEDIT
1070
     0
1002
}
1002
{
1000
NOSEL
1070
     0
1002
}
1002
{
1000
BEHIND
1070
     0
1002
}
1002
{
1000
OTHER
1070
     0
1002
}
1002
{
1000
REACTOR
1002
}
1001
GENIUS_GENOBJ-N-FIL_13
1002
{
1000
OWNER
1000
GEN
1002
}
  0
ARC
  5
5FA
330
1F
100
AcDbEntity
  8
0
100
AcDbCircle
 10
76.70000087753272
 20
68.35000039447081
 30
0.0
 40
3.799999999999998
100
AcDbArc
 50
180.0
 51
270.0
1001
GENIUS_GENODEF_13
1002
{
1000
HIER
1070
     0
1002
}
1002
{
1000
MANEDIT
1070
     0
1002
}
1002
{
1000
NOSEL
1070
     0
1002
}
1002
{
1000
BEHIND
1070
     0
1002
}
1002
{
1000
OTHER
1070
     0
1002
}
1002
{
1000
REACTOR
1002
}
1001
GENIUS_GENOBJ-N-FIL_13
1002
{
1000
OWNER
1000
GEN
1002
}
  0
LINE
  5
5FB
330
1F
100
AcDbEntity
  8
0
100
AcDbLine
 10
76.75000087753267
 20
83.40000039447103
 30
0.0
 11
163.6500008775328
 21
83.40000039447103
 31
0.0
  0
LINE
  5
5FC
330
1F
100
AcDbEntity
  8
0
100
AcDbLine
 10
76.75000087753267
 20
68.40000039447094
 30
0.0
 11
76.75000087753256
 21
125.300000394471
 31
0.0
  0
LINE
  5
5FD
330
1F
100
AcDbEntity
  8
0
100
AcDbLine
 10
163.6500008775328
 20
125.3000003944711
 30
0.0
 11
76.75000087753256
 21
125.300000394471
 31
0.0
  0
LINE
  5
5FE
330
1F
100
AcDbEntity
  8
0
100
AcDbLine
 10
76.75000087753267
 20
68.40000039447094
 30
0.0
 11
163.6500008775328
 21
68.40000039447094
 31
0.0
  0
LINE
  5
5FF
330
1F
100
AcDbEntity
  8
0
100
AcDbLine
 10
89.70000087753261
 20
90.15000039447082
 30
0.0
 11
150.7000008775326
 21
90.15000039447082
 31
0.0
1001
GENIUS_GENREC_14
1002
{
1000
PYDIR
1011
90.2000008775326
1021
116.150000394471
1031
0.0
1002
}
1002
{
1000
PXDIR
1011
150.2000008775327
1021
90.65000039447083
1031
0.0
1002
}
1002
{
1000
PORI
1011
90.2000008775326
1021
90.65000039447083
1031
0.0
1002
}
1002
{
1000
PINS
1011
90.2000008775326
1021
90.65000039447083
1031
0.0
1002
}
1002
{
1000
PINS2
1011
150.2000008775327
1021
116.150000394471
1031
0.0
1002
}
1002
{
1000
C
1070
     1
1002
}
1001
GENIUS_GENOBJ-N-REC_13
1002
{
1000
OWNER
1000
GEN
1002
}
1001
GENIUS_GENODEF_13
1002
{
1000
HIER
1070
     0
1002
}
1002
{
1000
MANEDIT
1070
     0
1002
}
1002
{
1000
NOSEL
1070
     0
1002
}
1002
{
1000
BEHIND
1070
     0
1002
}
1002
{
1000
OTHER
1070
     0
1002
}
1002
{
1000
REACTOR
1002
}
  0
LINE
  5
600
330
1F
100
AcDbEntity
  8
0
100
AcDbLine
 10
150.7000008775326
 20
90.15000039447082
 30
0.0
 11
150.7000008775326
 21
116.650000394471
 31
0.0
1001
GENIUS_GENREC_14
1002
{
1000
PYDIR
1011
90.2000008775326
1021
116.150000394471
1031
0.0
1002
}
1002
{
1000
PXDIR
1011
150.2000008775327
1021
90.65000039447083
1031
0.0
1002
}
1002
{
1000
PORI
1011
90.2000008775326
1021
90.65000039447083
1031
0.0
1002
}
1002
{
1000
PINS
1011
90.2000008775326
1021
90.65000039447083
1031
0.0
1002
}
1002
{
1000
PINS2
1011
150.2000008775327
1021
116.150000394471
1031
0.0
1002
}
1002
{
1000
C
1070
     1
1002
}
1001
GENIUS_GENOBJ-N-REC_13
1002
{
1000
OWNER
1000
GEN
1002
}
1001
GENIUS_GENODEF_13
1002
{
1000
HIER
1070
     0
1002
}
1002
{
1000
MANEDIT
1070
     0
1002
}
1002
{
1000
NOSEL
1070
     0
1002
}
1002
{
1000
BEHIND
1070
     0
1002
}
1002
{
1000
OTHER
1070
     0
1002
}
1002
{
1000
REACTOR
1002
}
  0
LINE
  5
601
330
1F
100
AcDbEntity
  8
0
100
AcDbLine
 10
150.7000008775326
 20
116.650000394471
 30
0.0
 11
89.70000087753261
 21
116.650000394471
 31
0.0
1001
GENIUS_GENREC_14
1002
{
1000
PYDIR
1011
90.2000008775326
1021
116.150000394471
1031
0.0
1002
}
1002
{
1000
PXDIR
1011
150.2000008775327
1021
90.65000039447083
1031
0.0
1002
}
1002
{
1000
PORI
1011
90.2000008775326
1021
90.65000039447083
1031
0.0
1002
}
1002
{
1000
PINS
1011
90.2000008775326
1021
90.65000039447083
1031
0.0
1002
}
1002
{
1000
PINS2
1011
150.2000008775327
1021
116.150000394471
1031
0.0
1002
}
1002
{
1000
C
1070
     1
1002
}
1001
GENIUS_GENOBJ-N-REC_13
1002
{
1000
OWNER
1000
GEN
1002
}
1001
GENIUS_GENODEF_13
1002
{
1000
HIER
1070
     0
1002
}
1002
{
1000
MANEDIT
1070
     0
1002
}
1002
{
1000
NOSEL
1070
     0
1002
}
1002
{
1000
BEHIND
1070
     0
1002
}
1002
{
1000
OTHER
1070
     0
1002
}
1002
{
1000
REACTOR
1002
}
  0
LINE
  5
602
330
1F
100
AcDbEntity
  8
0
100
AcDbLine
 10
89.70000087753261
 20
116.650000394471
 30
0.0
 11
89.70000087753261
 21
90.15000039447082
 31
0.0
1001
GENIUS_GENREC_14
1002
{
1000
PYDIR
1011
90.2000008775326
1021
116.150000394471
1031
0.0
1002
}
1002
{
1000
PXDIR
1011
150.2000008775327
1021
90.65000039447083
1031
0.0
1002
}
1002
{
1000
PORI
1011
90.2000008775326
1021
90.65000039447083
1031
0.0
1002
}
1002
{
1000
PINS
1011
90.2000008775326
1021
90.65000039447083
1031
0.0
1002
}
1002
{
1000
PINS2
1011
150.2000008775327
1021
116.150000394471
1031
0.0
1002
}
1002
{
1000
C
1070
     1
1002
}
1001
GENIUS_GENOBJ-N-REC_13
1002
{
1000
OWNER
1000
GEN
1002
}
1001
GENIUS_GENODEF_13
1002
{
1000
HIER
1070
     0
1002
}
1002
{
1000
MANEDIT
1070
     0
1002
}
1002
{
1000
NOSEL
1070
     0
1002
}
1002
{
1000
BEHIND
1070
     0
1002
}
1002
{
1000
OTHER
1070
     0
1002
}
1002
{
1000
REACTOR
1002
}
  0
ARC
  5
603
330
1F
100
AcDbEntity
  8
0
100
AcDbCircle
 10
153.7000008775326
 20
117.6500003944709
 30
0.0
 40
1.0
100
AcDbArc
 50
0.0
 51
90.0
1001
GENIUS_GENREC_14
1002
{
1000
PYDIR
1011
90.2000008775326
1021
117.150000394471
1031
0.0
1002
}
1002
{
1000
PXDIR
1011
150.2000008775327
1021
90.65000039447083
1031
0.0
1002
}
1002
{
1000
PORI
1011
90.2000008775326
1021
90.65000039447083
1031
0.0
1002
}
1002
{
1000
PINS
1011
90.2000008775326
1021
90.65000039447083
1031
0.0
1002
}
1002
{
1000
PINS2
1011
150.2000008775327
1021
117.150000394471
1031
0.0
1002
}
1002
{
1000
C
1070
     1
1002
}
1001
GENIUS_GENOBJ-N-REC_13
1002
{
1000
OWNER
1000
GEN
1002
}
1001
GENIUS_GENOBJ-N-FIL_13
1002
{
1000
OWNER
1000
GEN
1002
}
1001
GENIUS_GENODEF_13
1002
{
1000
HIER
1070
     0
1002
}
1002
{
1000
MANEDIT
1070
     0
1002
}
1002
{
1000
NOSEL
1070
     0
1002
}
1002
{
1000
BEHIND
1070
     0
1002
}
1002
{
1000
OTHER
1070
     0
1002
}
1002
{
1000
REACTOR
1002
}
  0
LINE
  5
604
330
1F
100
AcDbEntity
  8
0
100
AcDbLine
 10
85.7000008775326
 20
117.6500003944709
 30
0.0
 11
85.7000008775326
 21
89.15000039447093
 31
0.0
1001
GENIUS_GENREC_14
1002
{
1000
PYDIR
1011
90.2000008775326
1021
117.150000394471
1031
0.0
1002
}
1002
{
1000
PXDIR
1011
150.2000008775327
1021
89.65000039447081
1031
0.0
1002
}
1002
{
1000
PORI
1011
90.2000008775326
1021
89.65000039447081
1031
0.0
1002
}
1002
{
1000
PINS
1011
90.2000008775326
1021
89.65000039447081
1031
0.0
1002
}
1002
{
1000
PINS2
1011
150.2000008775327
1021
117.150000394471
1031
0.0
1002
}
1002
{
1000
C
1070
     1
1002
}
1001
GENIUS_GENOBJ-N-REC_13
1002
{
1000
OWNER
1000
GEN
1002
}
1001
GENIUS_GENODEF_13
1002
{
1000
HIER
1070
     0
1002
}
1002
{
1000
MANEDIT
1070
     0
1002
}
1002
{
1000
NOSEL
1070
     0
1002
}
1002
{
1000
BEHIND
1070
     0
1002
}
1002
{
1000
OTHER
1070
     0
1002
}
1002
{
1000
REACTOR
1002
}
  0
ARC
  5
605
330
1F
100
AcDbEntity
  8
0
100
AcDbCircle
 10
86.7000008775326
 20
117.6500003944709
 30
0.0
 40
1.0
100
AcDbArc
 50
90.0
 51
180.0
1001
GENIUS_GENREC_14
1002
{
1000
PYDIR
1011
90.2000008775326
1021
117.150000394471
1031
0.0
1002
}
1002
{
1000
PXDIR
1011
150.2000008775327
1021
90.65000039447083
1031
0.0
1002
}
1002
{
1000
PORI
1011
90.2000008775326
1021
90.65000039447083
1031
0.0
1002
}
1002
{
1000
PINS
1011
90.2000008775326
1021
90.65000039447083
1031
0.0
1002
}
1002
{
1000
PINS2
1011
150.2000008775327
1021
117.150000394471
1031
0.0
1002
}
1002
{
1000
C
1070
     1
1002
}
1001
GENIUS_GENOBJ-N-REC_13
1002
{
1000
OWNER
1000
GEN
1002
}
1001
GENIUS_GENOBJ-N-FIL_13
1002
{
1000
OWNER
1000
GEN
1002
}
1001
GENIUS_GENODEF_13
1002
{
1000
HIER
1070
     0
1002
}
1002
{
1000
MANEDIT
1070
     0
1002
}
1002
{
1000
NOSEL
1070
     0
1002
}
1002
{
1000
BEHIND
1070
     0
1002
}
1002
{
1000
OTHER
1070
     0
1002
}
1002
{
1000
REACTOR
1002
}
  0
LINE
  5
606
330
1F
100
AcDbEntity
  8
0
100
AcDbLine
 10
86.70000087753271
 20
88.15000039447083
 30
0.0
 11
153.7000008775326
 21
88.15000039447083
 31
0.0
1001
GENIUS_GENREC_14
1002
{
1000
PYDIR
1011
90.2000008775326
1021
116.150000394471
1031
0.0
1002
}
1002
{
1000
PXDIR
1011
150.2000008775327
1021
89.65000039447081
1031
0.0
1002
}
1002
{
1000
PORI
1011
90.2000008775326
1021
89.65000039447081
1031
0.0
1002
}
1002
{
1000
PINS
1011
90.2000008775326
1021
89.65000039447081
1031
0.0
1002
}
1002
{
1000
PINS2
1011
150.2000008775327
1021
116.150000394471
1031
0.0
1002
}
1002
{
1000
C
1070
     1
1002
}
1001
GENIUS_GENOBJ-N-REC_13
1002
{
1000
OWNER
1000
GEN
1002
}
1001
GENIUS_GENODEF_13
1002
{
1000
HIER
1070
     0
1002
}
1002
{
1000
MANEDIT
1070
     0
1002
}
1002
{
1000
NOSEL
1070
     0
1002
}
1002
{
1000
BEHIND
1070
     0
1002
}
1002
{
1000
OTHER
1070
     0
1002
}
1002
{
1000
REACTOR
1002
}
  0
ARC
  5
607
330
1F
100
AcDbEntity
  8
0
100
AcDbCircle
 10
153.7000008775326
 20
89.15000039447093
 30
0.0
 40
1.0
100
AcDbArc
 50
270.0
 51
0.0
1001
GENIUS_GENREC_14
1002
{
1000
PYDIR
1011
90.2000008775326
1021
116.150000394471
1031
0.0
1002
}
1002
{
1000
PXDIR
1011
150.2000008775327
1021
89.65000039447081
1031
0.0
1002
}
1002
{
1000
PORI
1011
90.2000008775326
1021
89.65000039447081
1031
0.0
1002
}
1002
{
1000
PINS
1011
90.2000008775326
1021
89.65000039447081
1031
0.0
1002
}
1002
{
1000
PINS2
1011
150.2000008775327
1021
116.150000394471
1031
0.0
1002
}
1002
{
1000
C
1070
     1
1002
}
1001
GENIUS_GENOBJ-N-REC_13
1002
{
1000
OWNER
1000
GEN
1002
}
1001
GENIUS_GENODEF_13
1002
{
1000
HIER
1070
     0
1002
}
1002
{
1000
MANEDIT
1070
     0
1002
}
1002
{
1000
NOSEL
1070
     0
1002
}
1002
{
1000
BEHIND
1070
     0
1002
}
1002
{
1000
OTHER
1070
     0
1002
}
1002
{
1000
REACTOR
1002
}
1001
GENIUS_GENOBJ-N-FIL_13
1002
{
1000
OWNER
1000
GEN
1002
}
  0
ARC
  5
608
330
1F
100
AcDbEntity
  8
0
100
AcDbCircle
 10
86.70000087753271
 20
89.15000039447093
 30
0.0
 40
1.0
100
AcDbArc
 50
180.0
 51
270.0
1001
GENIUS_GENREC_14
1002
{
1000
PYDIR
1011
90.2000008775326
1021
116.150000394471
1031
0.0
1002
}
1002
{
1000
PXDIR
1011
150.2000008775327
1021
89.65000039447081
1031
0.0
1002
}
1002
{
1000
PORI
1011
90.2000008775326
1021
89.65000039447081
1031
0.0
1002
}
1002
{
1000
PINS
1011
90.2000008775326
1021
89.65000039447081
1031
0.0
1002
}
1002
{
1000
PINS2
1011
150.2000008775327
1021
116.150000394471
1031
0.0
1002
}
1002
{
1000
C
1070
     1
1002
}
1001
GENIUS_GENOBJ-N-REC_13
1002
{
1000
OWNER
1000
GEN
1002
}
1001
GENIUS_GENODEF_13
1002
{
1000
HIER
1070
     0
1002
}
1002
{
1000
MANEDIT
1070
     0
1002
}
1002
{
1000
NOSEL
1070
     0
1002
}
1002
{
1000
BEHIND
1070
     0
1002
}
1002
{
1000
OTHER
1070
     0
1002
}
1002
{
1000
REACTOR
1002
}
1001
GENIUS_GENOBJ-N-FIL_13
1002
{
1000
OWNER
1000
GEN
1002
}
  0
LINE
  5
609
330
1F
100
AcDbEntity
  8
0
100
AcDbLine
 10
153.7000008775326
 20
118.650000394471
 30
0.0
 11
86.7000008775326
 21
118.650000394471
 31
0.0
1001
GENIUS_GENREC_14
1002
{
1000
PYDIR
1011
90.2000008775326
1021
117.150000394471
1031
0.0
1002
}
1002
{
1000
PXDIR
1011
150.2000008775327
1021
90.65000039447083
1031
0.0
1002
}
1002
{
1000
PORI
1011
90.2000008775326
1021
90.65000039447083
1031
0.0
1002
}
1002
{
1000
PINS
1011
90.2000008775326
1021
90.65000039447083
1031
0.0
1002
}
1002
{
1000
PINS2
1011
150.2000008775327
1021
117.150000394471
1031
0.0
1002
}
1002
{
1000
C
1070
     1
1002
}
1001
GENIUS_GENOBJ-N-REC_13
1002
{
1000
OWNER
1000
GEN
1002
}
1001
GENIUS_GENODEF_13
1002
{
1000
HIER
1070
     0
1002
}
1002
{
1000
MANEDIT
1070
     0
1002
}
1002
{
1000
NOSEL
1070
     0
1002
}
1002
{
1000
BEHIND
1070
     0
1002
}
1002
{
1000
OTHER
1070
     0
1002
}
1002
{
1000
REACTOR
1002
}
  0
LINE
  5
60A
330
1F
100
AcDbEntity
  8
0
100
AcDbLine
 10
76.75000087753267
 20
68.40000039447094
 30
0.0
 11
76.75000087753267
 21
83.40000039447103
 31
0.0
  0
LINE
  5
60B
330
1F
100
AcDbEntity
  8
0
100
AcDbLine
 10
76.75000087753267
 20
68.40000039447094
 30
0.0
 11
163.6500008775328
 21
68.40000039447094
 31
0.0
  0
ELLIPSE
  5
60C
330
1F
100
AcDbEntity
  8
0
100
AcDbEllipse
 10
114.4004411383929
 20
70.31569806888943
 30
0.0
 11
1.00276584225578
 21
0.0000000000000003
 31
0.0
210
0.0
220
0.0
230
1.0
 40
0.6522657033973506
 41
0.3314984999878012
 42
5.951686807191784
  0
ELLIPSE
  5
60D
330
1F
100
AcDbEntity
  8
0
100
AcDbEllipse
 10
114.291595824803
 20
70.31569806888943
 30
0.0
 11
1.591594947270215
 21
0.0000000000000061
 31
0.0
210
0.0
220
0.0
230
1.0
 40
0.5753333635477742
 41
0.7175354078333669
 42
6.048567121221497
  0
LINE
  5
60E
330
1F
100
AcDbEntity
  8
0
100
AcDbLine
 10
115.8395861209104
 20
70.10282432060724
 30
0.0
 11
115.3486120993781
 21
70.10282432060724
 31
0.0
  0
LINE
  5
60F
330
1F
100
AcDbEntity
  8
0
100
AcDbLine
 10
115.8395357612537
 20
70.52857181717181
 30
0.0
 11
115.3486120993781
 21
70.52857181717181
 31
0.0
  0
LINE
  5
610
330
1F
100
AcDbEntity
  8
0
100
AcDbLine
 10
115.490748911608
 20
71.23139574330803
 30
0.0
 11
115.490748911608
 21
70.91779655628882
 31
0.0
  0
LINE
  5
611
330
1F
100
AcDbEntity
  8
0
100
AcDbLine
 10
115.8395357612537
 20
71.23139574330803
 30
0.0
 11
115.490748911608
 21
71.23139574330803
 31
0.0
  0
LINE
  5
612
330
1F
100
AcDbEntity
  8
0
100
AcDbLine
 10
115.8395357612537
 20
70.52857181717181
 30
0.0
 11
115.8395357612537
 21
71.23139574330803
 31
0.0
  0
LINE
  5
613
330
1F
100
AcDbEntity
  8
0
100
AcDbLine
 10
118.2377915752072
 20
70.96976783633144
 30
0.0
 11
118.2377915752072
 21
70.46831434795922
 31
0.0
  0
LINE
  5
614
330
1F
100
AcDbEntity
  8
0
100
AcDbLine
 10
117.1912799473002
 20
70.96976783633144
 30
0.0
 11
117.1912799473002
 21
70.46831434795922
 31
0.0
  0
LINE
  5
615
330
1F
100
AcDbEntity
  8
0
100
AcDbLine
 10
116.4936055286955
 20
70.96976783633144
 30
0.0
 11
116.4936055286955
 21
69.66162830144764
 31
0.0
  0
LINE
  5
616
330
1F
100
AcDbEntity
  8
0
100
AcDbLine
 10
118.9354659938118
 20
70.96976783633144
 30
0.0
 11
118.9354659938118
 21
69.66162830144764
 31
0.0
  0
LINE
  5
617
330
1F
100
AcDbEntity
  8
0
100
AcDbLine
 10
117.1912799473002
 20
70.46831434795922
 30
0.0
 11
118.2377915752072
 21
70.46831434795922
 31
0.0
  0
LINE
  5
618
330
1F
100
AcDbEntity
  8
0
100
AcDbLine
 10
117.1912799473002
 20
70.16308178981972
 30
0.0
 11
118.2377915752072
 21
70.16308178981972
 31
0.0
  0
LINE
  5
619
330
1F
100
AcDbEntity
  8
0
100
AcDbLine
 10
117.5401171566026
 20
69.66162830144764
 30
0.0
 11
117.1912799473002
 21
69.66162830144764
 31
0.0
  0
LINE
  5
61A
330
1F
100
AcDbEntity
  8
0
100
AcDbLine
 10
117.5401171566026
 20
69.40000039447093
 30
0.0
 11
116.1447683193932
 21
69.40000039447093
 31
0.0
  0
LINE
  5
61B
330
1F
100
AcDbEntity
  8
0
100
AcDbLine
 10
116.1447683193932
 20
69.66162830144764
 30
0.0
 11
116.1447683193932
 21
69.40000039447093
 31
0.0
  0
LINE
  5
61C
330
1F
100
AcDbEntity
  8
0
100
AcDbLine
 10
116.4936055286955
 20
69.66162830144764
 30
0.0
 11
116.1447683193932
 21
69.66162830144764
 31
0.0
  0
LINE
  5
61D
330
1F
100
AcDbEntity
  8
0
100
AcDbLine
 10
117.1912799473002
 20
70.16308178981972
 30
0.0
 11
117.1912799473002
 21
69.66162830144764
 31
0.0
  0
LINE
  5
61E
330
1F
100
AcDbEntity
  8
0
100
AcDbLine
 10
119.2843032031141
 20
69.40000039447093
 30
0.0
 11
117.8889543659048
 21
69.40000039447093
 31
0.0
  0
LINE
  5
61F
330
1F
100
AcDbEntity
  8
0
100
AcDbLine
 10
117.8889543659048
 20
69.66162830144764
 30
0.0
 11
117.8889543659048
 21
69.40000039447093
 31
0.0
  0
LINE
  5
620
330
1F
100
AcDbEntity
  8
0
100
AcDbLine
 10
117.5401171566026
 20
69.66162830144764
 30
0.0
 11
117.5401171566026
 21
69.40000039447093
 31
0.0
  0
LINE
  5
621
330
1F
100
AcDbEntity
  8
0
100
AcDbLine
 10
118.2377915752072
 20
69.66162830144764
 30
0.0
 11
117.8889543659048
 21
69.66162830144764
 31
0.0
  0
LINE
  5
622
330
1F
100
AcDbEntity
  8
0
100
AcDbLine
 10
118.2377915752072
 20
70.16308178981972
 30
0.0
 11
118.2377915752072
 21
69.66162830144764
 31
0.0
  0
LINE
  5
623
330
1F
100
AcDbEntity
  8
0
100
AcDbLine
 10
119.2843032031141
 20
69.66162830144764
 30
0.0
 11
119.2843032031141
 21
69.40000039447093
 31
0.0
  0
LINE
  5
624
330
1F
100
AcDbEntity
  8
0
100
AcDbLine
 10
119.2843032031141
 20
69.66162830144764
 30
0.0
 11
118.9354659938118
 21
69.66162830144764
 31
0.0
  0
LINE
  5
625
330
1F
100
AcDbEntity
  8
0
100
AcDbLine
 10
117.5401171566026
 20
70.96976783633144
 30
0.0
 11
117.1912799473002
 21
70.96976783633144
 31
0.0
  0
LINE
  5
626
330
1F
100
AcDbEntity
  8
0
100
AcDbLine
 10
117.5401171566026
 20
71.23139574330803
 30
0.0
 11
116.1447683193932
 21
71.23139574330803
 31
0.0
  0
LINE
  5
627
330
1F
100
AcDbEntity
  8
0
100
AcDbLine
 10
116.1447683193932
 20
71.23139574330803
 30
0.0
 11
116.1447683193932
 21
70.96976783633144
 31
0.0
  0
LINE
  5
628
330
1F
100
AcDbEntity
  8
0
100
AcDbLine
 10
116.4936055286955
 20
70.96976783633144
 30
0.0
 11
116.1447683193932
 21
70.96976783633144
 31
0.0
  0
LINE
  5
629
330
1F
100
AcDbEntity
  8
0
100
AcDbLine
 10
119.2843032031141
 20
71.23139574330803
 30
0.0
 11
117.8889543659048
 21
71.23139574330803
 31
0.0
  0
LINE
  5
62A
330
1F
100
AcDbEntity
  8
0
100
AcDbLine
 10
118.2377915752072
 20
70.96976783633144
 30
0.0
 11
117.8889543659048
 21
70.96976783633144
 31
0.0
  0
LINE
  5
62B
330
1F
100
AcDbEntity
  8
0
100
AcDbLine
 10
117.8889543659048
 20
71.23139574330803
 30
0.0
 11
117.8889543659048
 21
70.96976783633144
 31
0.0
  0
LINE
  5
62C
330
1F
100
AcDbEntity
  8
0
100
AcDbLine
 10
117.5401171566026
 20
71.23139574330803
 30
0.0
 11
117.5401171566026
 21
70.96976783633144
 31
0.0
  0
LINE
  5
62D
330
1F
100
AcDbEntity
  8
0
100
AcDbLine
 10
119.2843032031141
 20
71.23139574330803
 30
0.0
 11
119.2843032031141
 21
70.96976783633144
 31
0.0
  0
LINE
  5
62E
330
1F
100
AcDbEntity
  8
0
100
AcDbLine
 10
119.2843032031141
 20
70.96976783633144
 30
0.0
 11
118.9354659938118
 21
70.96976783633144
 31
0.0
  0
LINE
  5
62F
330
1F
100
AcDbEntity
  8
0
100
AcDbLine
 10
119.9383729705559
 20
70.96976783633144
 30
0.0
 11
119.9383729705559
 21
69.66162830144764
 31
0.0
  0
LINE
  5
630
330
1F
100
AcDbEntity
  8
0
100
AcDbLine
 10
120.6360473891604
 20
70.96976783633144
 30
0.0
 11
120.6360473891604
 21
69.66162830144764
 31
0.0
  0
LINE
  5
631
330
1F
100
AcDbEntity
  8
0
100
AcDbLine
 10
120.984884598463
 20
69.40000039447093
 30
0.0
 11
119.5895357612537
 21
69.40000039447093
 31
0.0
  0
LINE
  5
632
330
1F
100
AcDbEntity
  8
0
100
AcDbLine
 10
119.5895357612537
 20
69.66162830144764
 30
0.0
 11
119.5895357612537
 21
69.40000039447093
 31
0.0
  0
LINE
  5
633
330
1F
100
AcDbEntity
  8
0
100
AcDbLine
 10
119.9383729705559
 20
69.66162830144764
 30
0.0
 11
119.5895357612537
 21
69.66162830144764
 31
0.0
  0
LINE
  5
634
330
1F
100
AcDbEntity
  8
0
100
AcDbLine
 10
120.984884598463
 20
69.66162830144764
 30
0.0
 11
120.984884598463
 21
69.40000039447093
 31
0.0
  0
LINE
  5
635
330
1F
100
AcDbEntity
  8
0
100
AcDbLine
 10
120.984884598463
 20
69.66162830144764
 30
0.0
 11
120.6360473891604
 21
69.66162830144764
 31
0.0
  0
LINE
  5
636
330
1F
100
AcDbEntity
  8
0
100
AcDbLine
 10
120.984884598463
 20
71.23139574330803
 30
0.0
 11
119.5895357612537
 21
71.23139574330803
 31
0.0
  0
LINE
  5
637
330
1F
100
AcDbEntity
  8
0
100
AcDbLine
 10
119.5895357612537
 20
71.23139574330803
 30
0.0
 11
119.5895357612536
 21
70.96976783633144
 31
0.0
  0
LINE
  5
638
330
1F
100
AcDbEntity
  8
0
100
AcDbLine
 10
119.9383729705559
 20
70.96976783633144
 30
0.0
 11
119.5895357612537
 21
70.96976783633144
 31
0.0
  0
LINE
  5
639
330
1F
100
AcDbEntity
  8
0
100
AcDbLine
 10
120.984884598463
 20
70.96976783633144
 30
0.0
 11
120.6360473891604
 21
70.96976783633144
 31
0.0
  0
LINE
  5
63A
330
1F
100
AcDbEntity
  8
0
100
AcDbLine
 10
120.984884598463
 20
71.23139574330803
 30
0.0
 11
120.984884598463
 21
70.96976783633144
 31
0.0
  0
LINE
  5
63B
330
1F
100
AcDbEntity
  8
0
100
AcDbLine
 10
123.6883729705559
 20
70.96976783633144
 30
0.0
 11
123.6883729705559
 21
69.9232562084243
 31
0.0
  0
LINE
  5
63C
330
1F
100
AcDbEntity
  8
0
100
AcDbLine
 10
122.3802334356722
 20
71.23139574330803
 30
0.0
 11
123.6883729705559
 21
69.9232562084243
 31
0.0
  0
LINE
  5
63D
330
1F
100
AcDbEntity
  8
0
100
AcDbLine
 10
122.0313962263699
 20
70.71690490581293
 30
0.0
 11
123.3483007377119
 21
69.40000039447093
 31
0.0
  0
LINE
  5
63E
330
1F
100
AcDbEntity
  8
0
100
AcDbLine
 10
122.0313962263699
 20
70.71690490581293
 30
0.0
 11
122.0313962263699
 21
69.66162830144764
 31
0.0
  0
LINE
  5
63F
330
1F
100
AcDbEntity
  8
0
100
AcDbLine
 10
121.6389543659048
 20
70.96976783633144
 30
0.0
 11
121.6389543659048
 21
69.66162830144764
 31
0.0
  0
LINE
  5
640
330
1F
100
AcDbEntity
  8
0
100
AcDbLine
 10
124.0808148310211
 20
70.96976783633144
 30
0.0
 11
124.0808148310211
 21
69.40000039447093
 31
0.0
  0
LINE
  5
641
330
1F
100
AcDbEntity
  8
0
100
AcDbLine
 10
122.3802334356722
 20
69.66162830144764
 30
0.0
 11
122.3802334356722
 21
69.40000039447093
 31
0.0
  0
LINE
  5
642
330
1F
100
AcDbEntity
  8
0
100
AcDbLine
 10
121.2901171566024
 20
69.66162830144764
 30
0.0
 11
121.2901171566024
 21
69.40000039447093
 31
0.0
  0
LINE
  5
643
330
1F
100
AcDbEntity
  8
0
100
AcDbLine
 10
122.3802334356722
 20
69.40000039447093
 30
0.0
 11
121.2901171566024
 21
69.40000039447093
 31
0.0
  0
LINE
  5
644
330
1F
100
AcDbEntity
  8
0
100
AcDbLine
 10
121.6389543659048
 20
69.66162830144764
 30
0.0
 11
121.2901171566024
 21
69.66162830144764
 31
0.0
  0
LINE
  5
645
330
1F
100
AcDbEntity
  8
0
100
AcDbLine
 10
122.0313962263699
 20
69.66162830144764
 30
0.0
 11
122.3802334356722
 21
69.66162830144764
 31
0.0
  0
LINE
  5
646
330
1F
100
AcDbEntity
  8
0
100
AcDbLine
 10
124.0808148310211
 20
69.40000039447093
 30
0.0
 11
123.3483007377119
 21
69.40000039447093
 31
0.0
  0
LINE
  5
647
330
1F
100
AcDbEntity
  8
0
100
AcDbLine
 10
122.3802334356722
 20
71.23139574330803
 30
0.0
 11
121.2901171566024
 21
71.23139574330803
 31
0.0
  0
LINE
  5
648
330
1F
100
AcDbEntity
  8
0
100
AcDbLine
 10
121.2901171566024
 20
71.23139574330803
 30
0.0
 11
121.2901171566024
 21
70.96976783633144
 31
0.0
  0
LINE
  5
649
330
1F
100
AcDbEntity
  8
0
100
AcDbLine
 10
121.6389543659048
 20
70.96976783633144
 30
0.0
 11
121.2901171566024
 21
70.96976783633144
 31
0.0
  0
LINE
  5
64A
330
1F
100
AcDbEntity
  8
0
100
AcDbLine
 10
124.4296520403233
 20
71.23139574330803
 30
0.0
 11
123.3395357612537
 21
71.23139574330803
 31
0.0
  0
LINE
  5
64B
330
1F
100
AcDbEntity
  8
0
100
AcDbLine
 10
123.3395357612537
 20
71.23139574330803
 30
0.0
 11
123.3395357612537
 21
70.96976783633144
 31
0.0
  0
LINE
  5
64C
330
1F
100
AcDbEntity
  8
0
100
AcDbLine
 10
123.6883729705559
 20
70.96976783633144
 30
0.0
 11
123.3395357612537
 21
70.96976783633144
 31
0.0
  0
LINE
  5
64D
330
1F
100
AcDbEntity
  8
0
100
AcDbLine
 10
124.4296520403233
 20
71.23139574330803
 30
0.0
 11
124.4296520403233
 21
70.96976783633144
 31
0.0
  0
LINE
  5
64E
330
1F
100
AcDbEntity
  8
0
100
AcDbLine
 10
124.4296520403233
 20
70.96976783633144
 30
0.0
 11
124.0808148310211
 21
70.96976783633144
 31
0.0
  0
ELLIPSE
  5
64F
330
1F
100
AcDbEntity
  8
0
100
AcDbEllipse
 10
126.1302334356721
 20
70.31569806888943
 30
0.0
 11
-1.569767441860465
 21
0.0
 31
0.0
210
0.0
220
0.0
230
1.0
 40
0.5833333335538832
 41
0.0
 42
6.283185307179584
  0
ELLIPSE
  5
650
330
1F
100
AcDbEntity
  8
0
100
AcDbEllipse
 10
126.1302586155004
 20
70.31569806888943
 30
0.0
 11
-0.8721182030841744
 21
0.0
 31
0.0
210
0.0
220
0.0
230
1.0
 40
0.7499783459728239
 41
0.0
 42
6.283185307179584
  0
LINE
  5
651
330
1F
100
AcDbEntity
  8
0
100
AcDbLine
 10
86.70000087753271
 20
78.90000039447094
 30
0.0
 11
96.70000087753273
 21
78.90000039447094
 31
0.0
1001
GENIUS_GENODEF_13
1002
{
1000
HIER
1070
     0
1002
}
1002
{
1000
MANEDIT
1070
     0
1002
}
1002
{
1000
NOSEL
1070
     0
1002
}
1002
{
1000
BEHIND
1070
     0
1002
}
1002
{
1000
OTHER
1070
     0
1002
}
1002
{
1000
REACTOR
1002
}
1001
GENIUS_GENOBJ-N-CEN_13
1002
{
1000
OWNER
1000
GEN
1002
}
1001
GENIUS_GENCEN_19
1002
{
1040
2.793999999999998
1002
}
  0
LINE
  5
652
330
1F
100
AcDbEntity
  8
0
100
AcDbLine
 10
86.70000087753271
 20
72.90000039447082
 30
0.0
 11
96.70000087753273
 21
72.90000039447082
 31
0.0
1001
GENIUS_GENODEF_13
1002
{
1000
HIER
1070
     0
1002
}
1002
{
1000
MANEDIT
1070
     0
1002
}
1002
{
1000
NOSEL
1070
     0
1002
}
1002
{
1000
BEHIND
1070
     0
1002
}
1002
{
1000
OTHER
1070
     0
1002
}
1002
{
1000
REACTOR
1002
}
1001
GENIUS_GENOBJ-N-CEN_13
1002
{
1000
OWNER
1000
GEN
1002
}
1001
GENIUS_GENCEN_19
1002
{
1040
2.793999999999998
1002
}
  0
ARC
  5
653
330
1F
100
AcDbEntity
  8
0
100
AcDbCircle
 10
86.70000087753271
 20
75.90000039447094
 30
0.0
 40
3.000000000000006
100
AcDbArc
 50
90.0
 51
270.0
  0
ARC
  5
654
330
1F
100
AcDbEntity
  8
0
100
AcDbCircle
 10
96.70000087753273
 20
75.90000039447094
 30
0.0
 40
3.000000000000006
100
AcDbArc
 50
270.0
 51
90.0
  0
LINE
  5
655
330
1F
100
AcDbEntity
  8
0
100
AcDbLine
 10
105.7000008775327
 20
78.90000039447094
 30
0.0
 11
115.7000008775328
 21
78.90000039447094
 31
0.0
1001
GENIUS_GENODEF_13
1002
{
1000
HIER
1070
     0
1002
}
1002
{
1000
MANEDIT
1070
     0
1002
}
1002
{
1000
NOSEL
1070
     0
1002
}
1002
{
1000
BEHIND
1070
     0
1002
}
1002
{
1000
OTHER
1070
     0
1002
}
1002
{
1000
REACTOR
1002
}
1001
GENIUS_GENOBJ-N-CEN_13
1002
{
1000
OWNER
1000
GEN
1002
}
1001
GENIUS_GENCEN_19
1002
{
1040
2.793999999999998
1002
}
  0
LINE
  5
656
330
1F
100
AcDbEntity
  8
0
100
AcDbLine
 10
105.7000008775327
 20
72.90000039447082
 30
0.0
 11
115.7000008775328
 21
72.90000039447082
 31
0.0
1001
GENIUS_GENODEF_13
1002
{
1000
HIER
1070
     0
1002
}
1002
{
1000
MANEDIT
1070
     0
1002
}
1002
{
1000
NOSEL
1070
     0
1002
}
1002
{
1000
BEHIND
1070
     0
1002
}
1002
{
1000
OTHER
1070
     0
1002
}
1002
{
1000
REACTOR
1002
}
1001
GENIUS_GENOBJ-N-CEN_13
1002
{
1000
OWNER
1000
GEN
1002
}
1001
GENIUS_GENCEN_19
1002
{
1040
2.793999999999998
1002
}
  0
ARC
  5
657
330
1F
100
AcDbEntity
  8
0
100
AcDbCircle
 10
105.7000008775327
 20
75.90000039447094
 30
0.0
 40
3.000000000000006
100
AcDbArc
 50
90.0
 51
270.0
  0
ARC
  5
658
330
1F
100
AcDbEntity
  8
0
100
AcDbCircle
 10
115.7000008775328
 20
75.90000039447094
 30
0.0
 40
3.000000000000006
100
AcDbArc
 50
270.0
 51
90.0
  0
LINE
  5
659
330
1F
100
AcDbEntity
  8
0
100
AcDbLine
 10
124.7000008775327
 20
78.90000039447094
 30
0.0
 11
134.7000008775328
 21
78.90000039447094
 31
0.0
1001
GENIUS_GENODEF_13
1002
{
1000
HIER
1070
     0
1002
}
1002
{
1000
MANEDIT
1070
     0
1002
}
1002
{
1000
NOSEL
1070
     0
1002
}
1002
{
1000
BEHIND
1070
     0
1002
}
1002
{
1000
OTHER
1070
     0
1002
}
1002
{
1000
REACTOR
1002
}
1001
GENIUS_GENOBJ-N-CEN_13
1002
{
1000
OWNER
1000
GEN
1002
}
1001
GENIUS_GENCEN_19
1002
{
1040
2.793999999999998
1002
}
  0
LINE
  5
65A
330
1F
100
AcDbEntity
  8
0
100
AcDbLine
 10
124.7000008775327
 20
72.90000039447082
 30
0.0
 11
134.7000008775328
 21
72.90000039447082
 31
0.0
1001
GENIUS_GENODEF_13
1002
{
1000
HIER
1070
     0
1002
}
1002
{
1000
MANEDIT
1070
     0
1002
}
1002
{
1000
NOSEL
1070
     0
1002
}
1002
{
1000
BEHIND
1070
     0
1002
}
1002
{
1000
OTHER
1070
     0
1002
}
1002
{
1000
REACTOR
1002
}
1001
GENIUS_GENOBJ-N-CEN_13
1002
{
1000
OWNER
1000
GEN
1002
}
1001
GENIUS_GENCEN_19
1002
{
1040
2.793999999999998
1002
}
  0
ARC
  5
65B
330
1F
100
AcDbEntity
  8
0
100
AcDbCircle
 10
124.7000008775327
 20
75.90000039447094
 30
0.0
 40
3.000000000000006
100
AcDbArc
 50
90.0
 51
270.0
  0
ARC
  5
65C
330
1F
100
AcDbEntity
  8
0
100
AcDbCircle
 10
134.7000008775328
 20
75.90000039447094
 30
0.0
 40
3.000000000000006
100
AcDbArc
 50
270.0
 51
90.0
  0
LINE
  5
65D
330
1F
100
AcDbEntity
  8
0
100
AcDbLine
 10
143.7000008775327
 20
78.90000039447094
 30
0.0
 11
153.7000008775328
 21
78.90000039447094
 31
0.0
1001
GENIUS_GENODEF_13
1002
{
1000
HIER
1070
     0
1002
}
1002
{
1000
MANEDIT
1070
     0
1002
}
1002
{
1000
NOSEL
1070
     0
1002
}
1002
{
1000
BEHIND
1070
     0
1002
}
1002
{
1000
OTHER
1070
     0
1002
}
1002
{
1000
REACTOR
1002
}
1001
GENIUS_GENOBJ-N-CEN_13
1002
{
1000
OWNER
1000
GEN
1002
}
1001
GENIUS_GENCEN_19
1002
{
1040
2.793999999999998
1002
}
  0
LINE
  5
65E
330
1F
100
AcDbEntity
  8
0
100
AcDbLine
 10
143.7000008775327
 20
72.90000039447082
 30
0.0
 11
153.7000008775328
 21
72.90000039447082
 31
0.0
1001
GENIUS_GENODEF_13
1002
{
1000
HIER
1070
     0
1002
}
1002
{
1000
MANEDIT
1070
     0
1002
}
1002
{
1000
NOSEL
1070
     0
1002
}
1002
{
1000
BEHIND
1070
     0
1002
}
1002
{
1000
OTHER
1070
     0
1002
}
1002
{
1000
REACTOR
1002
}
1001
GENIUS_GENOBJ-N-CEN_13
1002
{
1000
OWNER
1000
GEN
1002
}
1001
GENIUS_GENCEN_19
1002
{
1040
2.793999999999998
1002
}
  0
ARC
  5
65F
330
1F
100
AcDbEntity
  8
0
100
AcDbCircle
 10
143.7000008775327
 20
75.90000039447094
 30
0.0
 40
3.000000000000006
100
AcDbArc
 50
90.0
 51
270.0
  0
ARC
  5
660
330
1F
100
AcDbEntity
  8
0
100
AcDbCircle
 10
153.7000008775328
 20
75.90000039447094
 30
0.0
 40
3.000000000000006
100
AcDbArc
 50
270.0
 51
90.0
  0
LINE
  5
661
330
1F
100
AcDbEntity
  8
0
100
AcDbLine
 10
167.3000008775327
 20
109.8500003944708
 30
0.0
 11
167.3000008775327
 21
99.85000039447093
 31
0.0
  0
LINE
  5
662
330
1F
100
AcDbEntity
  8
0
100
AcDbLine
 10
168.4000008775317
 20
92.85000039447092
 30
0.0
 11
178.4000008775319
 21
92.85000039447092
 31
0.0
  0
LINE
  5
663
330
1F
100
AcDbEntity
  8
0
100
AcDbLine
 10
167.3000008775327
 20
109.8500003944708
 30
0.0
 11
168.4000008775317
 21
109.8500003944708
 31
0.0
  0
LINE
  5
664
330
1F
100
AcDbEntity
  8
0
100
AcDbLine
 10
167.2000008775327
 20
108.0500003944708
 30
0.0
 11
167.3000008775332
 21
108.0500003944708
 31
0.0
  0
LINE
  5
665
330
1F
100
AcDbEntity
  8
0
100
AcDbLine
 10
167.2000008775326
 20
101.6500003944708
 30
0.0
 11
167.3000008775332
 21
101.6500003944708
 31
0.0
  0
LINE
  5
666
330
1F
100
AcDbEntity
  8
0
100
AcDbLine
 10
167.3000008775327
 20
99.85000039447093
 30
0.0
 11
168.4000008775316
 21
99.85000039447061
 31
0.0
  0
LINE
  5
667
330
1F
100
AcDbEntity
  8
0
100
AcDbLine
 10
172.2000008775317
 20
96.25000039447094
 30
0.0
 11
174.6000008775318
 21
96.25000039447094
 31
0.0
1001
GENIUS_GENREC_14
1002
{
1000
PYDIR
1011
172.4000008775317
1021
98.45000039447043
1031
0.0
1002
}
1002
{
1000
PXDIR
1011
174.4000008775319
1021
96.45000039447072
1031
0.0
1002
}
1002
{
1000
PORI
1011
172.4000008775317
1021
96.45000039447072
1031
0.0
1002
}
1002
{
1000
PINS
1011
172.4000008775317
1021
96.45000039447072
1031
0.0
1002
}
1002
{
1000
PINS2
1011
174.4000008775319
1021
98.45000039447043
1031
0.0
1002
}
1002
{
1000
C
1070
     1
1002
}
1001
GENIUS_GENODEF_13
1002
{
1000
HIER
1070
     0
1002
}
1002
{
1000
MANEDIT
1070
     0
1002
}
1002
{
1000
NOSEL
1070
     0
1002
}
1002
{
1000
BEHIND
1070
     0
1002
}
1002
{
1000
OTHER
1070
     0
1002
}
1002
{
1000
REACTOR
1002
}
1001
GENIUS_GENOBJ-N-REC_13
1002
{
1000
OWNER
1000
GEN
1002
}
  0
LINE
  5
668
330
1F
100
AcDbEntity
  8
0
100
AcDbLine
 10
174.6000008775318
 20
96.25000039447094
 30
0.0
 11
174.6000008775318
 21
98.45000039447043
 31
0.0
1001
GENIUS_GENREC_14
1002
{
1000
PYDIR
1011
172.4000008775317
1021
98.25000039447033
1031
0.0
1002
}
1002
{
1000
PXDIR
1011
174.4000008775319
1021
96.45000039447072
1031
0.0
1002
}
1002
{
1000
PORI
1011
172.4000008775317
1021
96.45000039447072
1031
0.0
1002
}
1002
{
1000
PINS
1011
172.4000008775317
1021
96.45000039447072
1031
0.0
1002
}
1002
{
1000
PINS2
1011
174.4000008775319
1021
98.25000039447033
1031
0.0
1002
}
1002
{
1000
C
1070
     1
1002
}
1001
GENIUS_GENODEF_13
1002
{
1000
HIER
1070
     0
1002
}
1002
{
1000
MANEDIT
1070
     0
1002
}
1002
{
1000
NOSEL
1070
     0
1002
}
1002
{
1000
BEHIND
1070
     0
1002
}
1002
{
1000
OTHER
1070
     0
1002
}
1002
{
1000
REACTOR
1002
}
1001
GENIUS_GENOBJ-N-REC_13
1002
{
1000
OWNER
1000
GEN
1002
}
  0
LINE
  5
669
330
1F
100
AcDbEntity
  8
0
100
AcDbLine
 10
174.6000008775318
 20
98.45000039447043
 30
0.0
 11
172.2000008775317
 21
98.45000039447043
 31
0.0
1001
GENIUS_GENREC_14
1002
{
1000
PYDIR
1011
172.4000008775317
1021
98.25000039447033
1031
0.0
1002
}
1002
{
1000
PXDIR
1011
174.4000008775319
1021
96.45000039447072
1031
0.0
1002
}
1002
{
1000
PORI
1011
172.4000008775317
1021
96.45000039447072
1031
0.0
1002
}
1002
{
1000
PINS
1011
172.4000008775317
1021
96.45000039447072
1031
0.0
1002
}
1002
{
1000
PINS2
1011
174.4000008775319
1021
98.25000039447033
1031
0.0
1002
}
1002
{
1000
C
1070
     1
1002
}
1001
GENIUS_GENODEF_13
1002
{
1000
HIER
1070
     0
1002
}
1002
{
1000
MANEDIT
1070
     0
1002
}
1002
{
1000
NOSEL
1070
     0
1002
}
1002
{
1000
BEHIND
1070
     0
1002
}
1002
{
1000
OTHER
1070
     0
1002
}
1002
{
1000
REACTOR
1002
}
1001
GENIUS_GENOBJ-N-REC_13
1002
{
1000
OWNER
1000
GEN
1002
}
  0
LINE
  5
66A
330
1F
100
AcDbEntity
  8
0
100
AcDbLine
 10
172.2000008775317
 20
98.45000039447043
 30
0.0
 11
172.2000008775317
 21
96.25000039447094
 31
0.0
1001
GENIUS_GENREC_14
1002
{
1000
PYDIR
1011
172.4000008775317
1021
98.25000039447033
1031
0.0
1002
}
1002
{
1000
PXDIR
1011
174.4000008775319
1021
96.45000039447072
1031
0.0
1002
}
1002
{
1000
PORI
1011
172.4000008775317
1021
96.45000039447072
1031
0.0
1002
}
1002
{
1000
PINS
1011
172.4000008775317
1021
96.45000039447072
1031
0.0
1002
}
1002
{
1000
PINS2
1011
174.4000008775319
1021
98.25000039447033
1031
0.0
1002
}
1002
{
1000
C
1070
     1
1002
}
1001
GENIUS_GENODEF_13
1002
{
1000
HIER
1070
     0
1002
}
1002
{
1000
MANEDIT
1070
     0
1002
}
1002
{
1000
NOSEL
1070
     0
1002
}
1002
{
1000
BEHIND
1070
     0
1002
}
1002
{
1000
OTHER
1070
     0
1002
}
1002
{
1000
REACTOR
1002
}
1001
GENIUS_GENOBJ-N-REC_13
1002
{
1000
OWNER
1000
GEN
1002
}
  0
LINE
  5
66B
330
1F
100
AcDbEntity
  8
0
100
AcDbLine
 10
178.4000008775317
 20
92.85000039448053
 30
0.0
 11
178.4000008775317
 21
116.8500003944709
 31
0.0
  0
LINE
  5
66C
330
1F
100
AcDbEntity
  8
0
100
AcDbLine
 10
168.4000008775316
 20
92.85000039448053
 30
0.0
 11
168.4000008775316
 21
99.85000039447061
 31
0.0
  0
LINE
  5
66D
330
1F
100
AcDbEntity
  8
0
100
AcDbLine
 10
168.4000008775317
 20
109.8500003944708
 30
0.0
 11
168.4000008775317
 21
116.8500003944709
 31
0.0
  0
LINE
  5
66E
330
1F
100
AcDbEntity
  8
0
100
AcDbLine
 10
168.4000008775317
 20
109.8500003944708
 30
0.0
 11
173.4000008775317
 21
104.8500003944709
 31
0.0
  0
LINE
  5
66F
330
1F
100
AcDbEntity
  8
0
100
AcDbLine
 10
173.4000008775317
 20
104.8500003944709
 30
0.0
 11
168.4000008775317
 21
99.85000039447093
 31
0.0
  0
LINE
  5
670
330
1F
100
AcDbEntity
  8
0
100
AcDbLine
 10
177.4000008775319
 20
169.8500003944711
 30
0.0
 11
169.4000008775317
 21
169.850000394471
 31
0.0
  0
LINE
  5
671
330
1F
100
AcDbEntity
  8
0
100
AcDbLine
 10
168.4000008775317
 20
116.8500003944709
 30
0.0
 11
169.4000008775317
 21
169.850000394471
 31
0.0
  0
LINE
  5
672
330
1F
100
AcDbEntity
  8
0
100
AcDbLine
 10
178.4000008775317
 20
116.8500003944709
 30
0.0
 11
177.4000008775319
 21
169.8500003944711
 31
0.0
  0
LINE
  5
673
330
1F
100
AcDbEntity
  8
0
100
AcDbLine
 10
169.5000008775313
 20
169.850000394471
 30
0.0
 11
169.5557990107206
 21
171.7515033203097
 31
0.0
  0
LINE
  5
674
330
1F
100
AcDbEntity
  8
0
100
AcDbLine
 10
177.3000008775313
 20
169.850000394471
 30
0.0
 11
177.244202744342
 21
171.7515033203092
 31
0.0
  0
ARC
  5
675
330
1F
100
AcDbEntity
  8
0
100
AcDbCircle
 10
176.744295174327
 20
171.7418897131938
 30
0.0
 40
0.5
100
AcDbArc
 50
1.101706115201056
 51
69.38841074338523
1001
GENIUS_GENODEF_13
1002
{
1000
HIER
1070
     0
1002
}
1002
{
1000
MANEDIT
1070
     0
1002
}
1002
{
1000
NOSEL
1070
     0
1002
}
1002
{
1000
BEHIND
1070
     0
1002
}
1002
{
1000
OTHER
1070
     0
1002
}
1002
{
1000
REACTOR
1002
}
1001
GENIUS_GENOBJ-N-FIL_13
1002
{
1000
OWNER
1000
GEN
1002
}
  0
ARC
  5
676
330
1F
100
AcDbEntity
  8
0
100
AcDbCircle
 10
170.0557065807355
 20
171.7418897131941
 30
0.0
 40
0.5
100
AcDbArc
 50
110.6115892566115
 51
178.8982938847924
1001
GENIUS_GENOBJ-N-FIL_13
1002
{
1000
OWNER
1000
GEN
1002
}
1001
GENIUS_GENODEF_13
1002
{
1000
HIER
1070
     0
1002
}
1002
{
1000
MANEDIT
1070
     0
1002
}
1002
{
1000
NOSEL
1070
     0
1002
}
1002
{
1000
BEHIND
1070
     0
1002
}
1002
{
1000
OTHER
1070
     0
1002
}
1002
{
1000
REACTOR
1002
}
  0
ARC
  5
677
330
1F
100
AcDbEntity
  8
0
100
AcDbCircle
 10
173.400000877531
 20
162.8500003944709
 30
0.0
 40
10.0
100
AcDbArc
 50
69.38841074338523
 51
81.37307343471128
  0
ARC
  5
678
330
1F
100
AcDbEntity
  8
0
100
AcDbCircle
 10
173.400000877531
 20
162.8500003944709
 30
0.0
 40
10.0
100
AcDbArc
 50
98.62692656528869
 51
110.6115892566115
  0
LINE
  5
679
330
1F
100
AcDbEntity
  8
0
100
AcDbLine
 10
174.9000008786717
 20
172.7368603609405
 30
0.0
 11
171.9000008763903
 21
172.7368603609405
 31
0.0
  0
LINE
  5
67A
330
1F
100
AcDbEntity
  8
0
100
AcDbLine
 10
174.4000008775319
 20
96.75000039447093
 30
0.0
 11
172.4000008775317
 21
96.75000039447082
 31
0.0
  0
LINE
  5
67B
330
1F
100
AcDbEntity
  8
0
100
AcDbLine
 10
177.9000008775318
 20
91.35000039447092
 30
0.0
 11
168.9000008775315
 21
91.35000039447072
 31
0.0
  0
LINE
  5
67C
330
1F
100
AcDbEntity
  8
0
100
AcDbLine
 10
168.4000008775317
 20
91.8500003944708
 30
0.0
 11
168.9000008775315
 21
91.35000039447072
 31
0.0
1001
GENIUS_GENFIL_13
1070
     0
1040
0.5
1040
0.5
1040
20.0
1040
0.0
1002
{
1002
}
1001
GENIUS_GENODEF_13
1002
{
1000
HIER
1070
     0
1002
}
1002
{
1000
MANEDIT
1070
     0
1002
}
1002
{
1000
NOSEL
1070
     0
1002
}
1002
{
1000
BEHIND
1070
     0
1002
}
1002
{
1000
OTHER
1070
     0
1002
}
1002
{
1000
REACTOR
1002
}
1001
GENIUS_GENOBJ-N-CHA_13
1002
{
1000
OWNER
1000
GEN
1002
}
  0
LINE
  5
67D
330
1F
100
AcDbEntity
  8
0
100
AcDbLine
 10
178.4000008775317
 20
92.85000039447092
 30
0.0
 11
178.4000008775319
 21
91.85000039447093
 31
0.0
  0
LINE
  5
67E
330
1F
100
AcDbEntity
  8
0
100
AcDbLine
 10
177.9000008775318
 20
91.35000039447092
 30
0.0
 11
178.4000008775319
 21
91.85000039447093
 31
0.0
1001
GENIUS_GENFIL_13
1070
     0
1040
0.5
1040
0.5
1040
0.4999999999999787
1040
45.00000000000446
1000
~T
1001
GENIUS_GENOREF_13
1005
0
  0
LINE
  5
67F
330
1F
100
AcDbEntity
  8
0
100
AcDbLine
 10
168.4000008775318
 20
92.85000039447092
 30
0.0
 11
168.4000008775317
 21
91.8500003944708
 31
0.0
  0
LINE
  5
680
330
1F
100
AcDbEntity
  8
0
100
AcDbLine
 10
178.4000008775319
 20
91.85000039447123
 30
0.0
 11
168.4000008775317
 21
91.8500003944708
 31
0.0
  0
LINE
  5
681
330
1F
100
AcDbEntity
  8
0
100
AcDbLine
 10
174.4000008775319
 20
98.25000039447033
 30
0.0
 11
172.4000008775317
 21
98.25000039447045
 31
0.0
  0
LINE
  5
682
330
1F
100
AcDbEntity
  8
0
100
AcDbLine
 10
172.4000008775317
 20
96.25000039447094
 30
0.0
 11
172.4000008775317
 21
98.25000039447045
 31
0.0
  0
LINE
  5
683
330
1F
100
AcDbEntity
  8
0
100
AcDbLine
 10
174.4000008775317
 20
96.25000039447094
 30
0.0
 11
174.4000008775319
 21
98.25000039447033
 31
0.0
  0
LINE
  5
684
330
1F
100
AcDbEntity
  8
0
100
AcDbLine
 10
72.00000087753301
 20
92.85000039447092
 30
0.0
 11
60.00000087753273
 21
92.85000039447092
 31
0.0
  0
LINE
  5
685
330
1F
100
AcDbEntity
  8
0
100
AcDbLine
 10
72.90000087753276
 20
109.8500003944708
 30
0.0
 11
72.00000087753301
 21
109.8500003944708
 31
0.0
  0
LINE
  5
686
330
1F
100
AcDbEntity
  8
0
100
AcDbLine
 10
72.90000087753276
 20
99.85000039447081
 30
0.0
 11
72.00000087753301
 21
99.85000039447061
 31
0.0
  0
LINE
  5
687
330
1F
100
AcDbEntity
  8
0
100
AcDbLine
 10
60.00000087753289
 20
86.35000039447081
 30
0.0
 11
60.00000087753289
 21
111.3500003944613
 31
0.0
  0
LINE
  5
688
330
1F
100
AcDbEntity
  8
0
100
AcDbLine
 10
72.00000087753301
 20
86.35000039447081
 30
0.0
 11
72.00000087753301
 21
99.85000039447061
 31
0.0
  0
LINE
  5
689
330
1F
100
AcDbEntity
  8
0
100
AcDbLine
 10
72.00000087753301
 20
109.8500003944708
 30
0.0
 11
72.00000087753301
 21
111.3500003944613
 31
0.0
  0
LINE
  5
68A
330
1F
100
AcDbEntity
  8
0
100
AcDbLine
 10
72.00000087753301
 20
111.3500003944613
 30
0.0
 11
60.00000087753289
 21
111.3500003944613
 31
0.0
  0
LINE
  5
68B
330
1F
100
AcDbEntity
  8
0
100
AcDbLine
 10
60.50000087753272
 20
111.8500003944613
 30
0.0
 11
60.00000087753278
 21
111.3500003944613
 31
0.0
1001
GENIUS_GENFIL_13
1070
     0
1040
0.5
1040
0.5
1040
0.5
1040
45.00000000000325
1002
{
1002
}
1001
GENIUS_GENOBJ-N-CHA_13
1002
{
1000
OWNER
1000
GEN
1002
}
1001
GENIUS_GENODEF_13
1002
{
1000
HIER
1070
     0
1002
}
1002
{
1000
MANEDIT
1070
     0
1002
}
1002
{
1000
NOSEL
1070
     0
1002
}
1002
{
1000
BEHIND
1070
     0
1002
}
1002
{
1000
OTHER
1070
     0
1002
}
1002
{
1000
REACTOR
1002
}
  0
LINE
  5
68C
330
1F
100
AcDbEntity
  8
0
100
AcDbLine
 10
60.50000087753272
 20
111.8500003944613
 30
0.0
 11
71.5000008775329
 21
111.8500003944613
 31
0.0
  0
LINE
  5
68D
330
1F
100
AcDbEntity
  8
0
100
AcDbLine
 10
72.0000008775329
 20
111.3500003944613
 30
0.0
 11
71.5000008775329
 21
111.8500003944613
 31
0.0
1001
GENIUS_GENFIL_13
1070
     0
1040
0.5
1040
0.5
1040
0.5
1040
45.00000000000325
1002
{
1002
}
1001
GENIUS_GENOBJ-N-CHA_13
1002
{
1000
OWNER
1000
GEN
1002
}
1001
GENIUS_GENODEF_13
1002
{
1000
HIER
1070
     0
1002
}
1002
{
1000
MANEDIT
1070
     0
1002
}
1002
{
1000
NOSEL
1070
     0
1002
}
1002
{
1000
BEHIND
1070
     0
1002
}
1002
{
1000
OTHER
1070
     0
1002
}
1002
{
1000
REACTOR
1002
}
  0
SPLINE
  5
68E
330
1F
100
AcDbEntity
  8
0
100
AcDbSpline
210
0.0
220
0.0
230
1.0
 70
     8
 71
     3
 72
    38
 73
    34
 74
     0
 42
0.0000000001
 43
0.0000000001
 40
8.160870181059902
 40
8.160870181059902
 40
8.160870181059902
 40
8.160870181059902
 40
9.159821244704103
 40
9.159821244704103
 40
10.15877230834831
 40
10.15877230834831
 40
11.15772337199251
 40
11.15772337199251
 40
12.15667443563672
 40
12.15667443563672
 40
13.19794091725749
 40
13.19794091725749
 40
14.23920739887826
 40
14.23920739887826
 40
15.28047388049904
 40
15.28047388049904
 40
16.32174036211981
 40
16.32174036211981
 40
17.36300684374058
 40
17.36300684374058
 40
18.40427332536135
 40
18.40427332536135
 40
19.44553980698212
 40
19.44553980698212
 40
20.48680628860289
 40
20.48680628860289
 40
21.4857573522471
 40
21.4857573522471
 40
22.48470841589131
 40
22.48470841589131
 40
23.48365947953551
 40
23.48365947953551
 40
24.48261054317971
 40
24.48261054317971
 40
24.48261054317971
 40
24.48261054317971
 10
72.0000008775329
 20
109.8500003944708
 30
0.0
 10
72.0000008775329
 20
109.8500003944708
 30
0.0
 10
71.97174978901069
 20
109.8162097753895
 30
0.0
 10
71.8592519804755
 20
109.6803496614252
 30
0.0
 10
71.77506278037833
 20
109.5783411992122
 30
0.0
 10
71.56271627078843
 20
109.3165056469499
 30
0.0
 10
71.43440243201678
 20
109.1564488349756
 30
0.0
 10
71.1531507149424
 20
108.7955968202999
 30
0.0
 10
71.00030355805699
 20
108.5948001722767
 30
0.0
 10
70.68859283183122
 20
108.1674039574277
 30
0.0
 10
70.51718113304821
 20
107.9233802186445
 30
0.0
 10
70.17527512959931
 20
107.3943394459957
 30
0.0
 10
70.00476942404144
 20
107.1094332664065
 30
0.0
 10
69.69928054474404
 20
106.5087761539527
 30
0.0
 10
69.5643931900928
 20
106.1928219951342
 30
0.0
 10
69.37251884592261
 20
105.5371355041703
 30
0.0
 10
69.31662566788817
 20
105.1970892216777
 30
0.0
 10
69.31662566788817
 20
104.502911567264
 30
0.0
 10
69.37251884592261
 20
104.1628652847713
 30
0.0
 10
69.5643931900928
 20
103.5071787938074
 30
0.0
 10
69.69928054474404
 20
103.1912246349888
 30
0.0
 10
70.00476942404144
 20
102.5905675225352
 30
0.0
 10
70.17527512959931
 20
102.3056613429459
 30
0.0
 10
70.51718113304821
 20
101.7766205702972
 30
0.0
 10
70.68859283183122
 20
101.5325968315138
 30
0.0
 10
71.00030355805699
 20
101.1052006166648
 30
0.0
 10
71.1531507149424
 20
100.9044039686418
 30
0.0
 10
71.43440243201678
 20
100.5435519539661
 30
0.0
 10
71.56271627078843
 20
100.3834951419917
 30
0.0
 10
71.77506278037833
 20
100.1216595897294
 30
0.0
 10
71.8592519804755
 20
100.0196511275165
 30
0.0
 10
71.97174978901069
 20
99.88379101355221
 30
0.0
 10
72.0000008775329
 20
99.85000039447081
 30
0.0
 10
72.0000008775329
 20
99.85000039447081
 30
0.0
  0
LINE
  5
68F
330
1F
100
AcDbEntity
  8
0
100
AcDbLine
 10
72.0000008775329
 20
92.85000039447092
 30
0.0
 11
60.00000087753284
 21
92.85000039447092
 31
0.0
  0
LINE
  5
690
330
1F
100
AcDbEntity
  8
0
100
AcDbLine
 10
66.0000008774731
 20
91.35000039447072
 30
0.0
 11
66.0000008774731
 21
86.35000039447081
 31
0.0
  0
LINE
  5
691
330
1F
100
AcDbEntity
  8
0
100
AcDbLine
 10
72.0000008775329
 20
84.85000039447081
 30
0.0
 11
72.0000008775329
 21
76.85000039447081
 31
0.0
  0
LINE
  5
692
330
1F
100
AcDbEntity
  8
0
100
AcDbLine
 10
66.0000008774731
 20
84.85000039447081
 30
0.0
 11
66.0000008774731
 21
76.85000039447081
 31
0.0
  0
LINE
  5
693
330
1F
100
AcDbEntity
  8
0
100
AcDbLine
 10
60.00000087753284
 20
84.85000039447081
 30
0.0
 11
60.00000087753284
 21
76.85000039447081
 31
0.0
  0
LINE
  5
694
330
1F
100
AcDbEntity
  8
0
100
AcDbLine
 10
72.0000008775329
 20
91.35000039447072
 30
0.0
 11
60.00000087753284
 21
91.35000039447072
 31
0.0
  0
LINE
  5
695
330
1F
100
AcDbEntity
  8
0
100
AcDbLine
 10
71.00000087753278
 20
84.85000039447081
 30
0.0
 11
71.00000087753278
 21
86.35000039447081
 31
0.0
  0
LINE
  5
696
330
1F
100
AcDbEntity
  8
0
100
AcDbLine
 10
61.00000087753284
 20
84.85000039447081
 30
0.0
 11
61.00000087753284
 21
86.35000039447081
 31
0.0
  0
LINE
  5
697
330
1F
100
AcDbEntity
  8
0
100
AcDbLine
 10
60.50000087753284
 20
76.85000039447081
 30
0.0
 11
60.50000087753284
 21
75.85000039447081
 31
0.0
  0
LINE
  5
698
330
1F
100
AcDbEntity
  8
0
100
AcDbLine
 10
71.5000008775329
 20
76.85000039447081
 30
0.0
 11
71.5000008775329
 21
75.85000039447081
 31
0.0
  0
LINE
  5
699
330
1F
100
AcDbEntity
  8
0
100
AcDbLine
 10
69.5000008775329
 20
73.85000039447081
 30
0.0
 11
62.50000087753284
 21
73.85000039447081
 31
0.0
  0
ARC
  5
69A
330
1F
100
AcDbEntity
  8
0
100
AcDbCircle
 10
62.50000087753284
 20
75.85000039447081
 30
0.0
 40
2.0
100
AcDbArc
 50
180.0
 51
270.0
  0
ARC
  5
69B
330
1F
100
AcDbEntity
  8
0
100
AcDbCircle
 10
69.5000008775329
 20
75.85000039447081
 30
0.0
 40
2.0
100
AcDbArc
 50
270.0
 51
0.0
  0
LINE
  5
69C
330
1F
100
AcDbEntity
  8
0
100
AcDbLine
 10
60.00000087753289
 20
86.35000039447081
 30
0.0
 11
72.00000087753301
 21
86.35000039447081
 31
0.0
  0
LINE
  5
69D
330
1F
100
AcDbEntity
  8
0
100
AcDbLine
 10
60.00000087753284
 20
84.85000039447081
 30
0.0
 11
72.0000008775329
 21
84.85000039447081
 31
0.0
  0
LINE
  5
69E
330
1F
100
AcDbEntity
  8
0
100
AcDbLine
 10
60.00000087753284
 20
76.85000039447081
 30
0.0
 11
72.0000008775329
 21
76.85000039447081
 31
0.0
  0
LINE
  5
69F
330
1F
100
AcDbEntity
  8
0
100
AcDbLine
 10
163.7000008775327
 20
125.3500003944708
 30
0.0
 11
163.7000008775326
 21
68.35000039447081
 31
0.0
  0
LINE
  5
6A0
330
1F
100
AcDbEntity
  8
0
100
AcDbLine
 10
163.6500008775328
 20
68.40000039447094
 30
0.0
 11
163.6500008775328
 21
83.40000039447103
 31
0.0
  0
LINE
  5
6A1
330
1F
100
AcDbEntity
  8
0
100
AcDbLine
 10
76.75000087753256
 20
124.3000003944709
 30
0.0
 11
163.6500008775328
 21
124.3000003944713
 31
0.0
  0
LINE
  5
6A2
330
1F
100
AcDbEntity
  8
0
100
AcDbLine
 10
76.75000087753256
 20
123.300000394471
 30
0.0
 11
163.6500008775328
 21
123.3000003944712
 31
0.0
  0
LINE
  5
6A3
330
1F
100
AcDbEntity
  8
0
100
AcDbLine
 10
76.75000087753256
 20
122.3000003944709
 30
0.0
 11
163.6500008775328
 21
122.3000003944713
 31
0.0
  0
LINE
  5
6A4
330
1F
100
AcDbEntity
  8
0
100
AcDbLine
 10
76.75000087753256
 20
121.300000394471
 30
0.0
 11
163.6500008775328
 21
121.3000003944713
 31
0.0
  0
LINE
  5
6A5
330
1F
100
AcDbEntity
  8
0
100
AcDbLine
 10
76.75000087753256
 20
120.3000003944709
 30
0.0
 11
163.6500008775328
 21
120.3000003944713
 31
0.0
  0
LINE
  5
6A6
330
1F
100
AcDbEntity
  8
0
100
AcDbLine
 10
76.75000087753256
 20
119.300000394471
 30
0.0
 11
163.6500008775328
 21
119.3000003944713
 31
0.0
  0
LINE
  5
6A7
330
1F
100
AcDbEntity
  8
0
100
AcDbLine
 10
76.75000087753256
 20
118.3000003944709
 30
0.0
 11
85.94006666985416
 21
118.3000003944709
 31
0.0
  0
LINE
  5
6A8
330
1F
100
AcDbEntity
  8
0
100
AcDbLine
 10
154.4599350852108
 20
118.3000003944713
 30
0.0
 11
163.6500008775328
 21
118.3000003944713
 31
0.0
  0
LINE
  5
6A9
330
1F
100
AcDbEntity
  8
0
100
AcDbLine
 10
76.75000087753256
 20
117.300000394471
 30
0.0
 11
85.7000008775326
 21
117.300000394471
 31
0.0
  0
LINE
  5
6AA
330
1F
100
AcDbEntity
  8
0
100
AcDbLine
 10
154.7000008775326
 20
117.3000003944713
 30
0.0
 11
163.6500008775328
 21
117.3000003944713
 31
0.0
  0
LINE
  5
6AB
330
1F
100
AcDbEntity
  8
0
100
AcDbLine
 10
76.75000087753256
 20
116.3000003944709
 30
0.0
 11
85.7000008775326
 21
116.3000003944709
 31
0.0
  0
LINE
  5
6AC
330
1F
100
AcDbEntity
  8
0
100
AcDbLine
 10
154.7000008775326
 20
116.3000003944713
 30
0.0
 11
163.6500008775328
 21
116.3000003944713
 31
0.0
  0
LINE
  5
6AD
330
1F
100
AcDbEntity
  8
0
100
AcDbLine
 10
76.75000087753256
 20
115.300000394471
 30
0.0
 11
85.7000008775326
 21
115.300000394471
 31
0.0
  0
LINE
  5
6AE
330
1F
100
AcDbEntity
  8
0
100
AcDbLine
 10
154.7000008775326
 20
115.3000003944713
 30
0.0
 11
163.6500008775328
 21
115.3000003944713
 31
0.0
  0
LINE
  5
6AF
330
1F
100
AcDbEntity
  8
0
100
AcDbLine
 10
76.75000087753256
 20
114.3000003944709
 30
0.0
 11
85.7000008775326
 21
114.3000003944709
 31
0.0
  0
LINE
  5
6B0
330
1F
100
AcDbEntity
  8
0
100
AcDbLine
 10
154.7000008775326
 20
114.3000003944713
 30
0.0
 11
163.6500008775328
 21
114.3000003944713
 31
0.0
  0
LINE
  5
6B1
330
1F
100
AcDbEntity
  8
0
100
AcDbLine
 10
76.75000087753256
 20
113.300000394471
 30
0.0
 11
85.7000008775326
 21
113.300000394471
 31
0.0
  0
LINE
  5
6B2
330
1F
100
AcDbEntity
  8
0
100
AcDbLine
 10
154.7000008775326
 20
113.3000003944713
 30
0.0
 11
163.6500008775328
 21
113.3000003944713
 31
0.0
  0
LINE
  5
6B3
330
1F
100
AcDbEntity
  8
0
100
AcDbLine
 10
76.75000087753256
 20
112.300000394471
 30
0.0
 11
85.7000008775326
 21
112.300000394471
 31
0.0
  0
LINE
  5
6B4
330
1F
100
AcDbEntity
  8
0
100
AcDbLine
 10
154.7000008775326
 20
112.3000003944713
 30
0.0
 11
163.6500008775328
 21
112.3000003944713
 31
0.0
  0
LINE
  5
6B5
330
1F
100
AcDbEntity
  8
0
100
AcDbLine
 10
76.75000087753256
 20
111.300000394471
 30
0.0
 11
85.7000008775326
 21
111.300000394471
 31
0.0
  0
LINE
  5
6B6
330
1F
100
AcDbEntity
  8
0
100
AcDbLine
 10
154.7000008775326
 20
111.3000003944713
 30
0.0
 11
163.6500008775328
 21
111.3000003944713
 31
0.0
  0
LINE
  5
6B7
330
1F
100
AcDbEntity
  8
0
100
AcDbLine
 10
76.75000087753256
 20
110.300000394471
 30
0.0
 11
85.7000008775326
 21
110.300000394471
 31
0.0
  0
LINE
  5
6B8
330
1F
100
AcDbEntity
  8
0
100
AcDbLine
 10
154.7000008775326
 20
110.3000003944713
 30
0.0
 11
163.6500008775328
 21
110.3000003944713
 31
0.0
  0
LINE
  5
6B9
330
1F
100
AcDbEntity
  8
0
100
AcDbLine
 10
76.75000087753256
 20
109.300000394471
 30
0.0
 11
85.7000008775326
 21
109.300000394471
 31
0.0
  0
LINE
  5
6BA
330
1F
100
AcDbEntity
  8
0
100
AcDbLine
 10
154.7000008775326
 20
109.3000003944713
 30
0.0
 11
163.6500008775328
 21
109.3000003944713
 31
0.0
  0
LINE
  5
6BB
330
1F
100
AcDbEntity
  8
0
100
AcDbLine
 10
76.75000087753256
 20
108.300000394471
 30
0.0
 11
85.7000008775326
 21
108.300000394471
 31
0.0
  0
LINE
  5
6BC
330
1F
100
AcDbEntity
  8
0
100
AcDbLine
 10
154.7000008775326
 20
108.3000003944713
 30
0.0
 11
163.6500008775328
 21
108.3000003944713
 31
0.0
  0
LINE
  5
6BD
330
1F
100
AcDbEntity
  8
0
100
AcDbLine
 10
76.75000087753256
 20
107.300000394471
 30
0.0
 11
85.7000008775326
 21
107.300000394471
 31
0.0
  0
LINE
  5
6BE
330
1F
100
AcDbEntity
  8
0
100
AcDbLine
 10
154.7000008775326
 20
107.3000003944713
 30
0.0
 11
163.6500008775328
 21
107.3000003944713
 31
0.0
  0
LINE
  5
6BF
330
1F
100
AcDbEntity
  8
0
100
AcDbLine
 10
76.75000087753256
 20
106.300000394471
 30
0.0
 11
85.7000008775326
 21
106.300000394471
 31
0.0
  0
LINE
  5
6C0
330
1F
100
AcDbEntity
  8
0
100
AcDbLine
 10
154.7000008775326
 20
106.3000003944713
 30
0.0
 11
163.6500008775328
 21
106.3000003944713
 31
0.0
  0
LINE
  5
6C1
330
1F
100
AcDbEntity
  8
0
100
AcDbLine
 10
76.75000087753256
 20
105.300000394471
 30
0.0
 11
85.7000008775326
 21
105.300000394471
 31
0.0
  0
LINE
  5
6C2
330
1F
100
AcDbEntity
  8
0
100
AcDbLine
 10
154.7000008775326
 20
105.3000003944713
 30
0.0
 11
163.6500008775328
 21
105.3000003944713
 31
0.0
  0
LINE
  5
6C3
330
1F
100
AcDbEntity
  8
0
100
AcDbLine
 10
76.75000087753256
 20
104.300000394471
 30
0.0
 11
85.7000008775326
 21
104.300000394471
 31
0.0
  0
LINE
  5
6C4
330
1F
100
AcDbEntity
  8
0
100
AcDbLine
 10
154.7000008775326
 20
104.3000003944713
 30
0.0
 11
163.6500008775328
 21
104.3000003944713
 31
0.0
  0
LINE
  5
6C5
330
1F
100
AcDbEntity
  8
0
100
AcDbLine
 10
76.75000087753256
 20
103.300000394471
 30
0.0
 11
85.7000008775326
 21
103.300000394471
 31
0.0
  0
LINE
  5
6C6
330
1F
100
AcDbEntity
  8
0
100
AcDbLine
 10
154.7000008775326
 20
103.3000003944713
 30
0.0
 11
163.6500008775328
 21
103.3000003944713
 31
0.0
  0
LINE
  5
6C7
330
1F
100
AcDbEntity
  8
0
100
AcDbLine
 10
76.75000087753256
 20
102.300000394471
 30
0.0
 11
85.7000008775326
 21
102.300000394471
 31
0.0
  0
LINE
  5
6C8
330
1F
100
AcDbEntity
  8
0
100
AcDbLine
 10
154.7000008775326
 20
102.3000003944713
 30
0.0
 11
163.6500008775328
 21
102.3000003944713
 31
0.0
  0
LINE
  5
6C9
330
1F
100
AcDbEntity
  8
0
100
AcDbLine
 10
76.75000087753256
 20
101.3000003944709
 30
0.0
 11
85.7000008775326
 21
101.3000003944709
 31
0.0
  0
LINE
  5
6CA
330
1F
100
AcDbEntity
  8
0
100
AcDbLine
 10
154.7000008775326
 20
101.3000003944713
 30
0.0
 11
163.6500008775328
 21
101.3000003944713
 31
0.0
  0
LINE
  5
6CB
330
1F
100
AcDbEntity
  8
0
100
AcDbLine
 10
76.75000087753256
 20
100.300000394471
 30
0.0
 11
85.7000008775326
 21
100.300000394471
 31
0.0
  0
LINE
  5
6CC
330
1F
100
AcDbEntity
  8
0
100
AcDbLine
 10
154.7000008775326
 20
100.3000003944713
 30
0.0
 11
163.6500008775328
 21
100.3000003944713
 31
0.0
  0
LINE
  5
6CD
330
1F
100
AcDbEntity
  8
0
100
AcDbLine
 10
76.75000087753256
 20
99.30000039447094
 30
0.0
 11
85.7000008775326
 21
99.30000039447094
 31
0.0
  0
LINE
  5
6CE
330
1F
100
AcDbEntity
  8
0
100
AcDbLine
 10
154.7000008775326
 20
99.30000039447131
 30
0.0
 11
163.6500008775328
 21
99.30000039447131
 31
0.0
  0
LINE
  5
6CF
330
1F
100
AcDbEntity
  8
0
100
AcDbLine
 10
76.75000087753256
 20
98.30000039447103
 30
0.0
 11
85.7000008775326
 21
98.30000039447103
 31
0.0
  0
LINE
  5
6D0
330
1F
100
AcDbEntity
  8
0
100
AcDbLine
 10
154.7000008775326
 20
98.30000039447122
 30
0.0
 11
163.6500008775328
 21
98.30000039447122
 31
0.0
  0
LINE
  5
6D1
330
1F
100
AcDbEntity
  8
0
100
AcDbLine
 10
76.75000087753256
 20
97.30000039447094
 30
0.0
 11
85.7000008775326
 21
97.30000039447094
 31
0.0
  0
LINE
  5
6D2
330
1F
100
AcDbEntity
  8
0
100
AcDbLine
 10
154.7000008775326
 20
97.30000039447123
 30
0.0
 11
163.6500008775328
 21
97.30000039447123
 31
0.0
  0
LINE
  5
6D3
330
1F
100
AcDbEntity
  8
0
100
AcDbLine
 10
76.75000087753256
 20
96.30000039447104
 30
0.0
 11
85.7000008775326
 21
96.30000039447104
 31
0.0
  0
LINE
  5
6D4
330
1F
100
AcDbEntity
  8
0
100
AcDbLine
 10
154.7000008775326
 20
96.30000039447132
 30
0.0
 11
163.6500008775328
 21
96.30000039447132
 31
0.0
  0
LINE
  5
6D5
330
1F
100
AcDbEntity
  8
0
100
AcDbLine
 10
76.75000087753256
 20
95.30000039447093
 30
0.0
 11
85.7000008775326
 21
95.30000039447093
 31
0.0
  0
LINE
  5
6D6
330
1F
100
AcDbEntity
  8
0
100
AcDbLine
 10
154.7000008775326
 20
95.30000039447131
 30
0.0
 11
163.6500008775328
 21
95.30000039447131
 31
0.0
  0
LINE
  5
6D7
330
1F
100
AcDbEntity
  8
0
100
AcDbLine
 10
76.75000087753256
 20
94.30000039447103
 30
0.0
 11
85.7000008775326
 21
94.30000039447103
 31
0.0
  0
LINE
  5
6D8
330
1F
100
AcDbEntity
  8
0
100
AcDbLine
 10
154.7000008775326
 20
94.30000039447131
 30
0.0
 11
163.6500008775328
 21
94.30000039447131
 31
0.0
  0
LINE
  5
6D9
330
1F
100
AcDbEntity
  8
0
100
AcDbLine
 10
76.75000087753256
 20
93.30000039447094
 30
0.0
 11
85.7000008775326
 21
93.30000039447103
 31
0.0
  0
LINE
  5
6DA
330
1F
100
AcDbEntity
  8
0
100
AcDbLine
 10
154.7000008775326
 20
93.30000039447131
 30
0.0
 11
163.6500008775328
 21
93.30000039447131
 31
0.0
  0
LINE
  5
6DB
330
1F
100
AcDbEntity
  8
0
100
AcDbLine
 10
76.75000087753256
 20
92.30000039447103
 30
0.0
 11
85.7000008775326
 21
92.30000039447103
 31
0.0
  0
LINE
  5
6DC
330
1F
100
AcDbEntity
  8
0
100
AcDbLine
 10
154.7000008775326
 20
92.30000039447125
 30
0.0
 11
163.6500008775328
 21
92.30000039447132
 31
0.0
  0
LINE
  5
6DD
330
1F
100
AcDbEntity
  8
0
100
AcDbLine
 10
76.75000087753256
 20
91.30000039447093
 30
0.0
 11
85.7000008775326
 21
91.30000039447102
 31
0.0
  0
LINE
  5
6DE
330
1F
100
AcDbEntity
  8
0
100
AcDbLine
 10
154.7000008775326
 20
91.3000003944713
 30
0.0
 11
163.6500008775328
 21
91.3000003944713
 31
0.0
  0
LINE
  5
6DF
330
1F
100
AcDbEntity
  8
0
100
AcDbLine
 10
76.75000087753256
 20
90.30000039447102
 30
0.0
 11
85.7000008775326
 21
90.30000039447102
 31
0.0
  0
LINE
  5
6E0
330
1F
100
AcDbEntity
  8
0
100
AcDbLine
 10
154.7000008775326
 20
90.30000039447124
 30
0.0
 11
163.6500008775328
 21
90.30000039447131
 31
0.0
  0
LINE
  5
6E1
330
1F
100
AcDbEntity
  8
0
100
AcDbLine
 10
76.75000087753256
 20
89.30000039447092
 30
0.0
 11
85.7000008775326
 21
89.30000039447103
 31
0.0
  0
LINE
  5
6E2
330
1F
100
AcDbEntity
  8
0
100
AcDbLine
 10
154.7000008775326
 20
89.30000039447131
 30
0.0
 11
163.6500008775328
 21
89.30000039447131
 31
0.0
  0
LINE
  5
6E3
330
1F
100
AcDbEntity
  8
0
100
AcDbLine
 10
76.75000087753256
 20
88.30000039447103
 30
0.0
 11
86.17321818988973
 21
88.30000039447103
 31
0.0
  0
LINE
  5
6E4
330
1F
100
AcDbEntity
  8
0
100
AcDbLine
 10
154.2267835651759
 20
88.30000039447124
 30
0.0
 11
163.6500008775328
 21
88.30000039447131
 31
0.0
  0
LINE
  5
6E5
330
1F
100
AcDbEntity
  8
0
100
AcDbLine
 10
76.75000087753256
 20
87.30000039447093
 30
0.0
 11
163.6500008775328
 21
87.30000039447132
 31
0.0
  0
LINE
  5
6E6
330
1F
100
AcDbEntity
  8
0
100
AcDbLine
 10
76.75000087753256
 20
86.30000039447093
 30
0.0
 11
163.6500008775328
 21
86.3000003944713
 31
0.0
  0
LINE
  5
6E7
330
1F
100
AcDbEntity
  8
0
100
AcDbLine
 10
76.75000087753256
 20
85.30000039447093
 30
0.0
 11
163.6500008775328
 21
85.30000039447131
 31
0.0
  0
LINE
  5
6E8
330
1F
100
AcDbEntity
  8
0
100
AcDbLine
 10
76.75000087753256
 20
84.30000039447092
 30
0.0
 11
163.6500008775328
 21
84.30000039447131
 31
0.0
  0
LINE
  5
6E9
330
1F
100
AcDbEntity
  8
0
100
AcDbLine
 10
154.7000008775326
 20
117.6500003944709
 30
0.0
 11
154.7000008775326
 21
89.15000039447093
 31
0.0
1001
GENIUS_GENREC_14
1002
{
1000
PYDIR
1011
159.2000008775326
1021
117.150000394471
1031
0.0
1002
}
1002
{
1000
PXDIR
1011
219.2000008775327
1021
89.65000039447081
1031
0.0
1002
}
1002
{
1000
PORI
1011
159.2000008775326
1021
89.65000039447081
1031
0.0
1002
}
1002
{
1000
PINS
1011
159.2000008775326
1021
89.65000039447081
1031
0.0
1002
}
1002
{
1000
PINS2
1011
219.2000008775327
1021
117.150000394471
1031
0.0
1002
}
1002
{
1000
C
1070
     1
1002
}
1001
GENIUS_GENOBJ-N-REC_13
1002
{
1000
OWNER
1000
GEN
1002
}
1001
GENIUS_GENODEF_13
1002
{
1000
HIER
1070
     0
1002
}
1002
{
1000
MANEDIT
1070
     0
1002
}
1002
{
1000
NOSEL
1070
     0
1002
}
1002
{
1000
BEHIND
1070
     0
1002
}
1002
{
1000
OTHER
1070
     0
1002
}
1002
{
1000
REACTOR
1002
}
  0
LINE
  5
6EA
330
1F
100
AcDbEntity
  8
0
100
AcDbLine
 10
363.7000008775326
 20
128.8500003944707
 30
0.0
 11
276.7000008775328
 21
128.8500003944707
 31
0.0
  0
LINE
  5
6EB
330
1F
100
AcDbEntity
  8
0
100
AcDbLine
 10
340.2000008775328
 20
116.6000003944708
 30
0.0
 11
300.2000008775328
 21
116.6000003944708
 31
0.0
  0
LINE
  5
6EC
330
1F
100
AcDbEntity
  8
0
100
AcDbLine
 10
273.200000877533
 20
125.3500003944708
 30
0.0
 11
273.200000877533
 21
68.35000039447073
 31
0.0
  0
ARC
  5
6ED
330
1F
100
AcDbEntity
  8
0
100
AcDbCircle
 10
276.7000008775328
 20
125.3500003944708
 30
0.0
 40
3.5
100
AcDbArc
 50
90.0
 51
180.0
1001
GENIUS_GENOBJ-N-FIL_13
1002
{
1000
OWNER
1000
GEN
1002
}
1001
GENIUS_GENODEF_13
1002
{
1000
HIER
1070
     0
1002
}
1002
{
1000
MANEDIT
1070
     0
1002
}
1002
{
1000
NOSEL
1070
     0
1002
}
1002
{
1000
BEHIND
1070
     0
1002
}
1002
{
1000
OTHER
1070
     0
1002
}
1002
{
1000
REACTOR
1002
}
  0
LINE
  5
6EE
330
1F
100
AcDbEntity
  8
0
100
AcDbLine
 10
367.2000008775328
 20
125.3500003944707
 30
0.0
 11
367.2000008775331
 21
68.35000039447073
 31
0.0
  0
ARC
  5
6EF
330
1F
100
AcDbEntity
  8
0
100
AcDbCircle
 10
363.7000008775331
 20
68.35000039447063
 30
0.0
 40
3.5
100
AcDbArc
 50
270.0
 51
0.0
1001
GENIUS_GENODEF_13
1002
{
1000
HIER
1070
     0
1002
}
1002
{
1000
MANEDIT
1070
     0
1002
}
1002
{
1000
NOSEL
1070
     0
1002
}
1002
{
1000
BEHIND
1070
     0
1002
}
1002
{
1000
OTHER
1070
     0
1002
}
1002
{
1000
REACTOR
1002
}
1001
GENIUS_GENOBJ-N-FIL_13
1002
{
1000
OWNER
1000
GEN
1002
}
  0
ARC
  5
6F0
330
1F
100
AcDbEntity
  8
0
100
AcDbCircle
 10
363.7000008775326
 20
125.3500003944707
 30
0.0
 40
3.5
100
AcDbArc
 50
0.0
 51
90.0
1001
GENIUS_GENODEF_13
1002
{
1000
HIER
1070
     0
1002
}
1002
{
1000
MANEDIT
1070
     0
1002
}
1002
{
1000
NOSEL
1070
     0
1002
}
1002
{
1000
BEHIND
1070
     0
1002
}
1002
{
1000
OTHER
1070
     0
1002
}
1002
{
1000
REACTOR
1002
}
1001
GENIUS_GENOBJ-N-FIL_13
1002
{
1000
OWNER
1000
GEN
1002
}
  0
LINE
  5
6F1
330
1F
100
AcDbEntity
  8
0
100
AcDbLine
 10
287.700000877533
 20
115.8500003944707
 30
0.0
 11
352.7000008775325
 21
115.8500003944706
 31
0.0
  0
LINE
  5
6F2
330
1F
100
AcDbEntity
  8
0
100
AcDbLine
 10
287.7000008775329
 20
64.85000039447062
 30
0.0
 11
287.700000877533
 21
115.8500003944707
 31
0.0
  0
LINE
  5
6F3
330
1F
100
AcDbEntity
  8
0
100
AcDbLine
 10
283.450000877533
 20
66.35000039447063
 30
0.0
 11
283.4500008775331
 21
127.3500003944708
 31
0.0
  0
ARC
  5
6F4
330
1F
100
AcDbEntity
  8
0
100
AcDbCircle
 10
284.9500008775331
 20
127.3500003944708
 30
0.0
 40
1.5
100
AcDbArc
 50
90.0
 51
180.0
1001
GENIUS_GENODEF_13
1002
{
1000
HIER
1070
     0
1002
}
1002
{
1000
MANEDIT
1070
     0
1002
}
1002
{
1000
NOSEL
1070
     0
1002
}
1002
{
1000
BEHIND
1070
     0
1002
}
1002
{
1000
OTHER
1070
     0
1002
}
1002
{
1000
REACTOR
1002
}
1001
GENIUS_GENOBJ-N-FIL_13
1002
{
1000
OWNER
1000
GEN
1002
}
  0
ARC
  5
6F5
330
1F
100
AcDbEntity
  8
0
100
AcDbCircle
 10
284.9500008775328
 20
66.35000039447063
 30
0.0
 40
1.5
100
AcDbArc
 50
180.0
 51
270.0
1001
GENIUS_GENODEF_13
1002
{
1000
HIER
1070
     0
1002
}
1002
{
1000
MANEDIT
1070
     0
1002
}
1002
{
1000
NOSEL
1070
     0
1002
}
1002
{
1000
BEHIND
1070
     0
1002
}
1002
{
1000
OTHER
1070
     0
1002
}
1002
{
1000
REACTOR
1002
}
1001
GENIUS_GENOBJ-N-FIL_13
1002
{
1000
OWNER
1000
GEN
1002
}
  0
CIRCLE
  5
6F6
330
1F
100
AcDbEntity
  8
0
100
AcDbCircle
 10
360.2000008775328
 20
121.8500003944709
 30
0.0
 40
2.5
  0
CIRCLE
  5
6F7
330
1F
100
AcDbEntity
  8
0
100
AcDbCircle
 10
280.2000008775328
 20
121.850000394471
 30
0.0
 40
2.5
  0
CIRCLE
  5
6F8
330
1F
100
AcDbEntity
  8
0
100
AcDbCircle
 10
280.2000008775327
 20
71.85000039447032
 30
0.0
 40
2.5
  0
LINE
  5
6F9
330
1F
100
AcDbEntity
  8
0
100
AcDbLine
 10
296.9500008775328
 20
124.3500003944708
 30
0.0
 11
296.9500008775328
 21
123.0886131819965
 31
0.0
  0
LINE
  5
6FA
330
1F
100
AcDbEntity
  8
0
100
AcDbLine
 10
293.4500008775328
 20
124.3500003944708
 30
0.0
 11
293.4500008775328
 21
123.0886131819966
 31
0.0
  0
ARC
  5
6FB
330
1F
100
AcDbEntity
  8
0
100
AcDbCircle
 10
295.2000008775326
 20
120.3500003944707
 30
0.0
 40
3.25
100
AcDbArc
 50
122.5789703928047
 51
57.42102960719503
  0
ARC
  5
6FC
330
1F
100
AcDbEntity
  8
0
100
AcDbCircle
 10
295.2000008775328
 20
124.3500003944707
 30
0.0
 40
1.75
100
AcDbArc
 50
0.0000000000032569
 51
180.0
1001
GENIUS_GENODEF_13
1002
{
1000
HIER
1070
     0
1002
}
1002
{
1000
MANEDIT
1070
     0
1002
}
1002
{
1000
NOSEL
1070
     0
1002
}
1002
{
1000
BEHIND
1070
     0
1002
}
1002
{
1000
OTHER
1070
     0
1002
}
1002
{
1000
REACTOR
1002
}
1001
GENIUS_GENOBJ-N-FIL_13
1002
{
1000
OWNER
1000
GEN
1002
}
  0
LINE
  5
6FD
330
1F
100
AcDbEntity
  8
0
100
AcDbLine
 10
300.2000008775328
 20
126.6000003944707
 30
0.0
 11
300.2000008775328
 21
116.6000003944708
 31
0.0
  0
LINE
  5
6FE
330
1F
100
AcDbEntity
  8
0
100
AcDbLine
 10
340.2000008775328
 20
126.6000003944707
 30
0.0
 11
340.2000008775328
 21
116.6000003944708
 31
0.0
  0
CIRCLE
  5
6FF
330
1F
100
AcDbEntity
  8
0
100
AcDbCircle
 10
360.2000008775328
 20
71.85000039447053
 30
0.0
 40
2.5
  0
LINE
  5
700
330
1F
100
AcDbEntity
  8
0
100
AcDbLine
 10
363.7000008775331
 20
64.85000039447062
 30
0.0
 11
276.7000008775328
 21
64.85000039447062
 31
0.0
  0
ARC
  5
702
330
1F
100
AcDbEntity
  8
0
100
AcDbCircle
 10
355.4500008775325
 20
66.35000039447063
 30
0.0
 40
1.5
100
AcDbArc
 50
270.0
 51
0.0
1001
GENIUS_GENODEF_13
1002
{
1000
HIER
1070
     0
1002
}
1002
{
1000
MANEDIT
1070
     0
1002
}
1002
{
1000
NOSEL
1070
     0
1002
}
1002
{
1000
BEHIND
1070
     0
1002
}
1002
{
1000
OTHER
1070
     0
1002
}
1002
{
1000
REACTOR
1002
}
1001
GENIUS_GENOBJ-N-FIL_13
1002
{
1000
OWNER
1000
GEN
1002
}
  0
ARC
  5
703
330
1F
100
AcDbEntity
  8
0
100
AcDbCircle
 10
276.7000008775328
 20
68.35000039447063
 30
0.0
 40
3.5
100
AcDbArc
 50
180.0
 51
270.0
1001
GENIUS_GENOBJ-N-FIL_13
1002
{
1000
OWNER
1000
GEN
1002
}
1001
GENIUS_GENODEF_13
1002
{
1000
HIER
1070
     0
1002
}
1002
{
1000
MANEDIT
1070
     0
1002
}
1002
{
1000
NOSEL
1070
     0
1002
}
1002
{
1000
BEHIND
1070
     0
1002
}
1002
{
1000
OTHER
1070
     0
1002
}
1002
{
1000
REACTOR
1002
}
  0
LINE
  5
704
330
1F
100
AcDbEntity
  8
0
100
AcDbLine
 10
352.7000008775326
 20
64.85000039447062
 30
0.0
 11
352.7000008775325
 21
115.8500003944706
 31
0.0
  0
LINE
  5
705
330
1F
100
AcDbEntity
  8
0
100
AcDbLine
 10
356.9500008775325
 20
66.35000039447063
 30
0.0
 11
356.9500008775325
 21
127.3500003944708
 31
0.0
  0
ARC
  5
706
330
1F
100
AcDbEntity
  8
0
100
AcDbCircle
 10
355.4500008775325
 20
127.3500003944708
 30
0.0
 40
1.5
100
AcDbArc
 50
0.0
 51
90.0
1001
GENIUS_GENOBJ-N-FIL_13
1002
{
1000
OWNER
1000
GEN
1002
}
1001
GENIUS_GENODEF_13
1002
{
1000
HIER
1070
     0
1002
}
1002
{
1000
MANEDIT
1070
     0
1002
}
1002
{
1000
NOSEL
1070
     0
1002
}
1002
{
1000
BEHIND
1070
     0
1002
}
1002
{
1000
OTHER
1070
     0
1002
}
1002
{
1000
REACTOR
1002
}
  0
LINE
  5
707
330
1F
100
AcDbEntity
  8
0
100
AcDbLine
 10
340.2000008775328
 20
126.6000003944707
 30
0.0
 11
300.2000008775328
 21
126.6000003944707
 31
0.0
  0
LINE
  5
708
330
1F
100
AcDbEntity
  8
0
100
AcDbLine
 10
343.4500008775328
 20
124.3500003944708
 30
0.0
 11
343.4500008775328
 21
123.0886131819965
 31
0.0
  0
LINE
  5
709
330
1F
100
AcDbEntity
  8
0
100
AcDbLine
 10
346.9500008775328
 20
124.3500003944708
 30
0.0
 11
346.9500008775328
 21
123.0886131819966
 31
0.0
  0
ARC
  5
70A
330
1F
100
AcDbEntity
  8
0
100
AcDbCircle
 10
345.2000008775328
 20
120.3500003944707
 30
0.0
 40
3.25
100
AcDbArc
 50
122.5789703928047
 51
57.42102960719503
  0
ARC
  5
70B
330
1F
100
AcDbEntity
  8
0
100
AcDbCircle
 10
345.2000008775328
 20
124.3500003944707
 30
0.0
 40
1.75
100
AcDbArc
 50
0.0
 51
179.9999999999967
1001
GENIUS_GENODEF_13
1002
{
1000
HIER
1070
     0
1002
}
1002
{
1000
MANEDIT
1070
     0
1002
}
1002
{
1000
NOSEL
1070
     0
1002
}
1002
{
1000
BEHIND
1070
     0
1002
}
1002
{
1000
OTHER
1070
     0
1002
}
1002
{
1000
REACTOR
1002
}
1001
GENIUS_GENOBJ-N-FIL_13
1002
{
1000
OWNER
1000
GEN
1002
}
  0
ARC
  5
70C
330
1F
100
AcDbEntity
  8
0
100
AcDbCircle
 10
273.7000008775329
 20
104.8500003944705
 30
0.0
 40
6.0
100
AcDbArc
 50
75.52248781407001
 51
90.0
  0
ARC
  5
70D
330
1F
100
AcDbEntity
  8
0
100
AcDbCircle
 10
273.7000008775329
 20
104.8500003944705
 30
0.0
 40
6.0
100
AcDbArc
 50
270.0
 51
284.47751218593
  0
LINE
  5
70E
330
1F
100
AcDbEntity
  8
0
100
AcDbLine
 10
283.450000877533
 20
110.6594754137816
 30
0.0
 11
275.200000877533
 21
110.6594754137816
 31
0.0
  0
LINE
  5
70F
330
1F
100
AcDbEntity
  8
0
100
AcDbLine
 10
273.200000877533
 20
110.8500003944705
 30
0.0
 11
273.7000008775329
 21
110.8500003944705
 31
0.0
  0
LINE
  5
710
330
1F
100
AcDbEntity
  8
0
100
AcDbLine
 10
273.200000877533
 20
98.85000039447053
 30
0.0
 11
273.7000008775329
 21
98.85000039447053
 31
0.0
  0
LINE
  5
711
330
1F
100
AcDbEntity
  8
0
100
AcDbLine
 10
275.200000877533
 20
99.04052537515944
 30
0.0
 11
283.450000877533
 21
99.04052537515944
 31
0.0
  0
ARC
  5
712
330
1F
100
AcDbEntity
  8
0
100
AcDbCircle
 10
366.7000008775328
 20
104.8500003944707
 30
0.0
 40
6.0
100
AcDbArc
 50
90.0
 51
104.4775121859299
  0
ARC
  5
713
330
1F
100
AcDbEntity
  8
0
100
AcDbCircle
 10
366.7000008775328
 20
104.8500003944707
 30
0.0
 40
6.0
100
AcDbArc
 50
255.52248781407
 51
270.0
  0
LINE
  5
714
330
1F
100
AcDbEntity
  8
0
100
AcDbLine
 10
356.9500008775328
 20
110.6594754137818
 30
0.0
 11
365.2000008775328
 21
110.6594754137818
 31
0.0
  0
LINE
  5
715
330
1F
100
AcDbEntity
  8
0
100
AcDbLine
 10
367.2000008775328
 20
110.8500003944707
 30
0.0
 11
366.7000008775328
 21
110.8500003944707
 31
0.0
  0
LINE
  5
716
330
1F
100
AcDbEntity
  8
0
100
AcDbLine
 10
367.2000008775328
 20
98.85000039447072
 30
0.0
 11
366.7000008775328
 21
98.85000039447072
 31
0.0
  0
LINE
  5
717
330
1F
100
AcDbEntity
  8
0
100
AcDbLine
 10
365.2000008775328
 20
99.04052537515964
 30
0.0
 11
356.9500008775328
 21
99.04052537515964
 31
0.0
  0
LINE
  5
718
330
1F
100
AcDbEntity
  8
0
100
AcDbLine
 10
288.2000008775328
 20
115.8500003944707
 30
0.0
 11
288.200000877533
 21
64.85000039447072
 31
0.0
  0
LINE
  5
719
330
1F
100
AcDbEntity
  8
0
100
AcDbLine
 10
352.2000008775326
 20
115.8500003944707
 30
0.0
 11
352.2000008775326
 21
64.85000039447072
 31
0.0
  0
ARC
  5
71A
330
1F
100
AcDbEntity
  8
0
100
AcDbCircle
 10
320.2000008775328
 20
68.60000039447081
 30
0.0
 40
2.999999999999984
100
AcDbArc
 50
0.0
 51
180.0
  0
LINE
  5
71B
330
1F
100
AcDbEntity
  8
0
100
AcDbLine
 10
323.2000008775328
 20
68.60000039447081
 30
0.0
 11
323.2000008775328
 21
64.85000039447072
 31
0.0
  0
LINE
  5
71C
330
1F
100
AcDbEntity
  8
0
100
AcDbLine
 10
317.2000008775328
 20
68.60000039447081
 30
0.0
 11
317.2000008775328
 21
64.85000039447072
 31
0.0
  0
LINE
  5
71D
330
1F
100
AcDbEntity
  8
0
100
AcDbLine
 10
300.9500008775328
 20
116.8500003944707
 30
0.0
 11
339.4500008775328
 21
116.8500003944707
 31
0.0
1001
GENIUS_GENREC_14
1002
{
1000
PYDIR
1011
300.2000008775328
1021
126.6000003944707
1031
0.0
1002
}
1002
{
1000
PXDIR
1011
340.2000008775328
1021
116.6000003944707
1031
0.0
1002
}
1002
{
1000
PORI
1011
300.2000008775328
1021
116.6000003944707
1031
0.0
1002
}
1002
{
1000
PINS
1011
300.2000008775328
1021
116.6000003944707
1031
0.0
1002
}
1002
{
1000
PINS2
1011
340.2000008775328
1021
126.6000003944707
1031
0.0
1002
}
1002
{
1000
C
1070
     1
1002
}
1001
GENIUS_GENOBJ-N-REC_13
1002
{
1000
OWNER
1000
GEN
1002
}
1001
GENIUS_GENODEF_13
1002
{
1000
HIER
1070
     0
1002
}
1002
{
1000
MANEDIT
1070
     0
1002
}
1002
{
1000
NOSEL
1070
     0
1002
}
1002
{
1000
BEHIND
1070
     0
1002
}
1002
{
1000
OTHER
1070
     0
1002
}
1002
{
1000
REACTOR
1002
}
  0
ARC
  5
71E
330
1F
100
AcDbEntity
  8
0
100
AcDbCircle
 10
339.4500008775328
 20
117.3500003944707
 30
0.0
 40
0.5
100
AcDbArc
 50
270.0
 51
0.0
1001
GENIUS_GENREC_14
1002
{
1000
PYDIR
1011
300.2000008775328
1021
126.6000003944707
1031
0.0
1002
}
1002
{
1000
PXDIR
1011
340.2000008775328
1021
116.6000003944707
1031
0.0
1002
}
1002
{
1000
PORI
1011
300.2000008775328
1021
116.6000003944707
1031
0.0
1002
}
1002
{
1000
PINS
1011
300.2000008775328
1021
116.6000003944707
1031
0.0
1002
}
1002
{
1000
PINS2
1011
340.2000008775328
1021
126.6000003944707
1031
0.0
1002
}
1002
{
1000
C
1070
     1
1002
}
1001
GENIUS_GENOBJ-N-REC_13
1002
{
1000
OWNER
1000
GEN
1002
}
1001
GENIUS_GENODEF_13
1002
{
1000
HIER
1070
     0
1002
}
1002
{
1000
MANEDIT
1070
     0
1002
}
1002
{
1000
NOSEL
1070
     0
1002
}
1002
{
1000
BEHIND
1070
     0
1002
}
1002
{
1000
OTHER
1070
     0
1002
}
1002
{
1000
REACTOR
1002
}
  0
LINE
  5
71F
330
1F
100
AcDbEntity
  8
0
100
AcDbLine
 10
339.9500008775328
 20
117.3500003944707
 30
0.0
 11
339.9500008775328
 21
125.8500003944707
 31
0.0
1001
GENIUS_GENREC_14
1002
{
1000
PYDIR
1011
300.2000008775328
1021
126.6000003944707
1031
0.0
1002
}
1002
{
1000
PXDIR
1011
340.2000008775328
1021
116.6000003944707
1031
0.0
1002
}
1002
{
1000
PORI
1011
300.2000008775328
1021
116.6000003944707
1031
0.0
1002
}
1002
{
1000
PINS
1011
300.2000008775328
1021
116.6000003944707
1031
0.0
1002
}
1002
{
1000
PINS2
1011
340.2000008775328
1021
126.6000003944707
1031
0.0
1002
}
1002
{
1000
C
1070
     1
1002
}
1001
GENIUS_GENOBJ-N-REC_13
1002
{
1000
OWNER
1000
GEN
1002
}
1001
GENIUS_GENODEF_13
1002
{
1000
HIER
1070
     0
1002
}
1002
{
1000
MANEDIT
1070
     0
1002
}
1002
{
1000
NOSEL
1070
     0
1002
}
1002
{
1000
BEHIND
1070
     0
1002
}
1002
{
1000
OTHER
1070
     0
1002
}
1002
{
1000
REACTOR
1002
}
  0
ARC
  5
720
330
1F
100
AcDbEntity
  8
0
100
AcDbCircle
 10
339.4500008775328
 20
125.8500003944707
 30
0.0
 40
0.5
100
AcDbArc
 50
0.0
 51
90.0
1001
GENIUS_GENREC_14
1002
{
1000
PYDIR
1011
300.2000008775328
1021
126.6000003944707
1031
0.0
1002
}
1002
{
1000
PXDIR
1011
340.2000008775328
1021
116.6000003944707
1031
0.0
1002
}
1002
{
1000
PORI
1011
300.2000008775328
1021
116.6000003944707
1031
0.0
1002
}
1002
{
1000
PINS
1011
300.2000008775328
1021
116.6000003944707
1031
0.0
1002
}
1002
{
1000
PINS2
1011
340.2000008775328
1021
126.6000003944707
1031
0.0
1002
}
1002
{
1000
C
1070
     1
1002
}
1001
GENIUS_GENOBJ-N-REC_13
1002
{
1000
OWNER
1000
GEN
1002
}
1001
GENIUS_GENODEF_13
1002
{
1000
HIER
1070
     0
1002
}
1002
{
1000
MANEDIT
1070
     0
1002
}
1002
{
1000
NOSEL
1070
     0
1002
}
1002
{
1000
BEHIND
1070
     0
1002
}
1002
{
1000
OTHER
1070
     0
1002
}
1002
{
1000
REACTOR
1002
}
  0
LINE
  5
721
330
1F
100
AcDbEntity
  8
0
100
AcDbLine
 10
339.4500008775328
 20
126.3500003944707
 30
0.0
 11
300.9500008775328
 21
126.3500003944707
 31
0.0
1001
GENIUS_GENREC_14
1002
{
1000
PYDIR
1011
300.2000008775328
1021
126.6000003944707
1031
0.0
1002
}
1002
{
1000
PXDIR
1011
340.2000008775328
1021
116.6000003944707
1031
0.0
1002
}
1002
{
1000
PORI
1011
300.2000008775328
1021
116.6000003944707
1031
0.0
1002
}
1002
{
1000
PINS
1011
300.2000008775328
1021
116.6000003944707
1031
0.0
1002
}
1002
{
1000
PINS2
1011
340.2000008775328
1021
126.6000003944707
1031
0.0
1002
}
1002
{
1000
C
1070
     1
1002
}
1001
GENIUS_GENOBJ-N-REC_13
1002
{
1000
OWNER
1000
GEN
1002
}
1001
GENIUS_GENODEF_13
1002
{
1000
HIER
1070
     0
1002
}
1002
{
1000
MANEDIT
1070
     0
1002
}
1002
{
1000
NOSEL
1070
     0
1002
}
1002
{
1000
BEHIND
1070
     0
1002
}
1002
{
1000
OTHER
1070
     0
1002
}
1002
{
1000
REACTOR
1002
}
  0
ARC
  5
722
330
1F
100
AcDbEntity
  8
0
100
AcDbCircle
 10
300.9500008775328
 20
125.8500003944707
 30
0.0
 40
0.5
100
AcDbArc
 50
90.0
 51
180.0
1001
GENIUS_GENREC_14
1002
{
1000
PYDIR
1011
300.2000008775328
1021
126.6000003944707
1031
0.0
1002
}
1002
{
1000
PXDIR
1011
340.2000008775328
1021
116.6000003944707
1031
0.0
1002
}
1002
{
1000
PORI
1011
300.2000008775328
1021
116.6000003944707
1031
0.0
1002
}
1002
{
1000
PINS
1011
300.2000008775328
1021
116.6000003944707
1031
0.0
1002
}
1002
{
1000
PINS2
1011
340.2000008775328
1021
126.6000003944707
1031
0.0
1002
}
1002
{
1000
C
1070
     1
1002
}
1001
GENIUS_GENOBJ-N-REC_13
1002
{
1000
OWNER
1000
GEN
1002
}
1001
GENIUS_GENODEF_13
1002
{
1000
HIER
1070
     0
1002
}
1002
{
1000
MANEDIT
1070
     0
1002
}
1002
{
1000
NOSEL
1070
     0
1002
}
1002
{
1000
BEHIND
1070
     0
1002
}
1002
{
1000
OTHER
1070
     0
1002
}
1002
{
1000
REACTOR
1002
}
  0
LINE
  5
723
330
1F
100
AcDbEntity
  8
0
100
AcDbLine
 10
300.4500008775328
 20
125.8500003944707
 30
0.0
 11
300.4500008775328
 21
117.3500003944707
 31
0.0
1001
GENIUS_GENREC_14
1002
{
1000
PYDIR
1011
300.2000008775328
1021
126.6000003944707
1031
0.0
1002
}
1002
{
1000
PXDIR
1011
340.2000008775328
1021
116.6000003944707
1031
0.0
1002
}
1002
{
1000
PORI
1011
300.2000008775328
1021
116.6000003944707
1031
0.0
1002
}
1002
{
1000
PINS
1011
300.2000008775328
1021
116.6000003944707
1031
0.0
1002
}
1002
{
1000
PINS2
1011
340.2000008775328
1021
126.6000003944707
1031
0.0
1002
}
1002
{
1000
C
1070
     1
1002
}
1001
GENIUS_GENOBJ-N-REC_13
1002
{
1000
OWNER
1000
GEN
1002
}
1001
GENIUS_GENODEF_13
1002
{
1000
HIER
1070
     0
1002
}
1002
{
1000
MANEDIT
1070
     0
1002
}
1002
{
1000
NOSEL
1070
     0
1002
}
1002
{
1000
BEHIND
1070
     0
1002
}
1002
{
1000
OTHER
1070
     0
1002
}
1002
{
1000
REACTOR
1002
}
  0
ARC
  5
724
330
1F
100
AcDbEntity
  8
0
100
AcDbCircle
 10
300.9500008775328
 20
117.3500003944707
 30
0.0
 40
0.5
100
AcDbArc
 50
180.0
 51
270.0
1001
GENIUS_GENREC_14
1002
{
1000
PYDIR
1011
300.2000008775328
1021
126.6000003944707
1031
0.0
1002
}
1002
{
1000
PXDIR
1011
340.2000008775328
1021
116.6000003944707
1031
0.0
1002
}
1002
{
1000
PORI
1011
300.2000008775328
1021
116.6000003944707
1031
0.0
1002
}
1002
{
1000
PINS
1011
300.2000008775328
1021
116.6000003944707
1031
0.0
1002
}
1002
{
1000
PINS2
1011
340.2000008775328
1021
126.6000003944707
1031
0.0
1002
}
1002
{
1000
C
1070
     1
1002
}
1001
GENIUS_GENOBJ-N-REC_13
1002
{
1000
OWNER
1000
GEN
1002
}
1001
GENIUS_GENODEF_13
1002
{
1000
HIER
1070
     0
1002
}
1002
{
1000
MANEDIT
1070
     0
1002
}
1002
{
1000
NOSEL
1070
     0
1002
}
1002
{
1000
BEHIND
1070
     0
1002
}
1002
{
1000
OTHER
1070
     0
1002
}
1002
{
1000
REACTOR
1002
}
  0
ARC
  5
725
330
1F
100
AcDbEntity
  8
0
100
AcDbCircle
 10
328.7583342108662
 20
120.3500003944707
 30
0.0
 40
2.5
100
AcDbArc
 50
15.98866499138022
 51
340.5287793655101
  0
ARC
  5
726
330
1F
100
AcDbEntity
  8
0
100
AcDbCircle
 10
328.7583342108662
 20
120.3500003944707
 30
0.0
 40
2.166666666666666
100
AcDbArc
 50
25.00623305001797
 51
161.4936568715907
  0
ARC
  5
727
330
1F
100
AcDbEntity
  8
0
100
AcDbCircle
 10
328.7583342108662
 20
120.3500003944707
 30
0.0
 40
2.166666666666666
100
AcDbArc
 50
171.5353527878993
 51
337.3801350519577
  0
LINE
  5
728
330
1F
100
AcDbEntity
  8
0
100
AcDbLine
 10
328.9250008775328
 20
121.6329146281164
 30
0.0
 11
328.9250008775328
 21
120.7844088520845
 31
0.0
  0
LINE
  5
729
330
1F
100
AcDbEntity
  8
0
100
AcDbLine
 10
328.5916675441995
 20
121.1985061705026
 30
0.0
 11
328.5916675441995
 21
120.3500003944707
 31
0.0
  0
LINE
  5
72A
330
1F
100
AcDbEntity
  8
0
100
AcDbLine
 10
327.4250008775329
 20
119.5166670611374
 30
0.0
 11
330.0916675441994
 21
119.5166670611374
 31
0.0
  0
LINE
  5
72B
330
1F
100
AcDbEntity
  8
0
100
AcDbLine
 10
327.4250008775329
 20
119.1000003944708
 30
0.0
 11
328.5083342108662
 21
119.1000003944708
 31
0.0
  0
LINE
  5
72C
330
1F
100
AcDbEntity
  8
0
100
AcDbLine
 10
329.0083342108662
 20
119.1000003944708
 30
0.0
 11
330.0916675441994
 21
119.1000003944708
 31
0.0
  0
LINE
  5
72D
330
1F
100
AcDbEntity
  8
0
100
AcDbLine
 10
328.5083342108662
 20
118.4333337278041
 30
0.0
 11
329.0083342108662
 21
118.4333337278041
 31
0.0
  0
LINE
  5
72E
330
1F
100
AcDbEntity
  8
0
100
AcDbLine
 10
328.5916675441995
 20
120.3500003944707
 30
0.0
 11
331.1616247292487
 21
121.0386183467873
 31
0.0
  0
LINE
  5
72F
330
1F
100
AcDbEntity
  8
0
100
AcDbLine
 10
328.9250008775328
 20
120.7844088520845
 30
0.0
 11
330.721901457627
 21
121.2658869113998
 31
0.0
  0
LINE
  5
730
330
1F
100
AcDbEntity
  8
0
100
AcDbLine
 10
326.6152693110716
 20
120.6689318600138
 30
0.0
 11
328.5916675441995
 21
121.1985061705026
 31
0.0
  0
LINE
  5
731
330
1F
100
AcDbEntity
  8
0
100
AcDbLine
 10
326.7037090818596
 20
121.0377212853119
 30
0.0
 11
328.9250008775328
 21
121.6329146281164
 31
0.0
  0
LINE
  5
732
330
1F
100
AcDbEntity
  8
0
100
AcDbLine
 10
329.0083342108662
 20
119.1000003944708
 30
0.0
 11
329.0083342108662
 21
118.4333337278041
 31
0.0
  0
LINE
  5
733
330
1F
100
AcDbEntity
  8
0
100
AcDbLine
 10
328.5083342108662
 20
119.1000003944708
 30
0.0
 11
328.5083342108662
 21
118.4333337278041
 31
0.0
  0
LINE
  5
734
330
1F
100
AcDbEntity
  8
0
100
AcDbLine
 10
330.0916675441994
 20
119.5166670611374
 30
0.0
 11
330.0916675441994
 21
119.1000003944708
 31
0.0
  0
LINE
  5
735
330
1F
100
AcDbEntity
  8
0
100
AcDbLine
 10
327.4250008775329
 20
119.5166670611374
 30
0.0
 11
327.4250008775329
 21
119.1000003944708
 31
0.0
  0
LINE
  5
736
330
1F
100
AcDbEntity
  8
0
100
AcDbLine
 10
327.4250008775329
 20
120.1833337278041
 30
0.0
 11
330.0916675441994
 21
120.1833337278041
 31
0.0
  0
LINE
  5
737
330
1F
100
AcDbEntity
  8
0
100
AcDbLine
 10
327.4250008775329
 20
119.7666670611374
 30
0.0
 11
330.0916675441994
 21
119.7666670611374
 31
0.0
  0
LINE
  5
738
330
1F
100
AcDbEntity
  8
0
100
AcDbLine
 10
330.0916675441994
 20
120.1833337278041
 30
0.0
 11
330.0916675441994
 21
119.7666670611374
 31
0.0
  0
LINE
  5
739
330
1F
100
AcDbEntity
  8
0
100
AcDbLine
 10
327.4250008775329
 20
120.1833337278041
 30
0.0
 11
327.4250008775329
 21
119.7666670611374
 31
0.0
  0
LINE
  5
73A
330
1F
100
AcDbEntity
  8
0
100
AcDbLine
 10
330.7583342108662
 20
119.5166670611374
 30
0.0
 11
331.1153568148213
 21
119.5166670611374
 31
0.0
  0
LINE
  5
73B
330
1F
100
AcDbEntity
  8
0
100
AcDbLine
 10
337.4500008775328
 20
118.3500003944708
 30
0.0
 11
337.4500008775328
 21
122.3500003944708
 31
0.0
1001
GENIUS_GENREC_14
1002
{
1000
PYDIR
1011
333.4500008775328
1021
118.3500003944708
1031
0.0
1002
}
1002
{
1000
PXDIR
1011
337.4500008775328
1021
122.3500003944708
1031
0.0
1002
}
1002
{
1000
PORI
1011
337.4500008775328
1021
118.3500003944708
1031
0.0
1002
}
1002
{
1000
PINS
1011
337.4500008775328
1021
118.3500003944708
1031
0.0
1002
}
1002
{
1000
HVAL
1000
4
1002
}
1002
{
1000
H
1070
     2
1002
}
1002
{
1000
WVAL
1000
4
1002
}
1002
{
1000
W
1070
     2
1002
}
1002
{
1000
C
1070
     1
1002
}
1001
GENIUS_GENOBJ-N-REC_13
1002
{
1000
OWNER
1000
GEN
1002
}
1001
GENIUS_GENODEF_13
1002
{
1000
HIER
1070
     0
1002
}
1002
{
1000
MANEDIT
1070
     0
1002
}
1002
{
1000
NOSEL
1070
     0
1002
}
1002
{
1000
BEHIND
1070
     0
1002
}
1002
{
1000
OTHER
1070
     0
1002
}
1002
{
1000
REACTOR
1002
}
  0
LINE
  5
73C
330
1F
100
AcDbEntity
  8
0
100
AcDbLine
 10
337.4500008775328
 20
122.3500003944708
 30
0.0
 11
333.4500008775328
 21
122.3500003944708
 31
0.0
1001
GENIUS_GENREC_14
1002
{
1000
PYDIR
1011
333.4500008775328
1021
118.3500003944708
1031
0.0
1002
}
1002
{
1000
PXDIR
1011
337.4500008775328
1021
122.3500003944708
1031
0.0
1002
}
1002
{
1000
PORI
1011
337.4500008775328
1021
118.3500003944708
1031
0.0
1002
}
1002
{
1000
PINS
1011
337.4500008775328
1021
118.3500003944708
1031
0.0
1002
}
1002
{
1000
HVAL
1000
4
1002
}
1002
{
1000
H
1070
     2
1002
}
1002
{
1000
WVAL
1000
4
1002
}
1002
{
1000
W
1070
     2
1002
}
1002
{
1000
C
1070
     1
1002
}
1001
GENIUS_GENOBJ-N-REC_13
1002
{
1000
OWNER
1000
GEN
1002
}
1001
GENIUS_GENODEF_13
1002
{
1000
HIER
1070
     0
1002
}
1002
{
1000
MANEDIT
1070
     0
1002
}
1002
{
1000
NOSEL
1070
     0
1002
}
1002
{
1000
BEHIND
1070
     0
1002
}
1002
{
1000
OTHER
1070
     0
1002
}
1002
{
1000
REACTOR
1002
}
  0
LINE
  5
73D
330
1F
100
AcDbEntity
  8
0
100
AcDbLine
 10
333.4500008775328
 20
122.3500003944708
 30
0.0
 11
333.4500008775328
 21
118.3500003944708
 31
0.0
1001
GENIUS_GENREC_14
1002
{
1000
PYDIR
1011
333.4500008775328
1021
118.3500003944708
1031
0.0
1002
}
1002
{
1000
PXDIR
1011
337.4500008775328
1021
122.3500003944708
1031
0.0
1002
}
1002
{
1000
PORI
1011
337.4500008775328
1021
118.3500003944708
1031
0.0
1002
}
1002
{
1000
PINS
1011
337.4500008775328
1021
118.3500003944708
1031
0.0
1002
}
1002
{
1000
HVAL
1000
4
1002
}
1002
{
1000
H
1070
     2
1002
}
1002
{
1000
WVAL
1000
4
1002
}
1002
{
1000
W
1070
     2
1002
}
1002
{
1000
C
1070
     1
1002
}
1001
GENIUS_GENOBJ-N-REC_13
1002
{
1000
OWNER
1000
GEN
1002
}
1001
GENIUS_GENODEF_13
1002
{
1000
HIER
1070
     0
1002
}
1002
{
1000
MANEDIT
1070
     0
1002
}
1002
{
1000
NOSEL
1070
     0
1002
}
1002
{
1000
BEHIND
1070
     0
1002
}
1002
{
1000
OTHER
1070
     0
1002
}
1002
{
1000
REACTOR
1002
}
  0
LINE
  5
73E
330
1F
100
AcDbEntity
  8
0
100
AcDbLine
 10
333.4500008775328
 20
118.3500003944708
 30
0.0
 11
337.4500008775328
 21
118.3500003944708
 31
0.0
1001
GENIUS_GENREC_14
1002
{
1000
PYDIR
1011
333.4500008775328
1021
118.3500003944708
1031
0.0
1002
}
1002
{
1000
PXDIR
1011
337.4500008775328
1021
122.3500003944708
1031
0.0
1002
}
1002
{
1000
PORI
1011
337.4500008775328
1021
118.3500003944708
1031
0.0
1002
}
1002
{
1000
PINS
1011
337.4500008775328
1021
118.3500003944708
1031
0.0
1002
}
1002
{
1000
HVAL
1000
4
1002
}
1002
{
1000
H
1070
     2
1002
}
1002
{
1000
WVAL
1000
4
1002
}
1002
{
1000
W
1070
     2
1002
}
1002
{
1000
C
1070
     1
1002
}
1001
GENIUS_GENOBJ-N-REC_13
1002
{
1000
OWNER
1000
GEN
1002
}
1001
GENIUS_GENODEF_13
1002
{
1000
HIER
1070
     0
1002
}
1002
{
1000
MANEDIT
1070
     0
1002
}
1002
{
1000
NOSEL
1070
     0
1002
}
1002
{
1000
BEHIND
1070
     0
1002
}
1002
{
1000
OTHER
1070
     0
1002
}
1002
{
1000
REACTOR
1002
}
  0
CIRCLE
  5
73F
330
1F
100
AcDbEntity
  8
0
100
AcDbCircle
 10
360.2000008775328
 20
121.8500003944709
 30
0.0
 40
1.75
  0
CIRCLE
  5
740
330
1F
100
AcDbEntity
  8
0
100
AcDbCircle
 10
360.2000008775328
 20
121.8500003944709
 30
0.0
 40
1.55
  0
CIRCLE
  5
741
330
1F
100
AcDbEntity
  8
0
100
AcDbCircle
 10
360.2000008775328
 20
121.8500003944709
 30
0.0
 40
0.9
  0
ARC
  5
742
330
1F
100
AcDbEntity
  8
0
100
AcDbCircle
 10
360.2000008775328
 20
122.8500003944709
 30
0.0
 40
0.4
100
AcDbArc
 50
205.9444797719997
 51
334.0555202279995
  0
ARC
  5
743
330
1F
100
AcDbEntity
  8
0
100
AcDbCircle
 10
359.3339754737483
 20
122.3500003944708
 30
0.0
 40
0.4
100
AcDbArc
 50
265.9444797725357
 51
34.05552022747365
  0
ARC
  5
744
330
1F
100
AcDbEntity
  8
0
100
AcDbCircle
 10
359.3339754737483
 20
121.3500003944709
 30
0.0
 40
0.4
100
AcDbArc
 50
325.9444797720361
 51
94.0555202279638
  0
ARC
  5
745
330
1F
100
AcDbEntity
  8
0
100
AcDbCircle
 10
360.2000008775328
 20
120.8500003944709
 30
0.0
 40
0.4
100
AcDbArc
 50
25.94447977135901
 51
154.055520228641
  0
ARC
  5
746
330
1F
100
AcDbEntity
  8
0
100
AcDbCircle
 10
361.0660262813171
 20
121.3500003944709
 30
0.0
 40
0.4
100
AcDbArc
 50
85.94447977219287
 51
214.0555202278116
  0
ARC
  5
747
330
1F
100
AcDbEntity
  8
0
100
AcDbCircle
 10
361.0660262813171
 20
122.350000394471
 30
0.0
 40
0.4
100
AcDbArc
 50
145.9444797714079
 51
274.0555202286006
  0
CIRCLE
  5
748
330
1F
100
AcDbEntity
  8
0
100
AcDbCircle
 10
360.2000008775328
 20
121.8500003944709
 30
0.0
 40
0.4
  0
CIRCLE
  5
749
330
1F
100
AcDbEntity
  8
0
100
AcDbCircle
 10
360.2000008775328
 20
71.85000039447053
 30
0.0
 40
1.75
  0
CIRCLE
  5
74A
330
1F
100
AcDbEntity
  8
0
100
AcDbCircle
 10
360.2000008775328
 20
71.85000039447053
 30
0.0
 40
1.55
  0
CIRCLE
  5
74B
330
1F
100
AcDbEntity
  8
0
100
AcDbCircle
 10
360.2000008775328
 20
71.85000039447053
 30
0.0
 40
0.9
  0
ARC
  5
74C
330
1F
100
AcDbEntity
  8
0
100
AcDbCircle
 10
360.2000008775328
 20
72.85000039447052
 30
0.0
 40
0.4
100
AcDbArc
 50
205.9444797719997
 51
334.0555202279995
  0
ARC
  5
74D
330
1F
100
AcDbEntity
  8
0
100
AcDbCircle
 10
359.3339754737483
 20
72.35000039447044
 30
0.0
 40
0.4
100
AcDbArc
 50
265.9444797725357
 51
34.05552022747365
  0
ARC
  5
74E
330
1F
100
AcDbEntity
  8
0
100
AcDbCircle
 10
359.3339754737483
 20
71.35000039447053
 30
0.0
 40
0.4
100
AcDbArc
 50
325.9444797720361
 51
94.0555202279638
  0
ARC
  5
74F
330
1F
100
AcDbEntity
  8
0
100
AcDbCircle
 10
360.2000008775328
 20
70.85000039447052
 30
0.0
 40
0.4
100
AcDbArc
 50
25.94447977135901
 51
154.055520228641
  0
ARC
  5
750
330
1F
100
AcDbEntity
  8
0
100
AcDbCircle
 10
361.0660262813171
 20
71.35000039447053
 30
0.0
 40
0.4
100
AcDbArc
 50
85.94447977219287
 51
214.0555202278116
  0
ARC
  5
751
330
1F
100
AcDbEntity
  8
0
100
AcDbCircle
 10
361.0660262813171
 20
72.35000039447062
 30
0.0
 40
0.4
100
AcDbArc
 50
145.9444797714079
 51
274.0555202286006
  0
CIRCLE
  5
752
330
1F
100
AcDbEntity
  8
0
100
AcDbCircle
 10
360.2000008775328
 20
71.85000039447053
 30
0.0
 40
0.4
  0
CIRCLE
  5
753
330
1F
100
AcDbEntity
  8
0
100
AcDbCircle
 10
280.2000008775327
 20
71.85000039447032
 30
0.0
 40
1.75
  0
CIRCLE
  5
754
330
1F
100
AcDbEntity
  8
0
100
AcDbCircle
 10
280.2000008775327
 20
71.85000039447032
 30
0.0
 40
1.55
  0
CIRCLE
  5
755
330
1F
100
AcDbEntity
  8
0
100
AcDbCircle
 10
280.2000008775327
 20
71.85000039447032
 30
0.0
 40
0.9
  0
ARC
  5
756
330
1F
100
AcDbEntity
  8
0
100
AcDbCircle
 10
280.2000008775327
 20
72.85000039447033
 30
0.0
 40
0.4
100
AcDbArc
 50
205.9444797719997
 51
334.0555202279995
  0
ARC
  5
757
330
1F
100
AcDbEntity
  8
0
100
AcDbCircle
 10
279.3339754737484
 20
72.35000039447013
 30
0.0
 40
0.4
100
AcDbArc
 50
265.9444797725357
 51
34.05552022747365
  0
ARC
  5
758
330
1F
100
AcDbEntity
  8
0
100
AcDbCircle
 10
279.3339754737484
 20
71.35000039447023
 30
0.0
 40
0.4
100
AcDbArc
 50
325.9444797720361
 51
94.0555202279638
  0
ARC
  5
759
330
1F
100
AcDbEntity
  8
0
100
AcDbCircle
 10
280.2000008775327
 20
70.85000039447033
 30
0.0
 40
0.4
100
AcDbArc
 50
25.94447977135901
 51
154.055520228641
  0
ARC
  5
75A
330
1F
100
AcDbEntity
  8
0
100
AcDbCircle
 10
281.0660262813172
 20
71.35000039447023
 30
0.0
 40
0.4
100
AcDbArc
 50
85.94447977219287
 51
214.0555202278116
  0
ARC
  5
75B
330
1F
100
AcDbEntity
  8
0
100
AcDbCircle
 10
281.0660262813172
 20
72.35000039447044
 30
0.0
 40
0.4
100
AcDbArc
 50
145.9444797714079
 51
274.0555202286006
  0
CIRCLE
  5
75C
330
1F
100
AcDbEntity
  8
0
100
AcDbCircle
 10
280.2000008775327
 20
71.85000039447032
 30
0.0
 40
0.4
  0
CIRCLE
  5
75D
330
1F
100
AcDbEntity
  8
0
100
AcDbCircle
 10
280.2000008775328
 20
121.850000394471
 30
0.0
 40
1.75
  0
CIRCLE
  5
75E
330
1F
100
AcDbEntity
  8
0
100
AcDbCircle
 10
280.2000008775328
 20
121.850000394471
 30
0.0
 40
1.55
  0
CIRCLE
  5
75F
330
1F
100
AcDbEntity
  8
0
100
AcDbCircle
 10
280.2000008775328
 20
121.850000394471
 30
0.0
 40
0.9
  0
ARC
  5
760
330
1F
100
AcDbEntity
  8
0
100
AcDbCircle
 10
280.2000008775328
 20
122.850000394471
 30
0.0
 40
0.4
100
AcDbArc
 50
205.9444797719997
 51
334.0555202279995
  0
ARC
  5
761
330
1F
100
AcDbEntity
  8
0
100
AcDbCircle
 10
279.3339754737484
 20
122.3500003944709
 30
0.0
 40
0.4
100
AcDbArc
 50
265.9444797725357
 51
34.05552022747365
  0
ARC
  5
762
330
1F
100
AcDbEntity
  8
0
100
AcDbCircle
 10
279.3339754737484
 20
121.350000394471
 30
0.0
 40
0.4
100
AcDbArc
 50
325.9444797720361
 51
94.0555202279638
  0
ARC
  5
763
330
1F
100
AcDbEntity
  8
0
100
AcDbCircle
 10
280.2000008775328
 20
120.850000394471
 30
0.0
 40
0.4
100
AcDbArc
 50
25.94447977135901
 51
154.055520228641
  0
ARC
  5
764
330
1F
100
AcDbEntity
  8
0
100
AcDbCircle
 10
281.0660262813172
 20
121.350000394471
 30
0.0
 40
0.4
100
AcDbArc
 50
85.94447977219287
 51
214.0555202278116
  0
ARC
  5
765
330
1F
100
AcDbEntity
  8
0
100
AcDbCircle
 10
281.0660262813172
 20
122.3500003944711
 30
0.0
 40
0.4
100
AcDbArc
 50
145.9444797714079
 51
274.0555202286006
  0
CIRCLE
  5
766
330
1F
100
AcDbEntity
  8
0
100
AcDbCircle
 10
280.2000008775328
 20
121.850000394471
 30
0.0
 40
0.4
  0
CIRCLE
  5
767
330
1F
100
AcDbEntity
  8
0
100
AcDbCircle
 10
320.2000008775328
 20
68.60000039447081
 30
0.0
 40
2.75
  0
LINE
  5
768
330
1F
100
AcDbEntity
  8
0
100
AcDbLine
 10
318.0362541271017
 20
70.05664036371493
 30
0.0
 11
318.7433609082881
 21
70.76374714490151
 31
0.0
  0
LINE
  5
769
330
1F
100
AcDbEntity
  8
0
100
AcDbLine
 10
321.6566408467769
 20
66.4362536440398
 30
0.0
 11
322.3637476279634
 21
67.14336042522643
 31
0.0
  0
LINE
  5
76A
330
1F
100
AcDbEntity
  8
0
100
AcDbLine
 10
322.3637476279634
 20
67.14336042522643
 30
0.0
 11
320.8010416415411
 21
68.70606641164862
 31
0.0
  0
LINE
  5
76B
330
1F
100
AcDbEntity
  8
0
100
AcDbLine
 10
321.6566408467769
 20
66.4362536440398
 30
0.0
 11
320.0939348603546
 21
67.99895963046214
 31
0.0
  0
LINE
  5
76C
330
1F
100
AcDbEntity
  8
0
100
AcDbLine
 10
321.0838843540159
 20
69.97885861778462
 30
0.0
 11
321.5788591008465
 21
69.48388387095403
 31
0.0
  0
LINE
  5
76D
330
1F
100
AcDbEntity
  8
0
100
AcDbLine
 10
318.821142654219
 20
67.71611691798762
 30
0.0
 11
319.3161174010496
 21
67.22114217115702
 31
0.0
  0
LINE
  5
76E
330
1F
100
AcDbEntity
  8
0
100
AcDbLine
 10
318.821142654219
 20
67.71611691798762
 30
0.0
 11
319.598960113524
 21
68.49393437729272
 31
0.0
  0
LINE
  5
76F
330
1F
100
AcDbEntity
  8
0
100
AcDbLine
 10
319.3161174010496
 20
67.22114217115702
 30
0.0
 11
320.0939348603546
 21
67.99895963046214
 31
0.0
  0
LINE
  5
770
330
1F
100
AcDbEntity
  8
0
100
AcDbLine
 10
319.598960113524
 20
68.49393437729272
 30
0.0
 11
318.0362541271017
 21
70.05664036371493
 31
0.0
  0
LINE
  5
771
330
1F
100
AcDbEntity
  8
0
100
AcDbLine
 10
320.3060668947105
 20
69.20104115847923
 30
0.0
 11
318.7433609082881
 21
70.76374714490151
 31
0.0
  0
LINE
  5
772
330
1F
100
AcDbEntity
  8
0
100
AcDbLine
 10
320.3060668947105
 20
69.20104115847923
 30
0.0
 11
321.0838843540159
 21
69.97885861778462
 31
0.0
  0
LINE
  5
773
330
1F
100
AcDbEntity
  8
0
100
AcDbLine
 10
320.8010416415411
 20
68.70606641164862
 30
0.0
 11
321.5788591008465
 21
69.48388387095403
 31
0.0
  0
LINE
  5
774
330
1F
100
AcDbEntity
  8
0
100
AcDbLine
 10
363.7000008775326
 20
129.1500003944708
 30
0.0
 11
276.7000008775328
 21
129.1500003944708
 31
0.0
  0
LINE
  5
775
330
1F
100
AcDbEntity
  8
0
100
AcDbLine
 10
272.9000008775326
 20
125.3500003944707
 30
0.0
 11
272.9000008775326
 21
109.8500003944706
 31
0.0
  0
LINE
  5
776
330
1F
100
AcDbEntity
  8
0
100
AcDbLine
 10
272.9000008775326
 20
99.85000039447072
 30
0.0
 11
272.9000008775326
 21
68.35000039447063
 31
0.0
  0
ARC
  5
777
330
1F
100
AcDbEntity
  8
0
100
AcDbCircle
 10
276.7000008775328
 20
125.3500003944707
 30
0.0
 40
3.799999999999998
100
AcDbArc
 50
90.0
 51
180.0
1001
GENIUS_GENOBJ-N-FIL_13
1002
{
1000
OWNER
1000
GEN
1002
}
1001
GENIUS_GENODEF_13
1002
{
1000
HIER
1070
     0
1002
}
1002
{
1000
MANEDIT
1070
     0
1002
}
1002
{
1000
NOSEL
1070
     0
1002
}
1002
{
1000
BEHIND
1070
     0
1002
}
1002
{
1000
OTHER
1070
     0
1002
}
1002
{
1000
REACTOR
1002
}
  0
LINE
  5
778
330
1F
100
AcDbEntity
  8
0
100
AcDbLine
 10
367.5000008775326
 20
125.3500003944707
 30
0.0
 11
367.5000008775328
 21
109.8500003944706
 31
0.0
  0
LINE
  5
779
330
1F
100
AcDbEntity
  8
0
100
AcDbLine
 10
367.5000008775328
 20
99.85000039447072
 30
0.0
 11
367.5000008775328
 21
68.35000039447063
 31
0.0
  0
ARC
  5
77A
330
1F
100
AcDbEntity
  8
0
100
AcDbCircle
 10
363.7000008775328
 20
68.35000039447063
 30
0.0
 40
3.799999999999998
100
AcDbArc
 50
270.0
 51
0.0
1001
GENIUS_GENODEF_13
1002
{
1000
HIER
1070
     0
1002
}
1002
{
1000
MANEDIT
1070
     0
1002
}
1002
{
1000
NOSEL
1070
     0
1002
}
1002
{
1000
BEHIND
1070
     0
1002
}
1002
{
1000
OTHER
1070
     0
1002
}
1002
{
1000
REACTOR
1002
}
1001
GENIUS_GENOBJ-N-FIL_13
1002
{
1000
OWNER
1000
GEN
1002
}
  0
ARC
  5
77B
330
1F
100
AcDbEntity
  8
0
100
AcDbCircle
 10
363.7000008775326
 20
125.3500003944707
 30
0.0
 40
3.799999999999998
100
AcDbArc
 50
0.0
 51
90.0
1001
GENIUS_GENODEF_13
1002
{
1000
HIER
1070
     0
1002
}
1002
{
1000
MANEDIT
1070
     0
1002
}
1002
{
1000
NOSEL
1070
     0
1002
}
1002
{
1000
BEHIND
1070
     0
1002
}
1002
{
1000
OTHER
1070
     0
1002
}
1002
{
1000
REACTOR
1002
}
1001
GENIUS_GENOBJ-N-FIL_13
1002
{
1000
OWNER
1000
GEN
1002
}
  0
LINE
  5
77C
330
1F
100
AcDbEntity
  8
0
100
AcDbLine
 10
363.7000008775328
 20
64.55000039447063
 30
0.0
 11
276.7000008775327
 21
64.55000039447063
 31
0.0
  0
ARC
  5
77D
330
1F
100
AcDbEntity
  8
0
100
AcDbCircle
 10
276.7000008775327
 20
68.35000039447063
 30
0.0
 40
3.799999999999998
100
AcDbArc
 50
180.0
 51
270.0
1001
GENIUS_GENOBJ-N-FIL_13
1002
{
1000
OWNER
1000
GEN
1002
}
1001
GENIUS_GENODEF_13
1002
{
1000
HIER
1070
     0
1002
}
1002
{
1000
MANEDIT
1070
     0
1002
}
1002
{
1000
NOSEL
1070
     0
1002
}
1002
{
1000
BEHIND
1070
     0
1002
}
1002
{
1000
OTHER
1070
     0
1002
}
1002
{
1000
REACTOR
1002
}
  0
LINE
  5
77E
330
1F
100
AcDbEntity
  8
0
100
AcDbLine
 10
368.4000008775326
 20
92.85000039447082
 30
0.0
 11
380.4000008775328
 21
92.85000039447073
 31
0.0
  0
LINE
  5
77F
330
1F
100
AcDbEntity
  8
0
100
AcDbLine
 10
367.3000008775328
 20
109.8500003944706
 30
0.0
 11
368.4000008775326
 21
109.8500003944706
 31
0.0
  0
LINE
  5
780
330
1F
100
AcDbEntity
  8
0
100
AcDbLine
 10
367.3000008775328
 20
99.85000039447081
 30
0.0
 11
368.4000008775326
 21
99.85000039447044
 31
0.0
  0
LINE
  5
781
330
1F
100
AcDbEntity
  8
0
100
AcDbLine
 10
380.4000008775326
 20
86.35000039447081
 30
0.0
 11
380.4000008775326
 21
111.3500003944612
 31
0.0
  0
LINE
  5
782
330
1F
100
AcDbEntity
  8
0
100
AcDbLine
 10
368.4000008775326
 20
86.35000039447072
 30
0.0
 11
368.4000008775326
 21
99.85000039447044
 31
0.0
  0
LINE
  5
783
330
1F
100
AcDbEntity
  8
0
100
AcDbLine
 10
368.4000008775326
 20
109.8500003944706
 30
0.0
 11
368.4000008775326
 21
111.3500003944612
 31
0.0
  0
LINE
  5
784
330
1F
100
AcDbEntity
  8
0
100
AcDbLine
 10
368.4000008775326
 20
111.3500003944612
 30
0.0
 11
380.4000008775326
 21
111.3500003944612
 31
0.0
  0
LINE
  5
785
330
1F
100
AcDbEntity
  8
0
100
AcDbLine
 10
379.9000008775328
 20
111.8500003944611
 30
0.0
 11
380.4000008775326
 21
111.3500003944613
 31
0.0
1001
GENIUS_GENFIL_13
1070
     0
1040
0.5
1040
0.5
1040
0.5
1040
45.00000000000325
1002
{
1002
}
1001
GENIUS_GENOBJ-N-CHA_13
1002
{
1000
OWNER
1000
GEN
1002
}
1001
GENIUS_GENODEF_13
1002
{
1000
HIER
1070
     0
1002
}
1002
{
1000
MANEDIT
1070
     0
1002
}
1002
{
1000
NOSEL
1070
     0
1002
}
1002
{
1000
BEHIND
1070
     0
1002
}
1002
{
1000
OTHER
1070
     0
1002
}
1002
{
1000
REACTOR
1002
}
  0
LINE
  5
786
330
1F
100
AcDbEntity
  8
0
100
AcDbLine
 10
379.9000008775328
 20
111.8500003944611
 30
0.0
 11
368.9000008775326
 21
111.8500003944611
 31
0.0
  0
LINE
  5
787
330
1F
100
AcDbEntity
  8
0
100
AcDbLine
 10
368.4000008775326
 20
111.3500003944612
 30
0.0
 11
368.9000008775326
 21
111.8500003944611
 31
0.0
1001
GENIUS_GENFIL_13
1070
     0
1040
0.5
1040
0.5
1040
0.5
1040
45.00000000000325
1002
{
1002
}
1001
GENIUS_GENOBJ-N-CHA_13
1002
{
1000
OWNER
1000
GEN
1002
}
1001
GENIUS_GENODEF_13
1002
{
1000
HIER
1070
     0
1002
}
1002
{
1000
MANEDIT
1070
     0
1002
}
1002
{
1000
NOSEL
1070
     0
1002
}
1002
{
1000
BEHIND
1070
     0
1002
}
1002
{
1000
OTHER
1070
     0
1002
}
1002
{
1000
REACTOR
1002
}
  0
SPLINE
  5
788
330
1F
100
AcDbEntity
  8
0
100
AcDbSpline
210
0.0
220
0.0
230
1.0
 70
     8
 71
     3
 72
    38
 73
    34
 74
     0
 42
0.0000000001
 43
0.0000000001
 40
8.160870181059902
 40
8.160870181059902
 40
8.160870181059902
 40
8.160870181059902
 40
9.159821244704103
 40
9.159821244704103
 40
10.15877230834831
 40
10.15877230834831
 40
11.15772337199251
 40
11.15772337199251
 40
12.15667443563672
 40
12.15667443563672
 40
13.19794091725749
 40
13.19794091725749
 40
14.23920739887826
 40
14.23920739887826
 40
15.28047388049904
 40
15.28047388049904
 40
16.32174036211981
 40
16.32174036211981
 40
17.36300684374058
 40
17.36300684374058
 40
18.40427332536135
 40
18.40427332536135
 40
19.44553980698212
 40
19.44553980698212
 40
20.48680628860289
 40
20.48680628860289
 40
21.4857573522471
 40
21.4857573522471
 40
22.48470841589131
 40
22.48470841589131
 40
23.48365947953551
 40
23.48365947953551
 40
24.48261054317971
 40
24.48261054317971
 40
24.48261054317971
 40
24.48261054317971
 10
368.4000008775326
 20
109.8500003944707
 30
0.0
 10
368.4000008775326
 20
109.8500003944707
 30
0.0
 10
368.4282519660548
 20
109.8162097753894
 30
0.0
 10
368.5407497745901
 20
109.680349661425
 30
0.0
 10
368.6249389746872
 20
109.578341199212
 30
0.0
 10
368.8372854842771
 20
109.3165056469498
 30
0.0
 10
368.9655993230487
 20
109.1564488349755
 30
0.0
 10
369.2468510401231
 20
108.7955968202998
 30
0.0
 10
369.3996981970085
 20
108.5948001722767
 30
0.0
 10
369.7114089232343
 20
108.1674039574277
 30
0.0
 10
369.8828206220174
 20
107.9233802186444
 30
0.0
 10
370.2247266254663
 20
107.3943394459956
 30
0.0
 10
370.3952323310241
 20
107.1094332664064
 30
0.0
 10
370.7007212103215
 20
106.5087761539526
 30
0.0
 10
370.8356085649727
 20
106.192821995134
 30
0.0
 10
371.0274829091429
 20
105.5371355041701
 30
0.0
 10
371.0833760871774
 20
105.1970892216776
 30
0.0
 10
371.0833760871774
 20
104.5029115672638
 30
0.0
 10
371.0274829091429
 20
104.1628652847712
 30
0.0
 10
370.8356085649727
 20
103.5071787938072
 30
0.0
 10
370.7007212103215
 20
103.1912246349887
 30
0.0
 10
370.3952323310241
 20
102.590567522535
 30
0.0
 10
370.2247266254663
 20
102.3056613429459
 30
0.0
 10
369.8828206220174
 20
101.776620570297
 30
0.0
 10
369.7114089232343
 20
101.5325968315137
 30
0.0
 10
369.3996981970085
 20
101.1052006166648
 30
0.0
 10
369.2468510401231
 20
100.9044039686416
 30
0.0
 10
368.9655993230487
 20
100.5435519539659
 30
0.0
 10
368.8372854842771
 20
100.3834951419916
 30
0.0
 10
368.6249389746872
 20
100.1216595897293
 30
0.0
 10
368.5407497745901
 20
100.0196511275164
 30
0.0
 10
368.4282519660548
 20
99.88379101355205
 30
0.0
 10
368.4000008775326
 20
99.85000039447072
 30
0.0
 10
368.4000008775326
 20
99.85000039447072
 30
0.0
  0
LINE
  5
789
330
1F
100
AcDbEntity
  8
0
100
AcDbLine
 10
380.4000008775328
 20
92.85000039447082
 30
0.0
 11
368.4000008775326
 21
92.85000039447073
 31
0.0
  0
LINE
  5
78A
330
1F
100
AcDbEntity
  8
0
100
AcDbLine
 10
380.4000008775326
 20
92.85000039447073
 30
0.0
 11
368.4000008775326
 21
92.85000039447073
 31
0.0
  0
LINE
  5
78B
330
1F
100
AcDbEntity
  8
0
100
AcDbLine
 10
374.4000008774727
 20
91.35000039447072
 30
0.0
 11
374.4000008774727
 21
86.35000039447072
 31
0.0
  0
LINE
  5
78C
330
1F
100
AcDbEntity
  8
0
100
AcDbLine
 10
380.4000008775326
 20
84.85000039447072
 30
0.0
 11
380.4000008775326
 21
76.85000039447072
 31
0.0
  0
LINE
  5
78D
330
1F
100
AcDbEntity
  8
0
100
AcDbLine
 10
374.4000008774727
 20
84.85000039447072
 30
0.0
 11
374.4000008774727
 21
76.85000039447072
 31
0.0
  0
LINE
  5
78E
330
1F
100
AcDbEntity
  8
0
100
AcDbLine
 10
368.4000008775326
 20
84.85000039447072
 30
0.0
 11
368.4000008775326
 21
76.85000039447072
 31
0.0
  0
LINE
  5
78F
330
1F
100
AcDbEntity
  8
0
100
AcDbLine
 10
380.4000008775326
 20
91.35000039447072
 30
0.0
 11
368.4000008775326
 21
91.35000039447072
 31
0.0
  0
LINE
  5
790
330
1F
100
AcDbEntity
  8
0
100
AcDbLine
 10
379.4000008775326
 20
84.85000039447072
 30
0.0
 11
379.4000008775326
 21
86.35000039447072
 31
0.0
  0
LINE
  5
791
330
1F
100
AcDbEntity
  8
0
100
AcDbLine
 10
369.4000008775326
 20
84.85000039447072
 30
0.0
 11
369.4000008775326
 21
86.35000039447072
 31
0.0
  0
LINE
  5
792
330
1F
100
AcDbEntity
  8
0
100
AcDbLine
 10
368.9000008775326
 20
76.85000039447072
 30
0.0
 11
368.9000008775326
 21
75.85000039447073
 31
0.0
  0
LINE
  5
793
330
1F
100
AcDbEntity
  8
0
100
AcDbLine
 10
379.9000008775326
 20
76.85000039447072
 30
0.0
 11
379.9000008775326
 21
75.85000039447073
 31
0.0
  0
LINE
  5
794
330
1F
100
AcDbEntity
  8
0
100
AcDbLine
 10
377.9000008775326
 20
73.85000039447072
 30
0.0
 11
370.9000008775326
 21
73.85000039447072
 31
0.0
  0
ARC
  5
795
330
1F
100
AcDbEntity
  8
0
100
AcDbCircle
 10
370.9000008775326
 20
75.85000039447073
 30
0.0
 40
2.0
100
AcDbArc
 50
180.0
 51
270.0
  0
ARC
  5
796
330
1F
100
AcDbEntity
  8
0
100
AcDbCircle
 10
377.9000008775326
 20
75.85000039447073
 30
0.0
 40
2.0
100
AcDbArc
 50
270.0
 51
0.0
  0
LINE
  5
797
330
1F
100
AcDbEntity
  8
0
100
AcDbLine
 10
368.4000008775326
 20
86.35000039447072
 30
0.0
 11
380.4000008775326
 21
86.35000039447081
 31
0.0
  0
LINE
  5
798
330
1F
100
AcDbEntity
  8
0
100
AcDbLine
 10
368.4000008775326
 20
84.85000039447072
 30
0.0
 11
380.4000008775326
 21
84.85000039447072
 31
0.0
  0
LINE
  5
799
330
1F
100
AcDbEntity
  8
0
100
AcDbLine
 10
368.4000008775326
 20
76.85000039447072
 30
0.0
 11
380.4000008775326
 21
76.85000039447072
 31
0.0
  0
LINE
  5
79A
330
1F
100
AcDbEntity
  8
0
100
AcDbLine
 10
272.0000008775337
 20
92.85000039447082
 30
0.0
 11
262.0000008775337
 21
92.85000039447073
 31
0.0
  0
LINE
  5
79B
330
1F
100
AcDbEntity
  8
0
100
AcDbLine
 10
273.1000008775328
 20
109.8500003944706
 30
0.0
 11
272.0000008775338
 21
109.8500003944707
 31
0.0
  0
LINE
  5
79C
330
1F
100
AcDbEntity
  8
0
100
AcDbLine
 10
273.1000008775328
 20
99.85000039447081
 30
0.0
 11
272.0000008775338
 21
99.85000039447053
 31
0.0
  0
LINE
  5
79D
330
1F
100
AcDbEntity
  8
0
100
AcDbLine
 10
268.2000008775337
 20
96.25000039447073
 30
0.0
 11
265.8000008775336
 21
96.25000039447073
 31
0.0
1001
GENIUS_GENREC_14
1002
{
1000
PYDIR
1011
268.0000008775337
1021
98.45000039447032
1031
0.0
1002
}
1002
{
1000
PXDIR
1011
266.0000008775337
1021
96.45000039447072
1031
0.0
1002
}
1002
{
1000
PORI
1011
268.0000008775337
1021
96.45000039447072
1031
0.0
1002
}
1002
{
1000
PINS
1011
268.0000008775337
1021
96.45000039447072
1031
0.0
1002
}
1002
{
1000
PINS2
1011
266.0000008775337
1021
98.45000039447032
1031
0.0
1002
}
1002
{
1000
C
1070
     1
1002
}
1001
GENIUS_GENODEF_13
1002
{
1000
HIER
1070
     0
1002
}
1002
{
1000
MANEDIT
1070
     0
1002
}
1002
{
1000
NOSEL
1070
     0
1002
}
1002
{
1000
BEHIND
1070
     0
1002
}
1002
{
1000
OTHER
1070
     0
1002
}
1002
{
1000
REACTOR
1002
}
1001
GENIUS_GENOBJ-N-REC_13
1002
{
1000
OWNER
1000
GEN
1002
}
  0
LINE
  5
79E
330
1F
100
AcDbEntity
  8
0
100
AcDbLine
 10
265.8000008775336
 20
96.25000039447073
 30
0.0
 11
265.8000008775336
 21
98.45000039447032
 31
0.0
1001
GENIUS_GENREC_14
1002
{
1000
PYDIR
1011
268.0000008775337
1021
98.25000039447022
1031
0.0
1002
}
1002
{
1000
PXDIR
1011
266.0000008775337
1021
96.45000039447072
1031
0.0
1002
}
1002
{
1000
PORI
1011
268.0000008775337
1021
96.45000039447072
1031
0.0
1002
}
1002
{
1000
PINS
1011
268.0000008775337
1021
96.45000039447072
1031
0.0
1002
}
1002
{
1000
PINS2
1011
266.0000008775337
1021
98.25000039447022
1031
0.0
1002
}
1002
{
1000
C
1070
     1
1002
}
1001
GENIUS_GENODEF_13
1002
{
1000
HIER
1070
     0
1002
}
1002
{
1000
MANEDIT
1070
     0
1002
}
1002
{
1000
NOSEL
1070
     0
1002
}
1002
{
1000
BEHIND
1070
     0
1002
}
1002
{
1000
OTHER
1070
     0
1002
}
1002
{
1000
REACTOR
1002
}
1001
GENIUS_GENOBJ-N-REC_13
1002
{
1000
OWNER
1000
GEN
1002
}
  0
LINE
  5
79F
330
1F
100
AcDbEntity
  8
0
100
AcDbLine
 10
265.8000008775336
 20
98.45000039447032
 30
0.0
 11
268.2000008775337
 21
98.45000039447032
 31
0.0
1001
GENIUS_GENREC_14
1002
{
1000
PYDIR
1011
268.0000008775337
1021
98.25000039447022
1031
0.0
1002
}
1002
{
1000
PXDIR
1011
266.0000008775337
1021
96.45000039447072
1031
0.0
1002
}
1002
{
1000
PORI
1011
268.0000008775337
1021
96.45000039447072
1031
0.0
1002
}
1002
{
1000
PINS
1011
268.0000008775337
1021
96.45000039447072
1031
0.0
1002
}
1002
{
1000
PINS2
1011
266.0000008775337
1021
98.25000039447022
1031
0.0
1002
}
1002
{
1000
C
1070
     1
1002
}
1001
GENIUS_GENODEF_13
1002
{
1000
HIER
1070
     0
1002
}
1002
{
1000
MANEDIT
1070
     0
1002
}
1002
{
1000
NOSEL
1070
     0
1002
}
1002
{
1000
BEHIND
1070
     0
1002
}
1002
{
1000
OTHER
1070
     0
1002
}
1002
{
1000
REACTOR
1002
}
1001
GENIUS_GENOBJ-N-REC_13
1002
{
1000
OWNER
1000
GEN
1002
}
  0
LINE
  5
7A0
330
1F
100
AcDbEntity
  8
0
100
AcDbLine
 10
268.2000008775337
 20
98.45000039447032
 30
0.0
 11
268.2000008775337
 21
96.25000039447073
 31
0.0
1001
GENIUS_GENREC_14
1002
{
1000
PYDIR
1011
268.0000008775337
1021
98.25000039447022
1031
0.0
1002
}
1002
{
1000
PXDIR
1011
266.0000008775337
1021
96.45000039447072
1031
0.0
1002
}
1002
{
1000
PORI
1011
268.0000008775337
1021
96.45000039447072
1031
0.0
1002
}
1002
{
1000
PINS
1011
268.0000008775337
1021
96.45000039447072
1031
0.0
1002
}
1002
{
1000
PINS2
1011
266.0000008775337
1021
98.25000039447022
1031
0.0
1002
}
1002
{
1000
C
1070
     1
1002
}
1001
GENIUS_GENODEF_13
1002
{
1000
HIER
1070
     0
1002
}
1002
{
1000
MANEDIT
1070
     0
1002
}
1002
{
1000
NOSEL
1070
     0
1002
}
1002
{
1000
BEHIND
1070
     0
1002
}
1002
{
1000
OTHER
1070
     0
1002
}
1002
{
1000
REACTOR
1002
}
1001
GENIUS_GENOBJ-N-REC_13
1002
{
1000
OWNER
1000
GEN
1002
}
  0
LINE
  5
7A1
330
1F
100
AcDbEntity
  8
0
100
AcDbLine
 10
262.0000008775337
 20
92.85000039448041
 30
0.0
 11
262.0000008775337
 21
116.8500003944708
 31
0.0
  0
LINE
  5
7A2
330
1F
100
AcDbEntity
  8
0
100
AcDbLine
 10
272.0000008775338
 20
92.85000039448041
 30
0.0
 11
272.0000008775338
 21
99.85000039447053
 31
0.0
  0
LINE
  5
7A3
330
1F
100
AcDbEntity
  8
0
100
AcDbLine
 10
272.0000008775338
 20
109.8500003944707
 30
0.0
 11
272.0000008775338
 21
116.8500003944708
 31
0.0
  0
LINE
  5
7A4
330
1F
100
AcDbEntity
  8
0
100
AcDbLine
 10
272.0000008775338
 20
109.8500003944707
 30
0.0
 11
267.0000008775336
 21
104.8500003944707
 31
0.0
  0
LINE
  5
7A5
330
1F
100
AcDbEntity
  8
0
100
AcDbLine
 10
267.0000008775336
 20
104.8500003944707
 30
0.0
 11
272.0000008775337
 21
99.85000039447081
 31
0.0
  0
LINE
  5
7A6
330
1F
100
AcDbEntity
  8
0
100
AcDbLine
 10
263.0000008775335
 20
169.850000394471
 30
0.0
 11
271.0000008775336
 21
169.8500003944708
 31
0.0
  0
LINE
  5
7A7
330
1F
100
AcDbEntity
  8
0
100
AcDbLine
 10
272.0000008775337
 20
116.8500003944708
 30
0.0
 11
271.0000008775336
 21
169.8500003944708
 31
0.0
  0
LINE
  5
7A8
330
1F
100
AcDbEntity
  8
0
100
AcDbLine
 10
262.0000008775337
 20
116.8500003944708
 30
0.0
 11
263.0000008775335
 21
169.850000394471
 31
0.0
  0
LINE
  5
7A9
330
1F
100
AcDbEntity
  8
0
100
AcDbLine
 10
270.9000008775341
 20
169.8500003944708
 30
0.0
 11
270.8442027443449
 21
171.7515033203096
 31
0.0
  0
LINE
  5
7AA
330
1F
100
AcDbEntity
  8
0
100
AcDbLine
 10
263.1000008775342
 20
169.8500003944708
 30
0.0
 11
263.1557990107235
 21
171.7515033203092
 31
0.0
  0
ARC
  5
7AB
330
1F
100
AcDbEntity
  8
0
100
AcDbCircle
 10
263.6557065807383
 20
171.7418897131937
 30
0.0
 40
0.5
100
AcDbArc
 50
110.6115892566145
 51
178.8982938847989
1001
GENIUS_GENODEF_13
1002
{
1000
HIER
1070
     0
1002
}
1002
{
1000
MANEDIT
1070
     0
1002
}
1002
{
1000
NOSEL
1070
     0
1002
}
1002
{
1000
BEHIND
1070
     0
1002
}
1002
{
1000
OTHER
1070
     0
1002
}
1002
{
1000
REACTOR
1002
}
1001
GENIUS_GENOBJ-N-FIL_13
1002
{
1000
OWNER
1000
GEN
1002
}
  0
ARC
  5
7AC
330
1F
100
AcDbEntity
  8
0
100
AcDbCircle
 10
270.34429517433
 20
171.7418897131938
 30
0.0
 40
0.5
100
AcDbArc
 50
1.101706115207571
 51
69.38841074338871
1001
GENIUS_GENOBJ-N-FIL_13
1002
{
1000
OWNER
1000
GEN
1002
}
1001
GENIUS_GENODEF_13
1002
{
1000
HIER
1070
     0
1002
}
1002
{
1000
MANEDIT
1070
     0
1002
}
1002
{
1000
NOSEL
1070
     0
1002
}
1002
{
1000
BEHIND
1070
     0
1002
}
1002
{
1000
OTHER
1070
     0
1002
}
1002
{
1000
REACTOR
1002
}
  0
ARC
  5
7AD
330
1F
100
AcDbEntity
  8
0
100
AcDbCircle
 10
267.0000008775344
 20
162.8500003944707
 30
0.0
 40
10.0
100
AcDbArc
 50
98.62692656528869
 51
110.6115892566145
  0
ARC
  5
7AE
330
1F
100
AcDbEntity
  8
0
100
AcDbCircle
 10
267.0000008775344
 20
162.8500003944707
 30
0.0
 40
10.0
100
AcDbArc
 50
81.37307343471137
 51
98.62692656528869
  0
ARC
  5
7AF
330
1F
100
AcDbEntity
  8
0
100
AcDbCircle
 10
267.0000008775344
 20
162.8500003944707
 30
0.0
 40
10.0
100
AcDbArc
 50
69.38841074338871
 51
81.37307343471137
  0
LINE
  5
7B0
330
1F
100
AcDbEntity
  8
0
100
AcDbLine
 10
265.5000008763936
 20
172.7368603609403
 30
0.0
 11
268.5000008786751
 21
172.7368603609403
 31
0.0
  0
LINE
  5
7B1
330
1F
100
AcDbEntity
  8
0
100
AcDbLine
 10
266.0000008775337
 20
96.75000039447082
 30
0.0
 11
268.0000008775337
 21
96.75000039447073
 31
0.0
  0
LINE
  5
7B2
330
1F
100
AcDbEntity
  8
0
100
AcDbLine
 10
262.5000008775335
 20
91.35000039447072
 30
0.0
 11
271.5000008775339
 21
91.35000039447072
 31
0.0
  0
LINE
  5
7B3
330
1F
100
AcDbEntity
  8
0
100
AcDbLine
 10
272.0000008775337
 20
91.85000039447073
 30
0.0
 11
271.5000008775339
 21
91.35000039447072
 31
0.0
1001
GENIUS_GENFIL_13
1070
     0
1040
0.5
1040
0.5
1040
20.0
1040
0.0
1002
{
1002
}
1001
GENIUS_GENODEF_13
1002
{
1000
HIER
1070
     0
1002
}
1002
{
1000
MANEDIT
1070
     0
1002
}
1002
{
1000
NOSEL
1070
     0
1002
}
1002
{
1000
BEHIND
1070
     0
1002
}
1002
{
1000
OTHER
1070
     0
1002
}
1002
{
1000
REACTOR
1002
}
1001
GENIUS_GENOBJ-N-CHA_13
1002
{
1000
OWNER
1000
GEN
1002
}
  0
LINE
  5
7B4
330
1F
100
AcDbEntity
  8
0
100
AcDbLine
 10
262.0000008775337
 20
92.85000039447082
 30
0.0
 11
262.0000008775335
 21
91.8500003944708
 31
0.0
  0
LINE
  5
7B5
330
1F
100
AcDbEntity
  8
0
100
AcDbLine
 10
262.5000008775335
 20
91.35000039447072
 30
0.0
 11
262.0000008775335
 21
91.8500003944708
 31
0.0
1001
GENIUS_GENFIL_13
1070
     0
1040
0.5
1040
0.5
1040
0.4999999999999787
1040
45.00000000000446
1000
~T
  0
LINE
  5
7B6
330
1F
100
AcDbEntity
  8
0
100
AcDbLine
 10
272.0000008775335
 20
92.85000039447073
 30
0.0
 11
272.0000008775337
 21
91.85000039447073
 31
0.0
  0
LINE
  5
7B7
330
1F
100
AcDbEntity
  8
0
100
AcDbLine
 10
262.0000008775335
 20
91.85000039447123
 30
0.0
 11
272.0000008775337
 21
91.85000039447073
 31
0.0
  0
LINE
  5
7B8
330
1F
100
AcDbEntity
  8
0
100
AcDbLine
 10
266.0000008775337
 20
98.25000039447022
 30
0.0
 11
268.0000008775337
 21
98.25000039447033
 31
0.0
  0
LINE
  5
7B9
330
1F
100
AcDbEntity
  8
0
100
AcDbLine
 10
268.0000008775337
 20
96.25000039447073
 30
0.0
 11
268.0000008775337
 21
98.25000039447033
 31
0.0
  0
LINE
  5
7BA
330
1F
100
AcDbEntity
  8
0
100
AcDbLine
 10
266.0000008775337
 20
96.25000039447073
 30
0.0
 11
266.0000008775337
 21
98.25000039447022
 31
0.0
  0
LINE
  5
7BB
330
1F
100
AcDbEntity
  8
0
100
AcDbLine
 10
205.2000008775328
 20
128.8500003944712
 30
0.0
 11
210.2000008775327
 21
128.850000394471
 31
0.0
  0
LINE
  5
7BC
330
1F
100
AcDbEntity
  8
0
100
AcDbLine
 10
205.2000008775328
 20
64.85000039447081
 30
0.0
 11
210.2000008775328
 21
64.85000039447093
 31
0.0
  0
LINE
  5
7BD
330
1F
100
AcDbEntity
  8
0
100
AcDbLine
 10
203.2000008775328
 20
66.85000039447081
 30
0.0
 11
205.2000008775328
 21
64.85000039447081
 31
0.0
1001
GENIUS_GENFIL_13
1070
     0
1040
2.0
1040
2.0
1040
2.0
1040
45.0000000000008
1002
{
1002
}
1001
GENIUS_GENOBJ-N-CHA_13
1002
{
1000
OWNER
1000
GEN
1002
}
1001
GENIUS_GENODEF_13
1002
{
1000
HIER
1070
     0
1002
}
1002
{
1000
MANEDIT
1070
     0
1002
}
1002
{
1000
NOSEL
1070
     0
1002
}
1002
{
1000
BEHIND
1070
     0
1002
}
1002
{
1000
OTHER
1070
     0
1002
}
1002
{
1000
REACTOR
1002
}
  0
LINE
  5
7BE
330
1F
100
AcDbEntity
  8
0
100
AcDbLine
 10
203.2000008775328
 20
126.8500003944711
 30
0.0
 11
203.2000008775328
 21
66.85000039447081
 31
0.0
  0
LINE
  5
7BF
330
1F
100
AcDbEntity
  8
0
100
AcDbLine
 10
205.2000008775328
 20
128.8500003944712
 30
0.0
 11
203.2000008775328
 21
126.8500003944711
 31
0.0
1001
GENIUS_GENFIL_13
1070
     0
1040
2.0
1040
2.0
1040
2.0
1040
45.00000000000055
1000
~T
  0
LINE
  5
7C0
330
1F
100
AcDbEntity
  8
0
100
AcDbLine
 10
210.2000008775327
 20
128.850000394471
 30
0.0
 11
210.2000008775328
 21
64.85000039447093
 31
0.0
  0
LINE
  5
7C1
330
1F
100
AcDbEntity
  8
0
100
AcDbLine
 10
220.200000877532
 20
91.35000039447103
 30
0.0
 11
220.2000008775328
 21
66.85000039447093
 31
0.0
1001
GENIUS_GENODEF_13
1002
{
1000
HIER
1070
     0
1002
}
1002
{
1000
MANEDIT
1070
     0
1002
}
1002
{
1000
NOSEL
1070
     0
1002
}
1002
{
1000
BEHIND
1070
     0
1002
}
1002
{
1000
OTHER
1070
     0
1002
}
1002
{
1000
REACTOR
1002
}
1001
GENIUS_GENOBJ-N-CEN_13
1002
{
1000
OWNER
1000
GEN
1002
}
1001
GENIUS_GENCEN_19
1002
{
1040
2.793999999999998
1002
}
  0
LINE
  5
7C2
330
1F
100
AcDbEntity
  8
0
100
AcDbLine
 10
213.2000008775328
 20
128.850000394471
 30
0.0
 11
213.9264159718707
 21
128.850000394471
 31
0.0
  0
LINE
  5
7C3
330
1F
100
AcDbEntity
  8
0
100
AcDbLine
 10
213.2000008775328
 20
64.85000039447093
 30
0.0
 11
238.7000008775328
 21
64.85000039447093
 31
0.0
  0
LINE
  5
7C4
330
1F
100
AcDbEntity
  8
0
100
AcDbLine
 10
220.2000008775328
 20
66.85000039447093
 30
0.0
 11
218.2000008775328
 21
64.85000039447093
 31
0.0
1001
GENIUS_GENFIL_13
1070
     0
1040
2.0
1040
2.0
1040
2.000000000000025
1040
45.00000000000031
1000
~T
  0
LINE
  5
7C5
330
1F
100
AcDbEntity
  8
0
100
AcDbLine
 10
213.2000008775326
 20
64.85000039447124
 30
0.0
 11
213.2000008775326
 21
128.8500003944709
 31
0.0
  0
ARC
  5
7C6
330
1F
100
AcDbEntity
  8
0
100
AcDbCircle
 10
212.9000008775326
 20
64.85000039447124
 30
0.0
 40
0.3
100
AcDbArc
 50
270.0
 51
0.0
1001
GENIUS_GENODEF_13
1002
{
1000
HIER
1070
     0
1002
}
1002
{
1000
MANEDIT
1070
     0
1002
}
1002
{
1000
NOSEL
1070
     0
1002
}
1002
{
1000
BEHIND
1070
     0
1002
}
1002
{
1000
OTHER
1070
     0
1002
}
1002
{
1000
REACTOR
1002
}
1001
GENIUS_GENOBJ-N-FIL_13
1002
{
1000
OWNER
1000
GEN
1002
}
  0
ARC
  5
7C7
330
1F
100
AcDbEntity
  8
0
100
AcDbCircle
 10
212.9000008775325
 20
128.8500003944709
 30
0.0
 40
0.3
100
AcDbArc
 50
0.0
 51
90.00000000000319
1001
GENIUS_GENOBJ-N-FIL_13
1002
{
1000
OWNER
1000
GEN
1002
}
1001
GENIUS_GENODEF_13
1002
{
1000
HIER
1070
     0
1002
}
1002
{
1000
MANEDIT
1070
     0
1002
}
1002
{
1000
NOSEL
1070
     0
1002
}
1002
{
1000
BEHIND
1070
     0
1002
}
1002
{
1000
OTHER
1070
     0
1002
}
1002
{
1000
REACTOR
1002
}
  0
ARC
  5
7C8
330
1F
100
AcDbEntity
  8
0
100
AcDbCircle
 10
210.5000008775326
 20
64.85000039447124
 30
0.0
 40
0.3
100
AcDbArc
 50
180.0
 51
270.0
1001
GENIUS_GENOBJ-N-FIL_13
1002
{
1000
OWNER
1000
GEN
1002
}
1001
GENIUS_GENODEF_13
1002
{
1000
HIER
1070
     0
1002
}
1002
{
1000
MANEDIT
1070
     0
1002
}
1002
{
1000
NOSEL
1070
     0
1002
}
1002
{
1000
BEHIND
1070
     0
1002
}
1002
{
1000
OTHER
1070
     0
1002
}
1002
{
1000
REACTOR
1002
}
  0
ARC
  5
7C9
330
1F
100
AcDbEntity
  8
0
100
AcDbCircle
 10
210.5000008775326
 20
128.8500003944707
 30
0.0
 40
0.3
100
AcDbArc
 50
90.00000000000319
 51
180.0
1001
GENIUS_GENODEF_13
1002
{
1000
HIER
1070
     0
1002
}
1002
{
1000
MANEDIT
1070
     0
1002
}
1002
{
1000
NOSEL
1070
     0
1002
}
1002
{
1000
BEHIND
1070
     0
1002
}
1002
{
1000
OTHER
1070
     0
1002
}
1002
{
1000
REACTOR
1002
}
1001
GENIUS_GENOBJ-N-FIL_13
1002
{
1000
OWNER
1000
GEN
1002
}
  0
LINE
  5
7CA
330
1F
100
AcDbEntity
  8
0
100
AcDbLine
 10
212.9000008775325
 20
129.1500003944708
 30
0.0
 11
210.5000008775326
 21
129.1500003944708
 31
0.0
  0
LINE
  5
7CB
330
1F
100
AcDbEntity
  8
0
100
AcDbLine
 10
212.9000008775326
 20
64.55000039447114
 30
0.0
 11
210.5000008775326
 21
64.55000039447124
 31
0.0
  0
LINE
  5
7CC
330
1F
100
AcDbEntity
  8
0
100
AcDbLine
 10
213.700000877531
 20
92.85000039447115
 30
0.0
 11
223.7000008775311
 21
92.85000039447092
 31
0.0
  0
LINE
  5
7CD
330
1F
100
AcDbEntity
  8
0
100
AcDbLine
 10
223.700000877531
 20
92.85000039448064
 30
0.0
 11
223.700000877531
 21
96.25000039447094
 31
0.0
  0
LINE
  5
7CE
330
1F
100
AcDbEntity
  8
0
100
AcDbLine
 10
223.700000877531
 20
98.45000039447114
 30
0.0
 11
223.700000877531
 21
116.8500003944711
 31
0.0
  0
LINE
  5
7CF
330
1F
100
AcDbEntity
  8
0
100
AcDbLine
 10
213.700000877531
 20
92.85000039447115
 30
0.0
 11
213.700000877531
 21
96.25000039447094
 31
0.0
  0
LINE
  5
7D0
330
1F
100
AcDbEntity
  8
0
100
AcDbLine
 10
213.700000877531
 20
98.45000039447114
 30
0.0
 11
213.700000877531
 21
116.8500003944641
 31
0.0
  0
LINE
  5
7D1
330
1F
100
AcDbEntity
  8
0
100
AcDbLine
 10
223.7000008775311
 20
98.45000039447114
 30
0.0
 11
223.5538653173355
 21
98.45000039447114
 31
0.0
  0
LINE
  5
7D2
330
1F
100
AcDbEntity
  8
0
100
AcDbLine
 10
223.5538653173355
 20
98.45000039447114
 30
0.0
 11
223.5538653173358
 21
96.25000039447094
 31
0.0
  0
LINE
  5
7D3
330
1F
100
AcDbEntity
  8
0
100
AcDbLine
 10
223.5538653173358
 20
96.25000039447094
 30
0.0
 11
223.7000008775311
 21
96.25000039447094
 31
0.0
  0
LINE
  5
7D4
330
1F
100
AcDbEntity
  8
0
100
AcDbLine
 10
213.700000877531
 20
98.45000039447114
 30
0.0
 11
213.8461364377263
 21
98.45000039447114
 31
0.0
  0
LINE
  5
7D5
330
1F
100
AcDbEntity
  8
0
100
AcDbLine
 10
213.8461364377263
 20
98.45000039447114
 30
0.0
 11
213.8461364377263
 21
96.25000039447094
 31
0.0
  0
LINE
  5
7D6
330
1F
100
AcDbEntity
  8
0
100
AcDbLine
 10
213.8461364377263
 20
96.25000039447094
 30
0.0
 11
213.700000877531
 21
96.25000039447094
 31
0.0
  0
LINE
  5
7D7
330
1F
100
AcDbEntity
  8
0
100
AcDbLine
 10
222.7000008775311
 20
169.8500003944712
 30
0.0
 11
214.700000877531
 21
169.8500003944711
 31
0.0
  0
LINE
  5
7D8
330
1F
100
AcDbEntity
  8
0
100
AcDbLine
 10
213.700000877531
 20
116.8500003944641
 30
0.0
 11
214.700000877531
 21
169.8500003944711
 31
0.0
  0
LINE
  5
7D9
330
1F
100
AcDbEntity
  8
0
100
AcDbLine
 10
223.700000877531
 20
116.8500003944748
 30
0.0
 11
222.7000008775311
 21
169.8500003944712
 31
0.0
  0
LINE
  5
7DA
330
1F
100
AcDbEntity
  8
0
100
AcDbLine
 10
214.8000008775306
 20
169.8500003944711
 30
0.0
 11
214.8557990107197
 21
171.7515033203098
 31
0.0
  0
LINE
  5
7DB
330
1F
100
AcDbEntity
  8
0
100
AcDbLine
 10
222.6000008775305
 20
169.8500003944711
 30
0.0
 11
222.5442027443414
 21
171.7515033203096
 31
0.0
  0
ARC
  5
7DC
330
1F
100
AcDbEntity
  8
0
100
AcDbCircle
 10
222.0442951743264
 20
171.7418897131939
 30
0.0
 40
0.5
100
AcDbArc
 50
1.101706115201056
 51
69.38841074338538
1001
GENIUS_GENODEF_13
1002
{
1000
HIER
1070
     0
1002
}
1002
{
1000
MANEDIT
1070
     0
1002
}
1002
{
1000
NOSEL
1070
     0
1002
}
1002
{
1000
BEHIND
1070
     0
1002
}
1002
{
1000
OTHER
1070
     0
1002
}
1002
{
1000
REACTOR
1002
}
1001
GENIUS_GENOBJ-N-FIL_13
1002
{
1000
OWNER
1000
GEN
1002
}
  0
ARC
  5
7DD
330
1F
100
AcDbEntity
  8
0
100
AcDbCircle
 10
222.0442951743264
 20
171.7418897131939
 30
0.0
 40
0.5
100
AcDbArc
 50
69.38841074338538
 51
69.38841074338538
1001
GENIUS_GENODEF_13
1002
{
1000
HIER
1070
     0
1002
}
1002
{
1000
MANEDIT
1070
     0
1002
}
1002
{
1000
NOSEL
1070
     0
1002
}
1002
{
1000
BEHIND
1070
     0
1002
}
1002
{
1000
OTHER
1070
     0
1002
}
1002
{
1000
REACTOR
1002
}
1001
GENIUS_GENOBJ-N-FIL_13
1002
{
1000
OWNER
1000
GEN
1002
}
  0
ARC
  5
7DE
330
1F
100
AcDbEntity
  8
0
100
AcDbCircle
 10
215.3557065807349
 20
171.741889713194
 30
0.0
 40
0.5
100
AcDbArc
 50
110.6115892566112
 51
178.8982938847924
1001
GENIUS_GENOBJ-N-FIL_13
1002
{
1000
OWNER
1000
GEN
1002
}
1001
GENIUS_GENODEF_13
1002
{
1000
HIER
1070
     0
1002
}
1002
{
1000
MANEDIT
1070
     0
1002
}
1002
{
1000
NOSEL
1070
     0
1002
}
1002
{
1000
BEHIND
1070
     0
1002
}
1002
{
1000
OTHER
1070
     0
1002
}
1002
{
1000
REACTOR
1002
}
  0
ARC
  5
7DF
330
1F
100
AcDbEntity
  8
0
100
AcDbCircle
 10
218.7000008775302
 20
162.8500003944711
 30
0.0
 40
10.0
100
AcDbArc
 50
69.38841074338538
 51
81.37307343471137
  0
ARC
  5
7E0
330
1F
100
AcDbEntity
  8
0
100
AcDbCircle
 10
218.7000008775302
 20
162.8500003944711
 30
0.0
 40
10.0
100
AcDbArc
 50
81.37307343471137
 51
98.62692656528869
  0
ARC
  5
7E1
330
1F
100
AcDbEntity
  8
0
100
AcDbCircle
 10
218.7000008775302
 20
162.8500003944711
 30
0.0
 40
10.0
100
AcDbArc
 50
98.62692656528869
 51
110.6115892566112
  0
LINE
  5
7E2
330
1F
100
AcDbEntity
  8
0
100
AcDbLine
 10
220.200000878671
 20
172.7368603609406
 30
0.0
 11
217.2000008763895
 21
172.7368603609406
 31
0.0
  0
LINE
  5
7E3
330
1F
100
AcDbEntity
  8
0
100
AcDbLine
 10
213.700000877531
 20
92.85000039447115
 30
0.0
 11
223.7000008775311
 21
92.85000039447092
 31
0.0
  0
LINE
  5
7E4
330
1F
100
AcDbEntity
  8
0
100
AcDbLine
 10
223.2000008775313
 20
91.35000039447103
 30
0.0
 11
214.2000008775307
 21
91.35000039447092
 31
0.0
  0
LINE
  5
7E5
330
1F
100
AcDbEntity
  8
0
100
AcDbLine
 10
213.700000877531
 20
91.85000039447093
 30
0.0
 11
214.2000008775307
 21
91.35000039447092
 31
0.0
1001
GENIUS_GENFIL_13
1070
     0
1040
0.5
1040
0.5
1040
20.0
1040
0.0
1002
{
1002
}
1001
GENIUS_GENODEF_13
1002
{
1000
HIER
1070
     0
1002
}
1002
{
1000
MANEDIT
1070
     0
1002
}
1002
{
1000
NOSEL
1070
     0
1002
}
1002
{
1000
BEHIND
1070
     0
1002
}
1002
{
1000
OTHER
1070
     0
1002
}
1002
{
1000
REACTOR
1002
}
1001
GENIUS_GENOBJ-N-CHA_13
1002
{
1000
OWNER
1000
GEN
1002
}
  0
LINE
  5
7E6
330
1F
100
AcDbEntity
  8
0
100
AcDbLine
 10
223.7000008775311
 20
92.85000039447115
 30
0.0
 11
223.7000008775311
 21
91.85000039447102
 31
0.0
  0
LINE
  5
7E7
330
1F
100
AcDbEntity
  8
0
100
AcDbLine
 10
223.2000008775313
 20
91.35000039447103
 30
0.0
 11
223.7000008775311
 21
91.85000039447102
 31
0.0
1001
GENIUS_GENFIL_13
1070
     0
1040
0.5
1040
0.5
1040
0.4999999999999787
1040
45.00000000000446
1000
~T
  0
LINE
  5
7E8
330
1F
100
AcDbEntity
  8
0
100
AcDbLine
 10
213.7000008775313
 20
92.85000039447092
 30
0.0
 11
213.700000877531
 21
91.85000039447093
 31
0.0
  0
LINE
  5
7E9
330
1F
100
AcDbEntity
  8
0
100
AcDbLine
 10
223.7000008775313
 20
91.85000039447151
 30
0.0
 11
213.700000877531
 21
91.85000039447093
 31
0.0
  0
LINE
  5
7EA
330
1F
100
AcDbEntity
  8
0
100
AcDbLine
 10
202.7000008775327
 20
73.76602579825544
 30
0.0
 11
202.7000008775328
 21
78.03397499068663
 31
0.0
  0
ARC
  5
7EB
330
1F
100
AcDbEntity
  8
0
100
AcDbCircle
 10
202.7000008775327
 20
72.90000039447102
 30
0.0
 40
0.5
100
AcDbArc
 50
0.0
 51
60.0000000000001
  0
ARC
  5
7EC
330
1F
100
AcDbEntity
  8
0
100
AcDbCircle
 10
203.2000008775328
 20
73.76602579825544
 30
0.0
 40
0.5
100
AcDbArc
 50
180.0
 51
240.0
  0
ARC
  5
7ED
330
1F
100
AcDbEntity
  8
0
100
AcDbCircle
 10
202.7000008775327
 20
78.90000039447102
 30
0.0
 40
0.5
100
AcDbArc
 50
299.9999999999999
 51
0.0
  0
ARC
  5
7EE
330
1F
100
AcDbEntity
  8
0
100
AcDbCircle
 10
203.2000008775328
 20
78.03397499068663
 30
0.0
 40
0.5
100
AcDbArc
 50
119.9999999999998
 51
180.0
  0
ARC
  5
7EF
330
1F
100
AcDbEntity
  8
0
100
AcDbCircle
 10
218.700000877531
 20
104.8500003944729
 30
0.0
 40
6.0
100
AcDbArc
 50
326.442690238078
 51
33.55730976192204
1001
GENIUS_GENODEF_13
1002
{
1000
HIER
1070
     0
1002
}
1002
{
1000
MANEDIT
1070
     0
1002
}
1002
{
1000
NOSEL
1070
     0
1002
}
1002
{
1000
BEHIND
1070
     0
1002
}
1002
{
1000
OTHER
1070
     0
1002
}
1002
{
1000
REACTOR
1002
}
1001
GENIUS_GENOBJ-N-FIL_13
1002
{
1000
OWNER
1000
GEN
1002
}
  0
LINE
  5
7F0
330
1F
100
AcDbEntity
  8
0
100
AcDbLine
 10
240.2000008775328
 20
127.3500003944711
 30
0.0
 11
240.2000008775328
 21
66.35000039447092
 31
0.0
1001
GENIUS_GENODEF_13
1002
{
1000
HIER
1070
     0
1002
}
1002
{
1000
MANEDIT
1070
     0
1002
}
1002
{
1000
NOSEL
1070
     0
1002
}
1002
{
1000
BEHIND
1070
     0
1002
}
1002
{
1000
OTHER
1070
     0
1002
}
1002
{
1000
REACTOR
1002
}
1001
GENIUS_GENOBJ-N-CEN_13
1002
{
1000
OWNER
1000
GEN
1002
}
1001
GENIUS_GENCEN_19
1002
{
1040
2.793999999999998
1002
}
  0
ARC
  5
7F1
330
1F
100
AcDbEntity
  8
0
100
AcDbCircle
 10
238.7000008775328
 20
127.3500003944711
 30
0.0
 40
1.5
100
AcDbArc
 50
0.0
 51
90.0
1001
GENIUS_GENOBJ-N-CEN_13
1002
{
1000
OWNER
1000
GEN
1002
}
1001
GENIUS_GENCEN_19
1002
{
1040
2.793999999999998
1002
}
1001
GENIUS_GENODEF_13
1002
{
1000
HIER
1070
     0
1002
}
1002
{
1000
MANEDIT
1070
     0
1002
}
1002
{
1000
NOSEL
1070
     0
1002
}
1002
{
1000
BEHIND
1070
     0
1002
}
1002
{
1000
OTHER
1070
     0
1002
}
1002
{
1000
REACTOR
1002
}
1001
GENIUS_GENOBJ-N-FIL_13
1002
{
1000
OWNER
1000
GEN
1002
}
  0
ARC
  5
7F2
330
1F
100
AcDbEntity
  8
0
100
AcDbCircle
 10
238.7000008775328
 20
66.35000039447092
 30
0.0
 40
1.5
100
AcDbArc
 50
270.0
 51
0.0
1001
GENIUS_GENOBJ-N-FIL_13
1002
{
1000
OWNER
1000
GEN
1002
}
1001
GENIUS_GENODEF_13
1002
{
1000
HIER
1070
     0
1002
}
1002
{
1000
MANEDIT
1070
     0
1002
}
1002
{
1000
NOSEL
1070
     0
1002
}
1002
{
1000
BEHIND
1070
     0
1002
}
1002
{
1000
OTHER
1070
     0
1002
}
1002
{
1000
REACTOR
1002
}
  0
LINE
  5
7F3
330
1F
100
AcDbEntity
  8
0
100
AcDbLine
 10
223.4735857831914
 20
128.850000394471
 30
0.0
 11
238.7000008775328
 21
128.8500003944711
 31
0.0
  0
LINE
  5
7F4
330
1F
100
AcDbEntity
  8
0
100
AcDbLine
 10
76.00000087753284
 20
0.000000394471158
 30
0.0
 11
76.00000087753284
 21
17.00000039447113
 31
0.0
  0
LINE
  5
7F5
330
1F
100
AcDbEntity
  8
0
100
AcDbLine
 10
67.00000087753278
 20
0.000000394471158
 30
0.0
 11
67.00000087753284
 21
17.00000039447167
 31
0.0
  0
LINE
  5
7F6
330
1F
100
AcDbEntity
  8
0
100
AcDbLine
 10
45.00000087753273
 20
17.00000039447161
 30
0.0
 11
59.69491372344577
 21
17.00000039447167
 31
0.0
  0
LINE
  5
7F7
330
1F
100
AcDbEntity
  8
0
100
AcDbLine
 10
63.622759867117
 20
17.00000039447167
 30
0.0
 11
68.37724188794857
 21
17.00000039447167
 31
0.0
  0
LINE
  5
7F8
330
1F
100
AcDbEntity
  8
0
100
AcDbLine
 10
72.30508803161985
 20
17.00000039447167
 30
0.0
 11
87.0000008775329
 21
17.00000039447167
 31
0.0
  0
LINE
  5
7F9
330
1F
100
AcDbEntity
  8
0
100
AcDbLine
 10
65.00000087753278
 20
0.000000394471158
 30
0.0
 11
65.00000087753278
 21
17.00000039447161
 31
0.0
  0
LINE
  5
7FA
330
1F
100
AcDbEntity
  8
0
100
AcDbLine
 10
78.00000087753284
 20
0.000000394471158
 30
0.0
 11
78.00000087753284
 21
17.00000039447121
 31
0.0
  0
LINE
  5
7FB
330
1F
100
AcDbEntity
  8
0
100
AcDbLine
 10
45.00000087753278
 20
0.000000394471158
 30
0.0
 11
87.00000087753279
 21
0.000000394471158
 31
0.0
  0
LINE
  5
7FC
330
1F
100
AcDbEntity
  8
0
100
AcDbLine
 10
45.00000087753278
 20
0.000000394471158
 30
0.0
 11
45.00000087753273
 21
17.00000039447161
 31
0.0
  0
LINE
  5
7FD
330
1F
100
AcDbEntity
  8
0
100
AcDbLine
 10
87.0000008775329
 20
16.00000039447116
 30
0.0
 11
78.00000087753284
 21
16.00000039447116
 31
0.0
  0
LINE
  5
7FE
330
1F
100
AcDbEntity
  8
0
100
AcDbLine
 10
87.00000087753279
 20
0.000000394471158
 30
0.0
 11
87.0000008775329
 21
17.00000039447167
 31
0.0
  0
LINE
  5
7FF
330
1F
100
AcDbEntity
  8
0
100
AcDbLine
 10
78.00000087753284
 20
15.0000003944711
 30
0.0
 11
87.0000008775329
 21
15.0000003944711
 31
0.0
  0
LINE
  5
800
330
1F
100
AcDbEntity
  8
0
100
AcDbLine
 10
78.00000087753284
 20
2.000000394471214
 30
0.0
 11
87.0000008775329
 21
2.000000394471157
 31
0.0
  0
LINE
  5
801
330
1F
100
AcDbEntity
  8
0
100
AcDbLine
 10
78.00000087753284
 20
1.000000394471214
 30
0.0
 11
87.0000008775329
 21
1.000000394471157
 31
0.0
  0
LINE
  5
802
330
1F
100
AcDbEntity
  8
0
100
AcDbLine
 10
76.0000008775329
 20
16.00000039447116
 30
0.0
 11
72.35105092796686
 21
16.00000039447116
 31
0.0
  0
LINE
  5
803
330
1F
100
AcDbEntity
  8
0
100
AcDbLine
 10
68.54763418477751
 20
16.00000039447116
 30
0.0
 11
67.0000008775329
 21
16.00000039447116
 31
0.0
  0
LINE
  5
804
330
1F
100
AcDbEntity
  8
0
100
AcDbLine
 10
67.0000008775329
 20
15.0000003944711
 30
0.0
 11
68.83351855452287
 21
15.0000003944711
 31
0.0
  0
LINE
  5
805
330
1F
100
AcDbEntity
  8
0
100
AcDbLine
 10
67.00000087753284
 20
2.000000394471214
 30
0.0
 11
76.0000008775329
 21
2.000000394471157
 31
0.0
  0
LINE
  5
806
330
1F
100
AcDbEntity
  8
0
100
AcDbLine
 10
67.00000087753284
 20
1.000000394471214
 30
0.0
 11
76.0000008775329
 21
1.000000394471157
 31
0.0
  0
LINE
  5
807
330
1F
100
AcDbEntity
  8
0
100
AcDbLine
 10
65.00000087753284
 20
16.00000039447116
 30
0.0
 11
63.45236757028811
 21
16.00000039447116
 31
0.0
  0
LINE
  5
808
330
1F
100
AcDbEntity
  8
0
100
AcDbLine
 10
59.64895082709876
 20
16.00000039447116
 30
0.0
 11
56.00000087753284
 21
16.00000039447116
 31
0.0
  0
LINE
  5
809
330
1F
100
AcDbEntity
  8
0
100
AcDbLine
 10
56.00000087753284
 20
15.0000003944711
 30
0.0
 11
59.66894093754246
 21
15.0000003944711
 31
0.0
  0
LINE
  5
80A
330
1F
100
AcDbEntity
  8
0
100
AcDbLine
 10
63.1664832005427
 20
15.0000003944711
 30
0.0
 11
65.00000087753284
 21
15.0000003944711
 31
0.0
  0
LINE
  5
80B
330
1F
100
AcDbEntity
  8
0
100
AcDbLine
 10
56.00000087753278
 20
2.000000394471214
 30
0.0
 11
65.00000087753284
 21
2.000000394471157
 31
0.0
  0
LINE
  5
80C
330
1F
100
AcDbEntity
  8
0
100
AcDbLine
 10
56.00000087753278
 20
1.000000394471214
 30
0.0
 11
65.00000087753284
 21
1.000000394471157
 31
0.0
  0
LINE
  5
80D
330
1F
100
AcDbEntity
  8
0
100
AcDbLine
 10
54.00000087753284
 20
16.00000039447116
 30
0.0
 11
45.00000087753284
 21
16.00000039447116
 31
0.0
  0
LINE
  5
80E
330
1F
100
AcDbEntity
  8
0
100
AcDbLine
 10
45.00000087753284
 20
15.0000003944711
 30
0.0
 11
54.00000087753284
 21
15.0000003944711
 31
0.0
  0
LINE
  5
80F
330
1F
100
AcDbEntity
  8
0
100
AcDbLine
 10
45.00000087753278
 20
2.000000394471214
 30
0.0
 11
54.00000087753284
 21
2.000000394471157
 31
0.0
  0
LINE
  5
810
330
1F
100
AcDbEntity
  8
0
100
AcDbLine
 10
45.00000087753278
 20
1.000000394471214
 30
0.0
 11
54.00000087753284
 21
1.000000394471157
 31
0.0
  0
LINE
  5
811
330
1F
100
AcDbEntity
  8
0
100
AcDbLine
 10
75.50000087753296
 20
3.500000394471442
 30
0.0
 11
75.50000087753267
 21
13.50000039447107
 31
0.0
  0
LINE
  5
812
330
1F
100
AcDbEntity
  8
0
100
AcDbLine
 10
67.50000087753284
 20
3.500000394471328
 30
0.0
 11
67.50000087753278
 21
13.50000039447121
 31
0.0
  0
LINE
  5
813
330
1F
100
AcDbEntity
  8
0
100
AcDbLine
 10
75.50000087753267
 20
13.50000039447107
 30
0.0
 11
74.50000087753278
 21
13.50000039447107
 31
0.0
  0
LINE
  5
814
330
1F
100
AcDbEntity
  8
0
100
AcDbLine
 10
68.50000087753278
 20
13.50000039447121
 30
0.0
 11
67.50000087753278
 21
13.50000039447121
 31
0.0
  0
LINE
  5
815
330
1F
100
AcDbEntity
  8
0
100
AcDbLine
 10
75.50000087753296
 20
3.500000394471442
 30
0.0
 11
74.50000087753284
 21
3.500000394471442
 31
0.0
  0
LINE
  5
816
330
1F
100
AcDbEntity
  8
0
100
AcDbLine
 10
68.5000008775329
 20
3.500000394471328
 30
0.0
 11
67.50000087753284
 21
3.500000394471328
 31
0.0
  0
LINE
  5
817
330
1F
100
AcDbEntity
  8
0
100
AcDbLine
 10
74.50000087753278
 20
14.5000003944711
 30
0.0
 11
72.51043472256765
 21
14.5000003944711
 31
0.0
  0
LINE
  5
818
330
1F
100
AcDbEntity
  8
0
100
AcDbLine
 10
68.96776559901593
 20
14.5000003944711
 30
0.0
 11
68.50000087753278
 21
14.5000003944711
 31
0.0
  0
LINE
  5
819
330
1F
100
AcDbEntity
  8
0
100
AcDbLine
 10
74.50000087753284
 20
2.500000394471555
 30
0.0
 11
68.5000008775329
 21
2.500000394471328
 31
0.0
  0
LINE
  5
81A
330
1F
100
AcDbEntity
  8
0
100
AcDbLine
 10
68.50000087753278
 20
14.5000003944711
 30
0.0
 11
68.50000087753278
 21
13.50000039447121
 31
0.0
  0
LINE
  5
81B
330
1F
100
AcDbEntity
  8
0
100
AcDbLine
 10
68.5000008775329
 20
3.500000394471328
 30
0.0
 11
68.5000008775329
 21
2.500000394471328
 31
0.0
  0
LINE
  5
81C
330
1F
100
AcDbEntity
  8
0
100
AcDbLine
 10
74.50000087753278
 20
14.5000003944711
 30
0.0
 11
74.50000087753278
 21
13.50000039447107
 31
0.0
  0
LINE
  5
81D
330
1F
100
AcDbEntity
  8
0
100
AcDbLine
 10
74.50000087753284
 20
3.500000394471442
 30
0.0
 11
74.50000087753284
 21
2.500000394471555
 31
0.0
  0
LINE
  5
81E
330
1F
100
AcDbEntity
  8
0
100
AcDbLine
 10
70.95454633207828
 20
10.40909130356201
 30
0.0
 11
70.95454633207822
 21
9.590909485380507
 31
0.0
  0
LINE
  5
81F
330
1F
100
AcDbEntity
  8
0
100
AcDbLine
 10
70.95454633207828
 20
7.409091303562206
 30
0.0
 11
70.95454633207828
 21
6.590909485380336
 31
0.0
  0
ARC
  5
820
330
1F
100
AcDbEntity
  8
0
100
AcDbCircle
 10
70.40909178662378
 20
7.409091303562206
 30
0.0
 40
0.5454545454545455
100
AcDbArc
 50
0.0
 51
90.0
1001
GENIUS_GENOBJ-N-FIL_13
1002
{
1000
OWNER
1000
GEN
1002
}
1001
GENIUS_GENODEF_13
1002
{
1000
HIER
1070
     0
1002
}
1002
{
1000
MANEDIT
1070
     0
1002
}
1002
{
1000
NOSEL
1070
     0
1002
}
1002
{
1000
BEHIND
1070
     0
1002
}
1002
{
1000
OTHER
1070
     0
1002
}
1002
{
1000
REACTOR
1002
}
  0
LINE
  5
821
330
1F
100
AcDbEntity
  8
0
100
AcDbLine
 10
72.04545542298735
 20
10.40909130356218
 30
0.0
 11
72.04545542298729
 21
9.590909485380336
 31
0.0
  0
LINE
  5
822
330
1F
100
AcDbEntity
  8
0
100
AcDbLine
 10
72.04545542298735
 20
7.409091303562206
 30
0.0
 11
72.04545542298735
 21
6.590909485380336
 31
0.0
  0
ARC
  5
823
330
1F
100
AcDbEntity
  8
0
100
AcDbCircle
 10
72.59090996844185
 20
7.409091303562206
 30
0.0
 40
0.5454545454545455
100
AcDbArc
 50
90.0
 51
180.0
1001
GENIUS_GENODEF_13
1002
{
1000
HIER
1070
     0
1002
}
1002
{
1000
MANEDIT
1070
     0
1002
}
1002
{
1000
NOSEL
1070
     0
1002
}
1002
{
1000
BEHIND
1070
     0
1002
}
1002
{
1000
OTHER
1070
     0
1002
}
1002
{
1000
REACTOR
1002
}
1001
GENIUS_GENOBJ-N-FIL_13
1002
{
1000
OWNER
1000
GEN
1002
}
  0
LINE
  5
824
330
1F
100
AcDbEntity
  8
0
100
AcDbLine
 10
70.95454633207828
 20
6.590909485380336
 30
0.0
 11
72.04545542298735
 21
6.590909485380336
 31
0.0
  0
LINE
  5
825
330
1F
100
AcDbEntity
  8
0
100
AcDbLine
 10
70.95454633207828
 20
10.40909130356201
 30
0.0
 11
72.04545542298735
 21
10.40909130356218
 31
0.0
  0
LINE
  5
826
330
1F
100
AcDbEntity
  8
0
100
AcDbLine
 10
69.59090996844214
 20
7.95454584901671
 30
0.0
 11
70.40909178662378
 21
7.95454584901671
 31
0.0
  0
LINE
  5
827
330
1F
100
AcDbEntity
  8
0
100
AcDbLine
 10
72.59090996844185
 20
7.95454584901671
 30
0.0
 11
73.40909178662378
 21
7.954545849016625
 31
0.0
  0
LINE
  5
828
330
1F
100
AcDbEntity
  8
0
100
AcDbLine
 10
69.59090996844202
 20
9.045454939925946
 30
0.0
 11
70.40909178662366
 21
9.045454939925946
 31
0.0
  0
ARC
  5
829
330
1F
100
AcDbEntity
  8
0
100
AcDbCircle
 10
70.40909178662366
 20
9.590909485380507
 30
0.0
 40
0.5454545454545455
100
AcDbArc
 50
270.0
 51
0.0
1001
GENIUS_GENOBJ-N-FIL_13
1002
{
1000
OWNER
1000
GEN
1002
}
1001
GENIUS_GENODEF_13
1002
{
1000
HIER
1070
     0
1002
}
1002
{
1000
MANEDIT
1070
     0
1002
}
1002
{
1000
NOSEL
1070
     0
1002
}
1002
{
1000
BEHIND
1070
     0
1002
}
1002
{
1000
OTHER
1070
     0
1002
}
1002
{
1000
REACTOR
1002
}
  0
LINE
  5
82A
330
1F
100
AcDbEntity
  8
0
100
AcDbLine
 10
72.59090996844179
 20
9.045454939925832
 30
0.0
 11
73.40909178662383
 21
9.045454939925832
 31
0.0
  0
ARC
  5
82B
330
1F
100
AcDbEntity
  8
0
100
AcDbCircle
 10
72.59090996844179
 20
9.590909485380336
 30
0.0
 40
0.5454545454545455
100
AcDbArc
 50
180.0
 51
270.0
1001
GENIUS_GENOBJ-N-FIL_13
1002
{
1000
OWNER
1000
GEN
1002
}
1001
GENIUS_GENODEF_13
1002
{
1000
HIER
1070
     0
1002
}
1002
{
1000
MANEDIT
1070
     0
1002
}
1002
{
1000
NOSEL
1070
     0
1002
}
1002
{
1000
BEHIND
1070
     0
1002
}
1002
{
1000
OTHER
1070
     0
1002
}
1002
{
1000
REACTOR
1002
}
  0
LINE
  5
82C
330
1F
100
AcDbEntity
  8
0
100
AcDbLine
 10
73.40909178662378
 20
7.954545849016625
 30
0.0
 11
73.40909178662383
 21
9.045454939925832
 31
0.0
  0
LINE
  5
82D
330
1F
100
AcDbEntity
  8
0
100
AcDbLine
 10
69.59090996844214
 20
7.95454584901671
 30
0.0
 11
69.59090996844202
 21
9.045454939925946
 31
0.0
  0
LINE
  5
82E
330
1F
100
AcDbEntity
  8
0
100
AcDbLine
 10
56.00000087753278
 20
0.000000394471158
 30
0.0
 11
56.00000087753278
 21
17.00000039447167
 31
0.0
  0
LINE
  5
82F
330
1F
100
AcDbEntity
  8
0
100
AcDbLine
 10
54.00000087753273
 20
0.000000394471158
 30
0.0
 11
54.00000087753278
 21
17.00000039447161
 31
0.0
  0
CIRCLE
  5
830
330
1F
100
AcDbEntity
  8
0
100
AcDbCircle
 10
82.50000087753283
 20
8.500000394471385
 30
0.0
 40
2.1
  0
CIRCLE
  5
831
330
1F
100
AcDbEntity
  8
0
100
AcDbCircle
 10
49.50000087753278
 20
8.500000394471385
 30
0.0
 40
2.1
  0
LINE
  5
832
330
1F
100
AcDbEntity
  8
0
100
AcDbLine
 10
64.5000008775329
 20
3.500000394471442
 30
0.0
 11
64.50000087753267
 21
13.50000039447107
 31
0.0
  0
LINE
  5
833
330
1F
100
AcDbEntity
  8
0
100
AcDbLine
 10
56.50000087753278
 20
3.500000394471328
 30
0.0
 11
56.50000087753278
 21
13.50000039447121
 31
0.0
  0
LINE
  5
834
330
1F
100
AcDbEntity
  8
0
100
AcDbLine
 10
64.50000087753267
 20
13.50000039447107
 30
0.0
 11
63.50000087753278
 21
13.50000039447107
 31
0.0
  0
LINE
  5
835
330
1F
100
AcDbEntity
  8
0
100
AcDbLine
 10
57.50000087753278
 20
13.50000039447121
 30
0.0
 11
56.50000087753278
 21
13.50000039447121
 31
0.0
  0
LINE
  5
836
330
1F
100
AcDbEntity
  8
0
100
AcDbLine
 10
64.5000008775329
 20
3.500000394471442
 30
0.0
 11
63.50000087753278
 21
3.500000394471442
 31
0.0
  0
LINE
  5
837
330
1F
100
AcDbEntity
  8
0
100
AcDbLine
 10
57.50000087753289
 20
3.500000394471328
 30
0.0
 11
56.50000087753278
 21
3.500000394471328
 31
0.0
  0
LINE
  5
838
330
1F
100
AcDbEntity
  8
0
100
AcDbLine
 10
63.50000087753278
 20
14.5000003944711
 30
0.0
 11
63.03223615604963
 21
14.5000003944711
 31
0.0
  0
LINE
  5
839
330
1F
100
AcDbEntity
  8
0
100
AcDbLine
 10
59.48956703249797
 20
14.5000003944711
 30
0.0
 11
57.50000087753278
 21
14.5000003944711
 31
0.0
  0
LINE
  5
83A
330
1F
100
AcDbEntity
  8
0
100
AcDbLine
 10
63.50000087753278
 20
2.500000394471555
 30
0.0
 11
57.50000087753289
 21
2.500000394471328
 31
0.0
  0
LINE
  5
83B
330
1F
100
AcDbEntity
  8
0
100
AcDbLine
 10
57.50000087753278
 20
14.5000003944711
 30
0.0
 11
57.50000087753278
 21
13.50000039447121
 31
0.0
  0
LINE
  5
83C
330
1F
100
AcDbEntity
  8
0
100
AcDbLine
 10
57.50000087753289
 20
3.500000394471328
 30
0.0
 11
57.50000087753289
 21
2.500000394471328
 31
0.0
  0
LINE
  5
83D
330
1F
100
AcDbEntity
  8
0
100
AcDbLine
 10
63.50000087753278
 20
14.5000003944711
 30
0.0
 11
63.50000087753278
 21
13.50000039447107
 31
0.0
  0
LINE
  5
83E
330
1F
100
AcDbEntity
  8
0
100
AcDbLine
 10
63.50000087753278
 20
3.500000394471442
 30
0.0
 11
63.50000087753278
 21
2.500000394471555
 31
0.0
  0
LINE
  5
83F
330
1F
100
AcDbEntity
  8
0
100
AcDbLine
 10
59.95454633207822
 20
10.40909130356201
 30
0.0
 11
59.95454633207817
 21
9.590909485380507
 31
0.0
  0
LINE
  5
840
330
1F
100
AcDbEntity
  8
0
100
AcDbLine
 10
59.95454633207822
 20
7.409091303562206
 30
0.0
 11
59.95454633207822
 21
6.590909485380336
 31
0.0
  0
ARC
  5
841
330
1F
100
AcDbEntity
  8
0
100
AcDbCircle
 10
59.40909178662372
 20
7.409091303562206
 30
0.0
 40
0.5454545454545455
100
AcDbArc
 50
0.0
 51
90.0
1001
GENIUS_GENOBJ-N-FIL_13
1002
{
1000
OWNER
1000
GEN
1002
}
1001
GENIUS_GENODEF_13
1002
{
1000
HIER
1070
     0
1002
}
1002
{
1000
MANEDIT
1070
     0
1002
}
1002
{
1000
NOSEL
1070
     0
1002
}
1002
{
1000
BEHIND
1070
     0
1002
}
1002
{
1000
OTHER
1070
     0
1002
}
1002
{
1000
REACTOR
1002
}
  0
LINE
  5
842
330
1F
100
AcDbEntity
  8
0
100
AcDbLine
 10
61.04545542298729
 20
10.40909130356218
 30
0.0
 11
61.04545542298723
 21
9.590909485380336
 31
0.0
  0
LINE
  5
843
330
1F
100
AcDbEntity
  8
0
100
AcDbLine
 10
61.04545542298729
 20
7.409091303562206
 30
0.0
 11
61.04545542298729
 21
6.590909485380336
 31
0.0
  0
ARC
  5
844
330
1F
100
AcDbEntity
  8
0
100
AcDbCircle
 10
61.59090996844179
 20
7.409091303562206
 30
0.0
 40
0.5454545454545455
100
AcDbArc
 50
90.0
 51
180.0
1001
GENIUS_GENODEF_13
1002
{
1000
HIER
1070
     0
1002
}
1002
{
1000
MANEDIT
1070
     0
1002
}
1002
{
1000
NOSEL
1070
     0
1002
}
1002
{
1000
BEHIND
1070
     0
1002
}
1002
{
1000
OTHER
1070
     0
1002
}
1002
{
1000
REACTOR
1002
}
1001
GENIUS_GENOBJ-N-FIL_13
1002
{
1000
OWNER
1000
GEN
1002
}
  0
LINE
  5
845
330
1F
100
AcDbEntity
  8
0
100
AcDbLine
 10
59.95454633207822
 20
6.590909485380336
 30
0.0
 11
61.04545542298729
 21
6.590909485380336
 31
0.0
  0
LINE
  5
846
330
1F
100
AcDbEntity
  8
0
100
AcDbLine
 10
59.95454633207822
 20
10.40909130356201
 30
0.0
 11
61.04545542298729
 21
10.40909130356218
 31
0.0
  0
LINE
  5
847
330
1F
100
AcDbEntity
  8
0
100
AcDbLine
 10
58.59090996844208
 20
7.95454584901671
 30
0.0
 11
59.40909178662372
 21
7.95454584901671
 31
0.0
  0
LINE
  5
848
330
1F
100
AcDbEntity
  8
0
100
AcDbLine
 10
61.59090996844179
 20
7.95454584901671
 30
0.0
 11
62.40909178662372
 21
7.954545849016625
 31
0.0
  0
LINE
  5
849
330
1F
100
AcDbEntity
  8
0
100
AcDbLine
 10
58.59090996844196
 20
9.045454939925946
 30
0.0
 11
59.4090917866236
 21
9.045454939925946
 31
0.0
  0
ARC
  5
84A
330
1F
100
AcDbEntity
  8
0
100
AcDbCircle
 10
59.4090917866236
 20
9.590909485380507
 30
0.0
 40
0.5454545454545455
100
AcDbArc
 50
270.0
 51
0.0
1001
GENIUS_GENOBJ-N-FIL_13
1002
{
1000
OWNER
1000
GEN
1002
}
1001
GENIUS_GENODEF_13
1002
{
1000
HIER
1070
     0
1002
}
1002
{
1000
MANEDIT
1070
     0
1002
}
1002
{
1000
NOSEL
1070
     0
1002
}
1002
{
1000
BEHIND
1070
     0
1002
}
1002
{
1000
OTHER
1070
     0
1002
}
1002
{
1000
REACTOR
1002
}
  0
LINE
  5
84B
330
1F
100
AcDbEntity
  8
0
100
AcDbLine
 10
61.59090996844174
 20
9.045454939925832
 30
0.0
 11
62.40909178662377
 21
9.045454939925832
 31
0.0
  0
ARC
  5
84C
330
1F
100
AcDbEntity
  8
0
100
AcDbCircle
 10
61.59090996844174
 20
9.590909485380336
 30
0.0
 40
0.5454545454545455
100
AcDbArc
 50
180.0
 51
270.0
1001
GENIUS_GENOBJ-N-FIL_13
1002
{
1000
OWNER
1000
GEN
1002
}
1001
GENIUS_GENODEF_13
1002
{
1000
HIER
1070
     0
1002
}
1002
{
1000
MANEDIT
1070
     0
1002
}
1002
{
1000
NOSEL
1070
     0
1002
}
1002
{
1000
BEHIND
1070
     0
1002
}
1002
{
1000
OTHER
1070
     0
1002
}
1002
{
1000
REACTOR
1002
}
  0
LINE
  5
84D
330
1F
100
AcDbEntity
  8
0
100
AcDbLine
 10
62.40909178662372
 20
7.954545849016625
 30
0.0
 11
62.40909178662377
 21
9.045454939925832
 31
0.0
  0
LINE
  5
84E
330
1F
100
AcDbEntity
  8
0
100
AcDbLine
 10
58.59090996844208
 20
7.95454584901671
 30
0.0
 11
58.59090996844196
 21
9.045454939925946
 31
0.0
  0
LINE
  5
84F
330
1F
100
AcDbEntity
  8
0
100
AcDbLine
 10
67.75000087753205
 20
43.85000039447072
 30
0.0
 11
67.75000087753205
 21
73.85000039447081
 31
0.0
  0
LINE
  5
850
330
1F
100
AcDbEntity
  8
0
100
AcDbLine
 10
64.25000087753358
 20
43.85000039447089
 30
0.0
 11
64.25000087753358
 21
73.85000039447081
 31
0.0
  0
LINE
  5
851
330
1F
100
AcDbEntity
  8
0
100
AcDbLine
 10
64.25000087753358
 20
43.85000039447089
 30
0.0
 11
67.75000087753205
 21
43.85000039447072
 31
0.0
  0
LINE
  5
852
330
1F
100
AcDbEntity
  8
0
100
AcDbLine
 10
57.19394099425165
 20
5.341979962593256
 30
0.0
 11
57.54971150153398
 21
7.956132213871995
 31
0.0
  0
LINE
  5
853
330
1F
100
AcDbEntity
  8
0
100
AcDbLine
 10
57.80235463842643
 20
9.812518877630736
 30
0.0
 11
58.21653468953821
 21
12.85585634064708
 31
0.0
  0
LINE
  5
854
330
1F
100
AcDbEntity
  8
0
100
AcDbLine
 10
63.45029025353165
 20
9.043868575070376
 30
0.0
 11
63.86447030464347
 21
12.08720603808677
 31
0.0
  0
LINE
  5
855
330
1F
100
AcDbEntity
  8
0
100
AcDbLine
 10
60.33934436406821
 20
19.92603161640838
 30
0.0
 11
63.70828841518357
 21
19.46753845347771
 31
0.0
  0
LINE
  5
856
330
1F
100
AcDbEntity
  8
0
100
AcDbLine
 10
61.09422113347602
 20
18.05716536570762
 30
0.0
 11
62.48143338981771
 21
17.86837406332438
 31
0.0
  0
LINE
  5
857
330
1F
100
AcDbEntity
  8
0
100
AcDbLine
 10
60.66621364991949
 20
18.62002377953789
 30
0.0
 11
63.04429180364798
 21
18.29638154688101
 31
0.0
  0
LINE
  5
858
330
1F
100
AcDbEntity
  8
0
100
AcDbLine
 10
59.62463443361747
 20
14.67444236025784
 30
0.0
 11
62.99357848473284
 21
14.21594919732723
 31
0.0
  0
LINE
  5
859
330
1F
100
AcDbEntity
  8
0
100
AcDbLine
 10
60.91891492412026
 20
16.76903969910461
 30
0.0
 11
62.30612718046188
 21
16.58024839672146
 31
0.0
  0
LINE
  5
85A
330
1F
100
AcDbEntity
  8
0
100
AcDbLine
 10
60.35605651028993
 20
16.34103221554801
 30
0.0
 11
62.73413466401843
 21
16.01738998289116
 31
0.0
  0
LINE
  5
85B
330
1F
100
AcDbEntity
  8
0
100
AcDbLine
 10
60.33934436406821
 20
19.92603161640838
 30
0.0
 11
60.27191889893135
 21
19.43059866771489
 31
0.0
  0
LINE
  5
85C
330
1F
100
AcDbEntity
  8
0
100
AcDbLine
 10
59.69205989875433
 20
15.16987530895136
 30
0.0
 11
59.62463443361747
 21
14.6744423602579
 31
0.0
  0
LINE
  5
85D
330
1F
100
AcDbEntity
  8
0
100
AcDbLine
 10
61.09422113347602
 20
18.05716536570762
 30
0.0
 11
60.91891492412026
 21
16.76903969910461
 31
0.0
  0
LINE
  5
85E
330
1F
100
AcDbEntity
  8
0
100
AcDbLine
 10
60.66621364991949
 20
18.62002377953789
 30
0.0
 11
60.35605651028993
 21
16.34103221554801
 31
0.0
  0
LINE
  5
85F
330
1F
100
AcDbEntity
  8
0
100
AcDbLine
 10
63.70828841518357
 20
19.46753845347771
 30
0.0
 11
63.64086295004671
 21
18.97210550478422
 31
0.0
  0
LINE
  5
860
330
1F
100
AcDbEntity
  8
0
100
AcDbLine
 10
63.0610039498697
 20
14.71138214602067
 30
0.0
 11
62.99357848473284
 21
14.21594919732723
 31
0.0
  0
LINE
  5
861
330
1F
100
AcDbEntity
  8
0
100
AcDbLine
 10
62.48143338981771
 20
17.86837406332438
 30
0.0
 11
62.30612718046188
 21
16.58024839672146
 31
0.0
  0
LINE
  5
862
330
1F
100
AcDbEntity
  8
0
100
AcDbLine
 10
63.04429180364798
 20
18.29638154688101
 30
0.0
 11
62.73413466401843
 21
16.01738998289116
 31
0.0
  0
LINE
  5
863
330
1F
100
AcDbEntity
  8
0
100
AcDbLine
 10
58.57240214467783
 20
6.201226128673113
 30
0.0
 11
58.43252336598528
 21
5.173416299751124
 31
0.0
  0
LINE
  5
864
330
1F
100
AcDbEntity
  8
0
100
AcDbLine
 10
61.74317301631583
 20
5.769703151797187
 30
0.0
 11
61.60329423762323
 21
4.741893322875171
 31
0.0
  0
ARC
  5
865
330
1F
100
AcDbEntity
  8
0
100
AcDbCircle
 10
57.81323218011846
 20
5.25769813117219
 30
0.0
 40
0.625
100
AcDbArc
 50
172.2500000000001
 51
352.2500000000001
  0
ARC
  5
866
330
1F
100
AcDbEntity
  8
0
100
AcDbCircle
 10
62.22258542349004
 20
4.657611491454133
 30
0.0
 40
0.6250000000000071
100
AcDbArc
 50
172.2500000000001
 51
352.2500000000001
  0
LINE
  5
867
330
1F
100
AcDbEntity
  8
0
100
AcDbLine
 10
62.99357848473284
 20
14.21594919732723
 30
0.0
 11
63.86447030464347
 21
12.08720603808677
 31
0.0
  0
LINE
  5
868
330
1F
100
AcDbEntity
  8
0
100
AcDbLine
 10
59.62463443361747
 20
14.6744423602579
 30
0.0
 11
58.21653468953821
 21
12.85585634064708
 31
0.0
  0
LINE
  5
869
330
1F
100
AcDbEntity
  8
0
100
AcDbLine
 10
60.66621364991949
 20
18.62002377953789
 30
0.0
 11
61.09422113347602
 21
18.05716536570762
 31
0.0
  0
LINE
  5
86A
330
1F
100
AcDbEntity
  8
0
100
AcDbLine
 10
60.35605651028993
 20
16.34103221554801
 30
0.0
 11
60.91891492412026
 21
16.76903969910461
 31
0.0
  0
LINE
  5
86B
330
1F
100
AcDbEntity
  8
0
100
AcDbLine
 10
62.30612718046188
 20
16.58024839672146
 30
0.0
 11
62.73413466401843
 21
16.01738998289116
 31
0.0
  0
LINE
  5
86C
330
1F
100
AcDbEntity
  8
0
100
AcDbLine
 10
62.48143338981771
 20
17.86837406332438
 30
0.0
 11
63.04429180364798
 21
18.29638154688101
 31
0.0
  0
ARC
  5
86D
330
1F
100
AcDbEntity
  8
0
100
AcDbCircle
 10
54.31423646579003
 20
18.0715843094988
 30
0.0
 40
9.369999999999834
100
AcDbArc
 50
338.9849707697229
 51
5.515029230277042
  0
ARC
  5
86E
330
1F
100
AcDbEntity
  8
0
100
AcDbCircle
 10
69.01868638301118
 20
16.07039650423678
 30
0.0
 40
9.36999999999997
100
AcDbArc
 50
158.9849707697229
 51
185.515029230277
  0
LINE
  5
86F
330
1F
100
AcDbEntity
  8
0
100
AcDbLine
 10
64.70539375275984
 20
43.85000039447089
 30
0.0
 11
61.42929685119378
 21
19.77769559310724
 31
0.0
  0
LINE
  5
870
330
1F
100
AcDbEntity
  8
0
100
AcDbLine
 10
65.91645571701213
 20
43.8500003944708
 30
0.0
 11
62.61833592805806
 21
19.6158744767788
 31
0.0
  0
LINE
  5
871
330
1F
100
AcDbEntity
  8
0
100
AcDbLine
 10
74.19764711663919
 20
9.812518877630793
 30
0.0
 11
73.78346706552736
 21
12.85585634064708
 31
0.0
  0
LINE
  5
872
330
1F
100
AcDbEntity
  8
0
100
AcDbLine
 10
68.54971150153392
 20
9.043868575070348
 30
0.0
 11
68.13553145042215
 21
12.0872060380868
 31
0.0
  0
LINE
  5
873
330
1F
100
AcDbEntity
  8
0
100
AcDbLine
 10
71.66065739099741
 20
19.92603161640838
 30
0.0
 11
68.29171333988199
 21
19.46753845347771
 31
0.0
  0
LINE
  5
874
330
1F
100
AcDbEntity
  8
0
100
AcDbLine
 10
70.90578062158954
 20
18.05716536570762
 30
0.0
 11
69.51856836524791
 21
17.86837406332444
 31
0.0
  0
LINE
  5
875
330
1F
100
AcDbEntity
  8
0
100
AcDbLine
 10
71.33378810514614
 20
18.62002377953789
 30
0.0
 11
68.95570995141759
 21
18.29638154688101
 31
0.0
  0
LINE
  5
876
330
1F
100
AcDbEntity
  8
0
100
AcDbLine
 10
72.37536732144815
 20
14.67444236025784
 30
0.0
 11
69.00642327033279
 21
14.21594919732723
 31
0.0
  0
LINE
  5
877
330
1F
100
AcDbEntity
  8
0
100
AcDbLine
 10
71.08108683094537
 20
16.76903969910461
 30
0.0
 11
69.69387457460374
 21
16.58024839672146
 31
0.0
  0
LINE
  5
878
330
1F
100
AcDbEntity
  8
0
100
AcDbLine
 10
71.64394524477564
 20
16.34103221554801
 30
0.0
 11
69.26586709104714
 21
16.01738998289116
 31
0.0
  0
LINE
  5
879
330
1F
100
AcDbEntity
  8
0
100
AcDbLine
 10
71.66065739099741
 20
19.92603161640838
 30
0.0
 11
71.72808285613427
 21
19.43059866771489
 31
0.0
  0
LINE
  5
87A
330
1F
100
AcDbEntity
  8
0
100
AcDbLine
 10
72.30794185631129
 20
15.16987530895136
 30
0.0
 11
72.37536732144815
 21
14.6744423602579
 31
0.0
  0
LINE
  5
87B
330
1F
100
AcDbEntity
  8
0
100
AcDbLine
 10
70.90578062158954
 20
18.05716536570762
 30
0.0
 11
71.08108683094537
 21
16.76903969910461
 31
0.0
  0
LINE
  5
87C
330
1F
100
AcDbEntity
  8
0
100
AcDbLine
 10
71.33378810514614
 20
18.62002377953789
 30
0.0
 11
71.64394524477564
 21
16.34103221554801
 31
0.0
  0
LINE
  5
87D
330
1F
100
AcDbEntity
  8
0
100
AcDbLine
 10
68.29171333988199
 20
19.46753845347771
 30
0.0
 11
68.35913880501886
 21
18.97210550478425
 31
0.0
  0
LINE
  5
87E
330
1F
100
AcDbEntity
  8
0
100
AcDbLine
 10
68.93899780519586
 20
14.71138214602067
 30
0.0
 11
69.00642327033279
 21
14.21594919732723
 31
0.0
  0
LINE
  5
87F
330
1F
100
AcDbEntity
  8
0
100
AcDbLine
 10
69.51856836524791
 20
17.86837406332444
 30
0.0
 11
69.69387457460374
 21
16.58024839672146
 31
0.0
  0
LINE
  5
880
330
1F
100
AcDbEntity
  8
0
100
AcDbLine
 10
68.95570995141759
 20
18.29638154688101
 30
0.0
 11
69.26586709104714
 21
16.01738998289116
 31
0.0
  0
LINE
  5
881
330
1F
100
AcDbEntity
  8
0
100
AcDbLine
 10
69.00642327033279
 20
14.21594919732723
 30
0.0
 11
68.13553145042215
 21
12.0872060380868
 31
0.0
  0
LINE
  5
882
330
1F
100
AcDbEntity
  8
0
100
AcDbLine
 10
72.37536732144815
 20
14.6744423602579
 30
0.0
 11
73.78346706552736
 21
12.85585634064708
 31
0.0
  0
LINE
  5
883
330
1F
100
AcDbEntity
  8
0
100
AcDbLine
 10
71.33378810514614
 20
18.62002377953789
 30
0.0
 11
70.90578062158954
 21
18.05716536570762
 31
0.0
  0
LINE
  5
884
330
1F
100
AcDbEntity
  8
0
100
AcDbLine
 10
71.64394524477564
 20
16.34103221554801
 30
0.0
 11
71.08108683094537
 21
16.76903969910461
 31
0.0
  0
LINE
  5
885
330
1F
100
AcDbEntity
  8
0
100
AcDbLine
 10
69.69387457460374
 20
16.58024839672146
 30
0.0
 11
69.26586709104714
 21
16.01738998289116
 31
0.0
  0
LINE
  5
886
330
1F
100
AcDbEntity
  8
0
100
AcDbLine
 10
69.51856836524791
 20
17.86837406332444
 30
0.0
 11
68.95570995141759
 21
18.29638154688101
 31
0.0
  0
ARC
  5
887
330
1F
100
AcDbEntity
  8
0
100
AcDbCircle
 10
77.68576528927559
 20
18.0715843094988
 30
0.0
 40
9.369999999999834
100
AcDbArc
 50
174.4849707697229
 51
201.0150292302771
  0
ARC
  5
888
330
1F
100
AcDbEntity
  8
0
100
AcDbCircle
 10
62.98131537205444
 20
16.07039650423678
 30
0.0
 40
9.36999999999997
100
AcDbArc
 50
354.484970769723
 51
21.01502923027669
  0
LINE
  5
889
330
1F
100
AcDbEntity
  8
0
100
AcDbLine
 10
67.29460800230583
 20
43.85000039447072
 30
0.0
 11
70.57070490387184
 21
19.77769559310727
 31
0.0
  0
LINE
  5
88A
330
1F
100
AcDbEntity
  8
0
100
AcDbLine
 10
66.0835460380535
 20
43.8500003944708
 30
0.0
 11
69.38166582700756
 21
19.6158744767788
 31
0.0
  0
LINE
  5
88B
330
1F
100
AcDbEntity
  8
0
100
AcDbLine
 10
74.80606076081404
 20
5.341979962593256
 30
0.0
 11
74.45029025353171
 21
7.956132213871995
 31
0.0
  0
LINE
  5
88C
330
1F
100
AcDbEntity
  8
0
100
AcDbLine
 10
69.15812514570877
 20
4.573329660033039
 30
0.0
 11
68.80235463842644
 21
7.187481911311863
 31
0.0
  0
LINE
  5
88D
330
1F
100
AcDbEntity
  8
0
100
AcDbLine
 10
73.4275996103878
 20
6.201226128673113
 30
0.0
 11
73.56747838908041
 21
5.173416299751124
 31
0.0
  0
LINE
  5
88E
330
1F
100
AcDbEntity
  8
0
100
AcDbLine
 10
70.25682873874984
 20
5.769703151797187
 30
0.0
 11
70.39670751744239
 21
4.741893322875171
 31
0.0
  0
ARC
  5
88F
330
1F
100
AcDbEntity
  8
0
100
AcDbCircle
 10
74.18676957494722
 20
5.25769813117219
 30
0.0
 40
0.625
100
AcDbArc
 50
187.7499999999999
 51
7.749999999999904
  0
ARC
  5
890
330
1F
100
AcDbEntity
  8
0
100
AcDbCircle
 10
69.77741633157558
 20
4.657611491454133
 30
0.0
 40
0.6250000000000071
100
AcDbArc
 50
187.7499999999999
 51
7.749999999999904
  0
LINE
  5
891
330
1F
100
AcDbEntity
  8
0
100
AcDbLine
 10
62.02381638962589
 20
19.69678503494305
 30
0.0
 11
61.85525272678376
 21
18.45820266320945
 31
0.0
  0
LINE
  5
892
330
1F
100
AcDbEntity
  8
0
100
AcDbLine
 10
61.54509558715421
 20
16.17921109921957
 30
0.0
 11
61.30910645917515
 21
14.44519577879254
 31
0.0
  0
LINE
  5
893
330
1F
100
AcDbEntity
  8
0
100
AcDbLine
 10
69.97618536543973
 20
19.69678503494305
 30
0.0
 11
70.14474902828192
 21
18.45820266320945
 31
0.0
  0
LINE
  5
894
330
1F
100
AcDbEntity
  8
0
100
AcDbLine
 10
70.45490616791141
 20
16.1792110992196
 30
0.0
 11
70.69089529589047
 21
14.44519577879256
 31
0.0
  0
LINE
  5
895
330
1F
100
AcDbEntity
  8
0
100
AcDbLine
 10
217.9737405619109
 20
19.92603161640838
 30
0.0
 11
217.9737405619109
 21
43.8500003944708
 31
0.0
  0
LINE
  5
896
330
1F
100
AcDbEntity
  8
0
100
AcDbLine
 10
219.1737405619108
 20
19.92603161640838
 30
0.0
 11
219.1737405619108
 21
43.8500003944708
 31
0.0
  0
LINE
  5
897
330
1F
100
AcDbEntity
  8
0
100
AcDbLine
 10
219.9237405619108
 20
17.00000039447082
 30
0.0
 11
219.9237405619108
 21
19.92603161640838
 31
0.0
  0
LINE
  5
898
330
1F
100
AcDbEntity
  8
0
100
AcDbLine
 10
216.5237405619109
 20
17.00000039447113
 30
0.0
 11
216.5237405619109
 21
19.92603161640838
 31
0.0
  0
LINE
  5
899
330
1F
100
AcDbEntity
  8
0
100
AcDbLine
 10
220.4500008775301
 20
43.85000039447072
 30
0.0
 11
220.4500008775303
 21
64.85000039447093
 31
0.0
  0
LINE
  5
89A
330
1F
100
AcDbEntity
  8
0
100
AcDbLine
 10
216.9500008775316
 20
43.85000039447089
 30
0.0
 11
216.9500008775316
 21
64.85000039447081
 31
0.0
  0
LINE
  5
89B
330
1F
100
AcDbEntity
  8
0
100
AcDbLine
 10
216.9500008775316
 20
43.85000039447089
 30
0.0
 11
220.4500008775301
 21
43.85000039447072
 31
0.0
  0
LINE
  5
89C
330
1F
100
AcDbEntity
  8
0
100
AcDbLine
 10
230.4237405619108
 20
17.00000039447124
 30
0.0
 11
230.4237405619108
 21
0.0000003944712432
 31
0.0
  0
LINE
  5
89D
330
1F
100
AcDbEntity
  8
0
100
AcDbLine
 10
225.4237405619108
 20
17.00000039447124
 30
0.0
 11
225.4237405619108
 21
16.00000039447116
 31
0.0
  0
LINE
  5
89E
330
1F
100
AcDbEntity
  8
0
100
AcDbLine
 10
225.4237405619108
 20
1.000000394471157
 30
0.0
 11
225.4237405619108
 21
0.0000003944712432
 31
0.0
  0
LINE
  5
89F
330
1F
100
AcDbEntity
  8
0
100
AcDbLine
 10
220.9237405619108
 20
15.0000003944711
 30
0.0
 11
220.9237405619108
 21
2.000000394471129
 31
0.0
  0
LINE
  5
8A0
330
1F
100
AcDbEntity
  8
0
100
AcDbLine
 10
212.4237405619113
 20
1.000000394471243
 30
0.0
 11
212.4237405619114
 21
16.00000039447113
 31
0.0
  0
ARC
  5
8A1
330
1F
100
AcDbEntity
  8
0
100
AcDbCircle
 10
213.4237405619113
 20
1.000000394471243
 30
0.0
 40
1.0
100
AcDbArc
 50
180.0
 51
270.0
1001
GENIUS_GENOBJ-N-FIL_13
1002
{
1000
OWNER
1000
GEN
1002
}
1001
GENIUS_GENODEF_13
1002
{
1000
HIER
1070
     0
1002
}
1002
{
1000
MANEDIT
1070
     0
1002
}
1002
{
1000
NOSEL
1070
     0
1002
}
1002
{
1000
BEHIND
1070
     0
1002
}
1002
{
1000
OTHER
1070
     0
1002
}
1002
{
1000
REACTOR
1002
}
  0
LINE
  5
8A2
330
1F
100
AcDbEntity
  8
0
100
AcDbLine
 10
230.4237405619108
 20
0.0000003944712432
 30
0.0
 11
213.4237405619113
 21
0.0000003944712432
 31
0.0
  0
LINE
  5
8A3
330
1F
100
AcDbEntity
  8
0
100
AcDbLine
 10
230.4237405619108
 20
17.00000039447124
 30
0.0
 11
213.4237405619114
 21
17.00000039447113
 31
0.0
  0
ARC
  5
8A4
330
1F
100
AcDbEntity
  8
0
100
AcDbCircle
 10
213.4237405619114
 20
16.00000039447113
 30
0.0
 40
1.0
100
AcDbArc
 50
90.0
 51
180.0
1001
GENIUS_GENOBJ-N-FIL_13
1002
{
1000
OWNER
1000
GEN
1002
}
1001
GENIUS_GENODEF_13
1002
{
1000
HIER
1070
     0
1002
}
1002
{
1000
MANEDIT
1070
     0
1002
}
1002
{
1000
NOSEL
1070
     0
1002
}
1002
{
1000
BEHIND
1070
     0
1002
}
1002
{
1000
OTHER
1070
     0
1002
}
1002
{
1000
REACTOR
1002
}
  0
LINE
  5
8A5
330
1F
100
AcDbEntity
  8
0
100
AcDbLine
 10
216.5237405619109
 20
19.92603161640838
 30
0.0
 11
219.9237405619108
 21
19.92603161640838
 31
0.0
  0
LINE
  5
8A6
330
1F
100
AcDbEntity
  8
0
100
AcDbLine
 10
62.8418766093568
 20
4.573329660033039
 30
0.0
 11
63.19764711663913
 21
7.187481911311863
 31
0.0
  0
CIRCLE
  5
8A7
330
1F
100
AcDbEntity
  8
0
100
AcDbCircle
 10
71.50000087753284
 20
8.500000394471243
 30
0.0
 40
3.0
  0
CIRCLE
  5
8A8
330
1F
100
AcDbEntity
  8
0
100
AcDbCircle
 10
60.50000087753279
 20
8.500000394471243
 30
0.0
 40
3.0
  0
LINE
  5
8A9
330
1F
100
AcDbEntity
  8
0
100
AcDbLine
 10
395.4000008775328
 20
17.00000039447161
 30
0.0
 11
353.4000008775326
 21
17.00000039447167
 31
0.0
  0
LINE
  5
8AA
330
1F
100
AcDbEntity
  8
0
100
AcDbLine
 10
395.4000008775326
 20
0.000000394471158
 30
0.0
 11
353.4000008775326
 21
0.000000394471158
 31
0.0
  0
LINE
  5
8AB
330
1F
100
AcDbEntity
  8
0
100
AcDbLine
 10
395.4000008775326
 20
0.000000394471158
 30
0.0
 11
395.4000008775328
 21
17.00000039447161
 31
0.0
  0
LINE
  5
8AC
330
1F
100
AcDbEntity
  8
0
100
AcDbLine
 10
353.4000008775326
 20
0.000000394471158
 30
0.0
 11
353.4000008775326
 21
17.00000039447167
 31
0.0
  0
CIRCLE
  5
8AD
330
1F
100
AcDbEntity
  8
0
100
AcDbCircle
 10
357.9000008775326
 20
8.500000394471385
 30
0.0
 40
2.1
  0
CIRCLE
  5
8AE
330
1F
100
AcDbEntity
  8
0
100
AcDbCircle
 10
390.9000008775328
 20
8.500000394471385
 30
0.0
 40
2.1
  0
LINE
  5
8AF
330
1F
100
AcDbEntity
  8
0
100
AcDbLine
 10
372.6500008775334
 20
43.85000039447072
 30
0.0
 11
372.6500008775334
 21
73.85000039447081
 31
0.0
  0
LINE
  5
8B0
330
1F
100
AcDbEntity
  8
0
100
AcDbLine
 10
376.1500008775319
 20
43.85000039447089
 30
0.0
 11
376.1500008775319
 21
73.85000039447081
 31
0.0
  0
LINE
  5
8B1
330
1F
100
AcDbEntity
  8
0
100
AcDbLine
 10
376.1500008775319
 20
43.85000039447089
 30
0.0
 11
372.6500008775334
 21
43.85000039447072
 31
0.0
  0
LINE
  5
8B2
330
1F
100
AcDbEntity
  8
0
100
AcDbLine
 10
380.060657390997
 20
19.92603161640838
 30
0.0
 11
376.6917133398819
 21
19.46753845347771
 31
0.0
  0
LINE
  5
8B3
330
1F
100
AcDbEntity
  8
0
100
AcDbLine
 10
379.3057806215893
 20
18.05716536570762
 30
0.0
 11
377.9185683652478
 21
17.86837406332438
 31
0.0
  0
LINE
  5
8B4
330
1F
100
AcDbEntity
  8
0
100
AcDbLine
 10
379.7337881051459
 20
18.62002377953789
 30
0.0
 11
377.3557099514176
 21
18.29638154688101
 31
0.0
  0
LINE
  5
8B5
330
1F
100
AcDbEntity
  8
0
100
AcDbLine
 10
380.060657390997
 20
19.92603161640838
 30
0.0
 11
380.1280828561341
 21
19.43059866771489
 31
0.0
  0
LINE
  5
8B6
330
1F
100
AcDbEntity
  8
0
100
AcDbLine
 10
379.3057806215893
 20
18.05716536570762
 30
0.0
 11
379.4496544598151
 21
17.00000039447161
 31
0.0
  0
LINE
  5
8B7
330
1F
100
AcDbEntity
  8
0
100
AcDbLine
 10
379.7337881051459
 20
18.62002377953789
 30
0.0
 11
379.9542636115866
 21
17.00000039447161
 31
0.0
  0
LINE
  5
8B8
330
1F
100
AcDbEntity
  8
0
100
AcDbLine
 10
376.6917133398819
 20
19.46753845347771
 30
0.0
 11
376.7591388050188
 21
18.97210550478422
 31
0.0
  0
LINE
  5
8B9
330
1F
100
AcDbEntity
  8
0
100
AcDbLine
 10
377.9185683652478
 20
17.86837406332438
 30
0.0
 11
378.0367488348539
 21
17.00000039447161
 31
0.0
  0
LINE
  5
8BA
330
1F
100
AcDbEntity
  8
0
100
AcDbLine
 10
377.3557099514176
 20
18.29638154688101
 30
0.0
 11
377.5321396830822
 21
17.00000039447161
 31
0.0
  0
LINE
  5
8BB
330
1F
100
AcDbEntity
  8
0
100
AcDbLine
 10
379.7337881051459
 20
18.62002377953789
 30
0.0
 11
379.3057806215893
 21
18.05716536570762
 31
0.0
  0
LINE
  5
8BC
330
1F
100
AcDbEntity
  8
0
100
AcDbLine
 10
377.9185683652478
 20
17.86837406332438
 30
0.0
 11
377.3557099514176
 21
18.29638154688101
 31
0.0
  0
ARC
  5
8BD
330
1F
100
AcDbEntity
  8
0
100
AcDbCircle
 10
386.0857652892753
 20
18.0715843094988
 30
0.0
 40
9.369999999999834
100
AcDbArc
 50
174.4849707697229
 51
186.5669012731826
  0
ARC
  5
8BE
330
1F
100
AcDbEntity
  8
0
100
AcDbCircle
 10
371.3813153720543
 20
16.07039650423678
 30
0.0
 40
9.36999999999997
100
AcDbArc
 50
5.693718631400495
 51
21.01502923027712
  0
LINE
  5
8BF
330
1F
100
AcDbEntity
  8
0
100
AcDbLine
 10
375.6946080023055
 20
43.85000039447089
 30
0.0
 11
378.9707049038716
 21
19.77769559310724
 31
0.0
  0
LINE
  5
8C0
330
1F
100
AcDbEntity
  8
0
100
AcDbLine
 10
374.4835460380532
 20
43.8500003944708
 30
0.0
 11
377.7816658270073
 21
19.6158744767788
 31
0.0
  0
LINE
  5
8C1
330
1F
100
AcDbEntity
  8
0
100
AcDbLine
 10
368.7393443640681
 20
19.92603161640838
 30
0.0
 11
372.1082884151834
 21
19.46753845347771
 31
0.0
  0
LINE
  5
8C2
330
1F
100
AcDbEntity
  8
0
100
AcDbLine
 10
369.4942211334758
 20
18.05716536570762
 30
0.0
 11
370.8814333898176
 21
17.86837406332444
 31
0.0
  0
LINE
  5
8C3
330
1F
100
AcDbEntity
  8
0
100
AcDbLine
 10
369.0662136499192
 20
18.62002377953789
 30
0.0
 11
371.444291803648
 21
18.29638154688101
 31
0.0
  0
LINE
  5
8C4
330
1F
100
AcDbEntity
  8
0
100
AcDbLine
 10
368.7393443640681
 20
19.92603161640838
 30
0.0
 11
368.6719188989311
 21
19.43059866771489
 31
0.0
  0
LINE
  5
8C5
330
1F
100
AcDbEntity
  8
0
100
AcDbLine
 10
369.4942211334758
 20
18.05716536570762
 30
0.0
 11
369.3503472952501
 21
17.00000039447167
 31
0.0
  0
LINE
  5
8C6
330
1F
100
AcDbEntity
  8
0
100
AcDbLine
 10
369.0662136499192
 20
18.62002377953789
 30
0.0
 11
368.8457381434784
 21
17.00000039447167
 31
0.0
  0
LINE
  5
8C7
330
1F
100
AcDbEntity
  8
0
100
AcDbLine
 10
372.1082884151834
 20
19.46753845347771
 30
0.0
 11
372.0408629500466
 21
18.97210550478425
 31
0.0
  0
LINE
  5
8C8
330
1F
100
AcDbEntity
  8
0
100
AcDbLine
 10
370.8814333898176
 20
17.86837406332444
 30
0.0
 11
370.7632529202113
 21
17.00000039447167
 31
0.0
  0
LINE
  5
8C9
330
1F
100
AcDbEntity
  8
0
100
AcDbLine
 10
371.444291803648
 20
18.29638154688101
 30
0.0
 11
371.267862071983
 21
17.00000039447167
 31
0.0
  0
LINE
  5
8CA
330
1F
100
AcDbEntity
  8
0
100
AcDbLine
 10
369.0662136499192
 20
18.62002377953789
 30
0.0
 11
369.4942211334758
 21
18.05716536570762
 31
0.0
  0
LINE
  5
8CB
330
1F
100
AcDbEntity
  8
0
100
AcDbLine
 10
370.8814333898176
 20
17.86837406332444
 30
0.0
 11
371.444291803648
 21
18.29638154688101
 31
0.0
  0
ARC
  5
8CC
330
1F
100
AcDbEntity
  8
0
100
AcDbCircle
 10
362.7142364657899
 20
18.0715843094988
 30
0.0
 40
9.369999999999834
100
AcDbArc
 50
353.4330987268177
 51
5.515029230277042
  0
ARC
  5
8CD
330
1F
100
AcDbEntity
  8
0
100
AcDbCircle
 10
377.418686383011
 20
16.07039650423678
 30
0.0
 40
9.36999999999997
100
AcDbArc
 50
158.9849707697229
 51
174.3062813685995
  0
LINE
  5
8CE
330
1F
100
AcDbEntity
  8
0
100
AcDbLine
 10
373.1053937527595
 20
43.85000039447072
 30
0.0
 11
369.8292968511936
 21
19.77769559310727
 31
0.0
  0
LINE
  5
8CF
330
1F
100
AcDbEntity
  8
0
100
AcDbLine
 10
374.3164557170118
 20
43.8500003944708
 30
0.0
 11
371.0183359280577
 21
19.6158744767788
 31
0.0
  0
LINE
  5
8D0
330
1F
100
AcDbEntity
  8
0
100
AcDbLine
 10
378.3761853654395
 20
19.69678503494305
 30
0.0
 11
378.5447490282817
 21
18.45820266320945
 31
0.0
  0
LINE
  5
8D1
330
1F
100
AcDbEntity
  8
0
100
AcDbLine
 10
370.4238163896257
 20
19.69678503494305
 30
0.0
 11
370.2552527267836
 21
18.45820266320945
 31
0.0
  0
LINE
  5
8D2
330
1F
100
AcDbEntity
  8
0
100
AcDbLine
 10
86.50000087753301
 20
3.500000394471584
 30
0.0
 11
86.50000087753273
 21
13.50000039447124
 31
0.0
  0
LINE
  5
8D3
330
1F
100
AcDbEntity
  8
0
100
AcDbLine
 10
78.5000008775329
 20
3.500000394471499
 30
0.0
 11
78.50000087753284
 21
13.50000039447138
 31
0.0
  0
LINE
  5
8D4
330
1F
100
AcDbEntity
  8
0
100
AcDbLine
 10
86.50000087753273
 20
13.50000039447124
 30
0.0
 11
85.50000087753284
 21
13.50000039447124
 31
0.0
  0
LINE
  5
8D5
330
1F
100
AcDbEntity
  8
0
100
AcDbLine
 10
79.50000087753284
 20
13.50000039447138
 30
0.0
 11
78.50000087753284
 21
13.50000039447138
 31
0.0
  0
LINE
  5
8D6
330
1F
100
AcDbEntity
  8
0
100
AcDbLine
 10
86.50000087753301
 20
3.500000394471584
 30
0.0
 11
85.50000087753289
 21
3.500000394471584
 31
0.0
  0
LINE
  5
8D7
330
1F
100
AcDbEntity
  8
0
100
AcDbLine
 10
79.50000087753295
 20
3.500000394471499
 30
0.0
 11
78.5000008775329
 21
3.500000394471499
 31
0.0
  0
LINE
  5
8D8
330
1F
100
AcDbEntity
  8
0
100
AcDbLine
 10
85.50000087753284
 20
14.50000039447124
 30
0.0
 11
79.50000087753284
 21
14.50000039447124
 31
0.0
  0
LINE
  5
8D9
330
1F
100
AcDbEntity
  8
0
100
AcDbLine
 10
85.50000087753289
 20
2.500000394471726
 30
0.0
 11
79.50000087753295
 21
2.50000039447147
 31
0.0
  0
LINE
  5
8DA
330
1F
100
AcDbEntity
  8
0
100
AcDbLine
 10
79.50000087753295
 20
3.500000394471499
 30
0.0
 11
79.50000087753295
 21
2.50000039447147
 31
0.0
  0
LINE
  5
8DB
330
1F
100
AcDbEntity
  8
0
100
AcDbLine
 10
85.50000087753284
 20
14.50000039447124
 30
0.0
 11
85.50000087753284
 21
13.50000039447124
 31
0.0
  0
LINE
  5
8DC
330
1F
100
AcDbEntity
  8
0
100
AcDbLine
 10
85.50000087753289
 20
3.500000394471584
 30
0.0
 11
85.50000087753289
 21
2.500000394471726
 31
0.0
  0
LINE
  5
8DD
330
1F
100
AcDbEntity
  8
0
100
AcDbLine
 10
79.50000087753284
 20
14.50000039447124
 30
0.0
 11
79.50000087753284
 21
13.50000039447138
 31
0.0
  0
CIRCLE
  5
8DE
330
1F
100
AcDbEntity
  8
0
100
AcDbCircle
 10
82.50000087753283
 20
8.500000394471385
 30
0.0
 40
2.1
  0
LINE
  5
8DF
330
1F
100
AcDbEntity
  8
0
100
AcDbLine
 10
53.5000008775329
 20
3.500000394471584
 30
0.0
 11
53.50000087753262
 21
13.50000039447124
 31
0.0
  0
LINE
  5
8E0
330
1F
100
AcDbEntity
  8
0
100
AcDbLine
 10
45.50000087753278
 20
3.500000394471499
 30
0.0
 11
45.50000087753272
 21
13.50000039447138
 31
0.0
  0
LINE
  5
8E1
330
1F
100
AcDbEntity
  8
0
100
AcDbLine
 10
53.50000087753262
 20
13.50000039447124
 30
0.0
 11
52.50000087753273
 21
13.50000039447124
 31
0.0
  0
LINE
  5
8E2
330
1F
100
AcDbEntity
  8
0
100
AcDbLine
 10
46.50000087753272
 20
13.50000039447138
 30
0.0
 11
45.50000087753272
 21
13.50000039447138
 31
0.0
  0
LINE
  5
8E3
330
1F
100
AcDbEntity
  8
0
100
AcDbLine
 10
53.5000008775329
 20
3.500000394471584
 30
0.0
 11
52.50000087753278
 21
3.500000394471584
 31
0.0
  0
LINE
  5
8E4
330
1F
100
AcDbEntity
  8
0
100
AcDbLine
 10
46.50000087753284
 20
3.500000394471499
 30
0.0
 11
45.50000087753278
 21
3.500000394471499
 31
0.0
  0
LINE
  5
8E5
330
1F
100
AcDbEntity
  8
0
100
AcDbLine
 10
52.50000087753273
 20
14.50000039447124
 30
0.0
 11
46.50000087753272
 21
14.50000039447124
 31
0.0
  0
LINE
  5
8E6
330
1F
100
AcDbEntity
  8
0
100
AcDbLine
 10
52.50000087753278
 20
2.500000394471726
 30
0.0
 11
46.50000087753284
 21
2.50000039447147
 31
0.0
  0
LINE
  5
8E7
330
1F
100
AcDbEntity
  8
0
100
AcDbLine
 10
46.50000087753284
 20
3.500000394471499
 30
0.0
 11
46.50000087753284
 21
2.50000039447147
 31
0.0
  0
LINE
  5
8E8
330
1F
100
AcDbEntity
  8
0
100
AcDbLine
 10
52.50000087753273
 20
14.50000039447124
 30
0.0
 11
52.50000087753273
 21
13.50000039447124
 31
0.0
  0
LINE
  5
8E9
330
1F
100
AcDbEntity
  8
0
100
AcDbLine
 10
52.50000087753278
 20
3.500000394471584
 30
0.0
 11
52.50000087753278
 21
2.500000394471726
 31
0.0
  0
LINE
  5
8EA
330
1F
100
AcDbEntity
  8
0
100
AcDbLine
 10
46.50000087753272
 20
14.50000039447124
 30
0.0
 11
46.50000087753272
 21
13.50000039447138
 31
0.0
  0
CIRCLE
  5
8EB
330
1F
100
AcDbEntity
  8
0
100
AcDbCircle
 10
49.50000087753278
 20
8.500000394471385
 30
0.0
 40
2.1
  0
LINE
  5
8EC
330
1F
100
AcDbEntity
  8
0
100
AcDbLine
 10
219.9237405619108
 20
14.50000039447099
 30
0.0
 11
220.9237405619108
 21
14.50000039447099
 31
0.0
  0
LINE
  5
8ED
330
1F
100
AcDbEntity
  8
0
100
AcDbLine
 10
219.9237405619108
 20
2.50000039447147
 30
0.0
 11
220.9237405619108
 21
2.50000039447147
 31
0.0
  0
LINE
  5
8EE
330
1F
100
AcDbEntity
  8
0
100
AcDbLine
 10
220.9237405619108
 20
14.50000039447099
 30
0.0
 11
220.9237405619108
 21
2.50000039447147
 31
0.0
  0
LINE
  5
8EF
330
1F
100
AcDbEntity
  8
0
100
AcDbLine
 10
219.9237405619108
 20
14.50000039447099
 30
0.0
 11
219.9237405619108
 21
2.50000039447147
 31
0.0
  0
LINE
  5
8F0
330
1F
100
AcDbEntity
  8
0
100
AcDbLine
 10
219.9237405619108
 20
13.50000039447099
 30
0.0
 11
220.9237405619108
 21
13.50000039447099
 31
0.0
  0
LINE
  5
8F1
330
1F
100
AcDbEntity
  8
0
100
AcDbLine
 10
219.9237405619108
 20
3.500000394471328
 30
0.0
 11
220.9237405619108
 21
3.500000394471328
 31
0.0
  0
LINE
  5
8F2
330
1F
100
AcDbEntity
  8
0
100
AcDbLine
 10
220.9237405619108
 20
15.0000003944711
 30
0.0
 11
225.4237405619108
 21
16.00000039447116
 31
0.0
  0
LINE
  5
8F3
330
1F
100
AcDbEntity
  8
0
100
AcDbLine
 10
220.9237405619108
 20
2.000000394471129
 30
0.0
 11
225.4237405619108
 21
1.000000394471157
 31
0.0
  0
LINE
  5
8F4
330
1F
100
AcDbEntity
  8
0
100
AcDbLine
 10
365.4000008775326
 20
1.000000394471385
 30
0.0
 11
383.4000008775326
 21
1.000000394471385
 31
0.0
1001
GENIUS_GENREC_14
1002
{
1000
PYDIR
1011
365.4000008775326
1021
16.0000003944714
1031
0.0
1002
}
1002
{
1000
PXDIR
1011
383.4000008775326
1021
1.000000394471399
1031
0.0
1002
}
1002
{
1000
PORI
1011
365.4000008775326
1021
1.000000394471399
1031
0.0
1002
}
1002
{
1000
PINS
1011
365.4000008775326
1021
1.000000394471399
1031
0.0
1002
}
1002
{
1000
HVAL
1000
15
1002
}
1002
{
1000
H
1070
     2
1002
}
1002
{
1000
WVAL
1000
18
1002
}
1002
{
1000
W
1070
     2
1002
}
1002
{
1000
C
1070
     1
1002
}
1001
GENIUS_GENODEF_13
1002
{
1000
HIER
1070
     0
1002
}
1002
{
1000
MANEDIT
1070
     0
1002
}
1002
{
1000
NOSEL
1070
     0
1002
}
1002
{
1000
BEHIND
1070
     0
1002
}
1002
{
1000
OTHER
1070
     0
1002
}
1002
{
1000
REACTOR
1002
}
1001
GENIUS_GENOBJ-N-REC_13
1002
{
1000
OWNER
1000
GEN
1002
}
  0
LINE
  5
8F5
330
1F
100
AcDbEntity
  8
0
100
AcDbLine
 10
383.4000008775326
 20
1.000000394471385
 30
0.0
 11
383.4000008775326
 21
16.00000039447138
 31
0.0
1001
GENIUS_GENREC_14
1002
{
1000
PYDIR
1011
365.4000008775326
1021
16.0000003944714
1031
0.0
1002
}
1002
{
1000
PXDIR
1011
383.4000008775326
1021
1.000000394471399
1031
0.0
1002
}
1002
{
1000
PORI
1011
365.4000008775326
1021
1.000000394471399
1031
0.0
1002
}
1002
{
1000
PINS
1011
365.4000008775326
1021
1.000000394471399
1031
0.0
1002
}
1002
{
1000
HVAL
1000
15
1002
}
1002
{
1000
H
1070
     2
1002
}
1002
{
1000
WVAL
1000
18
1002
}
1002
{
1000
W
1070
     2
1002
}
1002
{
1000
C
1070
     1
1002
}
1001
GENIUS_GENODEF_13
1002
{
1000
HIER
1070
     0
1002
}
1002
{
1000
MANEDIT
1070
     0
1002
}
1002
{
1000
NOSEL
1070
     0
1002
}
1002
{
1000
BEHIND
1070
     0
1002
}
1002
{
1000
OTHER
1070
     0
1002
}
1002
{
1000
REACTOR
1002
}
1001
GENIUS_GENOBJ-N-REC_13
1002
{
1000
OWNER
1000
GEN
1002
}
  0
LINE
  5
8F6
330
1F
100
AcDbEntity
  8
0
100
AcDbLine
 10
383.4000008775326
 20
16.00000039447138
 30
0.0
 11
365.4000008775326
 21
16.00000039447138
 31
0.0
1001
GENIUS_GENREC_14
1002
{
1000
PYDIR
1011
365.4000008775326
1021
16.0000003944714
1031
0.0
1002
}
1002
{
1000
PXDIR
1011
383.4000008775326
1021
1.000000394471399
1031
0.0
1002
}
1002
{
1000
PORI
1011
365.4000008775326
1021
1.000000394471399
1031
0.0
1002
}
1002
{
1000
PINS
1011
365.4000008775326
1021
1.000000394471399
1031
0.0
1002
}
1002
{
1000
HVAL
1000
15
1002
}
1002
{
1000
H
1070
     2
1002
}
1002
{
1000
WVAL
1000
18
1002
}
1002
{
1000
W
1070
     2
1002
}
1002
{
1000
C
1070
     1
1002
}
1001
GENIUS_GENODEF_13
1002
{
1000
HIER
1070
     0
1002
}
1002
{
1000
MANEDIT
1070
     0
1002
}
1002
{
1000
NOSEL
1070
     0
1002
}
1002
{
1000
BEHIND
1070
     0
1002
}
1002
{
1000
OTHER
1070
     0
1002
}
1002
{
1000
REACTOR
1002
}
1001
GENIUS_GENOBJ-N-REC_13
1002
{
1000
OWNER
1000
GEN
1002
}
  0
LINE
  5
8F7
330
1F
100
AcDbEntity
  8
0
100
AcDbLine
 10
365.4000008775326
 20
16.00000039447138
 30
0.0
 11
365.4000008775326
 21
1.000000394471385
 31
0.0
1001
GENIUS_GENREC_14
1002
{
1000
PYDIR
1011
365.4000008775326
1021
16.0000003944714
1031
0.0
1002
}
1002
{
1000
PXDIR
1011
383.4000008775326
1021
1.000000394471399
1031
0.0
1002
}
1002
{
1000
PORI
1011
365.4000008775326
1021
1.000000394471399
1031
0.0
1002
}
1002
{
1000
PINS
1011
365.4000008775326
1021
1.000000394471399
1031
0.0
1002
}
1002
{
1000
HVAL
1000
15
1002
}
1002
{
1000
H
1070
     2
1002
}
1002
{
1000
WVAL
1000
18
1002
}
1002
{
1000
W
1070
     2
1002
}
1002
{
1000
C
1070
     1
1002
}
1001
GENIUS_GENODEF_13
1002
{
1000
HIER
1070
     0
1002
}
1002
{
1000
MANEDIT
1070
     0
1002
}
1002
{
1000
NOSEL
1070
     0
1002
}
1002
{
1000
BEHIND
1070
     0
1002
}
1002
{
1000
OTHER
1070
     0
1002
}
1002
{
1000
REACTOR
1002
}
1001
GENIUS_GENOBJ-N-REC_13
1002
{
1000
OWNER
1000
GEN
1002
}
  0
LINE
  5
8F8
330
1F
100
AcDbEntity
  8
0
100
AcDbLine
 10
230.9237405619108
 20
16.00000039447124
 30
0.0
 11
230.9237405619108
 21
1.000000394471243
 31
0.0
  0
LINE
  5
8F9
330
1F
100
AcDbEntity
  8
0
100
AcDbLine
 10
230.4237405619108
 20
16.00000039447124
 30
0.0
 11
230.9237405619108
 21
16.00000039447124
 31
0.0
  0
LINE
  5
8FA
330
1F
100
AcDbEntity
  8
0
100
AcDbLine
 10
230.4237405619108
 20
1.000000394471243
 30
0.0
 11
230.9237405619108
 21
1.000000394471243
 31
0.0
  0
LINE
  5
8FB
330
1F
100
AcDbEntity
  8
0
100
AcDbLine
 10
17.49999982276924
 20
168.9500303302933
 30
0.0
 11
16.73032598601293
 21
128.8500003944709
 31
0.0
  0
LINE
  5
8FC
330
1F
100
AcDbEntity
  8
0
100
AcDbLine
 10
25.49999982276924
 20
168.950030330293
 30
0.0
 11
26.26967365952555
 21
128.8500003944709
 31
0.0
  0
LINE
  5
8FD
330
1F
100
AcDbEntity
  8
0
100
AcDbLine
 10
17.65375576741192
 20
171.7507166554059
 30
0.0
 11
17.59999982276923
 21
168.9500303302933
 31
0.0
  0
LINE
  5
8FE
330
1F
100
AcDbEntity
  8
0
100
AcDbLine
 10
25.34624387812656
 20
171.7507166554061
 30
0.0
 11
25.39999982276925
 21
168.950030330293
 31
0.0
  0
LINE
  5
8FF
330
1F
100
AcDbEntity
  8
0
100
AcDbLine
 10
25.49999982276924
 20
168.9500303302933
 30
0.0
 11
17.49999982276924
 21
168.9500303302933
 31
0.0
  0
LINE
  5
900
330
1F
100
AcDbEntity
  8
0
100
AcDbLine
 10
19.99999982276921
 20
172.7368603611136
 30
0.0
 11
22.99999982276924
 21
172.7368603611136
 31
0.0
  0
ARC
  5
901
330
1F
100
AcDbEntity
  8
0
100
AcDbCircle
 10
21.49999982276924
 20
162.850000394471
 30
0.0
 40
10.0
100
AcDbArc
 50
69.37525341277742
 51
81.37307344132103
  0
ARC
  5
902
330
1F
100
AcDbEntity
  8
0
100
AcDbCircle
 10
21.49999982276924
 20
162.850000394471
 30
0.0
 40
10.0
100
AcDbArc
 50
98.62692655867896
 51
110.6247465872225
  0
ARC
  5
903
330
1F
100
AcDbEntity
  8
0
100
AcDbCircle
 10
18.15366369191179
 20
171.7411214992204
 30
0.0
 40
0.5
100
AcDbArc
 50
110.624746587219
 51
178.9004085958266
  0
ARC
  5
904
330
1F
100
AcDbEntity
  8
0
100
AcDbCircle
 10
24.84633595362669
 20
171.7411214992204
 30
0.0
 40
0.5
100
AcDbArc
 50
1.099591404147372
 51
69.37525341279481
  0
LINE
  5
905
330
1F
100
AcDbEntity
  8
0
100
AcDbLine
 10
12.29999982276919
 20
86.05000039447109
 30
0.0
 11
12.40000348817884
 21
86.05000039447109
 31
0.0
  0
LINE
  5
906
330
1F
100
AcDbEntity
  8
0
100
AcDbLine
 10
12.40000348817884
 20
86.05000039447109
 30
0.0
 11
12.29999982276919
 21
86.05000039447109
 31
0.0
  0
LINE
  5
907
330
1F
100
AcDbEntity
  8
0
100
AcDbLine
 10
12.29999982276919
 20
81.05000039447109
 30
0.0
 11
12.40000348817884
 21
81.05000039447109
 31
0.0
  0
LINE
  5
908
330
1F
100
AcDbEntity
  8
0
100
AcDbLine
 10
14.5717965923215
 20
81.05000039447109
 30
0.0
 11
14.50000196195734
 21
81.05000039447109
 31
0.0
  0
LINE
  5
909
330
1F
100
AcDbEntity
  8
0
100
AcDbLine
 10
21.99999982276924
 20
128.850000394471
 30
0.0
 11
19.99999982276924
 21
126.850000394471
 31
0.0
  0
LINE
  5
90A
330
1F
100
AcDbEntity
  8
0
100
AcDbLine
 10
26.99999982276924
 20
128.850000394471
 30
0.0
 11
21.99999982276924
 21
128.850000394471
 31
0.0
  0
LINE
  5
90B
330
1F
100
AcDbEntity
  8
0
100
AcDbLine
 10
21.99999982276924
 20
128.850000394471
 30
0.0
 11
1.49999982276924
 21
128.850000394471
 31
0.0
  0
LINE
  5
90C
330
1F
100
AcDbEntity
  8
0
100
AcDbLine
 10
-0.0000001772307598
 20
127.350000394471
 30
0.0
 11
-0.0000001772307598
 21
66.35000039447092
 31
0.0
  0
LINE
  5
90D
330
1F
100
AcDbEntity
  8
0
100
AcDbLine
 10
19.74999982277168
 20
64.85000039447093
 30
0.0
 11
1.49999982276924
 21
64.85000039447093
 31
0.0
  0
LINE
  5
90E
330
1F
100
AcDbEntity
  8
0
100
AcDbLine
 10
26.99999982276924
 20
64.85000039447104
 30
0.0
 11
23.24999982277041
 21
64.85000039447104
 31
0.0
  0
LINE
  5
90F
330
1F
100
AcDbEntity
  8
0
100
AcDbLine
 10
12.29999982276922
 20
80.85000039447114
 30
0.0
 11
12.29999982276922
 21
92.85000039447115
 31
0.0
  0
LINE
  5
910
330
1F
100
AcDbEntity
  8
0
100
AcDbLine
 10
12.29999982276922
 20
92.85000039447103
 30
0.0
 11
19.99999982276921
 21
92.85000039447103
 31
0.0
  0
LINE
  5
911
330
1F
100
AcDbEntity
  8
0
100
AcDbLine
 10
14.5717965923215
 20
80.85000039447104
 30
0.0
 11
12.29999982276922
 21
80.85000039447104
 31
0.0
  0
LINE
  5
912
330
1F
100
AcDbEntity
  8
0
100
AcDbLine
 10
26.99999982276924
 20
68.35000039447104
 30
0.0
 11
26.99999982276924
 21
76.85000039447103
 31
0.0
  0
LINE
  5
913
330
1F
100
AcDbEntity
  8
0
100
AcDbLine
 10
26.99999982276924
 20
84.85000039447104
 30
0.0
 11
26.99999982276924
 21
86.35000039447104
 31
0.0
  0
LINE
  5
914
330
1F
100
AcDbEntity
  8
0
100
AcDbLine
 10
26.99999982276924
 20
111.850000394471
 30
0.0
 11
26.99999982276924
 21
125.3500003944709
 31
0.0
  0
LINE
  5
915
330
1F
100
AcDbEntity
  8
0
100
AcDbLine
 10
26.99999982276924
 20
68.35000039447092
 30
0.0
 11
26.99999982276924
 21
64.85000039447104
 31
0.0
  0
LINE
  5
916
330
1F
100
AcDbEntity
  8
0
100
AcDbLine
 10
26.99999982276924
 20
128.850000394471
 30
0.0
 11
26.99999982276924
 21
125.3500003944709
 31
0.0
  0
ARC
  5
917
330
1F
100
AcDbEntity
  8
0
100
AcDbCircle
 10
1.49999982276924
 20
127.350000394471
 30
0.0
 40
1.5
100
AcDbArc
 50
90.0
 51
180.0
  0
ARC
  5
918
330
1F
100
AcDbEntity
  8
0
100
AcDbCircle
 10
1.49999982276924
 20
66.35000039447104
 30
0.0
 40
1.500000000000145
100
AcDbArc
 50
180.0000000000032
 51
270.0
  0
LINE
  5
919
330
1F
100
AcDbEntity
  8
0
100
AcDbLine
 10
19.99999982276924
 20
111.850000394471
 30
0.0
 11
19.99999982276924
 21
126.850000394471
 31
0.0
  0
LINE
  5
91A
330
1F
100
AcDbEntity
  8
0
100
AcDbLine
 10
29.99999982276924
 20
64.85000039447104
 30
0.0
 11
34.99999982276924
 21
64.85000039447104
 31
0.0
  0
LINE
  5
91B
330
1F
100
AcDbEntity
  8
0
100
AcDbLine
 10
36.99999982276924
 20
126.850000394471
 30
0.0
 11
34.99999982276924
 21
128.850000394471
 31
0.0
  0
LINE
  5
91C
330
1F
100
AcDbEntity
  8
0
100
AcDbLine
 10
34.99999982276924
 20
64.85000039447104
 30
0.0
 11
36.99999982276924
 21
66.85000039447103
 31
0.0
  0
LINE
  5
91D
330
1F
100
AcDbEntity
  8
0
100
AcDbLine
 10
36.99999982276924
 20
68.35000039447104
 30
0.0
 11
36.99999982276924
 21
125.350000394471
 31
0.0
  0
LINE
  5
91E
330
1F
100
AcDbEntity
  8
0
100
AcDbLine
 10
29.99999982276924
 20
128.850000394471
 30
0.0
 11
34.99999982276924
 21
128.850000394471
 31
0.0
  0
LINE
  5
91F
330
1F
100
AcDbEntity
  8
0
100
AcDbLine
 10
29.99999982276924
 20
125.350000394471
 30
0.0
 11
29.99999982276924
 21
68.35000039447104
 31
0.0
  0
LINE
  5
920
330
1F
100
AcDbEntity
  8
0
100
AcDbLine
 10
36.99999982276924
 20
126.850000394471
 30
0.0
 11
36.99999982276924
 21
125.350000394471
 31
0.0
  0
LINE
  5
921
330
1F
100
AcDbEntity
  8
0
100
AcDbLine
 10
36.99999982276924
 20
68.35000039447104
 30
0.0
 11
36.99999982276924
 21
66.85000039447103
 31
0.0
  0
LINE
  5
922
330
1F
100
AcDbEntity
  8
0
100
AcDbLine
 10
29.99999982276924
 20
125.350000394471
 30
0.0
 11
29.99999982276924
 21
128.850000394471
 31
0.0
  0
LINE
  5
923
330
1F
100
AcDbEntity
  8
0
100
AcDbLine
 10
29.99999982276924
 20
64.85000039447104
 30
0.0
 11
29.99999982276924
 21
68.35000039447104
 31
0.0
  0
LINE
  5
924
330
1F
100
AcDbEntity
  8
0
100
AcDbLine
 10
29.69999982276926
 20
64.55000039447108
 30
0.0
 11
27.29999982276925
 21
64.55000039447108
 31
0.0
  0
LINE
  5
925
330
1F
100
AcDbEntity
  8
0
100
AcDbLine
 10
29.99999982276924
 20
68.35000039447104
 30
0.0
 11
29.99999982276924
 21
125.350000394471
 31
0.0
  0
LINE
  5
926
330
1F
100
AcDbEntity
  8
0
100
AcDbLine
 10
29.69999982276926
 20
129.1500003944711
 30
0.0
 11
27.29999982276925
 21
129.1500003944711
 31
0.0
  0
LINE
  5
927
330
1F
100
AcDbEntity
  8
0
100
AcDbLine
 10
27.29999982276922
 20
84.85000039447104
 30
0.0
 11
27.29999982276922
 21
86.35000039447104
 31
0.0
  0
LINE
  5
928
330
1F
100
AcDbEntity
  8
0
100
AcDbLine
 10
26.99999982276924
 20
125.350000394471
 30
0.0
 11
26.99999982276924
 21
111.850000394471
 31
0.0
  0
LINE
  5
929
330
1F
100
AcDbEntity
  8
0
100
AcDbLine
 10
26.99999982276924
 20
86.35000039447104
 30
0.0
 11
26.99999982276924
 21
84.85000039447104
 31
0.0
  0
LINE
  5
92A
330
1F
100
AcDbEntity
  8
0
100
AcDbLine
 10
26.99999982276924
 20
76.85000039447103
 30
0.0
 11
26.99999982276924
 21
68.35000039447104
 31
0.0
  0
LINE
  5
92B
330
1F
100
AcDbEntity
  8
0
100
AcDbLine
 10
29.99999982276924
 20
68.35000039447104
 30
0.0
 11
29.99999982276924
 21
64.85000039447104
 31
0.0
  0
ARC
  5
92C
330
1F
100
AcDbEntity
  8
0
100
AcDbCircle
 10
29.69999982276926
 20
64.85000039447104
 30
0.0
 40
0.3000000000000114
100
AcDbArc
 50
270.0
 51
0.0
  0
LINE
  5
92D
330
1F
100
AcDbEntity
  8
0
100
AcDbLine
 10
29.99999982276924
 20
128.850000394471
 30
0.0
 11
29.99999982276924
 21
125.350000394471
 31
0.0
  0
ARC
  5
92E
330
1F
100
AcDbEntity
  8
0
100
AcDbCircle
 10
29.69999982276926
 20
128.850000394471
 30
0.0
 40
0.3000000000000007
100
AcDbArc
 50
0.0
 51
90.0
  0
LINE
  5
92F
330
1F
100
AcDbEntity
  8
0
100
AcDbLine
 10
26.99999982276924
 20
64.85000039447104
 30
0.0
 11
26.99999982276924
 21
68.35000039447104
 31
0.0
  0
ARC
  5
930
330
1F
100
AcDbEntity
  8
0
100
AcDbCircle
 10
27.29999982276922
 20
64.85000039447104
 30
0.0
 40
0.3
100
AcDbArc
 50
180.0
 51
270.0
  0
LINE
  5
931
330
1F
100
AcDbEntity
  8
0
100
AcDbLine
 10
26.99999982276924
 20
125.350000394471
 30
0.0
 11
26.99999982276924
 21
128.850000394471
 31
0.0
  0
ARC
  5
932
330
1F
100
AcDbEntity
  8
0
100
AcDbCircle
 10
27.29999982276922
 20
128.850000394471
 30
0.0
 40
0.3000000000000043
100
AcDbArc
 50
90.0
 51
180.0
  0
LINE
  5
933
330
1F
100
AcDbEntity
  8
0
100
AcDbLine
 10
12.29999982276898
 20
92.8500003944703
 30
0.0
 11
12.29999982276891
 21
81.05000039447109
 31
0.0
  0
LINE
  5
934
330
1F
100
AcDbEntity
  8
0
100
AcDbLine
 10
14.5717965923215
 20
81.0500003944711
 30
0.0
 11
12.29999982276892
 21
81.05000039447109
 31
0.0
  0
LINE
  5
935
330
1F
100
AcDbEntity
  8
0
100
AcDbLine
 10
14.5717965923215
 20
81.0500003944711
 30
0.0
 11
12.29999982276892
 21
81.05000039447109
 31
0.0
  0
LINE
  5
936
330
1F
100
AcDbEntity
  8
0
100
AcDbLine
 10
16.49999982276921
 20
86.05000039447114
 30
0.0
 11
12.29999982276892
 21
86.05000039447109
 31
0.0
  0
ARC
  5
937
330
1F
100
AcDbEntity
  8
0
100
AcDbCircle
 10
16.79999982276934
 20
83.55000039447109
 30
0.0
 40
1.7
100
AcDbArc
 50
100.1642486217273
 51
130.119166898407
  0
LINE
  5
938
330
1F
100
AcDbEntity
  8
0
100
AcDbLine
 10
16.49999982276921
 20
86.05000039447114
 30
0.0
 11
12.29999982276892
 21
86.05000039447109
 31
0.0
  0
LINE
  5
939
330
1F
100
AcDbEntity
  8
0
100
AcDbLine
 10
14.5717965923215
 20
91.0500003944711
 30
0.0
 11
12.29999982276892
 21
91.05000039447109
 31
0.0
  0
LINE
  5
93A
330
1F
100
AcDbEntity
  8
0
100
AcDbLine
 10
15.49999982276921
 20
92.65000039447116
 30
0.0
 11
12.29999982276898
 21
92.65000039447111
 31
0.0
  0
LINE
  5
93B
330
1F
100
AcDbEntity
  8
0
100
AcDbLine
 10
14.49999982276891
 20
92.65000039447077
 30
0.0
 11
14.49999982276984
 21
81.05000039447114
 31
0.0
  0
LINE
  5
93C
330
1F
100
AcDbEntity
  8
0
100
AcDbLine
 10
12.49999982276891
 20
92.65000039447059
 30
0.0
 11
12.49999982276984
 21
81.05000039447109
 31
0.0
  0
LINE
  5
93D
330
1F
100
AcDbEntity
  8
0
100
AcDbLine
 10
14.49999982277033
 20
82.65000039447111
 30
0.0
 11
12.49999982277033
 21
82.65000039447111
 31
0.0
  0
LINE
  5
93E
330
1F
100
AcDbEntity
  8
0
100
AcDbLine
 10
14.49999982277033
 20
87.65000039447111
 30
0.0
 11
12.49999982277033
 21
87.65000039447111
 31
0.0
  0
LINE
  5
93F
330
1F
100
AcDbEntity
  8
0
100
AcDbLine
 10
14.1499998227702
 20
82.95000039447117
 30
0.0
 11
13.09999982277024
 21
82.95000039447106
 31
0.0
  0
LINE
  5
940
330
1F
100
AcDbEntity
  8
0
100
AcDbLine
 10
12.79999982277029
 20
83.8500003944711
 30
0.0
 11
12.79999982277029
 21
84.85000039447115
 31
0.0
  0
LINE
  5
941
330
1F
100
AcDbEntity
  8
0
100
AcDbLine
 10
13.09999982277024
 20
82.95000039447106
 30
0.0
 11
13.09999982277024
 21
83.85000039447115
 31
0.0
  0
LINE
  5
942
330
1F
100
AcDbEntity
  8
0
100
AcDbLine
 10
13.09999982277024
 20
84.85000039447115
 30
0.0
 11
13.09999982277024
 21
85.75000039447113
 31
0.0
  0
LINE
  5
943
330
1F
100
AcDbEntity
  8
0
100
AcDbLine
 10
14.1499998227702
 20
85.75000039447113
 30
0.0
 11
13.09999982277024
 21
85.75000039447113
 31
0.0
  0
LINE
  5
944
330
1F
100
AcDbEntity
  8
0
100
AcDbLine
 10
14.1499998227702
 20
82.95000039447117
 30
0.0
 11
14.1499998227702
 21
85.75000039447113
 31
0.0
  0
LINE
  5
945
330
1F
100
AcDbEntity
  8
0
100
AcDbLine
 10
13.09999982277024
 20
83.85000039447115
 30
0.0
 11
12.79999982277029
 21
83.8500003944711
 31
0.0
  0
LINE
  5
946
330
1F
100
AcDbEntity
  8
0
100
AcDbLine
 10
13.09999982277024
 20
84.85000039447115
 30
0.0
 11
12.79999982277029
 21
84.85000039447115
 31
0.0
  0
LINE
  5
947
330
1F
100
AcDbEntity
  8
0
100
AcDbLine
 10
14.14999982277014
 20
87.95000039447117
 30
0.0
 11
13.09999982277013
 21
87.95000039447106
 31
0.0
  0
LINE
  5
948
330
1F
100
AcDbEntity
  8
0
100
AcDbLine
 10
12.79999982277017
 20
88.8500003944711
 30
0.0
 11
12.79999982277017
 21
89.85000039447115
 31
0.0
  0
LINE
  5
949
330
1F
100
AcDbEntity
  8
0
100
AcDbLine
 10
13.09999982277013
 20
87.95000039447106
 30
0.0
 11
13.09999982277018
 21
88.85000039447115
 31
0.0
  0
LINE
  5
94A
330
1F
100
AcDbEntity
  8
0
100
AcDbLine
 10
13.09999982277013
 20
89.85000039447115
 30
0.0
 11
13.09999982277013
 21
90.75000039447113
 31
0.0
  0
LINE
  5
94B
330
1F
100
AcDbEntity
  8
0
100
AcDbLine
 10
14.1499998227702
 20
90.75000039447113
 30
0.0
 11
13.09999982277013
 21
90.75000039447113
 31
0.0
  0
LINE
  5
94C
330
1F
100
AcDbEntity
  8
0
100
AcDbLine
 10
14.14999982277014
 20
87.95000039447117
 30
0.0
 11
14.1499998227702
 21
90.75000039447113
 31
0.0
  0
LINE
  5
94D
330
1F
100
AcDbEntity
  8
0
100
AcDbLine
 10
13.09999982277018
 20
88.85000039447115
 30
0.0
 11
12.79999982277017
 21
88.8500003944711
 31
0.0
  0
LINE
  5
94E
330
1F
100
AcDbEntity
  8
0
100
AcDbLine
 10
13.09999982277013
 20
89.85000039447115
 30
0.0
 11
12.79999982277017
 21
89.85000039447115
 31
0.0
  0
LINE
  5
94F
330
1F
100
AcDbEntity
  8
0
100
AcDbLine
 10
27.49999982276921
 20
92.85000039447103
 30
0.0
 11
27.49999982276921
 21
111.350000394471
 31
0.0
  0
LINE
  5
950
330
1F
100
AcDbEntity
  8
0
100
AcDbLine
 10
15.49999982276921
 20
92.85000039447103
 30
0.0
 11
15.49999982276921
 21
111.350000394471
 31
0.0
  0
LINE
  5
951
330
1F
100
AcDbEntity
  8
0
100
AcDbLine
 10
15.99999982276921
 20
111.850000394471
 30
0.0
 11
15.49999982276921
 21
111.350000394471
 31
0.0
  0
LINE
  5
952
330
1F
100
AcDbEntity
  8
0
100
AcDbLine
 10
26.99999982276921
 20
111.850000394471
 30
0.0
 11
27.49999982276921
 21
111.350000394471
 31
0.0
  0
LINE
  5
953
330
1F
100
AcDbEntity
  8
0
100
AcDbLine
 10
15.99999982276921
 20
111.850000394471
 30
0.0
 11
26.99999982276921
 21
111.850000394471
 31
0.0
  0
LINE
  5
954
330
1F
100
AcDbEntity
  8
0
100
AcDbLine
 10
27.49999982276921
 20
111.350000394471
 30
0.0
 11
15.49999982276921
 21
111.350000394471
 31
0.0
  0
LINE
  5
955
330
1F
100
AcDbEntity
  8
0
100
AcDbLine
 10
28.42820305318247
 20
91.35000039447104
 30
0.0
 11
28.42820305318247
 21
86.35000039447104
 31
0.0
  0
LINE
  5
956
330
1F
100
AcDbEntity
  8
0
100
AcDbLine
 10
24.96410143790689
 20
91.35000039447104
 30
0.0
 11
24.96410143790689
 21
86.35000039447104
 31
0.0
  0
LINE
  5
957
330
1F
100
AcDbEntity
  8
0
100
AcDbLine
 10
18.03589820773476
 20
91.35000039447104
 30
0.0
 11
18.03589820773476
 21
86.35000039447104
 31
0.0
  0
LINE
  5
958
330
1F
100
AcDbEntity
  8
0
100
AcDbLine
 10
14.5717965923215
 20
86.35000039447104
 30
0.0
 11
28.42820305318247
 21
86.35000039447104
 31
0.0
  0
LINE
  5
959
330
1F
100
AcDbEntity
  8
0
100
AcDbLine
 10
14.5717965923215
 20
91.35000039447104
 30
0.0
 11
14.5717965923215
 21
86.35000039447104
 31
0.0
  0
LINE
  5
95A
330
1F
100
AcDbEntity
  8
0
100
AcDbLine
 10
28.42820305318247
 20
84.85000039447104
 30
0.0
 11
28.42820305318247
 21
76.85000039447103
 31
0.0
  0
LINE
  5
95B
330
1F
100
AcDbEntity
  8
0
100
AcDbLine
 10
24.96410143790689
 20
76.85000039447103
 30
0.0
 11
28.42820305318247
 21
76.85000039447103
 31
0.0
  0
LINE
  5
95C
330
1F
100
AcDbEntity
  8
0
100
AcDbLine
 10
24.96410143790689
 20
84.85000039447104
 30
0.0
 11
24.96410143790689
 21
76.85000039447103
 31
0.0
  0
LINE
  5
95D
330
1F
100
AcDbEntity
  8
0
100
AcDbLine
 10
18.03589820773476
 20
76.85000039447103
 30
0.0
 11
24.96410143790689
 21
76.85000039447103
 31
0.0
  0
LINE
  5
95E
330
1F
100
AcDbEntity
  8
0
100
AcDbLine
 10
18.03589820773476
 20
84.85000039447104
 30
0.0
 11
18.03589820773476
 21
76.85000039447103
 31
0.0
  0
LINE
  5
95F
330
1F
100
AcDbEntity
  8
0
100
AcDbLine
 10
14.5717965923215
 20
76.85000039447103
 30
0.0
 11
18.03589820773476
 21
76.85000039447103
 31
0.0
  0
LINE
  5
960
330
1F
100
AcDbEntity
  8
0
100
AcDbLine
 10
14.5717965923215
 20
84.85000039447104
 30
0.0
 11
14.5717965923215
 21
76.85000039447103
 31
0.0
  0
LINE
  5
961
330
1F
100
AcDbEntity
  8
0
100
AcDbLine
 10
28.42820305318247
 20
84.85000039447104
 30
0.0
 11
24.96410143790689
 21
84.85000039447104
 31
0.0
  0
LINE
  5
962
330
1F
100
AcDbEntity
  8
0
100
AcDbLine
 10
24.96410143790689
 20
84.85000039447104
 30
0.0
 11
18.03589820773476
 21
84.85000039447104
 31
0.0
  0
LINE
  5
963
330
1F
100
AcDbEntity
  8
0
100
AcDbLine
 10
18.03589820773476
 20
84.85000039447104
 30
0.0
 11
14.5717965923215
 21
84.85000039447104
 31
0.0
  0
LINE
  5
964
330
1F
100
AcDbEntity
  8
0
100
AcDbLine
 10
28.42820305318247
 20
91.35000039447104
 30
0.0
 11
26.69615224547579
 21
91.35000039447104
 31
0.0
  0
LINE
  5
965
330
1F
100
AcDbEntity
  8
0
100
AcDbLine
 10
16.30384740014006
 20
91.35000039447104
 30
0.0
 11
14.5717965923215
 21
91.35000039447104
 31
0.0
  0
LINE
  5
966
330
1F
100
AcDbEntity
  8
0
100
AcDbLine
 10
21.49999982276921
 20
91.35000039447104
 30
0.0
 11
18.03589820773476
 21
91.35000039447104
 31
0.0
  0
LINE
  5
967
330
1F
100
AcDbEntity
  8
0
100
AcDbLine
 10
18.03589820773476
 20
91.35000039447104
 30
0.0
 11
16.30384740014006
 21
91.35000039447104
 31
0.0
  0
LINE
  5
968
330
1F
100
AcDbEntity
  8
0
100
AcDbLine
 10
26.69615224547584
 20
91.35000039447104
 30
0.0
 11
24.96410143790695
 21
91.35000039447104
 31
0.0
  0
LINE
  5
969
330
1F
100
AcDbEntity
  8
0
100
AcDbLine
 10
24.96410143790689
 20
91.35000039447104
 30
0.0
 11
21.49999982276921
 21
91.35000039447104
 31
0.0
  0
LINE
  5
96A
330
1F
100
AcDbEntity
  8
0
100
AcDbLine
 10
26.49999982276921
 20
84.85000039447104
 30
0.0
 11
26.49999982276921
 21
86.35000039447104
 31
0.0
  0
LINE
  5
96B
330
1F
100
AcDbEntity
  8
0
100
AcDbLine
 10
16.49999982276921
 20
84.85000039447104
 30
0.0
 11
16.49999982276921
 21
86.35000039447104
 31
0.0
  0
LINE
  5
96C
330
1F
100
AcDbEntity
  8
0
100
AcDbLine
 10
15.99999982276932
 20
76.85000039447103
 30
0.0
 11
15.99999982276932
 21
75.85000039447104
 31
0.0
  0
LINE
  5
96D
330
1F
100
AcDbEntity
  8
0
100
AcDbLine
 10
27.49999982276921
 20
91.35000039447104
 30
0.0
 11
27.49999982276921
 21
92.85000039447103
 31
0.0
  0
LINE
  5
96E
330
1F
100
AcDbEntity
  8
0
100
AcDbLine
 10
15.49999982276921
 20
91.35000039447104
 30
0.0
 11
15.49999982276921
 21
92.85000039447103
 31
0.0
  0
LINE
  5
96F
330
1F
100
AcDbEntity
  8
0
100
AcDbLine
 10
24.99999982276932
 20
73.85000039447104
 30
0.0
 11
17.99999982276932
 21
73.85000039447104
 31
0.0
  0
LINE
  5
970
330
1F
100
AcDbEntity
  8
0
100
AcDbLine
 10
15.49999982276921
 20
92.85000039447103
 30
0.0
 11
27.49999982276921
 21
92.85000039447103
 31
0.0
  0
ARC
  5
971
330
1F
100
AcDbEntity
  8
0
100
AcDbCircle
 10
17.99999982276932
 20
75.85000039447104
 30
0.0
 40
2.0
100
AcDbArc
 50
180.0
 51
270.0
  0
ARC
  5
972
330
1F
100
AcDbEntity
  8
0
100
AcDbCircle
 10
24.99999982276932
 20
75.85000039447104
 30
0.0
 40
2.0
100
AcDbArc
 50
270.0
 51
0.0
  0
LINE
  5
973
330
1F
100
AcDbEntity
  8
0
100
AcDbLine
 10
15.49999982276921
 20
91.35000039447104
 30
0.0
 11
27.49999982276921
 21
91.35000039447104
 31
0.0
  0
LINE
  5
974
330
1F
100
AcDbEntity
  8
0
100
AcDbLine
 10
37.49999982276932
 20
73.76602579825632
 30
0.0
 11
37.49999982276921
 21
78.03397499068754
 31
0.0
  0
ARC
  5
975
330
1F
100
AcDbEntity
  8
0
100
AcDbCircle
 10
37.49999982276932
 20
72.90000039447193
 30
0.0
 40
0.5
100
AcDbArc
 50
119.9999999999989
 51
180.0
  0
ARC
  5
976
330
1F
100
AcDbEntity
  8
0
100
AcDbCircle
 10
36.99999982276933
 20
73.76602579825632
 30
0.0
 40
0.5
100
AcDbArc
 50
299.9999999999996
 51
0.0
  0
ARC
  5
977
330
1F
100
AcDbEntity
  8
0
100
AcDbCircle
 10
37.49999982276932
 20
78.90000039447193
 30
0.0
 40
0.5
100
AcDbArc
 50
180.0
 51
240.0000000000009
  0
ARC
  5
978
330
1F
100
AcDbEntity
  8
0
100
AcDbCircle
 10
36.99999982276933
 20
78.03397499068754
 30
0.0
 40
0.5
100
AcDbArc
 50
0.0
 51
60.00000000000102
  0
LINE
  5
979
330
1F
100
AcDbEntity
  8
0
100
AcDbLine
 10
22.2262601383911
 20
19.92603161640838
 30
0.0
 11
22.2262601383911
 21
43.8500003944708
 31
0.0
  0
LINE
  5
97A
330
1F
100
AcDbEntity
  8
0
100
AcDbLine
 10
21.02626013839119
 20
19.92603161640838
 30
0.0
 11
21.02626013839119
 21
43.8500003944708
 31
0.0
  0
LINE
  5
97B
330
1F
100
AcDbEntity
  8
0
100
AcDbLine
 10
20.27626013839119
 20
17.00000039447082
 30
0.0
 11
20.27626013839119
 21
19.92603161640838
 31
0.0
  0
LINE
  5
97C
330
1F
100
AcDbEntity
  8
0
100
AcDbLine
 10
23.67626013839108
 20
17.00000039447113
 30
0.0
 11
23.67626013839108
 21
19.92603161640838
 31
0.0
  0
LINE
  5
97D
330
1F
100
AcDbEntity
  8
0
100
AcDbLine
 10
19.74999982277191
 20
43.85000039447072
 30
0.0
 11
19.74999982277159
 21
73.85000039447104
 31
0.0
  0
LINE
  5
97E
330
1F
100
AcDbEntity
  8
0
100
AcDbLine
 10
23.24999982277041
 20
43.85000039447089
 30
0.0
 11
23.24999982277041
 21
73.85000039447104
 31
0.0
  0
LINE
  5
97F
330
1F
100
AcDbEntity
  8
0
100
AcDbLine
 10
23.24999982277041
 20
43.85000039447089
 30
0.0
 11
19.74999982277191
 21
43.85000039447072
 31
0.0
  0
LINE
  5
980
330
1F
100
AcDbEntity
  8
0
100
AcDbLine
 10
9.776260138391194
 20
17.00000039447124
 30
0.0
 11
9.776260138391194
 21
0.0000003944712432
 31
0.0
  0
LINE
  5
981
330
1F
100
AcDbEntity
  8
0
100
AcDbLine
 10
14.77626013839119
 20
17.00000039447124
 30
0.0
 11
14.77626013839119
 21
16.00000039447116
 31
0.0
  0
LINE
  5
982
330
1F
100
AcDbEntity
  8
0
100
AcDbLine
 10
14.77626013839119
 20
1.000000394471157
 30
0.0
 11
14.77626013839119
 21
0.0000003944712432
 31
0.0
  0
LINE
  5
983
330
1F
100
AcDbEntity
  8
0
100
AcDbLine
 10
19.27626013839119
 20
15.0000003944711
 30
0.0
 11
19.27626013839119
 21
2.000000394471129
 31
0.0
  0
LINE
  5
984
330
1F
100
AcDbEntity
  8
0
100
AcDbLine
 10
27.77626013839068
 20
1.000000394471243
 30
0.0
 11
27.7762601383906
 21
16.00000039447113
 31
0.0
  0
ARC
  5
985
330
1F
100
AcDbEntity
  8
0
100
AcDbCircle
 10
26.77626013839077
 20
1.000000394471243
 30
0.0
 40
1.0
100
AcDbArc
 50
270.0
 51
0.0
1001
GENIUS_GENOBJ-N-FIL_13
1002
{
1000
OWNER
1000
GEN
1002
}
1001
GENIUS_GENODEF_13
1002
{
1000
HIER
1070
     0
1002
}
1002
{
1000
MANEDIT
1070
     0
1002
}
1002
{
1000
NOSEL
1070
     0
1002
}
1002
{
1000
BEHIND
1070
     0
1002
}
1002
{
1000
OTHER
1070
     0
1002
}
1002
{
1000
REACTOR
1002
}
  0
LINE
  5
986
330
1F
100
AcDbEntity
  8
0
100
AcDbLine
 10
9.776260138391194
 20
0.0000003944712432
 30
0.0
 11
26.77626013839077
 21
0.0000003944712432
 31
0.0
  0
LINE
  5
987
330
1F
100
AcDbEntity
  8
0
100
AcDbLine
 10
9.776260138391194
 20
17.00000039447124
 30
0.0
 11
26.7762601383906
 21
17.00000039447113
 31
0.0
  0
ARC
  5
988
330
1F
100
AcDbEntity
  8
0
100
AcDbCircle
 10
26.7762601383906
 20
16.00000039447113
 30
0.0
 40
1.0
100
AcDbArc
 50
0.0
 51
90.0
1001
GENIUS_GENOBJ-N-FIL_13
1002
{
1000
OWNER
1000
GEN
1002
}
1001
GENIUS_GENODEF_13
1002
{
1000
HIER
1070
     0
1002
}
1002
{
1000
MANEDIT
1070
     0
1002
}
1002
{
1000
NOSEL
1070
     0
1002
}
1002
{
1000
BEHIND
1070
     0
1002
}
1002
{
1000
OTHER
1070
     0
1002
}
1002
{
1000
REACTOR
1002
}
  0
LINE
  5
989
330
1F
100
AcDbEntity
  8
0
100
AcDbLine
 10
23.67626013839108
 20
19.92603161640838
 30
0.0
 11
20.27626013839119
 21
19.92603161640838
 31
0.0
  0
LINE
  5
98A
330
1F
100
AcDbEntity
  8
0
100
AcDbLine
 10
20.27626013839119
 20
14.50000039447099
 30
0.0
 11
19.27626013839119
 21
14.50000039447099
 31
0.0
  0
LINE
  5
98B
330
1F
100
AcDbEntity
  8
0
100
AcDbLine
 10
20.27626013839119
 20
2.50000039447147
 30
0.0
 11
19.27626013839119
 21
2.50000039447147
 31
0.0
  0
LINE
  5
98C
330
1F
100
AcDbEntity
  8
0
100
AcDbLine
 10
19.27626013839119
 20
14.50000039447099
 30
0.0
 11
19.27626013839119
 21
2.50000039447147
 31
0.0
  0
LINE
  5
98D
330
1F
100
AcDbEntity
  8
0
100
AcDbLine
 10
20.27626013839119
 20
14.50000039447099
 30
0.0
 11
20.27626013839119
 21
2.50000039447147
 31
0.0
  0
LINE
  5
98E
330
1F
100
AcDbEntity
  8
0
100
AcDbLine
 10
20.27626013839119
 20
13.50000039447099
 30
0.0
 11
19.27626013839119
 21
13.50000039447099
 31
0.0
  0
LINE
  5
98F
330
1F
100
AcDbEntity
  8
0
100
AcDbLine
 10
20.27626013839119
 20
3.500000394471328
 30
0.0
 11
19.27626013839119
 21
3.500000394471328
 31
0.0
  0
LINE
  5
990
330
1F
100
AcDbEntity
  8
0
100
AcDbLine
 10
19.27626013839119
 20
15.0000003944711
 30
0.0
 11
14.77626013839119
 21
16.00000039447116
 31
0.0
  0
LINE
  5
991
330
1F
100
AcDbEntity
  8
0
100
AcDbLine
 10
19.27626013839119
 20
2.000000394471129
 30
0.0
 11
14.77626013839119
 21
1.000000394471157
 31
0.0
  0
LINE
  5
992
330
1F
100
AcDbEntity
  8
0
100
AcDbLine
 10
9.276260138391194
 20
16.00000039447124
 30
0.0
 11
9.276260138391194
 21
1.000000394471243
 31
0.0
  0
LINE
  5
993
330
1F
100
AcDbEntity
  8
0
100
AcDbLine
 10
9.776260138391194
 20
16.00000039447124
 30
0.0
 11
9.276260138391194
 21
16.00000039447124
 31
0.0
  0
LINE
  5
994
330
1F
100
AcDbEntity
  8
0
100
AcDbLine
 10
9.776260138391194
 20
1.000000394471243
 30
0.0
 11
9.276260138391194
 21
1.000000394471243
 31
0.0
  0
ENDSEC
  0
SECTION
  2
OBJECTS
  0
DICTIONARY
  5
C
330
0
100
AcDbDictionary
281
     1
  3
ACAD_COLOR
350
BE
  3
ACAD_GROUP
350
D
  3
ACAD_LAYOUT
350
1A
  3
ACAD_MATERIAL
350
BD
  3
ACAD_MLINESTYLE
350
17
  3
ACAD_PLOTSETTINGS
350
19
  3
ACAD_PLOTSTYLENAME
350
E
  3
ACAD_TABLESTYLE
350
11A
  3
ACDBHEADERROUNDTRIPXREC
350
9A8
  3
AcDbVariableDictionary
350
94
  3
AcmDictionary
350
5B
  3
AMG
350
41
  3
AMGSNAPSETTINGS
350
1B8
  3
DWGPROPS
350
9A7
  0
DICTIONARY
  5
218
330
2
100
AcDbDictionary
280
     1
281
     1
  3
ACAD_LAYERSTATES
360
219
  0
DICTIONARY
  5
8F
330
1F
100
AcDbDictionary
280
     1
281
     1
  0
DICTIONARY
  5
BE
102
{ACAD_REACTORS
330
C
102
}
330
C
100
AcDbDictionary
281
     1
  0
DICTIONARY
  5
D
102
{ACAD_REACTORS
330
C
102
}
330
C
100
AcDbDictionary
281
     1
  0
DICTIONARY
  5
1A
102
{ACAD_REACTORS
330
C
102
}
330
C
100
AcDbDictionary
281
     1
  3
Model
350
22
  3
レイアウト1
350
1E
  3
レイアウト2
350
26
  0
DICTIONARY
  5
BD
102
{ACAD_REACTORS
330
C
102
}
330
C
100
AcDbDictionary
281
     1
  0
DICTIONARY
  5
17
102
{ACAD_REACTORS
330
C
102
}
330
C
100
AcDbDictionary
281
     1
  3
Standard
350
18
  0
DICTIONARY
  5
19
102
{ACAD_REACTORS
330
C
102
}
330
C
100
AcDbDictionary
281
     1
  0
ACDBDICTIONARYWDFLT
  5
E
102
{ACAD_REACTORS
330
C
102
}
330
C
100
AcDbDictionary
281
     1
  3
Normal
350
F
100
AcDbDictionaryWithDefault
340
F
  0
DICTIONARY
  5
11A
102
{ACAD_REACTORS
330
C
102
}
330
C
100
AcDbDictionary
281
     1
  3
Standard
350
11B
  0
DICTIONARY
  5
9A8
102
{ACAD_REACTORS
330
C
102
}
330
C
100
AcDbDictionary
281
     1
  0
DICTIONARY
  5
94
102
{ACAD_REACTORS
330
C
102
}
330
C
100
AcDbDictionary
281
     1
  3
CTABLESTYLE
350
138
  3
DIMASSOC
350
96
  3
INDEXCTL
350
95
  3
PROJECTNAME
350
9A5
  0
DICTIONARY
  5
5B
102
{ACAD_REACTORS
330
C
102
}
330
C
100
AcDbDictionary
281
     1
  3
AcmBOM
350
1B5
  3
AcmStdDictionary
350
61
  3
AMDTSECTSYM_ARROWCOLOR
350
123
  0
DICTIONARY
  5
41
102
{ACAD_REACTORS
330
C
102
}
330
C
100
AcDbDictionary
281
     1
  0
DICTIONARY
  5
1B8
102
{ACAD_REACTORS
330
C
102
}
330
C
100
AcDbDictionary
281
     1
  0
XRECORD
  5
9A7
102
{ACAD_REACTORS
330
C
102
}
330
C
100
AcDbXrecord
280
     1
  1
DWGPROPS COOKIE
  2

  3

  4

  6

  7

  8

  9

300
AmdtFileType=84
301
=
302
=
303
=
304
=
305
=
306
=
307
=
308
=
309
=
 40
0.0051254050925926
 41
2456406.674284873
 42
2456406.67940485
  1

 90
        1
  0
DICTIONARY
  5
219
102
{ACAD_REACTORS
330
218
102
}
330
218
100
AcDbDictionary
281
     1
  0
LAYOUT
  5
22
102
{ACAD_XDICTIONARY
360
9AB
102
}
102
{ACAD_REACTORS
330
1A
102
}
330
1A
100
AcDbPlotSettings
  1

  2

  4

  6

 40
0.0
 41
0.0
 42
0.0
 43
0.0
 44
0.0
 45
0.0
 46
0.0
 47
0.0
 48
0.0
 49
0.0
140
0.0
141
0.0
142
1.0
143
1.0
 70
  1712
 72
     0
 73
     0
 74
     0
  7

 75
     0
147
1.0
148
0.0
149
0.0
100
AcDbLayout
  1
Model
 70
     1
 71
     0
 10
0.0
 20
0.0
 11
12.0
 21
9.0
 12
0.0
 22
0.0
 32
0.0
 14
0.0
 24
0.0
 34
0.0
 15
0.0
 25
0.0
 35
0.0
146
0.0
 13
0.0
 23
0.0
 33
0.0
 16
1.0
 26
0.0
 36
0.0
 17
0.0
 27
1.0
 37
0.0
 76
     0
330
1F
  0
LAYOUT
  5
1E
102
{ACAD_XDICTIONARY
360
9A9
102
}
102
{ACAD_REACTORS
330
1A
102
}
330
1A
100
AcDbPlotSettings
  1

  2

  4

  6

 40
0.0
 41
0.0
 42
0.0
 43
0.0
 44
0.0
 45
0.0
 46
0.0
 47
0.0
 48
0.0
 49
0.0
140
0.0
141
0.0
142
1.0
143
1.0
 70
   688
 72
     0
 73
     0
 74
     5
  7

 75
    16
147
1.0
148
0.0
149
0.0
100
AcDbLayout
  1
レイアウト1
 70
     1
 71
     1
 10
0.0
 20
0.0
 11
420.0
 21
297.0
 12
0.0
 22
0.0
 32
0.0
 14
1.000000000000000E+20
 24
1.000000000000000E+20
 34
1.000000000000000E+20
 15
-1.000000000000000E+20
 25
-1.000000000000000E+20
 35
-1.000000000000000E+20
146
0.0
 13
0.0
 23
0.0
 33
0.0
 16
1.0
 26
0.0
 36
0.0
 17
0.0
 27
1.0
 37
0.0
 76
     0
330
1B
  0
LAYOUT
  5
26
102
{ACAD_XDICTIONARY
360
9AD
102
}
102
{ACAD_REACTORS
330
1A
102
}
330
1A
100
AcDbPlotSettings
  1

  2

  4

  6

 40
0.0
 41
0.0
 42
0.0
 43
0.0
 44
0.0
 45
0.0
 46
0.0
 47
0.0
 48
0.0
 49
0.0
140
0.0
141
0.0
142
1.0
143
1.0
 70
   688
 72
     0
 73
     0
 74
     5
  7

 75
    16
147
1.0
148
0.0
149
0.0
100
AcDbLayout
  1
レイアウト2
 70
     1
 71
     2
 10
0.0
 20
0.0
 11
12.0
 21
9.0
 12
0.0
 22
0.0
 32
0.0
 14
0.0
 24
0.0
 34
0.0
 15
0.0
 25
0.0
 35
0.0
146
0.0
 13
0.0
 23
0.0
 33
0.0
 16
1.0
 26
0.0
 36
0.0
 17
0.0
 27
1.0
 37
0.0
 76
     0
330
23
  0
MLINESTYLE
  5
18
102
{ACAD_REACTORS
330
17
102
}
330
17
100
AcDbMlineStyle
  2
STANDARD
 70
     0
  3

 62
   256
 51
90.0
 52
90.0
 71
     2
 49
0.5
 62
   256
  6
BYLAYER
 49
-0.5
 62
   256
  6
BYLAYER
  0
ACDBPLACEHOLDER
  5
F
102
{ACAD_REACTORS
330
E
102
}
330
E
  0
TABLESTYLE
  5
11B
102
{ACAD_REACTORS
330
11A
102
}
330
11A
100
AcDbTableStyle
  3
Standard
 70
     0
 71
     0
 40
1.5
 41
1.5
280
     0
281
     0
  7
STANDARD
140
4.5
170
     2
 62
     0
 63
     7
283
     0
274
    -2
284
     1
 64
     0
275
    -2
285
     1
 65
     0
276
    -2
286
     1
 66
     0
277
    -2
287
     1
 67
     0
278
    -2
288
     1
 68
     0
279
    -2
289
     1
 69
     0
  7
STANDARD
140
6.0
170
     5
 62
     0
 63
     7
283
     0
274
    -2
284
     1
 64
     0
275
    -2
285
     1
 65
     0
276
    -2
286
     1
 66
     0
277
    -2
287
     1
 67
     0
278
    -2
288
     1
 68
     0
279
    -2
289
     1
 69
     0
  7
STANDARD
140
4.5
170
     5
 62
     0
 63
     7
283
     0
274
    -2
284
     1
 64
     0
275
    -2
285
     1
 65
     0
276
    -2
286
     1
 66
     0
277
    -2
287
     1
 67
     0
278
    -2
288
     1
 68
     0
279
    -2
289
     1
 69
     0
  0
DICTIONARYVAR
  5
138
102
{ACAD_REACTORS
330
94
102
}
330
94
100
DictionaryVariables
280
     0
  1
STANDARD
  0
DICTIONARYVAR
  5
96
102
{ACAD_REACTORS
330
94
102
}
330
94
100
DictionaryVariables
280
     0
  1
2
  0
DICTIONARYVAR
  5
95
102
{ACAD_REACTORS
330
94
102
}
330
94
100
DictionaryVariables
280
     0
  1
0
  0
DICTIONARYVAR
  5
9A5
102
{ACAD_REACTORS
330
94
102
}
330
94
100
DictionaryVariables
280
     0
  1

  0
DICTIONARY
  5
1B5
102
{ACAD_REACTORS
330
5B
102
}
330
5B
100
AcDbDictionary
281
     1
  0
DICTIONARY
  5
61
102
{ACAD_REACTORS
330
5B
102
}
330
5B
100
AcDbDictionary
281
     1
  0
XRECORD
  5
123
102
{ACAD_REACTORS
330
5B
102
}
330
5B
100
AcDbXrecord
280
     1
 90
-1023410169
  0
DICTIONARY
  5
9AB
330
22
100
AcDbDictionary
280
     1
281
     1
  3
ACAD_XREC_ROUNDTRIP
360
9AC
  0
DICTIONARY
  5
9A9
330
1E
100
AcDbDictionary
280
     1
281
     1
  3
ACAD_XREC_ROUNDTRIP
360
9AA
  0
DICTIONARY
  5
9AD
330
26
100
AcDbDictionary
280
     1
281
     1
  3
ACAD_XREC_ROUNDTRIP
360
9AE
  0
XRECORD
  5
9AC
102
{ACAD_REACTORS
330
9AB
102
}
330
9AB
100
AcDbXrecord
280
     1
102
SHADEPLOT
 70
     0
102
SHADEPLOTRESLEVEL
 70
     2
102
SHADEPLOTCUSTOMDPI
 70
   300
  0
XRECORD
  5
9AA
102
{ACAD_REACTORS
330
9A9
102
}
330
9A9
100
AcDbXrecord
280
     1
102
SHADEPLOT
 70
     0
102
SHADEPLOTRESLEVEL
 70
     2
102
SHADEPLOTCUSTOMDPI
 70
   300
  0
XRECORD
  5
9AE
102
{ACAD_REACTORS
330
9AD
102
}
330
9AD
100
AcDbXrecord
280
     1
102
SHADEPLOT
 70
     0
102
SHADEPLOTRESLEVEL
 70
     2
102
SHADEPLOTCUSTOMDPI
 70
   300
  0
ENDSEC
  0
EOF
