  0
SECTION
  2
HEADER
  9
$ACADVER
  1
AC1015
  9
$ACADMAINTVER
 70
    10
  9
$DWGCODEPAGE
  3
ANSI_932
  9
$INSBASE
 10
0.0
 20
0.0
 30
0.0
  9
$EXTMIN
 10
116.1789586792455
 20
109.6163411883503
 30
0.0
  9
$EXTMAX
 10
454.7076051792455
 20
220.662905440243
 30
0.0
  9
$LIMMIN
 10
0.0
 20
0.0
  9
$LIMMAX
 10
420.0
 20
297.0
  9
$ORTHOMODE
 70
     0
  9
$REGENMODE
 70
     1
  9
$FILLMODE
 70
     1
  9
$QTEXTMODE
 70
     0
  9
$MIRRTEXT
 70
     1
  9
$LTSCALE
 40
1.0
  9
$ATTMODE
 70
     1
  9
$TEXTSIZE
 40
2.5
  9
$TRACEWID
 40
1.0
  9
$TEXTSTYLE
  7
Standard
  9
$CLAYER
  8
0
  9
$CELTYPE
  6
ByLayer
  9
$CECOLOR
 62
   256
  9
$CELTSCALE
 40
1.0
  9
$DISPSILH
 70
     0
  9
$DIMSCALE
 40
1.0
  9
$DIMASZ
 40
2.5
  9
$DIMEXO
 40
0.625
  9
$DIMDLI
 40
3.75
  9
$DIMRND
 40
0.0
  9
$DIMDLE
 40
0.0
  9
$DIMEXE
 40
1.25
  9
$DIMTP
 40
0.0
  9
$DIMTM
 40
0.0
  9
$DIMTXT
 40
2.5
  9
$DIMCEN
 40
2.5
  9
$DIMTSZ
 40
0.0
  9
$DIMTOL
 70
     0
  9
$DIMLIM
 70
     0
  9
$DIMTIH
 70
     0
  9
$DIMTOH
 70
     0
  9
$DIMSE1
 70
     0
  9
$DIMSE2
 70
     0
  9
$DIMTAD
 70
     1
  9
$DIMZIN
 70
     8
  9
$DIMBLK
  1

  9
$DIMASO
 70
     1
  9
$DIMSHO
 70
     1
  9
$DIMPOST
  1

  9
$DIMAPOST
  1

  9
$DIMALT
 70
     0
  9
$DIMALTD
 70
     3
  9
$DIMALTF
 40
0.03937007874016
  9
$DIMLFAC
 40
1.0
  9
$DIMTOFL
 70
     1
  9
$DIMTVP
 40
0.0
  9
$DIMTIX
 70
     0
  9
$DIMSOXD
 70
     0
  9
$DIMSAH
 70
     0
  9
$DIMBLK1
  1

  9
$DIMBLK2
  1

  9
$DIMSTYLE
  2
ISO-25
  9
$DIMCLRD
 70
     0
  9
$DIMCLRE
 70
     0
  9
$DIMCLRT
 70
     0
  9
$DIMTFAC
 40
1.0
  9
$DIMGAP
 40
0.625
  9
$DIMJUST
 70
     0
  9
$DIMSD1
 70
     0
  9
$DIMSD2
 70
     0
  9
$DIMTOLJ
 70
     0
  9
$DIMTZIN
 70
     8
  9
$DIMALTZ
 70
     0
  9
$DIMALTTZ
 70
     0
  9
$DIMUPT
 70
     0
  9
$DIMDEC
 70
     2
  9
$DIMTDEC
 70
     2
  9
$DIMALTU
 70
     2
  9
$DIMALTTD
 70
     3
  9
$DIMTXSTY
  7
Standard
  9
$DIMAUNIT
 70
     0
  9
$DIMADEC
 70
     0
  9
$DIMALTRND
 40
0.0
  9
$DIMAZIN
 70
     0
  9
$DIMDSEP
 70
    46
  9
$DIMATFIT
 70
     3
  9
$DIMFRAC
 70
     0
  9
$DIMLDRBLK
  1

  9
$DIMLUNIT
 70
     2
  9
$DIMLWD
 70
    -2
  9
$DIMLWE
 70
    -2
  9
$DIMTMOVE
 70
     0
  9
$LUNITS
 70
     2
  9
$LUPREC
 70
     4
  9
$SKETCHINC
 40
1.0
  9
$FILLETRAD
 40
10.0
  9
$AUNITS
 70
     0
  9
$AUPREC
 70
     0
  9
$MENU
  1
.
  9
$ELEVATION
 40
0.0
  9
$PELEVATION
 40
0.0
  9
$THICKNESS
 40
0.0
  9
$LIMCHECK
 70
     0
  9
$CHAMFERA
 40
10.0
  9
$CHAMFERB
 40
10.0
  9
$CHAMFERC
 40
20.0
  9
$CHAMFERD
 40
0.0
  9
$SKPOLY
 70
     0
  9
$TDCREATE
 40
2456483.426306308
  9
$TDUCREATE
 40
2456483.051306308
  9
$TDUPDATE
 40
2456486.489095127
  9
$TDUUPDATE
 40
2456486.114095127
  9
$TDINDWG
 40
0.0102185185
  9
$TDUSRTIMER
 40
0.0102167245
  9
$USRTIMER
 70
     1
  9
$ANGBASE
 50
0.0
  9
$ANGDIR
 70
     0
  9
$PDMODE
 70
     0
  9
$PDSIZE
 40
0.0
  9
$PLINEWID
 40
0.0
  9
$SPLFRAME
 70
     0
  9
$SPLINETYPE
 70
     6
  9
$SPLINESEGS
 70
     8
  9
$HANDSEED
  5
5A6
  9
$SURFTAB1
 70
     6
  9
$SURFTAB2
 70
     6
  9
$SURFTYPE
 70
     6
  9
$SURFU
 70
     6
  9
$SURFV
 70
     6
  9
$UCSBASE
  2

  9
$UCSNAME
  2

  9
$UCSORG
 10
0.0
 20
0.0
 30
0.0
  9
$UCSXDIR
 10
1.0
 20
0.0
 30
0.0
  9
$UCSYDIR
 10
0.0
 20
1.0
 30
0.0
  9
$UCSORTHOREF
  2

  9
$UCSORTHOVIEW
 70
     0
  9
$UCSORGTOP
 10
0.0
 20
0.0
 30
0.0
  9
$UCSORGBOTTOM
 10
0.0
 20
0.0
 30
0.0
  9
$UCSORGLEFT
 10
0.0
 20
0.0
 30
0.0
  9
$UCSORGRIGHT
 10
0.0
 20
0.0
 30
0.0
  9
$UCSORGFRONT
 10
0.0
 20
0.0
 30
0.0
  9
$UCSORGBACK
 10
0.0
 20
0.0
 30
0.0
  9
$PUCSBASE
  2

  9
$PUCSNAME
  2

  9
$PUCSORG
 10
0.0
 20
0.0
 30
0.0
  9
$PUCSXDIR
 10
1.0
 20
0.0
 30
0.0
  9
$PUCSYDIR
 10
0.0
 20
1.0
 30
0.0
  9
$PUCSORTHOREF
  2

  9
$PUCSORTHOVIEW
 70
     0
  9
$PUCSORGTOP
 10
0.0
 20
0.0
 30
0.0
  9
$PUCSORGBOTTOM
 10
0.0
 20
0.0
 30
0.0
  9
$PUCSORGLEFT
 10
0.0
 20
0.0
 30
0.0
  9
$PUCSORGRIGHT
 10
0.0
 20
0.0
 30
0.0
  9
$PUCSORGFRONT
 10
0.0
 20
0.0
 30
0.0
  9
$PUCSORGBACK
 10
0.0
 20
0.0
 30
0.0
  9
$USERI1
 70
     0
  9
$USERI2
 70
     0
  9
$USERI3
 70
     0
  9
$USERI4
 70
     0
  9
$USERI5
 70
     0
  9
$USERR1
 40
0.0
  9
$USERR2
 40
0.0
  9
$USERR3
 40
0.0
  9
$USERR4
 40
0.0
  9
$USERR5
 40
0.0
  9
$WORLDVIEW
 70
     1
  9
$SHADEDGE
 70
     3
  9
$SHADEDIF
 70
    70
  9
$TILEMODE
 70
     1
  9
$MAXACTVP
 70
    64
  9
$PINSBASE
 10
0.0
 20
0.0
 30
0.0
  9
$PLIMCHECK
 70
     0
  9
$PEXTMIN
 10
1.000000000000000E+20
 20
1.000000000000000E+20
 30
1.000000000000000E+20
  9
$PEXTMAX
 10
-1.000000000000000E+20
 20
-1.000000000000000E+20
 30
-1.000000000000000E+20
  9
$PLIMMIN
 10
0.0
 20
0.0
  9
$PLIMMAX
 10
420.0
 20
297.0
  9
$UNITMODE
 70
     0
  9
$VISRETAIN
 70
     1
  9
$PLINEGEN
 70
     0
  9
$PSLTSCALE
 70
     1
  9
$TREEDEPTH
 70
  3020
  9
$CMLSTYLE
  2
Standard
  9
$CMLJUST
 70
     0
  9
$CMLSCALE
 40
20.0
  9
$PROXYGRAPHICS
 70
     1
  9
$MEASUREMENT
 70
     1
  9
$CELWEIGHT
370
    -1
  9
$ENDCAPS
280
     0
  9
$JOINSTYLE
280
     0
  9
$LWDISPLAY
290
     0
  9
$INSUNITS
 70
     4
  9
$HYPERLINKBASE
  1

  9
$STYLESHEET
  1

  9
$XEDIT
290
     1
  9
$CEPSNTYPE
380
     0
  9
$PSTYLEMODE
290
     1
  9
$FINGERPRINTGUID
  2
{C360A5C3-2175-4C2E-8512-4F202E8E4C8D}
  9
$VERSIONGUID
  2
{06725232-451B-429F-BA11-4BDCAC3B1B52}
  9
$EXTNAMES
290
     1
  9
$PSVPSCALE
 40
0.0
  9
$OLESTARTUP
290
     0
  0
ENDSEC
  0
SECTION
  2
CLASSES
  0
CLASS
  1
ACDBDICTIONARYWDFLT
  2
AcDbDictionaryWithDefault
  3
AutoCAD 2000
 90
        0
280
     0
281
     0
  0
CLASS
  1
ACDBPLACEHOLDER
  2
AcDbPlaceHolder
  3
AutoCAD 2000
 90
        0
280
     0
281
     0
  0
CLASS
  1
LAYOUT
  2
AcDbLayout
  3
AutoCAD 2000
 90
        0
280
     0
281
     0
  0
ENDSEC
  0
SECTION
  2
TABLES
  0
TABLE
  2
VPORT
  5
8
330
0
100
AcDbSymbolTable
 70
     2
  0
VPORT
  5
5A5
330
8
100
AcDbSymbolTableRecord
100
AcDbViewportTableRecord
  2
*Active
 70
     0
 10
0.0
 20
0.0
 11
1.0
 21
1.0
 12
285.2000533788126
 22
159.2837482435919
 13
0.0
 23
0.0
 14
10.0
 24
10.0
 15
10.0
 25
10.0
 16
0.0
 26
0.0
 36
1.0
 17
0.0
 27
0.0
 37
0.0
 40
205.778691512451
 41
1.781954887218045
 42
50.0
 43
0.0
 44
0.0
 50
0.0
 51
0.0
 71
     0
 72
   100
 73
     1
 74
     3
 75
     0
 76
     0
 77
     0
 78
     0
281
     0
 65
     1
110
0.0
120
0.0
130
0.0
111
1.0
121
0.0
131
0.0
112
0.0
122
1.0
132
0.0
 79
     0
146
0.0
  0
ENDTAB
  0
TABLE
  2
LTYPE
  5
5
330
0
100
AcDbSymbolTable
 70
     2
  0
LTYPE
  5
14
330
5
100
AcDbSymbolTableRecord
100
AcDbLinetypeTableRecord
  2
ByBlock
 70
     0
  3

 72
    65
 73
     0
 40
0.0
  0
LTYPE
  5
15
330
5
100
AcDbSymbolTableRecord
100
AcDbLinetypeTableRecord
  2
ByLayer
 70
     0
  3

 72
    65
 73
     0
 40
0.0
  0
LTYPE
  5
16
330
5
100
AcDbSymbolTableRecord
100
AcDbLinetypeTableRecord
  2
Continuous
 70
     0
  3
Solid line
 72
    65
 73
     0
 40
0.0
  0
LTYPE
  5
2B
330
5
100
AcDbSymbolTableRecord
100
AcDbLinetypeTableRecord
  2
DASHED
 70
     0
  3
DASHED
 72
    65
 73
     2
 40
0.75
 49
0.5
 74
     0
 49
-0.25
 74
     0
  0
ENDTAB
  0
TABLE
  2
LAYER
  5
2
330
0
100
AcDbSymbolTable
 70
     1
  0
LAYER
  5
10
330
2
100
AcDbSymbolTableRecord
100
AcDbLayerTableRecord
  2
0
 70
     0
 62
     7
  6
Continuous
370
    -3
390
F
  0
ENDTAB
  0
TABLE
  2
STYLE
  5
3
330
0
100
AcDbSymbolTable
 70
     2
  0
STYLE
  5
11
330
3
100
AcDbSymbolTableRecord
100
AcDbTextStyleTableRecord
  2
Standard
 70
     0
 40
0.0
 41
1.0
 50
0.0
 71
     0
 42
2.5
  3
txt
  4

  0
STYLE
  5
2C
330
3
100
AcDbSymbolTableRecord
100
AcDbTextStyleTableRecord
  2
_TCW_TXTSTY_1
 70
     0
 40
0.0
 41
1.0
 50
0.0
 71
     0
 42
0.6
  3
TXT.SHX
  4

  0
ENDTAB
  0
TABLE
  2
VIEW
  5
6
330
0
100
AcDbSymbolTable
 70
     0
  0
ENDTAB
  0
TABLE
  2
UCS
  5
7
330
0
100
AcDbSymbolTable
 70
     0
  0
ENDTAB
  0
TABLE
  2
APPID
  5
9
330
0
100
AcDbSymbolTable
 70
     2
  0
APPID
  5
12
330
9
100
AcDbSymbolTableRecord
100
AcDbRegAppTableRecord
  2
ACAD
 70
     0
  0
APPID
  5
2E
330
9
100
AcDbSymbolTableRecord
100
AcDbRegAppTableRecord
  2
TCAD
 70
     0
  0
ENDTAB
  0
TABLE
  2
DIMSTYLE
  5
A
330
0
100
AcDbSymbolTable
 70
     2
100
AcDbDimStyleTable
 71
     1
340
27
  0
DIMSTYLE
105
27
330
A
100
AcDbSymbolTableRecord
100
AcDbDimStyleTableRecord
  2
ISO-25
 70
     0
 41
2.5
 42
0.625
 43
3.75
 44
1.25
 73
     0
 74
     0
 77
     1
 78
     8
140
2.5
141
2.5
143
0.03937007874016
147
0.625
171
     3
172
     1
271
     2
272
     2
274
     3
283
     0
284
     8
340
11
  0
DIMSTYLE
105
2D
330
A
100
AcDbSymbolTableRecord
100
AcDbDimStyleTableRecord
  2
STANDARD
 70
     0
  3
<>
  4
<>
 41
3.0
 42
2.0
 43
10.0
 44
5.0
140
2.399999999999999
143
0.0
148
0.01
179
     4
340
2C
  0
ENDTAB
  0
TABLE
  2
BLOCK_RECORD
  5
1
330
0
100
AcDbSymbolTable
 70
     0
  0
BLOCK_RECORD
  5
1F
330
1
100
AcDbSymbolTableRecord
100
AcDbBlockTableRecord
  2
*Model_Space
340
22
  0
BLOCK_RECORD
  5
1B
330
1
100
AcDbSymbolTableRecord
100
AcDbBlockTableRecord
  2
*Paper_Space
340
1E
  0
ENDTAB
  0
ENDSEC
  0
SECTION
  2
BLOCKS
  0
BLOCK
  5
20
330
1F
100
AcDbEntity
  8
0
100
AcDbBlockBegin
  2
*Model_Space
 70
     0
 10
0.0
 20
0.0
 30
0.0
  3
*Model_Space
  1

  0
ENDBLK
  5
21
330
1F
100
AcDbEntity
  8
0
100
AcDbBlockEnd
  0
BLOCK
  5
1C
330
1B
100
AcDbEntity
 67
     1
  8
0
100
AcDbBlockBegin
  2
*Paper_Space
 70
     0
 10
0.0
 20
0.0
 30
0.0
  3
*Paper_Space
  1

  0
ENDBLK
  5
1D
330
1B
100
AcDbEntity
 67
     1
  8
0
100
AcDbBlockEnd
  0
ENDSEC
  0
SECTION
  2
ENTITIES
  0
LINE
  5
2E2
330
1F
100
AcDbEntity
  8
0
  6
DASHED
 62
     4
100
AcDbLine
 10
279.4734621666115
 20
116.6058951804598
 30
0.0
 11
277.055079428742
 21
116.5847902469705
 31
0.0
  0
LINE
  5
2E3
330
1F
100
AcDbEntity
  8
0
  6
DASHED
 62
     4
100
AcDbLine
 10
279.4734621666115
 20
213.6733526981334
 30
0.0
 11
277.055079428742
 21
213.6944576316226
 31
0.0
  0
LINE
  5
2E4
330
1F
100
AcDbEntity
  8
0
  6
DASHED
 62
     4
100
AcDbLine
 10
236.2560831792454
 20
210.5496814392966
 30
0.0
 11
278.2543806792456
 21
210.1716976892966
 31
0.0
  0
LINE
  5
2E5
330
1F
100
AcDbEntity
  8
0
  6
DASHED
 62
     4
100
AcDbLine
 10
278.2544894292456
 20
210.1838576892966
 30
0.0
 11
236.2560894292454
 21
210.5503714392967
 31
0.0
  0
LINE
  5
2E6
330
1F
100
AcDbEntity
  8
0
  6
DASHED
 62
     4
100
AcDbLine
 10
278.2543806792456
 20
120.1075501892967
 30
0.0
 11
236.2560831792454
 21
119.7295651892968
 31
0.0
  0
LINE
  5
2E7
330
1F
100
AcDbEntity
  8
0
  6
Continuous
 62
     7
100
AcDbLine
 10
325.9652606792456
 20
120.5369476892967
 30
0.0
 11
226.2625606792453
 21
119.6396239392967
 31
0.0
  0
LINE
  5
2E8
330
1F
100
AcDbEntity
  8
0
  6
Continuous
 62
     7
100
AcDbLine
 10
226.2625606792453
 20
210.6396239392966
 30
0.0
 11
325.9652606792456
 21
209.7422989392967
 31
0.0
  0
ARC
  5
2E9
330
1F
100
AcDbEntity
  8
0
  6
Continuous
 62
     7
100
AcDbCircle
 10
126.6917006792454
 20
128.3896245642965
 30
0.0
 40
5.500000000000058
100
AcDbArc
 50
180.0000065108855
 51
0.0000065108838711
  0
ARC
  5
2EA
330
1F
100
AcDbEntity
  8
0
  6
Continuous
 62
     7
100
AcDbCircle
 10
126.6917006792454
 20
136.3896245642968
 30
0.0
 40
5.500000000000058
100
AcDbArc
 50
0.0000065108838711
 51
180.0000065108838
  0
LINE
  5
2EB
330
1F
100
AcDbEntity
  8
0
  6
Continuous
 62
     7
100
AcDbLine
 10
118.2917006792455
 20
144.3896239392968
 30
0.0
 11
162.2917006792452
 21
144.3896239392968
 31
0.0
  0
LINE
  5
2EC
330
1F
100
AcDbEntity
  8
0
  6
Continuous
 62
     7
100
AcDbLine
 10
118.2917006792455
 20
146.3896239392968
 30
0.0
 11
162.2917006792452
 21
146.3896239392968
 31
0.0
  0
LINE
  5
2ED
330
1F
100
AcDbEntity
  8
0
  6
Continuous
 62
     7
100
AcDbLine
 10
118.2917006792455
 20
205.3896239392964
 30
0.0
 11
162.2917006792452
 21
205.3896239392964
 31
0.0
  0
LINE
  5
2EE
330
1F
100
AcDbEntity
  8
0
  6
Continuous
 62
     7
100
AcDbLine
 10
119.2917006792455
 20
120.3896239392967
 30
0.0
 11
161.2917006792454
 21
120.3896239392967
 31
0.0
  0
LINE
  5
2EF
330
1F
100
AcDbEntity
  8
0
  6
Continuous
 62
     7
100
AcDbLine
 10
119.2917006792455
 20
210.3896239392966
 30
0.0
 11
161.2917006792454
 21
210.3896239392966
 31
0.0
  0
LINE
  5
2F0
330
1F
100
AcDbEntity
  8
0
  6
Continuous
 62
     7
100
AcDbLine
 10
117.3860656792454
 20
213.3896239392965
 30
0.0
 11
163.3860656792454
 21
213.3896239392965
 31
0.0
  0
LINE
  5
2F1
330
1F
100
AcDbEntity
  8
0
  6
Continuous
 62
     7
100
AcDbLine
 10
117.3860656792454
 20
117.3896239392967
 30
0.0
 11
163.3860656792454
 21
117.3896239392967
 31
0.0
  0
LINE
  5
2F2
330
1F
100
AcDbEntity
  8
0
  6
Continuous
 62
     7
100
AcDbLine
 10
118.2917006792455
 20
209.3896239392964
 30
0.0
 11
118.2917006792455
 21
121.3896239392967
 31
0.0
  0
LINE
  5
2F3
330
1F
100
AcDbEntity
  8
0
  6
Continuous
 62
     7
100
AcDbLine
 10
116.3860656792454
 20
212.3896239392967
 30
0.0
 11
116.3860656792454
 21
118.3896239392967
 31
0.0
  0
LINE
  5
2F4
330
1F
100
AcDbEntity
  8
0
  6
Continuous
 62
     7
100
AcDbLine
 10
121.1917006792454
 20
136.3896239392967
 30
0.0
 11
121.1917006792454
 21
128.3896239392967
 31
0.0
  0
ARC
  5
2F5
330
1F
100
AcDbEntity
  8
0
  6
Continuous
 62
     7
100
AcDbCircle
 10
117.3860649321704
 20
118.3896231922215
 30
0.0
 40
0.9999992529251271
100
AcDbArc
 50
179.9999571957112
 51
270.0000428042847
  0
ARC
  5
2F6
330
1F
100
AcDbEntity
  8
0
  6
Continuous
 62
     7
100
AcDbCircle
 10
119.2916999321704
 20
121.3896231922215
 30
0.0
 40
0.9999992529251443
100
AcDbArc
 50
179.9999571957112
 51
270.0000428042839
  0
ARC
  5
2F7
330
1F
100
AcDbEntity
  8
0
  6
Continuous
 62
     7
100
AcDbCircle
 10
119.2916999321704
 20
209.3896246863717
 30
0.0
 40
0.9999992529251091
100
AcDbArc
 50
89.99995719571201
 51
180.0000428042855
  0
ARC
  5
2F8
330
1F
100
AcDbEntity
  8
0
  6
Continuous
 62
     7
100
AcDbCircle
 10
117.3860649321704
 20
212.3896246863718
 30
0.0
 40
0.9999992529250736
100
AcDbArc
 50
89.99995719571201
 51
180.0000428042871
  0
LINE
  5
2F9
330
1F
100
AcDbEntity
  8
0
  6
Continuous
 62
     7
100
AcDbLine
 10
226.2625606792453
 20
213.1396239392968
 30
0.0
 11
226.2625606792453
 21
117.1396239392967
 31
0.0
  0
LINE
  5
2FA
330
1F
100
AcDbEntity
  8
0
  6
Continuous
 62
     7
100
AcDbLine
 10
162.2917006792452
 20
209.3896239392964
 30
0.0
 11
162.2917006792452
 21
121.3896239392967
 31
0.0
  0
LINE
  5
2FB
330
1F
100
AcDbEntity
  8
0
  6
Continuous
 62
     7
100
AcDbLine
 10
164.3860656792455
 20
212.3896239392967
 30
0.0
 11
164.3860656792455
 21
118.3896239392967
 31
0.0
  0
LINE
  5
2FC
330
1F
100
AcDbEntity
  8
0
  6
Continuous
 62
     7
100
AcDbLine
 10
219.2625606792454
 20
212.1396239392967
 30
0.0
 11
219.2625606792454
 21
118.1396239392968
 31
0.0
  0
LINE
  5
2FD
330
1F
100
AcDbEntity
  8
0
  6
Continuous
 62
     7
100
AcDbLine
 10
222.2625606792454
 20
213.1396239392968
 30
0.0
 11
222.2625606792454
 21
117.1396239392967
 31
0.0
  0
ARC
  5
2FE
330
1F
100
AcDbEntity
  8
0
  6
Continuous
 62
     7
100
AcDbCircle
 10
153.8917006792456
 20
139.0008958410396
 30
0.0
 40
1.799999070851626
100
AcDbArc
 50
44.9999571957139
 51
135.0000428042866
  0
ARC
  5
2FF
330
1F
100
AcDbEntity
  8
0
  6
Continuous
 62
     7
100
AcDbCircle
 10
153.8917006792455
 20
136.3896239392967
 30
0.0
 40
5.499999999999933
100
AcDbArc
 50
0.0
 51
180.0
  0
ARC
  5
300
330
1F
100
AcDbEntity
  8
0
  6
Continuous
 62
     7
100
AcDbCircle
 10
140.2917006792454
 20
138.8978445910399
 30
0.0
 40
1.799999070851626
100
AcDbArc
 50
44.9999571957139
 51
135.0000428042866
  0
ARC
  5
301
330
1F
100
AcDbEntity
  8
0
  6
Continuous
 62
     7
100
AcDbCircle
 10
126.6917006792454
 20
139.0008958410396
 30
0.0
 40
1.799999070851563
100
AcDbArc
 50
44.99995719571333
 51
135.0000428042866
  0
ARC
  5
302
330
1F
100
AcDbEntity
  8
0
  6
Continuous
 62
     7
100
AcDbCircle
 10
140.2917006792454
 20
136.2865733142963
 30
0.0
 40
5.500000000000023
100
AcDbArc
 50
0.0000065108838711
 51
180.0000065108838
  0
ARC
  5
303
330
1F
100
AcDbEntity
  8
0
  6
Continuous
 62
     7
100
AcDbCircle
 10
153.8917006792456
 20
132.7783520375534
 30
0.0
 40
1.799999070851638
100
AcDbArc
 50
224.9999571957133
 51
315.0000428042861
  0
ARC
  5
304
330
1F
100
AcDbEntity
  8
0
  6
Continuous
 62
     7
100
AcDbCircle
 10
153.8917006792455
 20
128.3896245642965
 30
0.0
 40
5.499999999999968
100
AcDbArc
 50
180.0000065108855
 51
0.0000065108838711
  0
LINE
  5
305
330
1F
100
AcDbEntity
  8
0
  6
Continuous
 62
     7
100
AcDbLine
 10
135.9076394292454
 20
137.0593651892968
 30
0.0
 11
139.0189094292455
 21
140.1706351892963
 31
0.0
  0
LINE
  5
306
330
1F
100
AcDbEntity
  8
0
  6
Continuous
 62
     7
100
AcDbLine
 10
135.9076394292454
 20
134.5137801892968
 30
0.0
 11
139.0189094292455
 21
131.4025101892964
 31
0.0
  0
ARC
  5
307
330
1F
100
AcDbEntity
  8
0
  6
Continuous
 62
     7
100
AcDbCircle
 10
140.2917006792454
 20
128.2865733142967
 30
0.0
 40
5.500000000000023
100
AcDbArc
 50
180.0000065108838
 51
0.0000065108838711
  0
LINE
  5
308
330
1F
100
AcDbEntity
  8
0
  6
Continuous
 62
     7
100
AcDbLine
 10
134.7917006792454
 20
136.2865726892964
 30
0.0
 11
134.7917006792454
 21
128.2865726892964
 31
0.0
  0
LINE
  5
309
330
1F
100
AcDbEntity
  8
0
  6
Continuous
 62
     7
100
AcDbLine
 10
132.1917006792454
 20
136.3896239392967
 30
0.0
 11
132.1917006792454
 21
128.3896239392967
 31
0.0
  0
LINE
  5
30A
330
1F
100
AcDbEntity
  8
0
  6
Continuous
 62
     7
100
AcDbLine
 10
127.9644931792454
 20
140.2736851892967
 30
0.0
 11
131.0757631792456
 21
137.1624164392964
 31
0.0
  0
LINE
  5
30B
330
1F
100
AcDbEntity
  8
0
  6
Continuous
 62
     7
100
AcDbLine
 10
127.9644931792454
 20
131.5055614392967
 30
0.0
 11
131.0757631792456
 21
134.6168314392967
 31
0.0
  0
LINE
  5
30C
330
1F
100
AcDbEntity
  8
0
  6
Continuous
 62
     7
100
AcDbLine
 10
122.3076394292454
 20
134.6168314392967
 30
0.0
 11
125.4189094292454
 21
131.5055614392967
 31
0.0
  0
ARC
  5
30D
330
1F
100
AcDbEntity
  8
0
  6
Continuous
 62
     7
100
AcDbCircle
 10
126.6917006792454
 20
132.7783520375533
 30
0.0
 40
1.799999070851563
100
AcDbArc
 50
224.9999571957121
 51
315.0000428042866
  0
LINE
  5
30E
330
1F
100
AcDbEntity
  8
0
  6
Continuous
 62
     7
100
AcDbLine
 10
122.3076394292454
 20
137.1624164392964
 30
0.0
 11
125.4189094292454
 21
140.2736851892967
 31
0.0
  0
ARC
  5
30F
330
1F
100
AcDbEntity
  8
0
  6
Continuous
 62
     7
100
AcDbCircle
 10
123.5804300275022
 20
135.8896239392967
 30
0.0
 40
1.799999070851538
100
AcDbArc
 50
134.9999571957132
 51
225.0000428042871
  0
ARC
  5
310
330
1F
100
AcDbEntity
  8
0
  6
Continuous
 62
     7
100
AcDbCircle
 10
129.802972580989
 20
135.8896239392967
 30
0.0
 40
1.799999070851563
100
AcDbArc
 50
314.9999571957128
 51
45.00004280428668
  0
ARC
  5
311
330
1F
100
AcDbEntity
  8
0
  6
Continuous
 62
     7
100
AcDbCircle
 10
137.1804300275022
 20
135.7865726892968
 30
0.0
 40
1.79999907085159
100
AcDbArc
 50
134.9999571957132
 51
225.0000428042871
  0
LINE
  5
312
330
1F
100
AcDbEntity
  8
0
  6
Continuous
 62
     7
100
AcDbLine
 10
145.7917006792456
 20
136.2865726892964
 30
0.0
 11
145.7917006792456
 21
128.2865726892964
 31
0.0
  0
LINE
  5
313
330
1F
100
AcDbEntity
  8
0
  6
Continuous
 62
     7
100
AcDbLine
 10
148.3917006792454
 20
136.3896239392967
 30
0.0
 11
148.3917006792454
 21
128.3896239392967
 31
0.0
  0
LINE
  5
314
330
1F
100
AcDbEntity
  8
0
  6
Continuous
 62
     7
100
AcDbLine
 10
141.5644931792454
 20
131.4025101892964
 30
0.0
 11
144.6757631792454
 21
134.5137801892968
 31
0.0
  0
ARC
  5
315
330
1F
100
AcDbEntity
  8
0
  6
Continuous
 62
     7
100
AcDbCircle
 10
140.2917006792454
 20
132.6753007875531
 30
0.0
 40
1.799999070851638
100
AcDbArc
 50
224.9999571957133
 51
315.0000428042861
  0
LINE
  5
316
330
1F
100
AcDbEntity
  8
0
  6
Continuous
 62
     7
100
AcDbLine
 10
141.5644931792454
 20
140.1706351892963
 30
0.0
 11
144.6757631792454
 21
137.0593651892968
 31
0.0
  0
ARC
  5
317
330
1F
100
AcDbEntity
  8
0
  6
Continuous
 62
     7
100
AcDbCircle
 10
143.402972580989
 20
135.7865726892968
 30
0.0
 40
1.79999907085161
100
AcDbArc
 50
314.9999571957128
 51
45.00004280428668
  0
LINE
  5
318
330
1F
100
AcDbEntity
  8
0
  6
Continuous
 62
     7
100
AcDbLine
 10
149.5076394292454
 20
134.6168314392967
 30
0.0
 11
152.6189094292455
 21
131.5055614392967
 31
0.0
  0
LINE
  5
319
330
1F
100
AcDbEntity
  8
0
  6
Continuous
 62
     7
100
AcDbLine
 10
149.5076394292454
 20
137.1624164392964
 30
0.0
 11
152.6189094292455
 21
140.2736851892967
 31
0.0
  0
ARC
  5
31A
330
1F
100
AcDbEntity
  8
0
  6
Continuous
 62
     7
100
AcDbCircle
 10
150.780430027502
 20
135.8896239392967
 30
0.0
 40
1.799999070851538
100
AcDbArc
 50
134.9999571957132
 51
225.0000428042871
  0
LINE
  5
31B
330
1F
100
AcDbEntity
  8
0
  6
Continuous
 62
     7
100
AcDbLine
 10
159.3917006792455
 20
136.3896239392967
 30
0.0
 11
159.3917006792455
 21
128.3896239392967
 31
0.0
  0
ARC
  5
31C
330
1F
100
AcDbEntity
  8
0
  6
Continuous
 62
     7
100
AcDbCircle
 10
161.2917014263206
 20
121.3896231922215
 30
0.0
 40
0.9999992529251803
100
AcDbArc
 50
269.999957195716
 51
0.0000428042888088
  0
ARC
  5
31D
330
1F
100
AcDbEntity
  8
0
  6
Continuous
 62
     7
100
AcDbCircle
 10
163.3860664263204
 20
118.3896231922215
 30
0.0
 40
0.9999992529252159
100
AcDbArc
 50
269.9999571957111
 51
0.0000428042855519
  0
LINE
  5
31E
330
1F
100
AcDbEntity
  8
0
  6
Continuous
 62
     7
100
AcDbLine
 10
155.1644931792456
 20
131.5055614392967
 30
0.0
 11
158.2757631792454
 21
134.6168314392967
 31
0.0
  0
LINE
  5
31F
330
1F
100
AcDbEntity
  8
0
  6
Continuous
 62
     7
100
AcDbLine
 10
155.1644931792456
 20
140.2736851892967
 30
0.0
 11
158.2757631792454
 21
137.1624164392964
 31
0.0
  0
ARC
  5
320
330
1F
100
AcDbEntity
  8
0
  6
Continuous
 62
     7
100
AcDbCircle
 10
157.002972580989
 20
135.8896239392967
 30
0.0
 40
1.799999070851563
100
AcDbArc
 50
314.9999571957128
 51
45.00004280428668
  0
LINE
  5
321
330
1F
100
AcDbEntity
  8
0
  6
Continuous
 62
     7
100
AcDbLine
 10
153.4968619292456
 20
175.3476551892966
 30
0.0
 11
154.1492256792454
 21
174.6357251892966
 31
0.0
  0
LINE
  5
322
330
1F
100
AcDbEntity
  8
0
  6
Continuous
 62
     7
100
AcDbLine
 10
153.7266194292454
 20
177.9737951892964
 30
0.0
 11
154.2823719292455
 21
178.4830476892964
 31
0.0
  0
LINE
  5
323
330
1F
100
AcDbEntity
  8
0
  6
Continuous
 62
     7
100
AcDbLine
 10
154.0796944292454
 20
178.7042314392966
 30
0.0
 11
153.6300081792455
 21
179.1949776892966
 31
0.0
  0
LINE
  5
324
330
1F
100
AcDbEntity
  8
0
  6
Continuous
 62
     7
100
AcDbLine
 10
153.523943179245
 20
178.1949776892966
 30
0.0
 11
154.0796944292454
 21
178.7042314392966
 31
0.0
  0
LINE
  5
325
330
1F
100
AcDbEntity
  8
0
  6
Continuous
 62
     7
100
AcDbLine
 10
154.3008781792455
 20
178.9069076892968
 30
0.0
 11
153.8511906792454
 21
179.3976551892966
 31
0.0
  0
LINE
  5
326
330
1F
100
AcDbEntity
  8
0
  6
Continuous
 62
     7
100
AcDbLine
 10
151.1550644292455
 20
183.2449776892966
 30
0.0
 11
154.3912394292455
 21
183.2449776892966
 31
0.0
  0
CIRCLE
  5
327
330
1F
100
AcDbEntity
  8
0
  6
Continuous
 62
     7
100
AcDbCircle
 10
154.4343668587476
 20
173.2949776187988
 30
0.0
 40
0.5500000704979488
  0
CIRCLE
  5
328
330
1F
100
AcDbEntity
  8
0
  6
Continuous
 62
     7
100
AcDbCircle
 10
151.2916999101777
 20
159.3381456702291
 30
0.0
 40
6.000000769067574
  0
LINE
  5
329
330
1F
100
AcDbEntity
  8
0
  6
Continuous
 62
     7
100
AcDbLine
 10
153.8511906792454
 20
179.3976551892966
 30
0.0
 11
154.0809481792454
 21
182.0237951892968
 31
0.0
  0
LINE
  5
32A
330
1F
100
AcDbEntity
  8
0
  6
Continuous
 62
     7
100
AcDbLine
 10
153.8782719292455
 20
182.2449776892968
 30
0.0
 11
154.6552069292449
 21
182.9569076892964
 31
0.0
  0
LINE
  5
32B
330
1F
100
AcDbEntity
  8
0
  6
Continuous
 62
     7
100
AcDbLine
 10
155.7917006792454
 20
159.3844764392964
 30
0.0
 11
153.3575681792449
 21
158.7322514392968
 31
0.0
  0
LINE
  5
32C
330
1F
100
AcDbEntity
  8
0
  6
Continuous
 62
     7
100
AcDbLine
 10
154.3658844292454
 20
157.8843314392968
 30
0.0
 11
153.6370931792456
 21
157.6890514392968
 31
0.0
  0
ARC
  5
32D
330
1F
100
AcDbEntity
  8
0
  6
Continuous
 62
     7
100
AcDbCircle
 10
151.2917007226076
 20
159.3844755530798
 30
0.0
 40
4.499999956638395
100
AcDbArc
 50
193.9216653027836
 51
0.0000271991558815
  0
ARC
  5
32E
330
1F
100
AcDbEntity
  8
0
  6
Continuous
 62
     7
100
AcDbCircle
 10
151.2917008703919
 20
159.3844782104368
 30
0.0
 40
3.420000273623391
100
AcDbArc
 50
193.5811385660285
 51
333.9785657021918
  0
ARC
  5
32F
330
1F
100
AcDbEntity
  8
0
  6
Continuous
 62
     7
100
AcDbCircle
 10
151.2917004880988
 20
159.3844746681565
 30
0.0
 40
3.420000273623521
100
AcDbArc
 50
13.58113856602858
 51
153.9785657021905
  0
ARC
  5
330
330
1F
100
AcDbEntity
  8
0
  6
Continuous
 62
     7
100
AcDbCircle
 10
151.2917005595769
 20
159.3844779505134
 30
0.0
 40
4.499999880331584
100
AcDbArc
 50
13.92165734503793
 51
180.0000192414091
  0
LINE
  5
331
330
1F
100
AcDbEntity
  8
0
  6
Continuous
 62
     7
100
AcDbLine
 10
153.6370931792456
 20
157.6890514392968
 30
0.0
 11
153.3575681792449
 21
158.7322514392968
 31
0.0
  0
LINE
  5
332
330
1F
100
AcDbEntity
  8
0
  6
Continuous
 62
     7
100
AcDbLine
 10
148.2175181792455
 20
160.8846201892967
 30
0.0
 11
148.9463094292455
 21
161.0799001892968
 31
0.0
  0
LINE
  5
333
330
1F
100
AcDbEntity
  8
0
  6
Continuous
 62
     7
100
AcDbLine
 10
146.9238869292454
 20
158.3017964392966
 30
0.0
 11
147.9673294292455
 21
158.5813864392964
 31
0.0
  0
LINE
  5
334
330
1F
100
AcDbEntity
  8
0
  6
Continuous
 62
     7
100
AcDbLine
 10
146.7917006792456
 20
159.3844764392964
 30
0.0
 11
149.2258344292454
 21
160.0367001892966
 31
0.0
  0
LINE
  5
335
330
1F
100
AcDbEntity
  8
0
  6
Continuous
 62
     7
100
AcDbLine
 10
148.9463094292455
 20
161.0799001892968
 30
0.0
 11
149.2258344292454
 21
160.0367001892966
 31
0.0
  0
LINE
  5
336
330
1F
100
AcDbEntity
  8
0
  6
Continuous
 62
     7
100
AcDbLine
 10
135.5387269292454
 20
178.1949776892966
 30
0.0
 11
137.9239431792452
 21
178.1949776892966
 31
0.0
  0
LINE
  5
337
330
1F
100
AcDbEntity
  8
0
  6
Continuous
 62
     7
100
AcDbLine
 10
135.2904631792454
 20
175.1449776892966
 30
0.0
 11
137.6756794292455
 21
175.1449776892966
 31
0.0
  0
LINE
  5
338
330
1F
100
AcDbEntity
  8
0
  6
Continuous
 62
     7
100
AcDbLine
 10
135.5550644292454
 20
183.2449776892966
 30
0.0
 11
138.7912394292454
 21
183.2449776892966
 31
0.0
  0
LINE
  5
339
330
1F
100
AcDbEntity
  8
0
  6
Continuous
 62
     7
100
AcDbLine
 10
135.6447919292456
 20
179.1949776892966
 30
0.0
 11
138.0300081792455
 21
179.1949776892966
 31
0.0
  0
LINE
  5
33A
330
1F
100
AcDbEntity
  8
0
  6
Continuous
 62
     7
100
AcDbLine
 10
135.8930556792455
 20
182.2449776892968
 30
0.0
 11
138.2782719292454
 21
182.2449776892968
 31
0.0
  0
LINE
  5
33B
330
1F
100
AcDbEntity
  8
0
  6
Continuous
 62
     7
100
AcDbLine
 10
134.7774944292456
 20
174.1449776892967
 30
0.0
 11
138.0136694292454
 21
174.1449776892967
 31
0.0
  0
LINE
  5
33C
330
1F
100
AcDbEntity
  8
0
  6
Continuous
 62
     7
100
AcDbLine
 10
131.0635994292455
 20
174.9237951892968
 30
0.0
 11
131.3320581792456
 21
177.9923001892964
 31
0.0
  0
LINE
  5
33D
330
1F
100
AcDbEntity
  8
0
  6
Continuous
 62
     7
100
AcDbLine
 10
129.8756794292456
 20
175.1449776892966
 30
0.0
 11
130.5280431792456
 21
174.4330476892966
 31
0.0
  0
LINE
  5
33E
330
1F
100
AcDbEntity
  8
0
  6
Continuous
 62
     7
100
AcDbLine
 10
130.0968619292454
 20
175.3476551892966
 30
0.0
 11
130.7492256792456
 21
174.6357251892966
 31
0.0
  0
LINE
  5
33F
330
1F
100
AcDbEntity
  8
0
  6
Continuous
 62
     7
100
AcDbLine
 10
126.2468831792454
 20
174.9423001892966
 30
0.0
 11
126.5121044292454
 21
177.9737951892964
 31
0.0
  0
LINE
  5
340
330
1F
100
AcDbEntity
  8
0
  6
Continuous
 62
     7
100
AcDbLine
 10
126.5108506792452
 20
174.6542314392968
 30
0.0
 11
127.2877856792454
 21
175.3661614392964
 31
0.0
  0
LINE
  5
341
330
1F
100
AcDbEntity
  8
0
  6
Continuous
 62
     7
100
AcDbLine
 10
126.7135269292454
 20
174.4330476892966
 30
0.0
 11
127.4904631792455
 21
175.1449776892966
 31
0.0
  0
LINE
  5
342
330
1F
100
AcDbEntity
  8
0
  6
Continuous
 62
     7
100
AcDbLine
 10
134.5135269292454
 20
174.4330476892966
 30
0.0
 11
135.2904631792454
 21
175.1449776892966
 31
0.0
  0
LINE
  5
343
330
1F
100
AcDbEntity
  8
0
  6
Continuous
 62
     7
100
AcDbLine
 10
134.3108506792449
 20
174.6542314392968
 30
0.0
 11
135.0877856792454
 21
175.3661614392964
 31
0.0
  0
LINE
  5
344
330
1F
100
AcDbEntity
  8
0
  6
Continuous
 62
     7
100
AcDbLine
 10
134.0468831792454
 20
174.9423001892966
 30
0.0
 11
134.3121044292455
 21
177.9737951892964
 31
0.0
  0
LINE
  5
345
330
1F
100
AcDbEntity
  8
0
  6
Continuous
 62
     7
100
AcDbLine
 10
126.9774944292455
 20
174.1449776892967
 30
0.0
 11
130.2136694292455
 21
174.1449776892967
 31
0.0
  0
LINE
  5
346
330
1F
100
AcDbEntity
  8
0
  6
Continuous
 62
     7
100
AcDbLine
 10
126.9774944292455
 20
174.1449776892967
 30
0.0
 11
126.7135269292454
 21
174.4330476892966
 31
0.0
  0
LINE
  5
347
330
1F
100
AcDbEntity
  8
0
  6
Continuous
 62
     7
100
AcDbLine
 10
126.5108506792452
 20
174.6542314392968
 30
0.0
 11
126.2468831792454
 21
174.9423001892966
 31
0.0
  0
LINE
  5
348
330
1F
100
AcDbEntity
  8
0
  6
Continuous
 62
     7
100
AcDbLine
 10
130.7492256792456
 20
174.6357251892966
 30
0.0
 11
131.0635994292455
 21
174.9237951892968
 31
0.0
  0
LINE
  5
349
330
1F
100
AcDbEntity
  8
0
  6
Continuous
 62
     7
100
AcDbLine
 10
130.2136694292455
 20
174.1449776892967
 30
0.0
 11
130.5280431792456
 21
174.4330476892966
 31
0.0
  0
CIRCLE
  5
34A
330
1F
100
AcDbEntity
  8
0
  6
Continuous
 62
     7
100
AcDbCircle
 10
131.0343668587476
 20
173.2949776187988
 30
0.0
 40
0.5500000704979488
  0
LINE
  5
34B
330
1F
100
AcDbEntity
  8
0
  6
Continuous
 62
     7
100
AcDbLine
 10
134.3108506792449
 20
174.6542314392968
 30
0.0
 11
134.0468831792454
 21
174.9423001892966
 31
0.0
  0
LINE
  5
34C
330
1F
100
AcDbEntity
  8
0
  6
Continuous
 62
     7
100
AcDbLine
 10
134.7774944292456
 20
174.1449776892967
 30
0.0
 11
134.5135269292454
 21
174.4330476892966
 31
0.0
  0
LINE
  5
34D
330
1F
100
AcDbEntity
  8
0
  6
Continuous
 62
     7
100
AcDbLine
 10
128.0930556792454
 20
182.2449776892968
 30
0.0
 11
130.4782719292455
 21
182.2449776892968
 31
0.0
  0
LINE
  5
34E
330
1F
100
AcDbEntity
  8
0
  6
Continuous
 62
     7
100
AcDbLine
 10
127.8447919292454
 20
179.1949776892966
 30
0.0
 11
130.2300081792454
 21
179.1949776892966
 31
0.0
  0
LINE
  5
34F
330
1F
100
AcDbEntity
  8
0
  6
Continuous
 62
     7
100
AcDbLine
 10
127.7550644292456
 20
183.2449776892966
 30
0.0
 11
130.9912394292455
 21
183.2449776892966
 31
0.0
  0
LINE
  5
350
330
1F
100
AcDbEntity
  8
0
  6
Continuous
 62
     7
100
AcDbLine
 10
127.4904631792455
 20
175.1449776892966
 30
0.0
 11
129.8756794292456
 21
175.1449776892966
 31
0.0
  0
LINE
  5
351
330
1F
100
AcDbEntity
  8
0
  6
Continuous
 62
     7
100
AcDbLine
 10
127.7387269292454
 20
178.1949776892966
 30
0.0
 11
130.1239431792452
 21
178.1949776892966
 31
0.0
  0
LINE
  5
352
330
1F
100
AcDbEntity
  8
0
  6
Continuous
 62
     7
100
AcDbLine
 10
127.6421144292454
 20
179.4161614392966
 30
0.0
 11
127.8718719292454
 21
182.0423001892968
 31
0.0
  0
LINE
  5
353
330
1F
100
AcDbEntity
  8
0
  6
Continuous
 62
     7
100
AcDbLine
 10
126.6366756792454
 20
179.3976551892966
 30
0.0
 11
126.9051356792454
 21
182.4661614392964
 31
0.0
  0
LINE
  5
354
330
1F
100
AcDbEntity
  8
0
  6
Continuous
 62
     7
100
AcDbLine
 10
127.0678569292456
 20
178.4830476892964
 30
0.0
 11
126.5121044292454
 21
177.9737951892964
 31
0.0
  0
LINE
  5
355
330
1F
100
AcDbEntity
  8
0
  6
Continuous
 62
     7
100
AcDbLine
 10
127.2877856792454
 20
175.3661614392964
 30
0.0
 11
127.5175431792454
 21
177.9923001892964
 31
0.0
  0
LINE
  5
356
330
1F
100
AcDbEntity
  8
0
  6
Continuous
 62
     7
100
AcDbLine
 10
127.0863631792454
 20
178.9069076892968
 30
0.0
 11
126.6366756792454
 21
179.3976551892966
 31
0.0
  0
LINE
  5
357
330
1F
100
AcDbEntity
  8
0
  6
Continuous
 62
     7
100
AcDbLine
 10
127.5175431792454
 20
177.9923001892964
 30
0.0
 11
127.0678569292456
 21
178.4830476892964
 31
0.0
  0
LINE
  5
358
330
1F
100
AcDbEntity
  8
0
  6
Continuous
 62
     7
100
AcDbLine
 10
127.6421144292454
 20
179.4161614392966
 30
0.0
 11
127.0863631792454
 21
178.9069076892968
 31
0.0
  0
LINE
  5
359
330
1F
100
AcDbEntity
  8
0
  6
Continuous
 62
     7
100
AcDbLine
 10
127.8447919292454
 20
179.1949776892966
 30
0.0
 11
127.2890394292454
 21
178.6857251892966
 31
0.0
  0
LINE
  5
35A
330
1F
100
AcDbEntity
  8
0
  6
Continuous
 62
     7
100
AcDbLine
 10
127.7387269292454
 20
178.1949776892966
 30
0.0
 11
127.2890394292454
 21
178.6857251892966
 31
0.0
  0
LINE
  5
35B
330
1F
100
AcDbEntity
  8
0
  6
Continuous
 62
     7
100
AcDbLine
 10
126.9051356792454
 20
182.4661614392964
 30
0.0
 11
127.2195081792454
 21
182.7542314392968
 31
0.0
  0
LINE
  5
35C
330
1F
100
AcDbEntity
  8
0
  6
Continuous
 62
     7
100
AcDbLine
 10
127.4406919292454
 20
182.9569076892964
 30
0.0
 11
127.7550644292456
 21
183.2449776892966
 31
0.0
  0
LINE
  5
35D
330
1F
100
AcDbEntity
  8
0
  6
Continuous
 62
     7
100
AcDbLine
 10
127.2195081792454
 20
182.7542314392968
 30
0.0
 11
127.8718719292454
 21
182.0423001892968
 31
0.0
  0
LINE
  5
35E
330
1F
100
AcDbEntity
  8
0
  6
Continuous
 62
     7
100
AcDbLine
 10
127.4406919292454
 20
182.9569076892964
 30
0.0
 11
128.0930556792454
 21
182.2449776892968
 31
0.0
  0
LINE
  5
35F
330
1F
100
AcDbEntity
  8
0
  6
Continuous
 62
     7
100
AcDbLine
 10
131.4566306792456
 20
179.4161614392966
 30
0.0
 11
131.7218519292455
 21
182.4476551892964
 31
0.0
  0
LINE
  5
360
330
1F
100
AcDbEntity
  8
0
  6
Continuous
 62
     7
100
AcDbLine
 10
130.4511906792454
 20
179.3976551892966
 30
0.0
 11
130.6809481792454
 21
182.0237951892968
 31
0.0
  0
LINE
  5
361
330
1F
100
AcDbEntity
  8
0
  6
Continuous
 62
     7
100
AcDbLine
 10
134.4366756792455
 20
179.3976551892966
 30
0.0
 11
134.7051356792455
 21
182.4661614392964
 31
0.0
  0
LINE
  5
362
330
1F
100
AcDbEntity
  8
0
  6
Continuous
 62
     7
100
AcDbLine
 10
135.4421144292454
 20
179.4161614392966
 30
0.0
 11
135.6718719292455
 21
182.0423001892968
 31
0.0
  0
LINE
  5
363
330
1F
100
AcDbEntity
  8
0
  6
Continuous
 62
     7
100
AcDbLine
 10
130.0968619292454
 20
175.3476551892966
 30
0.0
 11
130.3266194292454
 21
177.9737951892964
 31
0.0
  0
LINE
  5
364
330
1F
100
AcDbEntity
  8
0
  6
Continuous
 62
     7
100
AcDbLine
 10
130.1239431792452
 20
178.1949776892966
 30
0.0
 11
130.6796944292454
 21
178.7042314392966
 31
0.0
  0
LINE
  5
365
330
1F
100
AcDbEntity
  8
0
  6
Continuous
 62
     7
100
AcDbLine
 10
130.9008781792454
 20
178.9069076892968
 30
0.0
 11
131.4566306792456
 21
179.4161614392966
 31
0.0
  0
LINE
  5
366
330
1F
100
AcDbEntity
  8
0
  6
Continuous
 62
     7
100
AcDbLine
 10
131.3320581792456
 20
177.9923001892964
 30
0.0
 11
130.8823719292455
 21
178.4830476892964
 31
0.0
  0
LINE
  5
367
330
1F
100
AcDbEntity
  8
0
  6
Continuous
 62
     7
100
AcDbLine
 10
130.9008781792454
 20
178.9069076892968
 30
0.0
 11
130.4511906792454
 21
179.3976551892966
 31
0.0
  0
LINE
  5
368
330
1F
100
AcDbEntity
  8
0
  6
Continuous
 62
     7
100
AcDbLine
 10
130.6796944292454
 20
178.7042314392966
 30
0.0
 11
130.2300081792454
 21
179.1949776892966
 31
0.0
  0
LINE
  5
369
330
1F
100
AcDbEntity
  8
0
  6
Continuous
 62
     7
100
AcDbLine
 10
130.3266194292454
 20
177.9737951892964
 30
0.0
 11
130.8823719292455
 21
178.4830476892964
 31
0.0
  0
LINE
  5
36A
330
1F
100
AcDbEntity
  8
0
  6
Continuous
 62
     7
100
AcDbLine
 10
135.5387269292454
 20
178.1949776892966
 30
0.0
 11
135.0890394292455
 21
178.6857251892966
 31
0.0
  0
LINE
  5
36B
330
1F
100
AcDbEntity
  8
0
  6
Continuous
 62
     7
100
AcDbLine
 10
135.6447919292456
 20
179.1949776892966
 30
0.0
 11
135.0890394292455
 21
178.6857251892966
 31
0.0
  0
LINE
  5
36C
330
1F
100
AcDbEntity
  8
0
  6
Continuous
 62
     7
100
AcDbLine
 10
135.4421144292454
 20
179.4161614392966
 30
0.0
 11
134.8863631792454
 21
178.9069076892968
 31
0.0
  0
LINE
  5
36D
330
1F
100
AcDbEntity
  8
0
  6
Continuous
 62
     7
100
AcDbLine
 10
135.3175431792454
 20
177.9923001892964
 30
0.0
 11
134.8678569292454
 21
178.4830476892964
 31
0.0
  0
LINE
  5
36E
330
1F
100
AcDbEntity
  8
0
  6
Continuous
 62
     7
100
AcDbLine
 10
134.8863631792454
 20
178.9069076892968
 30
0.0
 11
134.4366756792455
 21
179.3976551892966
 31
0.0
  0
LINE
  5
36F
330
1F
100
AcDbEntity
  8
0
  6
Continuous
 62
     7
100
AcDbLine
 10
135.0877856792454
 20
175.3661614392964
 30
0.0
 11
135.3175431792454
 21
177.9923001892964
 31
0.0
  0
LINE
  5
370
330
1F
100
AcDbEntity
  8
0
  6
Continuous
 62
     7
100
AcDbLine
 10
134.8678569292454
 20
178.4830476892964
 30
0.0
 11
134.3121044292455
 21
177.9737951892964
 31
0.0
  0
LINE
  5
371
330
1F
100
AcDbEntity
  8
0
  6
Continuous
 62
     7
100
AcDbLine
 10
130.6809481792454
 20
182.0237951892968
 30
0.0
 11
131.4578844292455
 21
182.7357251892966
 31
0.0
  0
LINE
  5
372
330
1F
100
AcDbEntity
  8
0
  6
Continuous
 62
     7
100
AcDbLine
 10
130.9912394292455
 20
183.2449776892966
 30
0.0
 11
131.2552069292452
 21
182.9569076892964
 31
0.0
  0
LINE
  5
373
330
1F
100
AcDbEntity
  8
0
  6
Continuous
 62
     7
100
AcDbLine
 10
131.4578844292455
 20
182.7357251892966
 30
0.0
 11
131.7218519292455
 21
182.4476551892964
 31
0.0
  0
LINE
  5
374
330
1F
100
AcDbEntity
  8
0
  6
Continuous
 62
     7
100
AcDbLine
 10
130.4782719292455
 20
182.2449776892968
 30
0.0
 11
131.2552069292452
 21
182.9569076892964
 31
0.0
  0
LINE
  5
375
330
1F
100
AcDbEntity
  8
0
  6
Continuous
 62
     7
100
AcDbLine
 10
135.240691929245
 20
182.9569076892964
 30
0.0
 11
135.8930556792455
 21
182.2449776892968
 31
0.0
  0
LINE
  5
376
330
1F
100
AcDbEntity
  8
0
  6
Continuous
 62
     7
100
AcDbLine
 10
135.0195081792454
 20
182.7542314392968
 30
0.0
 11
135.6718719292455
 21
182.0423001892968
 31
0.0
  0
LINE
  5
377
330
1F
100
AcDbEntity
  8
0
  6
Continuous
 62
     7
100
AcDbLine
 10
135.240691929245
 20
182.9569076892964
 30
0.0
 11
135.5550644292454
 21
183.2449776892966
 31
0.0
  0
LINE
  5
378
330
1F
100
AcDbEntity
  8
0
  6
Continuous
 62
     7
100
AcDbLine
 10
134.7051356792455
 20
182.4661614392964
 30
0.0
 11
135.0195081792454
 21
182.7542314392968
 31
0.0
  0
LINE
  5
379
330
1F
100
AcDbEntity
  8
0
  6
Continuous
 62
     7
100
AcDbLine
 10
137.8968619292452
 20
175.3476551892966
 30
0.0
 11
138.5492256792455
 21
174.6357251892966
 31
0.0
  0
LINE
  5
37A
330
1F
100
AcDbEntity
  8
0
  6
Continuous
 62
     7
100
AcDbLine
 10
137.6756794292455
 20
175.1449776892966
 30
0.0
 11
138.3280431792454
 21
174.4330476892966
 31
0.0
  0
LINE
  5
37B
330
1F
100
AcDbEntity
  8
0
  6
Continuous
 62
     7
100
AcDbLine
 10
138.8635994292454
 20
174.9237951892968
 30
0.0
 11
139.1320581792454
 21
177.9923001892964
 31
0.0
  0
LINE
  5
37C
330
1F
100
AcDbEntity
  8
0
  6
Continuous
 62
     7
100
AcDbLine
 10
146.6635994292454
 20
174.9237951892968
 30
0.0
 11
146.9320581792455
 21
177.9923001892964
 31
0.0
  0
LINE
  5
37D
330
1F
100
AcDbEntity
  8
0
  6
Continuous
 62
     7
100
AcDbLine
 10
141.8468831792454
 20
174.9423001892966
 30
0.0
 11
142.1121044292454
 21
177.9737951892964
 31
0.0
  0
LINE
  5
37E
330
1F
100
AcDbEntity
  8
0
  6
Continuous
 62
     7
100
AcDbLine
 10
142.110850679245
 20
174.6542314392968
 30
0.0
 11
142.8877856792454
 21
175.3661614392964
 31
0.0
  0
LINE
  5
37F
330
1F
100
AcDbEntity
  8
0
  6
Continuous
 62
     7
100
AcDbLine
 10
145.4756794292455
 20
175.1449776892966
 30
0.0
 11
146.1280431792454
 21
174.4330476892966
 31
0.0
  0
LINE
  5
380
330
1F
100
AcDbEntity
  8
0
  6
Continuous
 62
     7
100
AcDbLine
 10
142.3135269292454
 20
174.4330476892966
 30
0.0
 11
143.0904631792454
 21
175.1449776892966
 31
0.0
  0
LINE
  5
381
330
1F
100
AcDbEntity
  8
0
  6
Continuous
 62
     7
100
AcDbLine
 10
145.6968619292455
 20
175.3476551892966
 30
0.0
 11
146.3492256792456
 21
174.6357251892966
 31
0.0
  0
LINE
  5
382
330
1F
100
AcDbEntity
  8
0
  6
Continuous
 62
     7
100
AcDbLine
 10
150.1135269292454
 20
174.4330476892966
 30
0.0
 11
150.8904631792455
 21
175.1449776892966
 31
0.0
  0
LINE
  5
383
330
1F
100
AcDbEntity
  8
0
  6
Continuous
 62
     7
100
AcDbLine
 10
153.2756794292454
 20
175.1449776892966
 30
0.0
 11
153.9280431792453
 21
174.4330476892966
 31
0.0
  0
LINE
  5
384
330
1F
100
AcDbEntity
  8
0
  6
Continuous
 62
     7
100
AcDbLine
 10
149.9108506792451
 20
174.6542314392968
 30
0.0
 11
150.6877856792454
 21
175.3661614392964
 31
0.0
  0
LINE
  5
385
330
1F
100
AcDbEntity
  8
0
  6
Continuous
 62
     7
100
AcDbLine
 10
149.6468831792455
 20
174.9423001892966
 30
0.0
 11
149.9121044292454
 21
177.9737951892964
 31
0.0
  0
LINE
  5
386
330
1F
100
AcDbEntity
  8
0
  6
Continuous
 62
     7
100
AcDbLine
 10
142.5774944292454
 20
174.1449776892967
 30
0.0
 11
145.8136694292455
 21
174.1449776892967
 31
0.0
  0
LINE
  5
387
330
1F
100
AcDbEntity
  8
0
  6
Continuous
 62
     7
100
AcDbLine
 10
138.0136694292454
 20
174.1449776892967
 30
0.0
 11
138.3280431792454
 21
174.4330476892966
 31
0.0
  0
LINE
  5
388
330
1F
100
AcDbEntity
  8
0
  6
Continuous
 62
     7
100
AcDbLine
 10
138.5492256792455
 20
174.6357251892966
 30
0.0
 11
138.8635994292454
 21
174.9237951892968
 31
0.0
  0
CIRCLE
  5
389
330
1F
100
AcDbEntity
  8
0
  6
Continuous
 62
     7
100
AcDbCircle
 10
138.8343668587475
 20
173.2949776187988
 30
0.0
 40
0.5500000704979488
  0
LINE
  5
38A
330
1F
100
AcDbEntity
  8
0
  6
Continuous
 62
     7
100
AcDbLine
 10
142.5774944292454
 20
174.1449776892967
 30
0.0
 11
142.3135269292454
 21
174.4330476892966
 31
0.0
  0
LINE
  5
38B
330
1F
100
AcDbEntity
  8
0
  6
Continuous
 62
     7
100
AcDbLine
 10
142.110850679245
 20
174.6542314392968
 30
0.0
 11
141.8468831792454
 21
174.9423001892966
 31
0.0
  0
LINE
  5
38C
330
1F
100
AcDbEntity
  8
0
  6
Continuous
 62
     7
100
AcDbLine
 10
149.9108506792451
 20
174.6542314392968
 30
0.0
 11
149.6468831792455
 21
174.9423001892966
 31
0.0
  0
LINE
  5
38D
330
1F
100
AcDbEntity
  8
0
  6
Continuous
 62
     7
100
AcDbLine
 10
146.3492256792456
 20
174.6357251892966
 30
0.0
 11
146.6635994292454
 21
174.9237951892968
 31
0.0
  0
LINE
  5
38E
330
1F
100
AcDbEntity
  8
0
  6
Continuous
 62
     7
100
AcDbLine
 10
145.8136694292455
 20
174.1449776892967
 30
0.0
 11
146.1280431792454
 21
174.4330476892966
 31
0.0
  0
CIRCLE
  5
38F
330
1F
100
AcDbEntity
  8
0
  6
Continuous
 62
     7
100
AcDbCircle
 10
146.6343668587476
 20
173.2949776187988
 30
0.0
 40
0.5500000704979488
  0
LINE
  5
390
330
1F
100
AcDbEntity
  8
0
  6
Continuous
 62
     7
100
AcDbLine
 10
150.3774944292455
 20
174.1449776892967
 30
0.0
 11
153.6136694292455
 21
174.1449776892967
 31
0.0
  0
LINE
  5
391
330
1F
100
AcDbEntity
  8
0
  6
Continuous
 62
     7
100
AcDbLine
 10
153.6136694292455
 20
174.1449776892967
 30
0.0
 11
153.9280431792453
 21
174.4330476892966
 31
0.0
  0
LINE
  5
392
330
1F
100
AcDbEntity
  8
0
  6
Continuous
 62
     7
100
AcDbLine
 10
150.3774944292455
 20
174.1449776892967
 30
0.0
 11
150.1135269292454
 21
174.4330476892966
 31
0.0
  0
LINE
  5
393
330
1F
100
AcDbEntity
  8
0
  6
Continuous
 62
     7
100
AcDbLine
 10
143.6930556792455
 20
182.2449776892968
 30
0.0
 11
146.0782719292454
 21
182.2449776892968
 31
0.0
  0
LINE
  5
394
330
1F
100
AcDbEntity
  8
0
  6
Continuous
 62
     7
100
AcDbLine
 10
143.4447919292455
 20
179.1949776892966
 30
0.0
 11
145.8300081792454
 21
179.1949776892966
 31
0.0
  0
LINE
  5
395
330
1F
100
AcDbEntity
  8
0
  6
Continuous
 62
     7
100
AcDbLine
 10
145.6968619292455
 20
175.3476551892966
 30
0.0
 11
145.9266194292454
 21
177.9737951892964
 31
0.0
  0
LINE
  5
396
330
1F
100
AcDbEntity
  8
0
  6
Continuous
 62
     7
100
AcDbLine
 10
143.3550644292454
 20
183.2449776892966
 30
0.0
 11
146.5912394292455
 21
183.2449776892966
 31
0.0
  0
LINE
  5
397
330
1F
100
AcDbEntity
  8
0
  6
Continuous
 62
     7
100
AcDbLine
 10
145.723943179245
 20
178.1949776892966
 30
0.0
 11
146.2796944292454
 21
178.7042314392966
 31
0.0
  0
LINE
  5
398
330
1F
100
AcDbEntity
  8
0
  6
Continuous
 62
     7
100
AcDbLine
 10
138.2511906792454
 20
179.3976551892966
 30
0.0
 11
138.4809481792454
 21
182.0237951892968
 31
0.0
  0
LINE
  5
399
330
1F
100
AcDbEntity
  8
0
  6
Continuous
 62
     7
100
AcDbLine
 10
139.2566306792454
 20
179.4161614392966
 30
0.0
 11
139.5218519292454
 21
182.4476551892964
 31
0.0
  0
LINE
  5
39A
330
1F
100
AcDbEntity
  8
0
  6
Continuous
 62
     7
100
AcDbLine
 10
143.2421144292455
 20
179.4161614392966
 30
0.0
 11
143.4718719292454
 21
182.0423001892968
 31
0.0
  0
LINE
  5
39B
330
1F
100
AcDbEntity
  8
0
  6
Continuous
 62
     7
100
AcDbLine
 10
142.2366756792456
 20
179.3976551892966
 30
0.0
 11
142.5051356792456
 21
182.4661614392964
 31
0.0
  0
LINE
  5
39C
330
1F
100
AcDbEntity
  8
0
  6
Continuous
 62
     7
100
AcDbLine
 10
138.1266194292454
 20
177.9737951892964
 30
0.0
 11
138.6823719292454
 21
178.4830476892964
 31
0.0
  0
LINE
  5
39D
330
1F
100
AcDbEntity
  8
0
  6
Continuous
 62
     7
100
AcDbLine
 10
138.4796944292454
 20
178.7042314392966
 30
0.0
 11
138.0300081792455
 21
179.1949776892966
 31
0.0
  0
LINE
  5
39E
330
1F
100
AcDbEntity
  8
0
  6
Continuous
 62
     7
100
AcDbLine
 10
138.7008781792454
 20
178.9069076892968
 30
0.0
 11
138.2511906792454
 21
179.3976551892966
 31
0.0
  0
LINE
  5
39F
330
1F
100
AcDbEntity
  8
0
  6
Continuous
 62
     7
100
AcDbLine
 10
139.1320581792454
 20
177.9923001892964
 30
0.0
 11
138.6823719292454
 21
178.4830476892964
 31
0.0
  0
LINE
  5
3A0
330
1F
100
AcDbEntity
  8
0
  6
Continuous
 62
     7
100
AcDbLine
 10
138.7008781792454
 20
178.9069076892968
 30
0.0
 11
139.2566306792454
 21
179.4161614392966
 31
0.0
  0
LINE
  5
3A1
330
1F
100
AcDbEntity
  8
0
  6
Continuous
 62
     7
100
AcDbLine
 10
137.9239431792452
 20
178.1949776892966
 30
0.0
 11
138.4796944292454
 21
178.7042314392966
 31
0.0
  0
LINE
  5
3A2
330
1F
100
AcDbEntity
  8
0
  6
Continuous
 62
     7
100
AcDbLine
 10
137.8968619292452
 20
175.3476551892966
 30
0.0
 11
138.1266194292454
 21
177.9737951892964
 31
0.0
  0
LINE
  5
3A3
330
1F
100
AcDbEntity
  8
0
  6
Continuous
 62
     7
100
AcDbLine
 10
143.0904631792454
 20
175.1449776892966
 30
0.0
 11
145.4756794292455
 21
175.1449776892966
 31
0.0
  0
LINE
  5
3A4
330
1F
100
AcDbEntity
  8
0
  6
Continuous
 62
     7
100
AcDbLine
 10
143.3387269292454
 20
178.1949776892966
 30
0.0
 11
145.723943179245
 21
178.1949776892966
 31
0.0
  0
LINE
  5
3A5
330
1F
100
AcDbEntity
  8
0
  6
Continuous
 62
     7
100
AcDbLine
 10
142.6678569292453
 20
178.4830476892964
 30
0.0
 11
142.1121044292454
 21
177.9737951892964
 31
0.0
  0
LINE
  5
3A6
330
1F
100
AcDbEntity
  8
0
  6
Continuous
 62
     7
100
AcDbLine
 10
142.8877856792454
 20
175.3661614392964
 30
0.0
 11
143.1175431792454
 21
177.9923001892964
 31
0.0
  0
LINE
  5
3A7
330
1F
100
AcDbEntity
  8
0
  6
Continuous
 62
     7
100
AcDbLine
 10
142.6863631792454
 20
178.9069076892968
 30
0.0
 11
142.2366756792456
 21
179.3976551892966
 31
0.0
  0
LINE
  5
3A8
330
1F
100
AcDbEntity
  8
0
  6
Continuous
 62
     7
100
AcDbLine
 10
143.1175431792454
 20
177.9923001892964
 30
0.0
 11
142.6678569292453
 21
178.4830476892964
 31
0.0
  0
LINE
  5
3A9
330
1F
100
AcDbEntity
  8
0
  6
Continuous
 62
     7
100
AcDbLine
 10
143.2421144292455
 20
179.4161614392966
 30
0.0
 11
142.6863631792454
 21
178.9069076892968
 31
0.0
  0
LINE
  5
3AA
330
1F
100
AcDbEntity
  8
0
  6
Continuous
 62
     7
100
AcDbLine
 10
143.4447919292455
 20
179.1949776892966
 30
0.0
 11
142.8890394292456
 21
178.6857251892966
 31
0.0
  0
LINE
  5
3AB
330
1F
100
AcDbEntity
  8
0
  6
Continuous
 62
     7
100
AcDbLine
 10
143.3387269292454
 20
178.1949776892966
 30
0.0
 11
142.8890394292456
 21
178.6857251892966
 31
0.0
  0
LINE
  5
3AC
330
1F
100
AcDbEntity
  8
0
  6
Continuous
 62
     7
100
AcDbLine
 10
138.2782719292454
 20
182.2449776892968
 30
0.0
 11
139.0552069292452
 21
182.9569076892964
 31
0.0
  0
LINE
  5
3AD
330
1F
100
AcDbEntity
  8
0
  6
Continuous
 62
     7
100
AcDbLine
 10
139.2578844292456
 20
182.7357251892966
 30
0.0
 11
139.5218519292454
 21
182.4476551892964
 31
0.0
  0
LINE
  5
3AE
330
1F
100
AcDbEntity
  8
0
  6
Continuous
 62
     7
100
AcDbLine
 10
138.7912394292454
 20
183.2449776892966
 30
0.0
 11
139.0552069292452
 21
182.9569076892964
 31
0.0
  0
LINE
  5
3AF
330
1F
100
AcDbEntity
  8
0
  6
Continuous
 62
     7
100
AcDbLine
 10
138.4809481792454
 20
182.0237951892968
 30
0.0
 11
139.2578844292456
 21
182.7357251892966
 31
0.0
  0
LINE
  5
3B0
330
1F
100
AcDbEntity
  8
0
  6
Continuous
 62
     7
100
AcDbLine
 10
142.5051356792456
 20
182.4661614392964
 30
0.0
 11
142.8195081792455
 21
182.7542314392968
 31
0.0
  0
LINE
  5
3B1
330
1F
100
AcDbEntity
  8
0
  6
Continuous
 62
     7
100
AcDbLine
 10
143.0406919292454
 20
182.9569076892964
 30
0.0
 11
143.3550644292454
 21
183.2449776892966
 31
0.0
  0
LINE
  5
3B2
330
1F
100
AcDbEntity
  8
0
  6
Continuous
 62
     7
100
AcDbLine
 10
142.8195081792455
 20
182.7542314392968
 30
0.0
 11
143.4718719292454
 21
182.0423001892968
 31
0.0
  0
LINE
  5
3B3
330
1F
100
AcDbEntity
  8
0
  6
Continuous
 62
     7
100
AcDbLine
 10
143.0406919292454
 20
182.9569076892964
 30
0.0
 11
143.6930556792455
 21
182.2449776892968
 31
0.0
  0
LINE
  5
3B4
330
1F
100
AcDbEntity
  8
0
  6
Continuous
 62
     7
100
AcDbLine
 10
147.0566306792455
 20
179.4161614392966
 30
0.0
 11
147.3218519292454
 21
182.4476551892964
 31
0.0
  0
LINE
  5
3B5
330
1F
100
AcDbEntity
  8
0
  6
Continuous
 62
     7
100
AcDbLine
 10
146.0511906792454
 20
179.3976551892966
 30
0.0
 11
146.2809481792454
 21
182.0237951892968
 31
0.0
  0
LINE
  5
3B6
330
1F
100
AcDbEntity
  8
0
  6
Continuous
 62
     7
100
AcDbLine
 10
150.0366756792455
 20
179.3976551892966
 30
0.0
 11
150.3051356792455
 21
182.4661614392964
 31
0.0
  0
LINE
  5
3B7
330
1F
100
AcDbEntity
  8
0
  6
Continuous
 62
     7
100
AcDbLine
 10
151.0421144292453
 20
179.4161614392966
 30
0.0
 11
151.2718719292454
 21
182.0423001892968
 31
0.0
  0
LINE
  5
3B8
330
1F
100
AcDbEntity
  8
0
  6
Continuous
 62
     7
100
AcDbLine
 10
146.5008781792453
 20
178.9069076892968
 30
0.0
 11
147.0566306792455
 21
179.4161614392966
 31
0.0
  0
LINE
  5
3B9
330
1F
100
AcDbEntity
  8
0
  6
Continuous
 62
     7
100
AcDbLine
 10
146.9320581792455
 20
177.9923001892964
 30
0.0
 11
146.4823719292454
 21
178.4830476892964
 31
0.0
  0
LINE
  5
3BA
330
1F
100
AcDbEntity
  8
0
  6
Continuous
 62
     7
100
AcDbLine
 10
146.5008781792453
 20
178.9069076892968
 30
0.0
 11
146.0511906792454
 21
179.3976551892966
 31
0.0
  0
LINE
  5
3BB
330
1F
100
AcDbEntity
  8
0
  6
Continuous
 62
     7
100
AcDbLine
 10
146.2796944292454
 20
178.7042314392966
 30
0.0
 11
145.8300081792454
 21
179.1949776892966
 31
0.0
  0
LINE
  5
3BC
330
1F
100
AcDbEntity
  8
0
  6
Continuous
 62
     7
100
AcDbLine
 10
145.9266194292454
 20
177.9737951892964
 30
0.0
 11
146.4823719292454
 21
178.4830476892964
 31
0.0
  0
LINE
  5
3BD
330
1F
100
AcDbEntity
  8
0
  6
Continuous
 62
     7
100
AcDbLine
 10
151.1387269292454
 20
178.1949776892966
 30
0.0
 11
150.6890394292454
 21
178.6857251892966
 31
0.0
  0
LINE
  5
3BE
330
1F
100
AcDbEntity
  8
0
  6
Continuous
 62
     7
100
AcDbLine
 10
151.2447919292456
 20
179.1949776892966
 30
0.0
 11
150.6890394292454
 21
178.6857251892966
 31
0.0
  0
LINE
  5
3BF
330
1F
100
AcDbEntity
  8
0
  6
Continuous
 62
     7
100
AcDbLine
 10
151.0421144292453
 20
179.4161614392966
 30
0.0
 11
150.4863631792455
 21
178.9069076892968
 31
0.0
  0
LINE
  5
3C0
330
1F
100
AcDbEntity
  8
0
  6
Continuous
 62
     7
100
AcDbLine
 10
150.9175431792454
 20
177.9923001892964
 30
0.0
 11
150.4678569292455
 21
178.4830476892964
 31
0.0
  0
LINE
  5
3C1
330
1F
100
AcDbEntity
  8
0
  6
Continuous
 62
     7
100
AcDbLine
 10
153.4968619292456
 20
175.3476551892966
 30
0.0
 11
153.7266194292454
 21
177.9737951892964
 31
0.0
  0
LINE
  5
3C2
330
1F
100
AcDbEntity
  8
0
  6
Continuous
 62
     7
100
AcDbLine
 10
150.4863631792455
 20
178.9069076892968
 30
0.0
 11
150.0366756792455
 21
179.3976551892966
 31
0.0
  0
LINE
  5
3C3
330
1F
100
AcDbEntity
  8
0
  6
Continuous
 62
     7
100
AcDbLine
 10
150.6877856792454
 20
175.3661614392964
 30
0.0
 11
150.9175431792454
 21
177.9923001892964
 31
0.0
  0
LINE
  5
3C4
330
1F
100
AcDbEntity
  8
0
  6
Continuous
 62
     7
100
AcDbLine
 10
150.4678569292455
 20
178.4830476892964
 30
0.0
 11
149.9121044292454
 21
177.9737951892964
 31
0.0
  0
LINE
  5
3C5
330
1F
100
AcDbEntity
  8
0
  6
Continuous
 62
     7
100
AcDbLine
 10
151.1387269292454
 20
178.1949776892966
 30
0.0
 11
153.523943179245
 21
178.1949776892966
 31
0.0
  0
LINE
  5
3C6
330
1F
100
AcDbEntity
  8
0
  6
Continuous
 62
     7
100
AcDbLine
 10
151.2447919292456
 20
179.1949776892966
 30
0.0
 11
153.6300081792455
 21
179.1949776892966
 31
0.0
  0
LINE
  5
3C7
330
1F
100
AcDbEntity
  8
0
  6
Continuous
 62
     7
100
AcDbLine
 10
150.8904631792455
 20
175.1449776892966
 30
0.0
 11
153.2756794292454
 21
175.1449776892966
 31
0.0
  0
LINE
  5
3C8
330
1F
100
AcDbEntity
  8
0
  6
Continuous
 62
     7
100
AcDbLine
 10
146.2809481792454
 20
182.0237951892968
 30
0.0
 11
147.0578844292455
 21
182.7357251892966
 31
0.0
  0
LINE
  5
3C9
330
1F
100
AcDbEntity
  8
0
  6
Continuous
 62
     7
100
AcDbLine
 10
146.5912394292455
 20
183.2449776892966
 30
0.0
 11
146.8552069292448
 21
182.9569076892964
 31
0.0
  0
LINE
  5
3CA
330
1F
100
AcDbEntity
  8
0
  6
Continuous
 62
     7
100
AcDbLine
 10
147.0578844292455
 20
182.7357251892966
 30
0.0
 11
147.3218519292454
 21
182.4476551892964
 31
0.0
  0
LINE
  5
3CB
330
1F
100
AcDbEntity
  8
0
  6
Continuous
 62
     7
100
AcDbLine
 10
146.0782719292454
 20
182.2449776892968
 30
0.0
 11
146.8552069292448
 21
182.9569076892964
 31
0.0
  0
LINE
  5
3CC
330
1F
100
AcDbEntity
  8
0
  6
Continuous
 62
     7
100
AcDbLine
 10
150.8406919292454
 20
182.9569076892964
 30
0.0
 11
151.4930556792454
 21
182.2449776892968
 31
0.0
  0
LINE
  5
3CD
330
1F
100
AcDbEntity
  8
0
  6
Continuous
 62
     7
100
AcDbLine
 10
150.6195081792454
 20
182.7542314392968
 30
0.0
 11
151.2718719292454
 21
182.0423001892968
 31
0.0
  0
LINE
  5
3CE
330
1F
100
AcDbEntity
  8
0
  6
Continuous
 62
     7
100
AcDbLine
 10
150.8406919292454
 20
182.9569076892964
 30
0.0
 11
151.1550644292455
 21
183.2449776892966
 31
0.0
  0
LINE
  5
3CF
330
1F
100
AcDbEntity
  8
0
  6
Continuous
 62
     7
100
AcDbLine
 10
150.3051356792455
 20
182.4661614392964
 30
0.0
 11
150.6195081792454
 21
182.7542314392968
 31
0.0
  0
LINE
  5
3D0
330
1F
100
AcDbEntity
  8
0
  6
Continuous
 62
     7
100
AcDbLine
 10
151.4930556792454
 20
182.2449776892968
 30
0.0
 11
153.8782719292455
 21
182.2449776892968
 31
0.0
  0
LINE
  5
3D1
330
1F
100
AcDbEntity
  8
0
  6
Continuous
 62
     7
100
AcDbLine
 10
157.2917006792454
 20
159.3381464392964
 30
0.0
 11
157.2917006792454
 21
159.3381464392964
 31
0.0
  0
LINE
  5
3D2
330
1F
100
AcDbEntity
  8
0
  6
Continuous
 62
     7
100
AcDbLine
 10
155.6595156792455
 20
160.4671551892965
 30
0.0
 11
154.6160731792454
 21
160.1875651892964
 31
0.0
  0
LINE
  5
3D3
330
1F
100
AcDbEntity
  8
0
  6
Continuous
 62
     7
100
AcDbLine
 10
154.4635994292455
 20
174.9237951892968
 30
0.0
 11
154.7320581792456
 21
177.9923001892964
 31
0.0
  0
LINE
  5
3D4
330
1F
100
AcDbEntity
  8
0
  6
Continuous
 62
     7
100
AcDbLine
 10
154.1492256792454
 20
174.6357251892966
 30
0.0
 11
154.4635994292455
 21
174.9237951892968
 31
0.0
  0
LINE
  5
3D5
330
1F
100
AcDbEntity
  8
0
  6
Continuous
 62
     7
100
AcDbLine
 10
154.8566306792454
 20
179.4161614392966
 30
0.0
 11
155.1218519292454
 21
182.4476551892964
 31
0.0
  0
LINE
  5
3D6
330
1F
100
AcDbEntity
  8
0
  6
Continuous
 62
     7
100
AcDbLine
 10
154.7320581792456
 20
177.9923001892964
 30
0.0
 11
154.2823719292455
 21
178.4830476892964
 31
0.0
  0
LINE
  5
3D7
330
1F
100
AcDbEntity
  8
0
  6
Continuous
 62
     7
100
AcDbLine
 10
154.3008781792455
 20
178.9069076892968
 30
0.0
 11
154.8566306792454
 21
179.4161614392966
 31
0.0
  0
LINE
  5
3D8
330
1F
100
AcDbEntity
  8
0
  6
Continuous
 62
     7
100
AcDbLine
 10
154.8578844292455
 20
182.7357251892966
 30
0.0
 11
155.1218519292454
 21
182.4476551892964
 31
0.0
  0
LINE
  5
3D9
330
1F
100
AcDbEntity
  8
0
  6
Continuous
 62
     7
100
AcDbLine
 10
154.3912394292455
 20
183.2449776892966
 30
0.0
 11
154.6552069292449
 21
182.9569076892964
 31
0.0
  0
LINE
  5
3DA
330
1F
100
AcDbEntity
  8
0
  6
Continuous
 62
     7
100
AcDbLine
 10
154.0809481792454
 20
182.0237951892968
 30
0.0
 11
154.8578844292455
 21
182.7357251892966
 31
0.0
  0
ARC
  5
3DB
330
1F
100
AcDbEntity
  8
0
  6
Continuous
 62
     7
100
AcDbCircle
 10
220.2625599321704
 20
118.1396231922215
 30
0.0
 40
0.9999992529251443
100
AcDbArc
 50
179.9999571957175
 51
270.000042804291
  0
LINE
  5
3DC
330
1F
100
AcDbEntity
  8
0
  6
DASHED
 62
     4
100
AcDbLine
 10
238.2560131792454
 20
119.7463289392967
 30
0.0
 11
238.3432781792456
 21
109.7467101892968
 31
0.0
  0
LINE
  5
3DD
330
1F
100
AcDbEntity
  8
0
  6
DASHED
 62
     4
100
AcDbLine
 10
236.2866319292455
 20
116.2290089392967
 30
0.0
 11
236.2560894292454
 21
119.7288751892968
 31
0.0
  0
LINE
  5
3DE
330
1F
100
AcDbEntity
  8
0
  6
DASHED
 62
     4
100
AcDbLine
 10
277.055079428742
 20
116.5847902469705
 30
0.0
 11
236.286631930945
 21
116.2290087445666
 31
0.0
  0
LINE
  5
3DF
330
1F
100
AcDbEntity
  8
0
  6
DASHED
 62
     4
100
AcDbLine
 10
247.3429355908173
 20
109.825247688525
 30
0.0
 11
238.3432781792456
 21
109.7467101892968
 31
0.0
  0
LINE
  5
3E0
330
1F
100
AcDbEntity
  8
0
  6
DASHED
 62
     4
100
AcDbLine
 10
248.3341706792455
 20
110.8339364392967
 30
0.0
 11
248.2861744292454
 21
116.3337276892967
 31
0.0
  0
LINE
  5
3E1
330
1F
100
AcDbEntity
  8
0
  6
DASHED
 62
     4
100
AcDbLine
 10
246.3342469292455
 20
110.8164839392967
 30
0.0
 11
246.2862506792454
 21
116.3162739392967
 31
0.0
  0
ARC
  5
3E2
330
1F
100
AcDbEntity
  8
0
  6
DASHED
 62
     4
100
AcDbCircle
 10
247.3342101828115
 20
110.8252094487685
 30
0.0
 40
0.9999998273470982
100
AcDbArc
 50
270.4999405500324
 51
0.5000261586070252
  0
ARC
  5
3E3
330
1F
100
AcDbEntity
  8
0
  6
DASHED
 62
     4
100
AcDbCircle
 10
247.3342086887174
 20
110.8252094357303
 30
0.0
 40
0.999999827347205
100
AcDbArc
 50
180.4999405500316
 51
270.5000261586062
  0
LINE
  5
3E4
330
1F
100
AcDbEntity
  8
0
  6
Continuous
 62
     7
100
AcDbLine
 10
222.2625606792454
 20
117.1396239392967
 30
0.0
 11
226.2625606792453
 21
117.1396239392967
 31
0.0
  0
LINE
  5
3E5
330
1F
100
AcDbEntity
  8
0
  6
Continuous
 62
     7
100
AcDbLine
 10
222.2625606792454
 20
117.1396239392967
 30
0.0
 11
220.2625606792456
 21
117.1396239392967
 31
0.0
  0
LINE
  5
3E6
330
1F
100
AcDbEntity
  8
0
  6
Continuous
 62
     7
100
AcDbLine
 10
153.8782724106349
 20
199.6449781706859
 30
0.0
 11
154.6552074106345
 21
200.3569081706859
 31
0.0
  0
LINE
  5
3E7
330
1F
100
AcDbEntity
  8
0
  6
Continuous
 62
     7
100
AcDbLine
 10
153.8511911606347
 20
196.797655670686
 30
0.0
 11
154.0809486606345
 21
199.4237956706859
 31
0.0
  0
LINE
  5
3E8
330
1F
100
AcDbEntity
  8
0
  6
Continuous
 62
     7
100
AcDbLine
 10
151.1550649106349
 20
200.6449781706859
 30
0.0
 11
154.3912399106345
 21
200.6449781706859
 31
0.0
  0
LINE
  5
3E9
330
1F
100
AcDbEntity
  8
0
  6
Continuous
 62
     7
100
AcDbLine
 10
154.3008786606349
 20
196.306908170686
 30
0.0
 11
153.8511911606347
 21
196.797655670686
 31
0.0
  0
LINE
  5
3EA
330
1F
100
AcDbEntity
  8
0
  6
Continuous
 62
     7
100
AcDbLine
 10
153.5239436606345
 20
195.5949781706859
 30
0.0
 11
154.0796949106344
 21
196.104231920686
 31
0.0
  0
LINE
  5
3EB
330
1F
100
AcDbEntity
  8
0
  6
Continuous
 62
     7
100
AcDbLine
 10
154.0796949106344
 20
196.104231920686
 30
0.0
 11
153.6300086606344
 21
196.5949781706859
 31
0.0
  0
LINE
  5
3EC
330
1F
100
AcDbEntity
  8
0
  6
Continuous
 62
     7
100
AcDbLine
 10
153.7266199106347
 20
195.3737956706859
 30
0.0
 11
154.2823724106346
 21
195.883048170686
 31
0.0
  0
LINE
  5
3ED
330
1F
100
AcDbEntity
  8
0
  6
Continuous
 62
     7
100
AcDbLine
 10
153.4968624106348
 20
192.7476556706859
 30
0.0
 11
154.1492261606348
 21
192.0357256706859
 31
0.0
  0
CIRCLE
  5
3EE
330
1F
100
AcDbEntity
  8
0
  6
Continuous
 62
     7
100
AcDbCircle
 10
154.4343673401369
 20
190.694978100188
 30
0.0
 40
0.5500000704979488
  0
LINE
  5
3EF
330
1F
100
AcDbEntity
  8
0
  6
Continuous
 62
     7
100
AcDbLine
 10
134.7774949106347
 20
191.5449781706859
 30
0.0
 11
138.0136699106347
 21
191.5449781706859
 31
0.0
  0
LINE
  5
3F0
330
1F
100
AcDbEntity
  8
0
  6
Continuous
 62
     7
100
AcDbLine
 10
135.8930561606344
 20
199.6449781706859
 30
0.0
 11
138.2782724106347
 21
199.6449781706859
 31
0.0
  0
LINE
  5
3F1
330
1F
100
AcDbEntity
  8
0
  6
Continuous
 62
     7
100
AcDbLine
 10
135.6447924106348
 20
196.5949781706859
 30
0.0
 11
138.0300086606347
 21
196.5949781706859
 31
0.0
  0
LINE
  5
3F2
330
1F
100
AcDbEntity
  8
0
  6
Continuous
 62
     7
100
AcDbLine
 10
135.5550649106348
 20
200.6449781706859
 30
0.0
 11
138.7912399106347
 21
200.6449781706859
 31
0.0
  0
LINE
  5
3F3
330
1F
100
AcDbEntity
  8
0
  6
Continuous
 62
     7
100
AcDbLine
 10
135.2904636606347
 20
192.5449781706859
 30
0.0
 11
137.6756799106348
 21
192.5449781706859
 31
0.0
  0
LINE
  5
3F4
330
1F
100
AcDbEntity
  8
0
  6
Continuous
 62
     7
100
AcDbLine
 10
135.5387274106347
 20
195.5949781706859
 30
0.0
 11
137.9239436606345
 21
195.5949781706859
 31
0.0
  0
LINE
  5
3F5
330
1F
100
AcDbEntity
  8
0
  6
Continuous
 62
     7
100
AcDbLine
 10
135.4421149106345
 20
196.816161920686
 30
0.0
 11
135.6718724106345
 21
199.442300670686
 31
0.0
  0
LINE
  5
3F6
330
1F
100
AcDbEntity
  8
0
  6
Continuous
 62
     7
100
AcDbLine
 10
134.4366761606348
 20
196.797655670686
 30
0.0
 11
134.7051361606347
 21
199.866161920686
 31
0.0
  0
LINE
  5
3F7
330
1F
100
AcDbEntity
  8
0
  6
Continuous
 62
     7
100
AcDbLine
 10
130.4511911606347
 20
196.797655670686
 30
0.0
 11
130.6809486606347
 21
199.4237956706859
 31
0.0
  0
LINE
  5
3F8
330
1F
100
AcDbEntity
  8
0
  6
Continuous
 62
     7
100
AcDbLine
 10
131.4566311606349
 20
196.816161920686
 30
0.0
 11
131.7218524106347
 21
199.8476556706859
 31
0.0
  0
LINE
  5
3F9
330
1F
100
AcDbEntity
  8
0
  6
Continuous
 62
     7
100
AcDbLine
 10
126.6366761606348
 20
196.797655670686
 30
0.0
 11
126.9051361606349
 21
199.866161920686
 31
0.0
  0
LINE
  5
3FA
330
1F
100
AcDbEntity
  8
0
  6
Continuous
 62
     7
100
AcDbLine
 10
127.6421149106347
 20
196.816161920686
 30
0.0
 11
127.8718724106347
 21
199.442300670686
 31
0.0
  0
LINE
  5
3FB
330
1F
100
AcDbEntity
  8
0
  6
Continuous
 62
     7
100
AcDbLine
 10
127.7387274106347
 20
195.5949781706859
 30
0.0
 11
130.1239436606344
 21
195.5949781706859
 31
0.0
  0
LINE
  5
3FC
330
1F
100
AcDbEntity
  8
0
  6
Continuous
 62
     7
100
AcDbLine
 10
127.4904636606347
 20
192.5449781706859
 30
0.0
 11
129.8756799106348
 21
192.5449781706859
 31
0.0
  0
LINE
  5
3FD
330
1F
100
AcDbEntity
  8
0
  6
Continuous
 62
     7
100
AcDbLine
 10
127.8447924106348
 20
196.5949781706859
 30
0.0
 11
130.2300086606344
 21
196.5949781706859
 31
0.0
  0
LINE
  5
3FE
330
1F
100
AcDbEntity
  8
0
  6
Continuous
 62
     7
100
AcDbLine
 10
126.9774949106348
 20
191.5449781706859
 30
0.0
 11
130.2136699106344
 21
191.5449781706859
 31
0.0
  0
LINE
  5
3FF
330
1F
100
AcDbEntity
  8
0
  6
Continuous
 62
     7
100
AcDbLine
 10
126.7135274106347
 20
191.833048170686
 30
0.0
 11
127.4904636606347
 21
192.5449781706859
 31
0.0
  0
LINE
  5
400
330
1F
100
AcDbEntity
  8
0
  6
Continuous
 62
     7
100
AcDbLine
 10
126.5108511606344
 20
192.0542319206861
 30
0.0
 11
127.2877861606347
 21
192.7661619206859
 31
0.0
  0
LINE
  5
401
330
1F
100
AcDbEntity
  8
0
  6
Continuous
 62
     7
100
AcDbLine
 10
126.2468836606347
 20
192.342300670686
 30
0.0
 11
126.5121049106347
 21
195.3737956706859
 31
0.0
  0
LINE
  5
402
330
1F
100
AcDbEntity
  8
0
  6
Continuous
 62
     7
100
AcDbLine
 10
126.5108511606344
 20
192.0542319206861
 30
0.0
 11
126.2468836606347
 21
192.342300670686
 31
0.0
  0
LINE
  5
403
330
1F
100
AcDbEntity
  8
0
  6
Continuous
 62
     7
100
AcDbLine
 10
126.9774949106348
 20
191.5449781706859
 30
0.0
 11
126.7135274106347
 21
191.833048170686
 31
0.0
  0
LINE
  5
404
330
1F
100
AcDbEntity
  8
0
  6
Continuous
 62
     7
100
AcDbLine
 10
127.7387274106347
 20
195.5949781706859
 30
0.0
 11
127.2890399106348
 21
196.0857256706859
 31
0.0
  0
LINE
  5
405
330
1F
100
AcDbEntity
  8
0
  6
Continuous
 62
     7
100
AcDbLine
 10
127.8447924106348
 20
196.5949781706859
 30
0.0
 11
127.2890399106348
 21
196.0857256706859
 31
0.0
  0
LINE
  5
406
330
1F
100
AcDbEntity
  8
0
  6
Continuous
 62
     7
100
AcDbLine
 10
127.6421149106347
 20
196.816161920686
 30
0.0
 11
127.0863636606347
 21
196.306908170686
 31
0.0
  0
LINE
  5
407
330
1F
100
AcDbEntity
  8
0
  6
Continuous
 62
     7
100
AcDbLine
 10
127.5175436606348
 20
195.3923006706859
 30
0.0
 11
127.0678574106349
 21
195.883048170686
 31
0.0
  0
LINE
  5
408
330
1F
100
AcDbEntity
  8
0
  6
Continuous
 62
     7
100
AcDbLine
 10
127.0863636606347
 20
196.306908170686
 30
0.0
 11
126.6366761606348
 21
196.797655670686
 31
0.0
  0
LINE
  5
409
330
1F
100
AcDbEntity
  8
0
  6
Continuous
 62
     7
100
AcDbLine
 10
127.2877861606347
 20
192.7661619206859
 30
0.0
 11
127.5175436606348
 21
195.3923006706859
 31
0.0
  0
LINE
  5
40A
330
1F
100
AcDbEntity
  8
0
  6
Continuous
 62
     7
100
AcDbLine
 10
127.0678574106349
 20
195.883048170686
 30
0.0
 11
126.5121049106347
 21
195.3737956706859
 31
0.0
  0
LINE
  5
40B
330
1F
100
AcDbEntity
  8
0
  6
Continuous
 62
     7
100
AcDbLine
 10
134.0468836606347
 20
192.342300670686
 30
0.0
 11
134.3121049106344
 21
195.3737956706859
 31
0.0
  0
LINE
  5
40C
330
1F
100
AcDbEntity
  8
0
  6
Continuous
 62
     7
100
AcDbLine
 10
134.3108511606341
 20
192.0542319206861
 30
0.0
 11
135.0877861606347
 21
192.7661619206859
 31
0.0
  0
LINE
  5
40D
330
1F
100
AcDbEntity
  8
0
  6
Continuous
 62
     7
100
AcDbLine
 10
134.5135274106347
 20
191.833048170686
 30
0.0
 11
135.2904636606347
 21
192.5449781706859
 31
0.0
  0
LINE
  5
40E
330
1F
100
AcDbEntity
  8
0
  6
Continuous
 62
     7
100
AcDbLine
 10
130.0968624106349
 20
192.7476556706859
 30
0.0
 11
130.7492261606348
 21
192.0357256706859
 31
0.0
  0
LINE
  5
40F
330
1F
100
AcDbEntity
  8
0
  6
Continuous
 62
     7
100
AcDbLine
 10
129.8756799106348
 20
192.5449781706859
 30
0.0
 11
130.5280436606348
 21
191.833048170686
 31
0.0
  0
LINE
  5
410
330
1F
100
AcDbEntity
  8
0
  6
Continuous
 62
     7
100
AcDbLine
 10
131.0635999106347
 20
192.3237956706859
 30
0.0
 11
131.3320586606347
 21
195.3923006706859
 31
0.0
  0
LINE
  5
411
330
1F
100
AcDbEntity
  8
0
  6
Continuous
 62
     7
100
AcDbLine
 10
130.2136699106344
 20
191.5449781706859
 30
0.0
 11
130.5280436606348
 21
191.833048170686
 31
0.0
  0
LINE
  5
412
330
1F
100
AcDbEntity
  8
0
  6
Continuous
 62
     7
100
AcDbLine
 10
130.7492261606348
 20
192.0357256706859
 30
0.0
 11
131.0635999106347
 21
192.3237956706859
 31
0.0
  0
CIRCLE
  5
413
330
1F
100
AcDbEntity
  8
0
  6
Continuous
 62
     7
100
AcDbCircle
 10
131.0343673401365
 20
190.694978100188
 30
0.0
 40
0.5500000704979488
  0
LINE
  5
414
330
1F
100
AcDbEntity
  8
0
  6
Continuous
 62
     7
100
AcDbLine
 10
134.7774949106347
 20
191.5449781706859
 30
0.0
 11
134.5135274106347
 21
191.833048170686
 31
0.0
  0
LINE
  5
415
330
1F
100
AcDbEntity
  8
0
  6
Continuous
 62
     7
100
AcDbLine
 10
134.3108511606341
 20
192.0542319206861
 30
0.0
 11
134.0468836606347
 21
192.342300670686
 31
0.0
  0
LINE
  5
416
330
1F
100
AcDbEntity
  8
0
  6
Continuous
 62
     7
100
AcDbLine
 10
130.3266199106347
 20
195.3737956706859
 30
0.0
 11
130.8823724106344
 21
195.883048170686
 31
0.0
  0
LINE
  5
417
330
1F
100
AcDbEntity
  8
0
  6
Continuous
 62
     7
100
AcDbLine
 10
130.6796949106348
 20
196.104231920686
 30
0.0
 11
130.2300086606344
 21
196.5949781706859
 31
0.0
  0
LINE
  5
418
330
1F
100
AcDbEntity
  8
0
  6
Continuous
 62
     7
100
AcDbLine
 10
130.9008786606349
 20
196.306908170686
 30
0.0
 11
130.4511911606347
 21
196.797655670686
 31
0.0
  0
LINE
  5
419
330
1F
100
AcDbEntity
  8
0
  6
Continuous
 62
     7
100
AcDbLine
 10
131.3320586606347
 20
195.3923006706859
 30
0.0
 11
130.8823724106344
 21
195.883048170686
 31
0.0
  0
LINE
  5
41A
330
1F
100
AcDbEntity
  8
0
  6
Continuous
 62
     7
100
AcDbLine
 10
130.9008786606349
 20
196.306908170686
 30
0.0
 11
131.4566311606349
 21
196.816161920686
 31
0.0
  0
LINE
  5
41B
330
1F
100
AcDbEntity
  8
0
  6
Continuous
 62
     7
100
AcDbLine
 10
130.1239436606344
 20
195.5949781706859
 30
0.0
 11
130.6796949106348
 21
196.104231920686
 31
0.0
  0
LINE
  5
41C
330
1F
100
AcDbEntity
  8
0
  6
Continuous
 62
     7
100
AcDbLine
 10
130.0968624106349
 20
192.7476556706859
 30
0.0
 11
130.3266199106347
 21
195.3737956706859
 31
0.0
  0
LINE
  5
41D
330
1F
100
AcDbEntity
  8
0
  6
Continuous
 62
     7
100
AcDbLine
 10
134.8678574106348
 20
195.883048170686
 30
0.0
 11
134.3121049106344
 21
195.3737956706859
 31
0.0
  0
LINE
  5
41E
330
1F
100
AcDbEntity
  8
0
  6
Continuous
 62
     7
100
AcDbLine
 10
135.0877861606347
 20
192.7661619206859
 30
0.0
 11
135.3175436606349
 21
195.3923006706859
 31
0.0
  0
LINE
  5
41F
330
1F
100
AcDbEntity
  8
0
  6
Continuous
 62
     7
100
AcDbLine
 10
134.8863636606347
 20
196.306908170686
 30
0.0
 11
134.4366761606348
 21
196.797655670686
 31
0.0
  0
LINE
  5
420
330
1F
100
AcDbEntity
  8
0
  6
Continuous
 62
     7
100
AcDbLine
 10
135.3175436606349
 20
195.3923006706859
 30
0.0
 11
134.8678574106348
 21
195.883048170686
 31
0.0
  0
LINE
  5
421
330
1F
100
AcDbEntity
  8
0
  6
Continuous
 62
     7
100
AcDbLine
 10
135.4421149106345
 20
196.816161920686
 30
0.0
 11
134.8863636606347
 21
196.306908170686
 31
0.0
  0
LINE
  5
422
330
1F
100
AcDbEntity
  8
0
  6
Continuous
 62
     7
100
AcDbLine
 10
135.6447924106348
 20
196.5949781706859
 30
0.0
 11
135.0890399106347
 21
196.0857256706859
 31
0.0
  0
LINE
  5
423
330
1F
100
AcDbEntity
  8
0
  6
Continuous
 62
     7
100
AcDbLine
 10
135.5387274106347
 20
195.5949781706859
 30
0.0
 11
135.0890399106347
 21
196.0857256706859
 31
0.0
  0
LINE
  5
424
330
1F
100
AcDbEntity
  8
0
  6
Continuous
 62
     7
100
AcDbLine
 10
127.7550649106347
 20
200.6449781706859
 30
0.0
 11
130.9912399106347
 21
200.6449781706859
 31
0.0
  0
LINE
  5
425
330
1F
100
AcDbEntity
  8
0
  6
Continuous
 62
     7
100
AcDbLine
 10
128.0930561606347
 20
199.6449781706859
 30
0.0
 11
130.4782724106348
 21
199.6449781706859
 31
0.0
  0
LINE
  5
426
330
1F
100
AcDbEntity
  8
0
  6
Continuous
 62
     7
100
AcDbLine
 10
127.4406924106347
 20
200.3569081706859
 30
0.0
 11
128.0930561606347
 21
199.6449781706859
 31
0.0
  0
LINE
  5
427
330
1F
100
AcDbEntity
  8
0
  6
Continuous
 62
     7
100
AcDbLine
 10
127.2195086606344
 20
200.1542319206861
 30
0.0
 11
127.8718724106347
 21
199.442300670686
 31
0.0
  0
LINE
  5
428
330
1F
100
AcDbEntity
  8
0
  6
Continuous
 62
     7
100
AcDbLine
 10
127.4406924106347
 20
200.3569081706859
 30
0.0
 11
127.7550649106347
 21
200.6449781706859
 31
0.0
  0
LINE
  5
429
330
1F
100
AcDbEntity
  8
0
  6
Continuous
 62
     7
100
AcDbLine
 10
126.9051361606349
 20
199.866161920686
 30
0.0
 11
127.2195086606344
 21
200.1542319206861
 31
0.0
  0
LINE
  5
42A
330
1F
100
AcDbEntity
  8
0
  6
Continuous
 62
     7
100
AcDbLine
 10
130.4782724106348
 20
199.6449781706859
 30
0.0
 11
131.2552074106345
 21
200.3569081706859
 31
0.0
  0
LINE
  5
42B
330
1F
100
AcDbEntity
  8
0
  6
Continuous
 62
     7
100
AcDbLine
 10
131.4578849106349
 20
200.1357256706859
 30
0.0
 11
131.7218524106347
 21
199.8476556706859
 31
0.0
  0
LINE
  5
42C
330
1F
100
AcDbEntity
  8
0
  6
Continuous
 62
     7
100
AcDbLine
 10
130.9912399106347
 20
200.6449781706859
 30
0.0
 11
131.2552074106345
 21
200.3569081706859
 31
0.0
  0
LINE
  5
42D
330
1F
100
AcDbEntity
  8
0
  6
Continuous
 62
     7
100
AcDbLine
 10
130.6809486606347
 20
199.4237956706859
 30
0.0
 11
131.4578849106349
 21
200.1357256706859
 31
0.0
  0
LINE
  5
42E
330
1F
100
AcDbEntity
  8
0
  6
Continuous
 62
     7
100
AcDbLine
 10
134.7051361606347
 20
199.866161920686
 30
0.0
 11
135.0195086606347
 21
200.1542319206861
 31
0.0
  0
LINE
  5
42F
330
1F
100
AcDbEntity
  8
0
  6
Continuous
 62
     7
100
AcDbLine
 10
135.2406924106347
 20
200.3569081706859
 30
0.0
 11
135.5550649106348
 21
200.6449781706859
 31
0.0
  0
LINE
  5
430
330
1F
100
AcDbEntity
  8
0
  6
Continuous
 62
     7
100
AcDbLine
 10
135.0195086606347
 20
200.1542319206861
 30
0.0
 11
135.6718724106345
 21
199.442300670686
 31
0.0
  0
LINE
  5
431
330
1F
100
AcDbEntity
  8
0
  6
Continuous
 62
     7
100
AcDbLine
 10
135.2406924106347
 20
200.3569081706859
 30
0.0
 11
135.8930561606344
 21
199.6449781706859
 31
0.0
  0
LINE
  5
432
330
1F
100
AcDbEntity
  8
0
  6
Continuous
 62
     7
100
AcDbLine
 10
151.0421149106347
 20
196.816161920686
 30
0.0
 11
151.2718724106347
 21
199.442300670686
 31
0.0
  0
LINE
  5
433
330
1F
100
AcDbEntity
  8
0
  6
Continuous
 62
     7
100
AcDbLine
 10
150.0366761606349
 20
196.797655670686
 30
0.0
 11
150.3051361606349
 21
199.866161920686
 31
0.0
  0
LINE
  5
434
330
1F
100
AcDbEntity
  8
0
  6
Continuous
 62
     7
100
AcDbLine
 10
146.0511911606347
 20
196.797655670686
 30
0.0
 11
146.2809486606347
 21
199.4237956706859
 31
0.0
  0
LINE
  5
435
330
1F
100
AcDbEntity
  8
0
  6
Continuous
 62
     7
100
AcDbLine
 10
147.0566311606345
 20
196.816161920686
 30
0.0
 11
147.3218524106349
 21
199.8476556706859
 31
0.0
  0
LINE
  5
436
330
1F
100
AcDbEntity
  8
0
  6
Continuous
 62
     7
100
AcDbLine
 10
142.2366761606348
 20
196.797655670686
 30
0.0
 11
142.5051361606348
 21
199.866161920686
 31
0.0
  0
LINE
  5
437
330
1F
100
AcDbEntity
  8
0
  6
Continuous
 62
     7
100
AcDbLine
 10
143.2421149106346
 20
196.816161920686
 30
0.0
 11
143.4718724106346
 21
199.442300670686
 31
0.0
  0
LINE
  5
438
330
1F
100
AcDbEntity
  8
0
  6
Continuous
 62
     7
100
AcDbLine
 10
139.2566311606348
 20
196.816161920686
 30
0.0
 11
139.5218524106349
 21
199.8476556706859
 31
0.0
  0
LINE
  5
439
330
1F
100
AcDbEntity
  8
0
  6
Continuous
 62
     7
100
AcDbLine
 10
138.2511911606347
 20
196.797655670686
 30
0.0
 11
138.4809486606347
 21
199.4237956706859
 31
0.0
  0
LINE
  5
43A
330
1F
100
AcDbEntity
  8
0
  6
Continuous
 62
     7
100
AcDbLine
 10
145.7239436606345
 20
195.5949781706859
 30
0.0
 11
146.2796949106347
 21
196.104231920686
 31
0.0
  0
LINE
  5
43B
330
1F
100
AcDbEntity
  8
0
  6
Continuous
 62
     7
100
AcDbLine
 10
145.6968624106345
 20
192.7476556706859
 30
0.0
 11
145.9266199106346
 21
195.3737956706859
 31
0.0
  0
LINE
  5
43C
330
1F
100
AcDbEntity
  8
0
  6
Continuous
 62
     7
100
AcDbLine
 10
143.4447924106344
 20
196.5949781706859
 30
0.0
 11
145.8300086606346
 21
196.5949781706859
 31
0.0
  0
LINE
  5
43D
330
1F
100
AcDbEntity
  8
0
  6
Continuous
 62
     7
100
AcDbLine
 10
142.5774949106348
 20
191.5449781706859
 30
0.0
 11
145.8136699106348
 21
191.5449781706859
 31
0.0
  0
LINE
  5
43E
330
1F
100
AcDbEntity
  8
0
  6
Continuous
 62
     7
100
AcDbLine
 10
145.6968624106345
 20
192.7476556706859
 30
0.0
 11
146.3492261606344
 21
192.0357256706859
 31
0.0
  0
LINE
  5
43F
330
1F
100
AcDbEntity
  8
0
  6
Continuous
 62
     7
100
AcDbLine
 10
145.4756799106345
 20
192.5449781706859
 30
0.0
 11
146.1280436606348
 21
191.833048170686
 31
0.0
  0
LINE
  5
440
330
1F
100
AcDbEntity
  8
0
  6
Continuous
 62
     7
100
AcDbLine
 10
142.3135274106346
 20
191.833048170686
 30
0.0
 11
143.0904636606344
 21
192.5449781706859
 31
0.0
  0
LINE
  5
441
330
1F
100
AcDbEntity
  8
0
  6
Continuous
 62
     7
100
AcDbLine
 10
142.1108511606344
 20
192.0542319206861
 30
0.0
 11
142.8877861606346
 21
192.7661619206859
 31
0.0
  0
LINE
  5
442
330
1F
100
AcDbEntity
  8
0
  6
Continuous
 62
     7
100
AcDbLine
 10
141.8468836606344
 20
192.342300670686
 30
0.0
 11
142.1121049106344
 21
195.3737956706859
 31
0.0
  0
LINE
  5
443
330
1F
100
AcDbEntity
  8
0
  6
Continuous
 62
     7
100
AcDbLine
 10
138.8635999106348
 20
192.3237956706859
 30
0.0
 11
139.1320586606348
 21
195.3923006706859
 31
0.0
  0
LINE
  5
444
330
1F
100
AcDbEntity
  8
0
  6
Continuous
 62
     7
100
AcDbLine
 10
137.6756799106348
 20
192.5449781706859
 30
0.0
 11
138.3280436606348
 21
191.833048170686
 31
0.0
  0
LINE
  5
445
330
1F
100
AcDbEntity
  8
0
  6
Continuous
 62
     7
100
AcDbLine
 10
137.8968624106349
 20
192.7476556706859
 30
0.0
 11
138.5492261606348
 21
192.0357256706859
 31
0.0
  0
LINE
  5
446
330
1F
100
AcDbEntity
  8
0
  6
Continuous
 62
     7
100
AcDbLine
 10
138.5492261606348
 20
192.0357256706859
 30
0.0
 11
138.8635999106348
 21
192.3237956706859
 31
0.0
  0
LINE
  5
447
330
1F
100
AcDbEntity
  8
0
  6
Continuous
 62
     7
100
AcDbLine
 10
138.0136699106347
 20
191.5449781706859
 30
0.0
 11
138.3280436606348
 21
191.833048170686
 31
0.0
  0
CIRCLE
  5
448
330
1F
100
AcDbEntity
  8
0
  6
Continuous
 62
     7
100
AcDbCircle
 10
138.8343673401369
 20
190.694978100188
 30
0.0
 40
0.5500000704979488
  0
LINE
  5
449
330
1F
100
AcDbEntity
  8
0
  6
Continuous
 62
     7
100
AcDbLine
 10
142.1108511606344
 20
192.0542319206861
 30
0.0
 11
141.8468836606344
 21
192.342300670686
 31
0.0
  0
LINE
  5
44A
330
1F
100
AcDbEntity
  8
0
  6
Continuous
 62
     7
100
AcDbLine
 10
142.5774949106348
 20
191.5449781706859
 30
0.0
 11
142.3135274106346
 21
191.833048170686
 31
0.0
  0
LINE
  5
44B
330
1F
100
AcDbEntity
  8
0
  6
Continuous
 62
     7
100
AcDbLine
 10
137.8968624106349
 20
192.7476556706859
 30
0.0
 11
138.1266199106347
 21
195.3737956706859
 31
0.0
  0
LINE
  5
44C
330
1F
100
AcDbEntity
  8
0
  6
Continuous
 62
     7
100
AcDbLine
 10
137.9239436606345
 20
195.5949781706859
 30
0.0
 11
138.4796949106347
 21
196.104231920686
 31
0.0
  0
LINE
  5
44D
330
1F
100
AcDbEntity
  8
0
  6
Continuous
 62
     7
100
AcDbLine
 10
138.7008786606348
 20
196.306908170686
 30
0.0
 11
139.2566311606348
 21
196.816161920686
 31
0.0
  0
LINE
  5
44E
330
1F
100
AcDbEntity
  8
0
  6
Continuous
 62
     7
100
AcDbLine
 10
139.1320586606348
 20
195.3923006706859
 30
0.0
 11
138.6823724106347
 21
195.883048170686
 31
0.0
  0
LINE
  5
44F
330
1F
100
AcDbEntity
  8
0
  6
Continuous
 62
     7
100
AcDbLine
 10
138.7008786606348
 20
196.306908170686
 30
0.0
 11
138.2511911606347
 21
196.797655670686
 31
0.0
  0
LINE
  5
450
330
1F
100
AcDbEntity
  8
0
  6
Continuous
 62
     7
100
AcDbLine
 10
138.4796949106347
 20
196.104231920686
 30
0.0
 11
138.0300086606347
 21
196.5949781706859
 31
0.0
  0
LINE
  5
451
330
1F
100
AcDbEntity
  8
0
  6
Continuous
 62
     7
100
AcDbLine
 10
138.1266199106347
 20
195.3737956706859
 30
0.0
 11
138.6823724106347
 21
195.883048170686
 31
0.0
  0
LINE
  5
452
330
1F
100
AcDbEntity
  8
0
  6
Continuous
 62
     7
100
AcDbLine
 10
143.3387274106346
 20
195.5949781706859
 30
0.0
 11
142.8890399106348
 21
196.0857256706859
 31
0.0
  0
LINE
  5
453
330
1F
100
AcDbEntity
  8
0
  6
Continuous
 62
     7
100
AcDbLine
 10
143.4447924106344
 20
196.5949781706859
 30
0.0
 11
142.8890399106348
 21
196.0857256706859
 31
0.0
  0
LINE
  5
454
330
1F
100
AcDbEntity
  8
0
  6
Continuous
 62
     7
100
AcDbLine
 10
143.2421149106346
 20
196.816161920686
 30
0.0
 11
142.6863636606347
 21
196.306908170686
 31
0.0
  0
LINE
  5
455
330
1F
100
AcDbEntity
  8
0
  6
Continuous
 62
     7
100
AcDbLine
 10
143.1175436606348
 20
195.3923006706859
 30
0.0
 11
142.6678574106349
 21
195.883048170686
 31
0.0
  0
LINE
  5
456
330
1F
100
AcDbEntity
  8
0
  6
Continuous
 62
     7
100
AcDbLine
 10
142.6863636606347
 20
196.306908170686
 30
0.0
 11
142.2366761606348
 21
196.797655670686
 31
0.0
  0
LINE
  5
457
330
1F
100
AcDbEntity
  8
0
  6
Continuous
 62
     7
100
AcDbLine
 10
142.8877861606346
 20
192.7661619206859
 30
0.0
 11
143.1175436606348
 21
195.3923006706859
 31
0.0
  0
LINE
  5
458
330
1F
100
AcDbEntity
  8
0
  6
Continuous
 62
     7
100
AcDbLine
 10
142.6678574106349
 20
195.883048170686
 30
0.0
 11
142.1121049106344
 21
195.3737956706859
 31
0.0
  0
LINE
  5
459
330
1F
100
AcDbEntity
  8
0
  6
Continuous
 62
     7
100
AcDbLine
 10
143.3387274106346
 20
195.5949781706859
 30
0.0
 11
145.7239436606345
 21
195.5949781706859
 31
0.0
  0
LINE
  5
45A
330
1F
100
AcDbEntity
  8
0
  6
Continuous
 62
     7
100
AcDbLine
 10
143.0904636606344
 20
192.5449781706859
 30
0.0
 11
145.4756799106345
 21
192.5449781706859
 31
0.0
  0
LINE
  5
45B
330
1F
100
AcDbEntity
  8
0
  6
Continuous
 62
     7
100
AcDbLine
 10
149.6468836606345
 20
192.342300670686
 30
0.0
 11
149.9121049106344
 21
195.3737956706859
 31
0.0
  0
LINE
  5
45C
330
1F
100
AcDbEntity
  8
0
  6
Continuous
 62
     7
100
AcDbLine
 10
149.9108511606345
 20
192.0542319206861
 30
0.0
 11
150.6877861606348
 21
192.7661619206859
 31
0.0
  0
LINE
  5
45D
330
1F
100
AcDbEntity
  8
0
  6
Continuous
 62
     7
100
AcDbLine
 10
153.2756799106348
 20
192.5449781706859
 30
0.0
 11
153.9280436606349
 21
191.833048170686
 31
0.0
  0
LINE
  5
45E
330
1F
100
AcDbEntity
  8
0
  6
Continuous
 62
     7
100
AcDbLine
 10
150.1135274106347
 20
191.833048170686
 30
0.0
 11
150.8904636606345
 21
192.5449781706859
 31
0.0
  0
LINE
  5
45F
330
1F
100
AcDbEntity
  8
0
  6
Continuous
 62
     7
100
AcDbLine
 10
146.6635999106349
 20
192.3237956706859
 30
0.0
 11
146.9320586606345
 21
195.3923006706859
 31
0.0
  0
LINE
  5
460
330
1F
100
AcDbEntity
  8
0
  6
Continuous
 62
     7
100
AcDbLine
 10
149.9108511606345
 20
192.0542319206861
 30
0.0
 11
149.6468836606345
 21
192.342300670686
 31
0.0
  0
LINE
  5
461
330
1F
100
AcDbEntity
  8
0
  6
Continuous
 62
     7
100
AcDbLine
 10
145.8136699106348
 20
191.5449781706859
 30
0.0
 11
146.1280436606348
 21
191.833048170686
 31
0.0
  0
LINE
  5
462
330
1F
100
AcDbEntity
  8
0
  6
Continuous
 62
     7
100
AcDbLine
 10
146.3492261606344
 20
192.0357256706859
 30
0.0
 11
146.6635999106349
 21
192.3237956706859
 31
0.0
  0
CIRCLE
  5
463
330
1F
100
AcDbEntity
  8
0
  6
Continuous
 62
     7
100
AcDbCircle
 10
146.6343673401369
 20
190.694978100188
 30
0.0
 40
0.5500000704979488
  0
LINE
  5
464
330
1F
100
AcDbEntity
  8
0
  6
Continuous
 62
     7
100
AcDbLine
 10
150.3774949106345
 20
191.5449781706859
 30
0.0
 11
150.1135274106347
 21
191.833048170686
 31
0.0
  0
LINE
  5
465
330
1F
100
AcDbEntity
  8
0
  6
Continuous
 62
     7
100
AcDbLine
 10
153.6136699106348
 20
191.5449781706859
 30
0.0
 11
153.9280436606349
 21
191.833048170686
 31
0.0
  0
LINE
  5
466
330
1F
100
AcDbEntity
  8
0
  6
Continuous
 62
     7
100
AcDbLine
 10
150.3774949106345
 20
191.5449781706859
 30
0.0
 11
153.6136699106348
 21
191.5449781706859
 31
0.0
  0
LINE
  5
467
330
1F
100
AcDbEntity
  8
0
  6
Continuous
 62
     7
100
AcDbLine
 10
145.9266199106346
 20
195.3737956706859
 30
0.0
 11
146.4823724106347
 21
195.883048170686
 31
0.0
  0
LINE
  5
468
330
1F
100
AcDbEntity
  8
0
  6
Continuous
 62
     7
100
AcDbLine
 10
146.2796949106347
 20
196.104231920686
 30
0.0
 11
145.8300086606346
 21
196.5949781706859
 31
0.0
  0
LINE
  5
469
330
1F
100
AcDbEntity
  8
0
  6
Continuous
 62
     7
100
AcDbLine
 10
146.5008786606349
 20
196.306908170686
 30
0.0
 11
146.0511911606347
 21
196.797655670686
 31
0.0
  0
LINE
  5
46A
330
1F
100
AcDbEntity
  8
0
  6
Continuous
 62
     7
100
AcDbLine
 10
146.9320586606345
 20
195.3923006706859
 30
0.0
 11
146.4823724106347
 21
195.883048170686
 31
0.0
  0
LINE
  5
46B
330
1F
100
AcDbEntity
  8
0
  6
Continuous
 62
     7
100
AcDbLine
 10
146.5008786606349
 20
196.306908170686
 30
0.0
 11
147.0566311606345
 21
196.816161920686
 31
0.0
  0
LINE
  5
46C
330
1F
100
AcDbEntity
  8
0
  6
Continuous
 62
     7
100
AcDbLine
 10
150.8904636606345
 20
192.5449781706859
 30
0.0
 11
153.2756799106348
 21
192.5449781706859
 31
0.0
  0
LINE
  5
46D
330
1F
100
AcDbEntity
  8
0
  6
Continuous
 62
     7
100
AcDbLine
 10
151.2447924106344
 20
196.5949781706859
 30
0.0
 11
153.6300086606344
 21
196.5949781706859
 31
0.0
  0
LINE
  5
46E
330
1F
100
AcDbEntity
  8
0
  6
Continuous
 62
     7
100
AcDbLine
 10
151.1387274106346
 20
195.5949781706859
 30
0.0
 11
153.5239436606345
 21
195.5949781706859
 31
0.0
  0
LINE
  5
46F
330
1F
100
AcDbEntity
  8
0
  6
Continuous
 62
     7
100
AcDbLine
 10
150.4678574106349
 20
195.883048170686
 30
0.0
 11
149.9121049106344
 21
195.3737956706859
 31
0.0
  0
LINE
  5
470
330
1F
100
AcDbEntity
  8
0
  6
Continuous
 62
     7
100
AcDbLine
 10
150.6877861606348
 20
192.7661619206859
 30
0.0
 11
150.9175436606349
 21
195.3923006706859
 31
0.0
  0
LINE
  5
471
330
1F
100
AcDbEntity
  8
0
  6
Continuous
 62
     7
100
AcDbLine
 10
150.4863636606343
 20
196.306908170686
 30
0.0
 11
150.0366761606349
 21
196.797655670686
 31
0.0
  0
LINE
  5
472
330
1F
100
AcDbEntity
  8
0
  6
Continuous
 62
     7
100
AcDbLine
 10
153.4968624106348
 20
192.7476556706859
 30
0.0
 11
153.7266199106347
 21
195.3737956706859
 31
0.0
  0
LINE
  5
473
330
1F
100
AcDbEntity
  8
0
  6
Continuous
 62
     7
100
AcDbLine
 10
150.9175436606349
 20
195.3923006706859
 30
0.0
 11
150.4678574106349
 21
195.883048170686
 31
0.0
  0
LINE
  5
474
330
1F
100
AcDbEntity
  8
0
  6
Continuous
 62
     7
100
AcDbLine
 10
151.0421149106347
 20
196.816161920686
 30
0.0
 11
150.4863636606343
 21
196.306908170686
 31
0.0
  0
LINE
  5
475
330
1F
100
AcDbEntity
  8
0
  6
Continuous
 62
     7
100
AcDbLine
 10
151.2447924106344
 20
196.5949781706859
 30
0.0
 11
150.6890399106349
 21
196.0857256706859
 31
0.0
  0
LINE
  5
476
330
1F
100
AcDbEntity
  8
0
  6
Continuous
 62
     7
100
AcDbLine
 10
151.1387274106346
 20
195.5949781706859
 30
0.0
 11
150.6890399106349
 21
196.0857256706859
 31
0.0
  0
LINE
  5
477
330
1F
100
AcDbEntity
  8
0
  6
Continuous
 62
     7
100
AcDbLine
 10
143.3550649106348
 20
200.6449781706859
 30
0.0
 11
146.5912399106344
 21
200.6449781706859
 31
0.0
  0
LINE
  5
478
330
1F
100
AcDbEntity
  8
0
  6
Continuous
 62
     7
100
AcDbLine
 10
143.6930561606345
 20
199.6449781706859
 30
0.0
 11
146.0782724106348
 21
199.6449781706859
 31
0.0
  0
LINE
  5
479
330
1F
100
AcDbEntity
  8
0
  6
Continuous
 62
     7
100
AcDbLine
 10
138.4809486606347
 20
199.4237956706859
 30
0.0
 11
139.2578849106348
 21
200.1357256706859
 31
0.0
  0
LINE
  5
47A
330
1F
100
AcDbEntity
  8
0
  6
Continuous
 62
     7
100
AcDbLine
 10
138.7912399106347
 20
200.6449781706859
 30
0.0
 11
139.0552074106345
 21
200.3569081706859
 31
0.0
  0
LINE
  5
47B
330
1F
100
AcDbEntity
  8
0
  6
Continuous
 62
     7
100
AcDbLine
 10
139.2578849106348
 20
200.1357256706859
 30
0.0
 11
139.5218524106349
 21
199.8476556706859
 31
0.0
  0
LINE
  5
47C
330
1F
100
AcDbEntity
  8
0
  6
Continuous
 62
     7
100
AcDbLine
 10
138.2782724106347
 20
199.6449781706859
 30
0.0
 11
139.0552074106345
 21
200.3569081706859
 31
0.0
  0
LINE
  5
47D
330
1F
100
AcDbEntity
  8
0
  6
Continuous
 62
     7
100
AcDbLine
 10
143.0406924106345
 20
200.3569081706859
 30
0.0
 11
143.6930561606345
 21
199.6449781706859
 31
0.0
  0
LINE
  5
47E
330
1F
100
AcDbEntity
  8
0
  6
Continuous
 62
     7
100
AcDbLine
 10
142.8195086606345
 20
200.1542319206861
 30
0.0
 11
143.4718724106346
 21
199.442300670686
 31
0.0
  0
LINE
  5
47F
330
1F
100
AcDbEntity
  8
0
  6
Continuous
 62
     7
100
AcDbLine
 10
143.0406924106345
 20
200.3569081706859
 30
0.0
 11
143.3550649106348
 21
200.6449781706859
 31
0.0
  0
LINE
  5
480
330
1F
100
AcDbEntity
  8
0
  6
Continuous
 62
     7
100
AcDbLine
 10
142.5051361606348
 20
199.866161920686
 30
0.0
 11
142.8195086606345
 21
200.1542319206861
 31
0.0
  0
LINE
  5
481
330
1F
100
AcDbEntity
  8
0
  6
Continuous
 62
     7
100
AcDbLine
 10
146.0782724106348
 20
199.6449781706859
 30
0.0
 11
146.8552074106345
 21
200.3569081706859
 31
0.0
  0
LINE
  5
482
330
1F
100
AcDbEntity
  8
0
  6
Continuous
 62
     7
100
AcDbLine
 10
147.0578849106348
 20
200.1357256706859
 30
0.0
 11
147.3218524106349
 21
199.8476556706859
 31
0.0
  0
LINE
  5
483
330
1F
100
AcDbEntity
  8
0
  6
Continuous
 62
     7
100
AcDbLine
 10
146.5912399106344
 20
200.6449781706859
 30
0.0
 11
146.8552074106345
 21
200.3569081706859
 31
0.0
  0
LINE
  5
484
330
1F
100
AcDbEntity
  8
0
  6
Continuous
 62
     7
100
AcDbLine
 10
146.2809486606347
 20
199.4237956706859
 30
0.0
 11
147.0578849106348
 21
200.1357256706859
 31
0.0
  0
LINE
  5
485
330
1F
100
AcDbEntity
  8
0
  6
Continuous
 62
     7
100
AcDbLine
 10
151.4930561606345
 20
199.6449781706859
 30
0.0
 11
153.8782724106349
 21
199.6449781706859
 31
0.0
  0
LINE
  5
486
330
1F
100
AcDbEntity
  8
0
  6
Continuous
 62
     7
100
AcDbLine
 10
150.3051361606349
 20
199.866161920686
 30
0.0
 11
150.6195086606346
 21
200.1542319206861
 31
0.0
  0
LINE
  5
487
330
1F
100
AcDbEntity
  8
0
  6
Continuous
 62
     7
100
AcDbLine
 10
150.8406924106346
 20
200.3569081706859
 30
0.0
 11
151.1550649106349
 21
200.6449781706859
 31
0.0
  0
LINE
  5
488
330
1F
100
AcDbEntity
  8
0
  6
Continuous
 62
     7
100
AcDbLine
 10
150.6195086606346
 20
200.1542319206861
 30
0.0
 11
151.2718724106347
 21
199.442300670686
 31
0.0
  0
LINE
  5
489
330
1F
100
AcDbEntity
  8
0
  6
Continuous
 62
     7
100
AcDbLine
 10
150.8406924106346
 20
200.3569081706859
 30
0.0
 11
151.4930561606345
 21
199.6449781706859
 31
0.0
  0
ARC
  5
48A
330
1F
100
AcDbEntity
  8
0
  6
Continuous
 62
     7
100
AcDbCircle
 10
161.2917014263206
 20
209.3896246863717
 30
0.0
 40
0.9999992529250736
100
AcDbArc
 50
359.9999571957143
 51
90.000042804288
  0
LINE
  5
48B
330
1F
100
AcDbEntity
  8
0
  6
Continuous
 62
     7
100
AcDbLine
 10
154.8566311606348
 20
196.816161920686
 30
0.0
 11
155.1218524106348
 21
199.8476556706859
 31
0.0
  0
LINE
  5
48C
330
1F
100
AcDbEntity
  8
0
  6
Continuous
 62
     7
100
AcDbLine
 10
154.4635999106349
 20
192.3237956706859
 30
0.0
 11
154.7320586606348
 21
195.3923006706859
 31
0.0
  0
LINE
  5
48D
330
1F
100
AcDbEntity
  8
0
  6
Continuous
 62
     7
100
AcDbLine
 10
154.1492261606348
 20
192.0357256706859
 30
0.0
 11
154.4635999106349
 21
192.3237956706859
 31
0.0
  0
LINE
  5
48E
330
1F
100
AcDbEntity
  8
0
  6
Continuous
 62
     7
100
AcDbLine
 10
154.3008786606349
 20
196.306908170686
 30
0.0
 11
154.8566311606348
 21
196.816161920686
 31
0.0
  0
LINE
  5
48F
330
1F
100
AcDbEntity
  8
0
  6
Continuous
 62
     7
100
AcDbLine
 10
154.7320586606348
 20
195.3923006706859
 30
0.0
 11
154.2823724106346
 21
195.883048170686
 31
0.0
  0
LINE
  5
490
330
1F
100
AcDbEntity
  8
0
  6
Continuous
 62
     7
100
AcDbLine
 10
154.0809486606345
 20
199.4237956706859
 30
0.0
 11
154.8578849106345
 21
200.1357256706859
 31
0.0
  0
LINE
  5
491
330
1F
100
AcDbEntity
  8
0
  6
Continuous
 62
     7
100
AcDbLine
 10
154.3912399106345
 20
200.6449781706859
 30
0.0
 11
154.6552074106345
 21
200.3569081706859
 31
0.0
  0
LINE
  5
492
330
1F
100
AcDbEntity
  8
0
  6
Continuous
 62
     7
100
AcDbLine
 10
154.8578849106345
 20
200.1357256706859
 30
0.0
 11
155.1218524106348
 21
199.8476556706859
 31
0.0
  0
ARC
  5
493
330
1F
100
AcDbEntity
  8
0
  6
Continuous
 62
     7
100
AcDbCircle
 10
163.3860664263204
 20
212.3896246863718
 30
0.0
 40
0.9999992529251443
100
AcDbArc
 50
359.9999571957177
 51
90.00004280429207
  0
ARC
  5
494
330
1F
100
AcDbEntity
  8
0
  6
Continuous
 62
     7
100
AcDbCircle
 10
220.2625599321704
 20
212.1396246863718
 30
0.0
 40
0.9999992529252159
100
AcDbArc
 50
89.99995719571119
 51
180.0000428042855
  0
LINE
  5
495
330
1F
100
AcDbEntity
  8
0
  6
Continuous
 62
     7
100
AcDbLine
 10
222.2625606792454
 20
213.1396239392968
 30
0.0
 11
226.2625606792453
 21
213.1396239392968
 31
0.0
  0
LINE
  5
496
330
1F
100
AcDbEntity
  8
0
  6
Continuous
 62
     7
100
AcDbLine
 10
222.2625606792454
 20
213.1396239392968
 30
0.0
 11
220.2625606792456
 21
213.1396239392968
 31
0.0
  0
LINE
  5
497
330
1F
100
AcDbEntity
  8
0
  6
DASHED
 62
     4
100
AcDbLine
 10
277.055079428742
 20
213.6944576316226
 30
0.0
 11
236.2866319292455
 21
214.0502389392965
 31
0.0
  0
LINE
  5
498
330
1F
100
AcDbEntity
  8
0
  6
DASHED
 62
     4
100
AcDbLine
 10
247.3429356792456
 20
220.4539989392967
 30
0.0
 11
238.3432781792456
 21
220.5325376892966
 31
0.0
  0
LINE
  5
499
330
1F
100
AcDbEntity
  8
0
  6
DASHED
 62
     4
100
AcDbLine
 10
238.2560131792454
 20
210.5329189392966
 30
0.0
 11
238.3432781792456
 21
220.5325376892966
 31
0.0
  0
LINE
  5
49A
330
1F
100
AcDbEntity
  8
0
  6
DASHED
 62
     4
100
AcDbLine
 10
236.2866319292455
 20
214.0502389392965
 30
0.0
 11
236.2560894292454
 21
210.5503714392967
 31
0.0
  0
LINE
  5
49B
330
1F
100
AcDbEntity
  8
0
  6
DASHED
 62
     4
100
AcDbLine
 10
248.3341706792455
 20
219.4453101892968
 30
0.0
 11
248.2861744292454
 21
213.9455201892966
 31
0.0
  0
LINE
  5
49C
330
1F
100
AcDbEntity
  8
0
  6
DASHED
 62
     4
100
AcDbLine
 10
246.3342469292455
 20
219.4627639392968
 30
0.0
 11
246.2862506792454
 21
213.9629726892968
 31
0.0
  0
ARC
  5
49D
330
1F
100
AcDbEntity
  8
0
  6
DASHED
 62
     4
100
AcDbCircle
 10
247.334208460872
 20
219.4540354876782
 30
0.0
 40
1.000001534455462
100
AcDbArc
 50
359.5000716514126
 51
89.49996163995171
  0
ARC
  5
49E
330
1F
100
AcDbEntity
  8
0
  6
DASHED
 62
     4
100
AcDbCircle
 10
247.3342086887174
 20
219.454037192863
 30
0.0
 40
0.999999827347182
100
AcDbArc
 50
89.49997384139136
 51
179.5000594499649
  0
LINE
  5
49F
330
1F
100
AcDbEntity
  8
0
  6
Continuous
 62
     7
100
AcDbLine
 10
326.2625606792453
 20
209.4423114392966
 30
0.0
 11
326.2625606792453
 21
120.8369364392966
 31
0.0
  0
LINE
  5
4A0
330
1F
100
AcDbEntity
  8
0
  6
Continuous
 62
     7
100
AcDbLine
 10
322.7625606792456
 20
209.7711239392966
 30
0.0
 11
322.7625606792456
 21
120.5081239392967
 31
0.0
  0
LINE
  5
4A1
330
1F
100
AcDbEntity
  8
0
  6
DASHED
 62
     4
 48
5.0
100
AcDbLine
 10
349.0625606792455
 20
209.7396239392966
 30
0.0
 11
349.0625606792455
 21
120.5396239392968
 31
0.0
  0
LINE
  5
4A2
330
1F
100
AcDbEntity
  8
0
  6
DASHED
 62
     4
 48
5.0
100
AcDbLine
 10
351.0625606792456
 20
210.7396239392966
 30
0.0
 11
351.0625606792456
 21
119.5396239392968
 31
0.0
  0
LINE
  5
4A3
330
1F
100
AcDbEntity
  8
0
  6
DASHED
 62
     4
 48
5.0
100
AcDbLine
 10
349.0625606792455
 20
120.5396239392968
 30
0.0
 11
311.5655194292455
 21
120.4073501892964
 31
0.0
  0
LINE
  5
4A4
330
1F
100
AcDbEntity
  8
0
  6
DASHED
 62
     4
 48
5.0
100
AcDbLine
 10
350.0625606792455
 20
118.5396239392968
 30
0.0
 11
311.0625606792456
 21
118.5396239392968
 31
0.0
  0
LINE
  5
4A5
330
1F
100
AcDbEntity
  8
0
  6
DASHED
 62
     4
100
AcDbLine
 10
281.2770081792454
 20
111.4429701892968
 30
0.0
 11
278.2544894292456
 21
120.0953901892968
 31
0.0
  0
LINE
  5
4A6
330
1F
100
AcDbEntity
  8
0
  6
DASHED
 62
     4
100
AcDbLine
 10
277.0550794292454
 20
116.5847901892967
 30
0.0
 11
277.0245369292454
 21
120.0846564392967
 31
0.0
  0
LINE
  5
4A7
330
1F
100
AcDbEntity
  8
0
  6
DASHED
 62
     4
100
AcDbLine
 10
279.3888956792454
 20
110.7834026892967
 30
0.0
 11
277.3613844292455
 21
116.5874626892964
 31
0.0
  0
ARC
  5
4A8
330
1F
100
AcDbEntity
  8
0
  6
DASHED
 62
     4
100
AcDbCircle
 10
280.3329519292454
 20
111.1131870642967
 30
0.0
 40
0.9999999685790895
100
AcDbArc
 50
199.2556890876589
 51
19.25568908765714
  0
ARC
  5
4A9
330
1F
100
AcDbEntity
  8
0
  6
DASHED
 62
     4
100
AcDbCircle
 10
278.7656996712986
 20
115.5996799678699
 30
0.0
 40
1.000000787045742
100
AcDbArc
 50
19.25564821282202
 51
90.49992549475277
  0
ARC
  5
4AA
330
1F
100
AcDbEntity
  8
0
  6
DASHED
 62
     4
 48
5.0
100
AcDbCircle
 10
312.0625599235551
 20
119.5396237141694
 30
0.0
 40
0.9999992443097928
100
AcDbArc
 50
119.8044178777918
 51
179.9999871011519
  0
LINE
  5
4AB
330
1F
100
AcDbEntity
  8
0
  6
DASHED
 62
     4
 48
5.0
100
AcDbLine
 10
311.0625606792456
 20
119.5396239392968
 30
0.0
 11
311.0625606792456
 21
118.5396239392968
 31
0.0
  0
ARC
  5
4AC
330
1F
100
AcDbEntity
  8
0
  6
DASHED
 62
     4
 48
5.0
100
AcDbCircle
 10
350.0625614263208
 20
119.5396231922215
 30
0.0
 40
0.9999992529251803
100
AcDbArc
 50
269.9999571957071
 51
0.000042804282295
  0
ARC
  5
4AD
330
1F
100
AcDbEntity
  8
0
  6
Continuous
 62
     7
100
AcDbCircle
 10
325.9625609033678
 20
121.989624163419
 30
0.0
 40
0.2999997758774724
100
AcDbArc
 50
359.9999571957209
 51
90.00004280429285
  0
ARC
  5
4AE
330
1F
100
AcDbEntity
  8
0
  6
Continuous
 62
     7
100
AcDbCircle
 10
325.9625608878586
 20
120.8369365823064
 30
0.0
 40
0.2999997913869951
100
AcDbArc
 50
270.5156294921136
 51
359.9999726870808
  0
LINE
  5
4AF
330
1F
100
AcDbEntity
  8
0
  6
Continuous
 62
     7
100
AcDbLine
 10
322.7625606792456
 20
122.2896239392964
 30
0.0
 11
325.9625606792456
 21
122.2896239392964
 31
0.0
  0
LINE
  5
4B0
330
1F
100
AcDbEntity
  8
0
  6
Continuous
 62
     7
100
AcDbLine
 10
326.2625606792453
 20
121.9896239392967
 30
0.0
 11
326.2625606792453
 21
120.8369364392968
 31
0.0
  0
ARC
  5
4B1
330
1F
100
AcDbEntity
  8
0
  6
Continuous
 62
     7
100
AcDbCircle
 10
325.9625609033678
 20
139.3896241634192
 30
0.0
 40
0.2999997758775079
100
AcDbArc
 50
359.9999571957126
 51
90.00004280428639
  0
ARC
  5
4B2
330
1F
100
AcDbEntity
  8
0
  6
Continuous
 62
     7
100
AcDbCircle
 10
325.9625609033678
 20
138.6896237151742
 30
0.0
 40
0.2999997758775435
100
AcDbArc
 50
269.9999571957201
 51
0.0000428042855519
  0
ARC
  5
4B3
330
1F
100
AcDbEntity
  8
0
  6
Continuous
 62
     7
100
AcDbCircle
 10
325.9625609033678
 20
130.6896241634192
 30
0.0
 40
0.2999997758775435
100
AcDbArc
 50
359.9999571957063
 51
90.00004280427988
  0
ARC
  5
4B4
330
1F
100
AcDbEntity
  8
0
  6
Continuous
 62
     7
100
AcDbCircle
 10
325.9625609033678
 20
129.9896237151741
 30
0.0
 40
0.2999997758775079
100
AcDbArc
 50
269.9999571957201
 51
0.0000428042936941
  0
LINE
  5
4B5
330
1F
100
AcDbEntity
  8
0
  6
Continuous
 62
     7
100
AcDbLine
 10
322.7625606792456
 20
130.9896239392967
 30
0.0
 11
325.9625606792456
 21
130.9896239392967
 31
0.0
  0
LINE
  5
4B6
330
1F
100
AcDbEntity
  8
0
  6
Continuous
 62
     7
100
AcDbLine
 10
326.2625606792453
 20
130.6896239392968
 30
0.0
 11
326.2625606792453
 21
129.9896239392967
 31
0.0
  0
LINE
  5
4B7
330
1F
100
AcDbEntity
  8
0
  6
Continuous
 62
     7
100
AcDbLine
 10
322.7625606792456
 20
129.6896239392968
 30
0.0
 11
325.9625606792456
 21
129.6896239392968
 31
0.0
  0
LINE
  5
4B8
330
1F
100
AcDbEntity
  8
0
  6
Continuous
 62
     7
100
AcDbLine
 10
322.7625606792456
 20
139.6896239392968
 30
0.0
 11
325.9625606792456
 21
139.6896239392968
 31
0.0
  0
LINE
  5
4B9
330
1F
100
AcDbEntity
  8
0
  6
Continuous
 62
     7
100
AcDbLine
 10
322.7625606792456
 20
138.3896239392967
 30
0.0
 11
325.9625606792456
 21
138.3896239392967
 31
0.0
  0
LINE
  5
4BA
330
1F
100
AcDbEntity
  8
0
  6
Continuous
 62
     7
100
AcDbLine
 10
326.2625606792453
 20
139.3896239392967
 30
0.0
 11
326.2625606792453
 21
138.6896239392968
 31
0.0
  0
ARC
  5
4BB
330
1F
100
AcDbEntity
  8
0
  6
Continuous
 62
     7
100
AcDbCircle
 10
325.9625609033678
 20
148.0896241634192
 30
0.0
 40
0.2999997758775435
100
AcDbArc
 50
359.9999571957126
 51
90.00004280427988
  0
ARC
  5
4BC
330
1F
100
AcDbEntity
  8
0
  6
Continuous
 62
     7
100
AcDbCircle
 10
325.9625609033678
 20
147.3896237151741
 30
0.0
 40
0.2999997758774724
100
AcDbArc
 50
269.9999571957071
 51
0.0000428042790381
  0
LINE
  5
4BD
330
1F
100
AcDbEntity
  8
0
  6
Continuous
 62
     7
100
AcDbLine
 10
322.7625606792456
 20
148.3896239392968
 30
0.0
 11
325.9625606792456
 21
148.3896239392968
 31
0.0
  0
LINE
  5
4BE
330
1F
100
AcDbEntity
  8
0
  6
Continuous
 62
     7
100
AcDbLine
 10
326.2625606792453
 20
148.0896239392968
 30
0.0
 11
326.2625606792453
 21
147.3896239392963
 31
0.0
  0
LINE
  5
4BF
330
1F
100
AcDbEntity
  8
0
  6
Continuous
 62
     7
100
AcDbLine
 10
322.7625606792456
 20
147.0896239392968
 30
0.0
 11
325.9625606792456
 21
147.0896239392968
 31
0.0
  0
ARC
  5
4C0
330
1F
100
AcDbEntity
  8
0
  6
Continuous
 62
     7
100
AcDbCircle
 10
325.9625609033678
 20
156.7896241634191
 30
0.0
 40
0.2999997758775435
100
AcDbArc
 50
359.9999571957063
 51
90.00004280427988
  0
ARC
  5
4C1
330
1F
100
AcDbEntity
  8
0
  6
Continuous
 62
     7
100
AcDbCircle
 10
325.9625609033678
 20
156.089623715174
 30
0.0
 40
0.2999997758775079
100
AcDbArc
 50
269.9999571957135
 51
0.0000428042855519
  0
LINE
  5
4C2
330
1F
100
AcDbEntity
  8
0
  6
Continuous
 62
     7
100
AcDbLine
 10
322.7625606792456
 20
157.0896239392968
 30
0.0
 11
325.9625606792456
 21
157.0896239392968
 31
0.0
  0
LINE
  5
4C3
330
1F
100
AcDbEntity
  8
0
  6
Continuous
 62
     7
100
AcDbLine
 10
326.2625606792453
 20
156.7896239392968
 30
0.0
 11
326.2625606792453
 21
156.0896239392968
 31
0.0
  0
LINE
  5
4C4
330
1F
100
AcDbEntity
  8
0
  6
Continuous
 62
     7
100
AcDbLine
 10
322.7625606792456
 20
155.7896239392968
 30
0.0
 11
325.9625606792456
 21
155.7896239392968
 31
0.0
  0
ARC
  5
4C5
330
1F
100
AcDbEntity
  8
0
  6
Continuous
 62
     7
100
AcDbCircle
 10
325.9625609033678
 20
173.4896237151741
 30
0.0
 40
0.2999997758775435
100
AcDbArc
 50
269.9999571957274
 51
0.0000428043002079
  0
ARC
  5
4C6
330
1F
100
AcDbEntity
  8
0
  6
Continuous
 62
     7
100
AcDbCircle
 10
325.9625609033678
 20
174.189624163419
 30
0.0
 40
0.2999997758775079
100
AcDbArc
 50
359.9999571957126
 51
90.00004280428639
  0
ARC
  5
4C7
330
1F
100
AcDbEntity
  8
0
  6
Continuous
 62
     7
100
AcDbCircle
 10
325.9625609033678
 20
165.4896241634189
 30
0.0
 40
0.299999775877579
100
AcDbArc
 50
359.9999571957063
 51
90.00004280427253
  0
ARC
  5
4C8
330
1F
100
AcDbEntity
  8
0
  6
Continuous
 62
     7
100
AcDbCircle
 10
325.9625609033678
 20
164.7896237151741
 30
0.0
 40
0.2999997758775079
100
AcDbArc
 50
269.9999571957201
 51
0.0000428042936941
  0
LINE
  5
4C9
330
1F
100
AcDbEntity
  8
0
  6
Continuous
 62
     7
100
AcDbLine
 10
326.2625606792453
 20
165.4896239392965
 30
0.0
 11
326.2625606792453
 21
164.7896239392967
 31
0.0
  0
LINE
  5
4CA
330
1F
100
AcDbEntity
  8
0
  6
Continuous
 62
     7
100
AcDbLine
 10
322.7625606792456
 20
165.7896239392968
 30
0.0
 11
325.9625606792456
 21
165.7896239392968
 31
0.0
  0
LINE
  5
4CB
330
1F
100
AcDbEntity
  8
0
  6
Continuous
 62
     7
100
AcDbLine
 10
322.7625606792456
 20
164.4896239392966
 30
0.0
 11
325.9625606792456
 21
164.4896239392966
 31
0.0
  0
LINE
  5
4CC
330
1F
100
AcDbEntity
  8
0
  6
Continuous
 62
     7
100
AcDbLine
 10
326.2625606792453
 20
174.1896239392966
 30
0.0
 11
326.2625606792453
 21
173.4896239392966
 31
0.0
  0
LINE
  5
4CD
330
1F
100
AcDbEntity
  8
0
  6
Continuous
 62
     7
100
AcDbLine
 10
322.7625606792456
 20
174.4896239392966
 30
0.0
 11
325.9625606792456
 21
174.4896239392966
 31
0.0
  0
LINE
  5
4CE
330
1F
100
AcDbEntity
  8
0
  6
Continuous
 62
     7
100
AcDbLine
 10
322.7625606792456
 20
173.1896239392966
 30
0.0
 11
325.9625606792456
 21
173.1896239392966
 31
0.0
  0
ARC
  5
4CF
330
1F
100
AcDbEntity
  8
0
  6
Continuous
 62
     7
100
AcDbCircle
 10
325.9625609033678
 20
182.8896241634192
 30
0.0
 40
0.2999997758775435
100
AcDbArc
 50
359.9999571957126
 51
90.00004280427988
  0
ARC
  5
4D0
330
1F
100
AcDbEntity
  8
0
  6
Continuous
 62
     7
100
AcDbCircle
 10
325.9625609033678
 20
182.1896237151739
 30
0.0
 40
0.2999997758774724
100
AcDbArc
 50
269.9999571957071
 51
0.0000428042790381
  0
LINE
  5
4D1
330
1F
100
AcDbEntity
  8
0
  6
Continuous
 62
     7
100
AcDbLine
 10
322.7625606792456
 20
183.1896239392967
 30
0.0
 11
325.9625606792456
 21
183.1896239392967
 31
0.0
  0
LINE
  5
4D2
330
1F
100
AcDbEntity
  8
0
  6
Continuous
 62
     7
100
AcDbLine
 10
322.7625606792456
 20
181.8896239392968
 30
0.0
 11
325.9625606792456
 21
181.8896239392968
 31
0.0
  0
LINE
  5
4D3
330
1F
100
AcDbEntity
  8
0
  6
Continuous
 62
     7
100
AcDbLine
 10
326.2625606792453
 20
182.8896239392966
 30
0.0
 11
326.2625606792453
 21
182.1896239392966
 31
0.0
  0
LINE
  5
4D4
330
1F
100
AcDbEntity
  8
0
  6
DASHED
 62
     4
 48
5.0
100
AcDbLine
 10
349.0625606792455
 20
209.7396239392966
 30
0.0
 11
311.5655181792456
 21
209.8718976892966
 31
0.0
  0
LINE
  5
4D5
330
1F
100
AcDbEntity
  8
0
  6
DASHED
 62
     4
 48
5.0
100
AcDbLine
 10
350.0625606792455
 20
211.7396239392966
 30
0.0
 11
311.0625606792456
 21
211.7396239392966
 31
0.0
  0
LINE
  5
4D6
330
1F
100
AcDbEntity
  8
0
  6
DASHED
 62
     4
100
AcDbLine
 10
277.0550794292454
 20
213.6944576892966
 30
0.0
 11
277.0245369292454
 21
210.1945901892967
 31
0.0
  0
LINE
  5
4D7
330
1F
100
AcDbEntity
  8
0
  6
DASHED
 62
     4
100
AcDbLine
 10
279.3888956792454
 20
219.4958451892965
 30
0.0
 11
277.3613844292455
 21
213.6917839392967
 31
0.0
  0
LINE
  5
4D8
330
1F
100
AcDbEntity
  8
0
  6
DASHED
 62
     4
100
AcDbLine
 10
281.2770081792454
 20
218.8362776892966
 30
0.0
 11
278.2544894292456
 21
210.1838576892966
 31
0.0
  0
ARC
  5
4D9
330
1F
100
AcDbEntity
  8
0
  6
DASHED
 62
     4
100
AcDbCircle
 10
278.7656996712986
 20
214.6795679107234
 30
0.0
 40
1.000000787045769
100
AcDbArc
 50
269.5000745052486
 51
340.7443517871795
  0
ARC
  5
4DA
330
1F
100
AcDbEntity
  8
0
  6
DASHED
 62
     4
100
AcDbCircle
 10
280.3329519292454
 20
219.1660608142968
 30
0.0
 40
0.999999968579088
100
AcDbArc
 50
340.744310912348
 51
160.7443109123495
  0
ARC
  5
4DB
330
1F
100
AcDbEntity
  8
0
  6
DASHED
 62
     4
 48
5.0
100
AcDbCircle
 10
312.0625592985553
 20
210.739623086146
 30
0.0
 40
0.9999986193102559
100
AcDbArc
 50
179.9999511180113
 51
240.1955203413714
  0
LINE
  5
4DC
330
1F
100
AcDbEntity
  8
0
  6
DASHED
 62
     4
 48
5.0
100
AcDbLine
 10
311.0625606792456
 20
210.7396239392966
 30
0.0
 11
311.0625606792456
 21
211.7396239392966
 31
0.0
  0
ARC
  5
4DD
330
1F
100
AcDbEntity
  8
0
  6
DASHED
 62
     4
 48
5.0
100
AcDbCircle
 10
350.0625614263205
 20
210.7396246863717
 30
0.0
 40
0.9999992529252159
100
AcDbArc
 50
359.9999571957143
 51
90.00004280428878
  0
ARC
  5
4DE
330
1F
100
AcDbEntity
  8
0
  6
Continuous
 62
     7
100
AcDbCircle
 10
325.9625609033678
 20
190.8896237151741
 30
0.0
 40
0.2999997758774724
100
AcDbArc
 50
269.9999571957071
 51
0.0000428042790381
  0
ARC
  5
4DF
330
1F
100
AcDbEntity
  8
0
  6
Continuous
 62
     7
100
AcDbCircle
 10
325.9625609033678
 20
191.5896241634193
 30
0.0
 40
0.2999997758775079
100
AcDbArc
 50
359.9999571957209
 51
90.00004280428639
  0
LINE
  5
4E0
330
1F
100
AcDbEntity
  8
0
  6
Continuous
 62
     7
100
AcDbLine
 10
326.2625606792453
 20
191.5896239392966
 30
0.0
 11
326.2625606792453
 21
190.8896239392966
 31
0.0
  0
LINE
  5
4E1
330
1F
100
AcDbEntity
  8
0
  6
Continuous
 62
     7
100
AcDbLine
 10
322.7625606792456
 20
191.8896239392966
 30
0.0
 11
325.9625606792456
 21
191.8896239392966
 31
0.0
  0
LINE
  5
4E2
330
1F
100
AcDbEntity
  8
0
  6
Continuous
 62
     7
100
AcDbLine
 10
322.7625606792456
 20
190.5896239392966
 30
0.0
 11
325.9625606792456
 21
190.5896239392966
 31
0.0
  0
ARC
  5
4E3
330
1F
100
AcDbEntity
  8
0
  6
Continuous
 62
     7
100
AcDbCircle
 10
325.9625609033678
 20
208.2896237151741
 30
0.0
 40
0.2999997758775079
100
AcDbArc
 50
269.9999571957201
 51
0.0000428042936941
  0
ARC
  5
4E4
330
1F
100
AcDbEntity
  8
0
  6
Continuous
 62
     7
100
AcDbCircle
 10
325.9625608878583
 20
209.4423112962865
 30
0.0
 40
0.2999997913870785
100
AcDbArc
 50
0.0000273129059515
 51
89.48437050787243
  0
ARC
  5
4E5
330
1F
100
AcDbEntity
  8
0
  6
Continuous
 62
     7
100
AcDbCircle
 10
325.9625609033678
 20
199.5896237151741
 30
0.0
 40
0.2999997758775435
100
AcDbArc
 50
269.9999571957274
 51
0.0000428043002079
  0
ARC
  5
4E6
330
1F
100
AcDbEntity
  8
0
  6
Continuous
 62
     7
100
AcDbCircle
 10
325.9625609033678
 20
200.289624163419
 30
0.0
 40
0.299999775877579
100
AcDbArc
 50
359.9999571956996
 51
90.00004280427253
  0
LINE
  5
4E7
330
1F
100
AcDbEntity
  8
0
  6
Continuous
 62
     7
100
AcDbLine
 10
326.2625606792453
 20
200.2896239392967
 30
0.0
 11
326.2625606792453
 21
199.5896239392966
 31
0.0
  0
LINE
  5
4E8
330
1F
100
AcDbEntity
  8
0
  6
Continuous
 62
     7
100
AcDbLine
 10
322.7625606792456
 20
200.5896239392968
 30
0.0
 11
325.9625606792456
 21
200.5896239392968
 31
0.0
  0
LINE
  5
4E9
330
1F
100
AcDbEntity
  8
0
  6
Continuous
 62
     7
100
AcDbLine
 10
322.7625606792456
 20
199.2896239392966
 30
0.0
 11
325.9625606792456
 21
199.2896239392966
 31
0.0
  0
LINE
  5
4EA
330
1F
100
AcDbEntity
  8
0
  6
Continuous
 62
     7
100
AcDbLine
 10
326.2625606792453
 20
209.4423114392966
 30
0.0
 11
326.2625606792453
 21
208.2896239392967
 31
0.0
  0
LINE
  5
4EB
330
1F
100
AcDbEntity
  8
0
  6
Continuous
 62
     7
100
AcDbLine
 10
322.7625606792456
 20
207.9896239392966
 30
0.0
 11
325.9625606792456
 21
207.9896239392966
 31
0.0
  0
CIRCLE
  5
4EC
330
1F
100
AcDbEntity
  8
0
  6
Continuous
 62
     7
100
AcDbCircle
 10
443.8005004204709
 20
187.5396261805218
 30
0.0
 40
2.999997758775298
  0
CIRCLE
  5
4ED
330
1F
100
AcDbEntity
  8
0
  6
Continuous
 62
     7
100
AcDbCircle
 10
430.5005004204708
 20
187.5396261805218
 30
0.0
 40
2.999997758775298
  0
CIRCLE
  5
4EE
330
1F
100
AcDbEntity
  8
0
  6
Continuous
 62
     7
100
AcDbCircle
 10
417.2005004204708
 20
187.5396261805218
 30
0.0
 40
2.999997758775298
  0
LINE
  5
4EF
330
1F
100
AcDbEntity
  8
0
  6
Continuous
 62
     7
100
AcDbLine
 10
451.6004981792455
 20
209.3896239392964
 30
0.0
 11
451.6004981792455
 21
122.1896239392967
 31
0.0
  0
LINE
  5
4F0
330
1F
100
AcDbEntity
  8
0
  6
Continuous
 62
     7
100
AcDbLine
 10
454.5004981792455
 20
212.7896239392967
 30
0.0
 11
454.5004981792455
 21
118.7896239392967
 31
0.0
  0
LINE
  5
4F1
330
1F
100
AcDbEntity
  8
0
  6
Continuous
 62
     7
100
AcDbLine
 10
437.8004981792452
 20
191.2396239392966
 30
0.0
 11
437.8004981792452
 21
183.8396239392966
 31
0.0
  0
LINE
  5
4F2
330
1F
100
AcDbEntity
  8
0
  6
Continuous
 62
     7
100
AcDbLine
 10
448.8004981792453
 20
191.2396239392966
 30
0.0
 11
448.8004981792453
 21
183.8396239392966
 31
0.0
  0
LINE
  5
4F3
330
1F
100
AcDbEntity
  8
0
  6
Continuous
 62
     7
100
AcDbLine
 10
438.8004981792454
 20
191.2396239392966
 30
0.0
 11
438.8004981792454
 21
183.8396239392966
 31
0.0
  0
LINE
  5
4F4
330
1F
100
AcDbEntity
  8
0
  6
Continuous
 62
     7
100
AcDbLine
 10
435.5004981792453
 20
191.2396239392966
 30
0.0
 11
435.5004981792453
 21
183.8396239392966
 31
0.0
  0
LINE
  5
4F5
330
1F
100
AcDbEntity
  8
0
  6
Continuous
 62
     7
100
AcDbLine
 10
424.5004981792455
 20
191.2396239392966
 30
0.0
 11
424.5004981792455
 21
183.8396239392966
 31
0.0
  0
LINE
  5
4F6
330
1F
100
AcDbEntity
  8
0
  6
Continuous
 62
     7
100
AcDbLine
 10
425.5004981792454
 20
191.2396239392966
 30
0.0
 11
425.5004981792454
 21
183.8396239392966
 31
0.0
  0
LINE
  5
4F7
330
1F
100
AcDbEntity
  8
0
  6
Continuous
 62
     7
100
AcDbLine
 10
412.2004981792455
 20
191.2396239392966
 30
0.0
 11
412.2004981792455
 21
183.8396239392966
 31
0.0
  0
LINE
  5
4F8
330
1F
100
AcDbEntity
  8
0
  6
Continuous
 62
     7
100
AcDbLine
 10
422.2004981792456
 20
191.2396239392966
 30
0.0
 11
422.2004981792456
 21
183.8396239392966
 31
0.0
  0
LINE
  5
4F9
330
1F
100
AcDbEntity
  8
0
  6
Continuous
 62
     7
100
AcDbLine
 10
409.4004981792456
 20
209.3896239392964
 30
0.0
 11
409.4004981792456
 21
122.1896239392967
 31
0.0
  0
LINE
  5
4FA
330
1F
100
AcDbEntity
  8
0
  6
Continuous
 62
     7
100
AcDbLine
 10
406.5004981792456
 20
212.7896239392967
 30
0.0
 11
406.5004981792456
 21
118.7896239392967
 31
0.0
  0
LINE
  5
4FB
330
1F
100
AcDbEntity
  8
0
  6
Continuous
 62
     7
100
AcDbLine
 10
450.6004981792456
 20
121.1896239392967
 30
0.0
 11
410.4004981792455
 21
121.1896239392967
 31
0.0
  0
LINE
  5
4FC
330
1F
100
AcDbEntity
  8
0
  6
Continuous
 62
     7
100
AcDbLine
 10
451.6004981792455
 20
122.9396239392968
 30
0.0
 11
409.4004981792456
 21
122.9396239392968
 31
0.0
  0
LINE
  5
4FD
330
1F
100
AcDbEntity
  8
0
  6
Continuous
 62
     7
100
AcDbLine
 10
453.5004981792453
 20
117.7896239392967
 30
0.0
 11
407.5004981792456
 21
117.7896239392967
 31
0.0
  0
LINE
  5
4FE
330
1F
100
AcDbEntity
  8
0
  6
Continuous
 62
     7
100
AcDbLine
 10
451.1004981792456
 20
130.3396239392967
 30
0.0
 11
409.9004981792452
 21
130.3396239392967
 31
0.0
  0
LINE
  5
4FF
330
1F
100
AcDbEntity
  8
0
  6
Continuous
 62
     7
100
AcDbLine
 10
451.1004981792456
 20
139.0396239392968
 30
0.0
 11
409.9004981792452
 21
139.0396239392968
 31
0.0
  0
LINE
  5
500
330
1F
100
AcDbEntity
  8
0
  6
Continuous
 62
     7
100
AcDbLine
 10
451.1004981792456
 20
140.3396239392967
 30
0.0
 11
409.9004981792452
 21
140.3396239392967
 31
0.0
  0
LINE
  5
501
330
1F
100
AcDbEntity
  8
0
  6
Continuous
 62
     7
100
AcDbLine
 10
451.1004981792456
 20
147.7396239392966
 30
0.0
 11
409.9004981792452
 21
147.7396239392966
 31
0.0
  0
LINE
  5
502
330
1F
100
AcDbEntity
  8
0
  6
Continuous
 62
     7
100
AcDbLine
 10
451.1004981792456
 20
149.0396239392968
 30
0.0
 11
409.9004981792452
 21
149.0396239392968
 31
0.0
  0
LINE
  5
503
330
1F
100
AcDbEntity
  8
0
  6
Continuous
 62
     7
100
AcDbLine
 10
451.1004981792456
 20
156.4396239392964
 30
0.0
 11
409.9004981792452
 21
156.4396239392964
 31
0.0
  0
LINE
  5
504
330
1F
100
AcDbEntity
  8
0
  6
Continuous
 62
     7
100
AcDbLine
 10
451.1004981792456
 20
157.7396239392968
 30
0.0
 11
409.9004981792452
 21
157.7396239392968
 31
0.0
  0
LINE
  5
505
330
1F
100
AcDbEntity
  8
0
  6
Continuous
 62
     7
100
AcDbLine
 10
451.1004981792456
 20
165.1396239392964
 30
0.0
 11
409.9004981792452
 21
165.1396239392964
 31
0.0
  0
LINE
  5
506
330
1F
100
AcDbEntity
  8
0
  6
Continuous
 62
     7
100
AcDbLine
 10
451.1004981792456
 20
166.4396239392964
 30
0.0
 11
409.9004981792452
 21
166.4396239392964
 31
0.0
  0
LINE
  5
507
330
1F
100
AcDbEntity
  8
0
  6
Continuous
 62
     7
100
AcDbLine
 10
451.1004981792456
 20
173.8396239392966
 30
0.0
 11
409.9004981792452
 21
173.8396239392966
 31
0.0
  0
LINE
  5
508
330
1F
100
AcDbEntity
  8
0
  6
Continuous
 62
     7
100
AcDbLine
 10
451.1004981792456
 20
175.1396239392966
 30
0.0
 11
409.9004981792452
 21
175.1396239392966
 31
0.0
  0
LINE
  5
509
330
1F
100
AcDbEntity
  8
0
  6
Continuous
 62
     7
100
AcDbLine
 10
451.1004981792456
 20
182.5396239392968
 30
0.0
 11
409.9004981792452
 21
182.5396239392967
 31
0.0
  0
LINE
  5
50A
330
1F
100
AcDbEntity
  8
0
  6
Continuous
 62
     7
100
AcDbLine
 10
451.1004981792456
 20
183.8396239392966
 30
0.0
 11
409.9004981792452
 21
183.8396239392966
 31
0.0
  0
LINE
  5
50B
330
1F
100
AcDbEntity
  8
0
  6
Continuous
 62
     7
100
AcDbLine
 10
451.1004981792456
 20
131.6396239392967
 30
0.0
 11
409.9004981792452
 21
131.6396239392967
 31
0.0
  0
LINE
  5
50C
330
1F
100
AcDbEntity
  8
0
  6
Continuous
 62
     7
100
AcDbLine
 10
409.9004981792452
 20
140.3396239392967
 30
0.0
 11
409.9004981792452
 21
139.0396239392968
 31
0.0
  0
CIRCLE
  5
50D
330
1F
100
AcDbEntity
  8
0
  6
Continuous
 62
     7
100
AcDbCircle
 10
417.2005004204708
 20
135.3396261805219
 30
0.0
 40
2.999997758775298
  0
CIRCLE
  5
50E
330
1F
100
AcDbEntity
  8
0
  6
Continuous
 62
     7
100
AcDbCircle
 10
417.2005004204708
 20
126.639626180522
 30
0.0
 40
2.999997758775298
  0
LINE
  5
50F
330
1F
100
AcDbEntity
  8
0
  6
Continuous
 62
     7
100
AcDbLine
 10
412.2004981792455
 20
130.3396239392967
 30
0.0
 11
412.2004981792455
 21
122.9396239392968
 31
0.0
  0
ARC
  5
510
330
1F
100
AcDbEntity
  8
0
  6
Continuous
 62
     7
100
AcDbCircle
 10
407.5004974321704
 20
118.7896231922215
 30
0.0
 40
0.9999992529250736
100
AcDbArc
 50
179.9999571957128
 51
270.0000428042887
  0
ARC
  5
511
330
1F
100
AcDbEntity
  8
0
  6
Continuous
 62
     7
100
AcDbCircle
 10
410.4004974321703
 20
122.1896231922215
 30
0.0
 40
0.9999992529250736
100
AcDbArc
 50
179.9999571957175
 51
270.0000428042887
  0
LINE
  5
512
330
1F
100
AcDbEntity
  8
0
  6
Continuous
 62
     7
100
AcDbLine
 10
412.2004981792455
 20
139.0396239392968
 30
0.0
 11
412.2004981792455
 21
131.6396239392967
 31
0.0
  0
LINE
  5
513
330
1F
100
AcDbEntity
  8
0
  6
Continuous
 62
     7
100
AcDbLine
 10
409.9004981792452
 20
131.6396239392967
 30
0.0
 11
409.9004981792452
 21
130.3396239392967
 31
0.0
  0
CIRCLE
  5
514
330
1F
100
AcDbEntity
  8
0
  6
Continuous
 62
     7
100
AcDbCircle
 10
430.5005004204708
 20
135.3396261805219
 30
0.0
 40
2.999997758775298
  0
CIRCLE
  5
515
330
1F
100
AcDbEntity
  8
0
  6
Continuous
 62
     7
100
AcDbCircle
 10
430.5005004204708
 20
126.639626180522
 30
0.0
 40
2.999997758775298
  0
LINE
  5
516
330
1F
100
AcDbEntity
  8
0
  6
Continuous
 62
     7
100
AcDbLine
 10
424.5004981792455
 20
130.3396239392967
 30
0.0
 11
424.5004981792455
 21
122.9396239392968
 31
0.0
  0
LINE
  5
517
330
1F
100
AcDbEntity
  8
0
  6
Continuous
 62
     7
100
AcDbLine
 10
425.5004981792454
 20
130.3396239392967
 30
0.0
 11
425.5004981792454
 21
122.9396239392968
 31
0.0
  0
LINE
  5
518
330
1F
100
AcDbEntity
  8
0
  6
Continuous
 62
     7
100
AcDbLine
 10
422.2004981792456
 20
130.3396239392967
 30
0.0
 11
422.2004981792456
 21
122.9396239392968
 31
0.0
  0
LINE
  5
519
330
1F
100
AcDbEntity
  8
0
  6
Continuous
 62
     7
100
AcDbLine
 10
420.2004981792454
 20
126.6396239392967
 30
0.0
 11
420.2004981792454
 21
126.6396239392967
 31
0.0
  0
LINE
  5
51A
330
1F
100
AcDbEntity
  8
0
  6
Continuous
 62
     7
100
AcDbLine
 10
424.5004981792455
 20
139.0396239392968
 30
0.0
 11
424.5004981792455
 21
131.6396239392967
 31
0.0
  0
LINE
  5
51B
330
1F
100
AcDbEntity
  8
0
  6
Continuous
 62
     7
100
AcDbLine
 10
422.2004981792456
 20
139.0396239392968
 30
0.0
 11
422.2004981792456
 21
131.6396239392967
 31
0.0
  0
LINE
  5
51C
330
1F
100
AcDbEntity
  8
0
  6
Continuous
 62
     7
100
AcDbLine
 10
425.5004981792454
 20
139.0396239392968
 30
0.0
 11
425.5004981792454
 21
131.6396239392967
 31
0.0
  0
CIRCLE
  5
51D
330
1F
100
AcDbEntity
  8
0
  6
Continuous
 62
     7
100
AcDbCircle
 10
443.8005004204709
 20
126.639626180522
 30
0.0
 40
2.999997758775298
  0
LINE
  5
51E
330
1F
100
AcDbEntity
  8
0
  6
Continuous
 62
     7
100
AcDbLine
 10
448.8004981792453
 20
130.3396239392967
 30
0.0
 11
448.8004981792453
 21
122.9396239392968
 31
0.0
  0
LINE
  5
51F
330
1F
100
AcDbEntity
  8
0
  6
Continuous
 62
     7
100
AcDbLine
 10
437.8004981792452
 20
130.3396239392967
 30
0.0
 11
437.8004981792452
 21
122.9396239392968
 31
0.0
  0
LINE
  5
520
330
1F
100
AcDbEntity
  8
0
  6
Continuous
 62
     7
100
AcDbLine
 10
438.8004981792454
 20
130.3396239392967
 30
0.0
 11
438.8004981792454
 21
122.9396239392968
 31
0.0
  0
LINE
  5
521
330
1F
100
AcDbEntity
  8
0
  6
Continuous
 62
     7
100
AcDbLine
 10
435.5004981792453
 20
130.3396239392967
 30
0.0
 11
435.5004981792453
 21
122.9396239392968
 31
0.0
  0
CIRCLE
  5
522
330
1F
100
AcDbEntity
  8
0
  6
Continuous
 62
     7
100
AcDbCircle
 10
443.8005004204709
 20
135.3396261805219
 30
0.0
 40
2.999997758775298
  0
LINE
  5
523
330
1F
100
AcDbEntity
  8
0
  6
Continuous
 62
     7
100
AcDbLine
 10
437.8004981792452
 20
139.0396239392968
 30
0.0
 11
437.8004981792452
 21
131.6396239392967
 31
0.0
  0
LINE
  5
524
330
1F
100
AcDbEntity
  8
0
  6
Continuous
 62
     7
100
AcDbLine
 10
438.8004981792454
 20
139.0396239392968
 30
0.0
 11
438.8004981792454
 21
131.6396239392967
 31
0.0
  0
LINE
  5
525
330
1F
100
AcDbEntity
  8
0
  6
Continuous
 62
     7
100
AcDbLine
 10
435.5004981792453
 20
139.0396239392968
 30
0.0
 11
435.5004981792453
 21
131.6396239392967
 31
0.0
  0
LINE
  5
526
330
1F
100
AcDbEntity
  8
0
  6
Continuous
 62
     7
100
AcDbLine
 10
448.8004981792453
 20
139.0396239392968
 30
0.0
 11
448.8004981792453
 21
131.6396239392967
 31
0.0
  0
CIRCLE
  5
527
330
1F
100
AcDbEntity
  8
0
  6
Continuous
 62
     7
100
AcDbCircle
 10
417.2005004204708
 20
178.8396261805218
 30
0.0
 40
2.999997758775298
  0
CIRCLE
  5
528
330
1F
100
AcDbEntity
  8
0
  6
Continuous
 62
     7
100
AcDbCircle
 10
417.2005004204708
 20
170.139626180522
 30
0.0
 40
2.999997758775298
  0
CIRCLE
  5
529
330
1F
100
AcDbEntity
  8
0
  6
Continuous
 62
     7
100
AcDbCircle
 10
417.2005004204708
 20
161.439626180522
 30
0.0
 40
2.999997758775298
  0
CIRCLE
  5
52A
330
1F
100
AcDbEntity
  8
0
  6
Continuous
 62
     7
100
AcDbCircle
 10
417.2005004204708
 20
152.739626180522
 30
0.0
 40
2.999997758775298
  0
CIRCLE
  5
52B
330
1F
100
AcDbEntity
  8
0
  6
Continuous
 62
     7
100
AcDbCircle
 10
417.2005004204708
 20
144.0396261805219
 30
0.0
 40
2.999997758775298
  0
LINE
  5
52C
330
1F
100
AcDbEntity
  8
0
  6
Continuous
 62
     7
100
AcDbLine
 10
412.2004981792455
 20
165.1396239392964
 30
0.0
 11
412.2004981792455
 21
157.7396239392968
 31
0.0
  0
LINE
  5
52D
330
1F
100
AcDbEntity
  8
0
  6
Continuous
 62
     7
100
AcDbLine
 10
412.2004981792455
 20
156.4396239392964
 30
0.0
 11
412.2004981792455
 21
149.0396239392968
 31
0.0
  0
LINE
  5
52E
330
1F
100
AcDbEntity
  8
0
  6
Continuous
 62
     7
100
AcDbLine
 10
412.2004981792455
 20
147.7396239392966
 30
0.0
 11
412.2004981792455
 21
140.3396239392967
 31
0.0
  0
LINE
  5
52F
330
1F
100
AcDbEntity
  8
0
  6
Continuous
 62
     7
100
AcDbLine
 10
409.9004981792452
 20
149.0396239392968
 30
0.0
 11
409.9004981792452
 21
147.7396239392966
 31
0.0
  0
LINE
  5
530
330
1F
100
AcDbEntity
  8
0
  6
Continuous
 62
     7
100
AcDbLine
 10
409.9004981792452
 20
157.7396239392968
 30
0.0
 11
409.9004981792452
 21
156.4396239392964
 31
0.0
  0
LINE
  5
531
330
1F
100
AcDbEntity
  8
0
  6
Continuous
 62
     7
100
AcDbLine
 10
409.9004981792452
 20
175.1396239392966
 30
0.0
 11
409.9004981792452
 21
173.8396239392966
 31
0.0
  0
LINE
  5
532
330
1F
100
AcDbEntity
  8
0
  6
Continuous
 62
     7
100
AcDbLine
 10
412.2004981792455
 20
173.8396239392966
 30
0.0
 11
412.2004981792455
 21
166.4396239392964
 31
0.0
  0
LINE
  5
533
330
1F
100
AcDbEntity
  8
0
  6
Continuous
 62
     7
100
AcDbLine
 10
409.9004981792452
 20
166.4396239392964
 30
0.0
 11
409.9004981792452
 21
165.1396239392964
 31
0.0
  0
LINE
  5
534
330
1F
100
AcDbEntity
  8
0
  6
Continuous
 62
     7
100
AcDbLine
 10
412.2004981792455
 20
182.5396239392968
 30
0.0
 11
412.2004981792455
 21
175.1396239392966
 31
0.0
  0
LINE
  5
535
330
1F
100
AcDbEntity
  8
0
  6
Continuous
 62
     7
100
AcDbLine
 10
409.9004981792452
 20
183.8396239392966
 30
0.0
 11
409.9004981792452
 21
182.5396239392968
 31
0.0
  0
CIRCLE
  5
536
330
1F
100
AcDbEntity
  8
0
  6
Continuous
 62
     7
100
AcDbCircle
 10
443.8005004204709
 20
161.439626180522
 30
0.0
 40
2.999997758775298
  0
CIRCLE
  5
537
330
1F
100
AcDbEntity
  8
0
  6
Continuous
 62
     7
100
AcDbCircle
 10
430.5005004204708
 20
161.439626180522
 30
0.0
 40
2.999997758775298
  0
LINE
  5
538
330
1F
100
AcDbEntity
  8
0
  6
Continuous
 62
     7
100
AcDbLine
 10
437.8004981792452
 20
165.1396239392964
 30
0.0
 11
437.8004981792452
 21
157.7396239392968
 31
0.0
  0
LINE
  5
539
330
1F
100
AcDbEntity
  8
0
  6
Continuous
 62
     7
100
AcDbLine
 10
448.8004981792453
 20
165.1396239392964
 30
0.0
 11
448.8004981792453
 21
157.7396239392968
 31
0.0
  0
LINE
  5
53A
330
1F
100
AcDbEntity
  8
0
  6
Continuous
 62
     7
100
AcDbLine
 10
438.8004981792454
 20
165.1396239392964
 30
0.0
 11
438.8004981792454
 21
157.7396239392968
 31
0.0
  0
LINE
  5
53B
330
1F
100
AcDbEntity
  8
0
  6
Continuous
 62
     7
100
AcDbLine
 10
435.5004981792453
 20
165.1396239392964
 30
0.0
 11
435.5004981792453
 21
157.7396239392968
 31
0.0
  0
LINE
  5
53C
330
1F
100
AcDbEntity
  8
0
  6
Continuous
 62
     7
100
AcDbLine
 10
424.5004981792455
 20
165.1396239392964
 30
0.0
 11
424.5004981792455
 21
157.7396239392968
 31
0.0
  0
LINE
  5
53D
330
1F
100
AcDbEntity
  8
0
  6
Continuous
 62
     7
100
AcDbLine
 10
425.5004981792454
 20
165.1396239392964
 30
0.0
 11
425.5004981792454
 21
157.7396239392968
 31
0.0
  0
LINE
  5
53E
330
1F
100
AcDbEntity
  8
0
  6
Continuous
 62
     7
100
AcDbLine
 10
422.2004981792456
 20
165.1396239392964
 30
0.0
 11
422.2004981792456
 21
157.7396239392968
 31
0.0
  0
CIRCLE
  5
53F
330
1F
100
AcDbEntity
  8
0
  6
Continuous
 62
     7
100
AcDbCircle
 10
430.5005004204708
 20
152.739626180522
 30
0.0
 40
2.999997758775298
  0
CIRCLE
  5
540
330
1F
100
AcDbEntity
  8
0
  6
Continuous
 62
     7
100
AcDbCircle
 10
430.5005004204708
 20
144.0396261805219
 30
0.0
 40
2.999997758775298
  0
LINE
  5
541
330
1F
100
AcDbEntity
  8
0
  6
Continuous
 62
     7
100
AcDbLine
 10
424.5004981792455
 20
156.4396239392964
 30
0.0
 11
424.5004981792455
 21
149.0396239392968
 31
0.0
  0
LINE
  5
542
330
1F
100
AcDbEntity
  8
0
  6
Continuous
 62
     7
100
AcDbLine
 10
425.5004981792454
 20
156.4396239392964
 30
0.0
 11
425.5004981792454
 21
149.0396239392968
 31
0.0
  0
LINE
  5
543
330
1F
100
AcDbEntity
  8
0
  6
Continuous
 62
     7
100
AcDbLine
 10
422.2004981792456
 20
156.4396239392964
 30
0.0
 11
422.2004981792456
 21
149.0396239392968
 31
0.0
  0
LINE
  5
544
330
1F
100
AcDbEntity
  8
0
  6
Continuous
 62
     7
100
AcDbLine
 10
424.5004981792455
 20
147.7396239392966
 30
0.0
 11
424.5004981792455
 21
140.3396239392967
 31
0.0
  0
LINE
  5
545
330
1F
100
AcDbEntity
  8
0
  6
Continuous
 62
     7
100
AcDbLine
 10
422.2004981792456
 20
147.7396239392966
 30
0.0
 11
422.2004981792456
 21
140.3396239392967
 31
0.0
  0
LINE
  5
546
330
1F
100
AcDbEntity
  8
0
  6
Continuous
 62
     7
100
AcDbLine
 10
425.5004981792454
 20
147.7396239392966
 30
0.0
 11
425.5004981792454
 21
140.3396239392967
 31
0.0
  0
CIRCLE
  5
547
330
1F
100
AcDbEntity
  8
0
  6
Continuous
 62
     7
100
AcDbCircle
 10
443.8005004204709
 20
152.739626180522
 30
0.0
 40
2.999997758775298
  0
LINE
  5
548
330
1F
100
AcDbEntity
  8
0
  6
Continuous
 62
     7
100
AcDbLine
 10
448.8004981792453
 20
156.4396239392964
 30
0.0
 11
448.8004981792453
 21
149.0396239392968
 31
0.0
  0
LINE
  5
549
330
1F
100
AcDbEntity
  8
0
  6
Continuous
 62
     7
100
AcDbLine
 10
437.8004981792452
 20
156.4396239392964
 30
0.0
 11
437.8004981792452
 21
149.0396239392968
 31
0.0
  0
LINE
  5
54A
330
1F
100
AcDbEntity
  8
0
  6
Continuous
 62
     7
100
AcDbLine
 10
438.8004981792454
 20
156.4396239392964
 30
0.0
 11
438.8004981792454
 21
149.0396239392968
 31
0.0
  0
LINE
  5
54B
330
1F
100
AcDbEntity
  8
0
  6
Continuous
 62
     7
100
AcDbLine
 10
435.5004981792453
 20
156.4396239392964
 30
0.0
 11
435.5004981792453
 21
149.0396239392968
 31
0.0
  0
CIRCLE
  5
54C
330
1F
100
AcDbEntity
  8
0
  6
Continuous
 62
     7
100
AcDbCircle
 10
443.8005004204709
 20
144.0396261805219
 30
0.0
 40
2.999997758775298
  0
LINE
  5
54D
330
1F
100
AcDbEntity
  8
0
  6
Continuous
 62
     7
100
AcDbLine
 10
437.8004981792452
 20
147.7396239392966
 30
0.0
 11
437.8004981792452
 21
140.3396239392967
 31
0.0
  0
LINE
  5
54E
330
1F
100
AcDbEntity
  8
0
  6
Continuous
 62
     7
100
AcDbLine
 10
438.8004981792454
 20
147.7396239392966
 30
0.0
 11
438.8004981792454
 21
140.3396239392967
 31
0.0
  0
LINE
  5
54F
330
1F
100
AcDbEntity
  8
0
  6
Continuous
 62
     7
100
AcDbLine
 10
435.5004981792453
 20
147.7396239392966
 30
0.0
 11
435.5004981792453
 21
140.3396239392967
 31
0.0
  0
LINE
  5
550
330
1F
100
AcDbEntity
  8
0
  6
Continuous
 62
     7
100
AcDbLine
 10
448.8004981792453
 20
147.7396239392966
 30
0.0
 11
448.8004981792453
 21
140.3396239392967
 31
0.0
  0
CIRCLE
  5
551
330
1F
100
AcDbEntity
  8
0
  6
Continuous
 62
     7
100
AcDbCircle
 10
430.5005004204708
 20
178.8396261805218
 30
0.0
 40
2.999997758775298
  0
CIRCLE
  5
552
330
1F
100
AcDbEntity
  8
0
  6
Continuous
 62
     7
100
AcDbCircle
 10
430.5005004204708
 20
170.139626180522
 30
0.0
 40
2.999997758775298
  0
LINE
  5
553
330
1F
100
AcDbEntity
  8
0
  6
Continuous
 62
     7
100
AcDbLine
 10
424.5004981792455
 20
173.8396239392966
 30
0.0
 11
424.5004981792455
 21
166.4396239392964
 31
0.0
  0
LINE
  5
554
330
1F
100
AcDbEntity
  8
0
  6
Continuous
 62
     7
100
AcDbLine
 10
422.2004981792456
 20
173.8396239392966
 30
0.0
 11
422.2004981792456
 21
166.4396239392964
 31
0.0
  0
LINE
  5
555
330
1F
100
AcDbEntity
  8
0
  6
Continuous
 62
     7
100
AcDbLine
 10
425.5004981792454
 20
173.8396239392966
 30
0.0
 11
425.5004981792454
 21
166.4396239392964
 31
0.0
  0
LINE
  5
556
330
1F
100
AcDbEntity
  8
0
  6
Continuous
 62
     7
100
AcDbLine
 10
424.5004981792455
 20
182.5396239392968
 30
0.0
 11
424.5004981792455
 21
175.1396239392966
 31
0.0
  0
LINE
  5
557
330
1F
100
AcDbEntity
  8
0
  6
Continuous
 62
     7
100
AcDbLine
 10
422.2004981792456
 20
182.5396239392968
 30
0.0
 11
422.2004981792456
 21
175.1396239392966
 31
0.0
  0
LINE
  5
558
330
1F
100
AcDbEntity
  8
0
  6
Continuous
 62
     7
100
AcDbLine
 10
425.5004981792454
 20
182.5396239392968
 30
0.0
 11
425.5004981792454
 21
175.1396239392966
 31
0.0
  0
CIRCLE
  5
559
330
1F
100
AcDbEntity
  8
0
  6
Continuous
 62
     7
100
AcDbCircle
 10
443.8005004204709
 20
170.139626180522
 30
0.0
 40
2.999997758775298
  0
LINE
  5
55A
330
1F
100
AcDbEntity
  8
0
  6
Continuous
 62
     7
100
AcDbLine
 10
437.8004981792452
 20
173.8396239392966
 30
0.0
 11
437.8004981792452
 21
166.4396239392964
 31
0.0
  0
LINE
  5
55B
330
1F
100
AcDbEntity
  8
0
  6
Continuous
 62
     7
100
AcDbLine
 10
438.8004981792454
 20
173.8396239392966
 30
0.0
 11
438.8004981792454
 21
166.4396239392964
 31
0.0
  0
LINE
  5
55C
330
1F
100
AcDbEntity
  8
0
  6
Continuous
 62
     7
100
AcDbLine
 10
435.5004981792453
 20
173.8396239392966
 30
0.0
 11
435.5004981792453
 21
166.4396239392964
 31
0.0
  0
LINE
  5
55D
330
1F
100
AcDbEntity
  8
0
  6
Continuous
 62
     7
100
AcDbLine
 10
448.8004981792453
 20
173.8396239392966
 30
0.0
 11
448.8004981792453
 21
166.4396239392964
 31
0.0
  0
CIRCLE
  5
55E
330
1F
100
AcDbEntity
  8
0
  6
Continuous
 62
     7
100
AcDbCircle
 10
443.8005004204709
 20
178.8396261805218
 30
0.0
 40
2.999997758775298
  0
LINE
  5
55F
330
1F
100
AcDbEntity
  8
0
  6
Continuous
 62
     7
100
AcDbLine
 10
437.8004981792452
 20
182.5396239392968
 30
0.0
 11
437.8004981792452
 21
175.1396239392966
 31
0.0
  0
LINE
  5
560
330
1F
100
AcDbEntity
  8
0
  6
Continuous
 62
     7
100
AcDbLine
 10
438.8004981792454
 20
182.5396239392968
 30
0.0
 11
438.8004981792454
 21
175.1396239392966
 31
0.0
  0
LINE
  5
561
330
1F
100
AcDbEntity
  8
0
  6
Continuous
 62
     7
100
AcDbLine
 10
435.5004981792453
 20
182.5396239392968
 30
0.0
 11
435.5004981792453
 21
175.1396239392966
 31
0.0
  0
LINE
  5
562
330
1F
100
AcDbEntity
  8
0
  6
Continuous
 62
     7
100
AcDbLine
 10
448.8004981792453
 20
182.5396239392968
 30
0.0
 11
448.8004981792453
 21
175.1396239392966
 31
0.0
  0
LINE
  5
563
330
1F
100
AcDbEntity
  8
0
  6
Continuous
 62
     7
100
AcDbLine
 10
451.1004981792456
 20
140.3396239392967
 30
0.0
 11
451.1004981792456
 21
139.0396239392968
 31
0.0
  0
ARC
  5
564
330
1F
100
AcDbEntity
  8
0
  6
Continuous
 62
     7
100
AcDbCircle
 10
450.6004989263207
 20
122.1896231922215
 30
0.0
 40
0.9999992529250384
100
AcDbArc
 50
269.9999571957111
 51
0.000042804282295
  0
ARC
  5
565
330
1F
100
AcDbEntity
  8
0
  6
Continuous
 62
     7
100
AcDbCircle
 10
453.5004989263206
 20
118.7896231922215
 30
0.0
 40
0.9999992529251443
100
AcDbArc
 50
269.9999571957111
 51
0.000042804282295
  0
LINE
  5
566
330
1F
100
AcDbEntity
  8
0
  6
Continuous
 62
     7
100
AcDbLine
 10
451.1004981792456
 20
131.6396239392967
 30
0.0
 11
451.1004981792456
 21
130.3396239392967
 31
0.0
  0
LINE
  5
567
330
1F
100
AcDbEntity
  8
0
  6
Continuous
 62
     7
100
AcDbLine
 10
451.1004981792456
 20
149.0396239392968
 30
0.0
 11
451.1004981792456
 21
147.7396239392966
 31
0.0
  0
LINE
  5
568
330
1F
100
AcDbEntity
  8
0
  6
Continuous
 62
     7
100
AcDbLine
 10
451.1004981792456
 20
157.7396239392968
 30
0.0
 11
451.1004981792456
 21
156.4396239392964
 31
0.0
  0
LINE
  5
569
330
1F
100
AcDbEntity
  8
0
  6
Continuous
 62
     7
100
AcDbLine
 10
451.1004981792456
 20
175.1396239392966
 30
0.0
 11
451.1004981792456
 21
173.8396239392966
 31
0.0
  0
LINE
  5
56A
330
1F
100
AcDbEntity
  8
0
  6
Continuous
 62
     7
100
AcDbLine
 10
451.1004981792456
 20
166.4396239392964
 30
0.0
 11
451.1004981792456
 21
165.1396239392964
 31
0.0
  0
LINE
  5
56B
330
1F
100
AcDbEntity
  8
0
  6
Continuous
 62
     7
100
AcDbLine
 10
451.1004981792456
 20
183.8396239392966
 30
0.0
 11
451.1004981792456
 21
182.5396239392968
 31
0.0
  0
LINE
  5
56C
330
1F
100
AcDbEntity
  8
0
  6
Continuous
 62
     7
100
AcDbLine
 10
451.1004981792456
 20
192.5396239392966
 30
0.0
 11
409.9004981792452
 21
192.5396239392966
 31
0.0
  0
LINE
  5
56D
330
1F
100
AcDbEntity
  8
0
  6
Continuous
 62
     7
100
AcDbLine
 10
451.1004981792456
 20
191.2396239392966
 30
0.0
 11
409.9004981792452
 21
191.2396239392966
 31
0.0
  0
LINE
  5
56E
330
1F
100
AcDbEntity
  8
0
  6
Continuous
 62
     7
100
AcDbLine
 10
450.6004981792456
 20
210.3896239392966
 30
0.0
 11
410.4004981792455
 21
210.3896239392966
 31
0.0
  0
LINE
  5
56F
330
1F
100
AcDbEntity
  8
0
  6
Continuous
 62
     7
100
AcDbLine
 10
453.5004981792453
 20
213.7896239392968
 30
0.0
 11
407.5004981792456
 21
213.7896239392968
 31
0.0
  0
LINE
  5
570
330
1F
100
AcDbEntity
  8
0
  6
Continuous
 62
     7
100
AcDbLine
 10
451.6004981792455
 20
208.6396239392966
 30
0.0
 11
409.4004981792456
 21
208.6396239392966
 31
0.0
  0
LINE
  5
571
330
1F
100
AcDbEntity
  8
0
  6
Continuous
 62
     7
100
AcDbLine
 10
451.1004981792456
 20
201.2396239392966
 30
0.0
 11
409.9004981792454
 21
201.2396239392966
 31
0.0
  0
LINE
  5
572
330
1F
100
AcDbEntity
  8
0
  6
Continuous
 62
     7
100
AcDbLine
 10
451.1004981792456
 20
199.9396239392966
 30
0.0
 11
409.9004981792454
 21
199.9396239392966
 31
0.0
  0
CIRCLE
  5
573
330
1F
100
AcDbEntity
  8
0
  6
Continuous
 62
     7
100
AcDbCircle
 10
417.2005004204708
 20
204.9396261805219
 30
0.0
 40
2.999997758775298
  0
CIRCLE
  5
574
330
1F
100
AcDbEntity
  8
0
  6
Continuous
 62
     7
100
AcDbCircle
 10
417.2005004204708
 20
196.239626180522
 30
0.0
 40
2.999997758775298
  0
ARC
  5
575
330
1F
100
AcDbEntity
  8
0
  6
Continuous
 62
     7
100
AcDbCircle
 10
410.4004974321703
 20
209.3896246863717
 30
0.0
 40
0.9999992529251091
100
AcDbArc
 50
89.99995719571527
 51
180.0000428042855
  0
LINE
  5
576
330
1F
100
AcDbEntity
  8
0
  6
Continuous
 62
     7
100
AcDbLine
 10
412.2004981792455
 20
199.9396239392966
 30
0.0
 11
412.2004981792455
 21
192.5396239392966
 31
0.0
  0
LINE
  5
577
330
1F
100
AcDbEntity
  8
0
  6
Continuous
 62
     7
100
AcDbLine
 10
409.9004981792452
 20
192.5396239392966
 30
0.0
 11
409.9004981792452
 21
191.2396239392966
 31
0.0
  0
LINE
  5
578
330
1F
100
AcDbEntity
  8
0
  6
Continuous
 62
     7
100
AcDbLine
 10
412.2004981792455
 20
208.6396239392966
 30
0.0
 11
412.2004981792455
 21
201.2396239392966
 31
0.0
  0
LINE
  5
579
330
1F
100
AcDbEntity
  8
0
  6
Continuous
 62
     7
100
AcDbLine
 10
409.9004981792452
 20
201.2396239392966
 30
0.0
 11
409.9004981792452
 21
199.9396239392966
 31
0.0
  0
ARC
  5
57A
330
1F
100
AcDbEntity
  8
0
  6
Continuous
 62
     7
100
AcDbCircle
 10
407.5004974321704
 20
212.7896246863719
 30
0.0
 40
0.9999992529251091
100
AcDbArc
 50
89.99995719571119
 51
180.0000428042871
  0
CIRCLE
  5
57B
330
1F
100
AcDbEntity
  8
0
  6
Continuous
 62
     7
100
AcDbCircle
 10
430.5005004204708
 20
204.9396261805219
 30
0.0
 40
2.999997758775298
  0
CIRCLE
  5
57C
330
1F
100
AcDbEntity
  8
0
  6
Continuous
 62
     7
100
AcDbCircle
 10
430.5005004204708
 20
196.239626180522
 30
0.0
 40
2.999997758775298
  0
LINE
  5
57D
330
1F
100
AcDbEntity
  8
0
  6
Continuous
 62
     7
100
AcDbLine
 10
424.5004981792455
 20
199.9396239392966
 30
0.0
 11
424.5004981792455
 21
192.5396239392966
 31
0.0
  0
LINE
  5
57E
330
1F
100
AcDbEntity
  8
0
  6
Continuous
 62
     7
100
AcDbLine
 10
425.5004981792454
 20
199.9396239392966
 30
0.0
 11
425.5004981792454
 21
192.5396239392966
 31
0.0
  0
LINE
  5
57F
330
1F
100
AcDbEntity
  8
0
  6
Continuous
 62
     7
100
AcDbLine
 10
422.2004981792456
 20
199.9396239392966
 30
0.0
 11
422.2004981792456
 21
192.5396239392966
 31
0.0
  0
LINE
  5
580
330
1F
100
AcDbEntity
  8
0
  6
Continuous
 62
     7
100
AcDbLine
 10
424.5004981792455
 20
208.6396239392966
 30
0.0
 11
424.5004981792455
 21
201.2396239392966
 31
0.0
  0
LINE
  5
581
330
1F
100
AcDbEntity
  8
0
  6
Continuous
 62
     7
100
AcDbLine
 10
422.2004981792456
 20
208.6396239392966
 30
0.0
 11
422.2004981792456
 21
201.2396239392966
 31
0.0
  0
LINE
  5
582
330
1F
100
AcDbEntity
  8
0
  6
Continuous
 62
     7
100
AcDbLine
 10
425.5004981792454
 20
208.6396239392966
 30
0.0
 11
425.5004981792454
 21
201.2396239392966
 31
0.0
  0
CIRCLE
  5
583
330
1F
100
AcDbEntity
  8
0
  6
Continuous
 62
     7
100
AcDbCircle
 10
443.8005004204709
 20
196.239626180522
 30
0.0
 40
2.999997758775298
  0
LINE
  5
584
330
1F
100
AcDbEntity
  8
0
  6
Continuous
 62
     7
100
AcDbLine
 10
448.8004981792453
 20
199.9396239392966
 30
0.0
 11
448.8004981792453
 21
192.5396239392966
 31
0.0
  0
LINE
  5
585
330
1F
100
AcDbEntity
  8
0
  6
Continuous
 62
     7
100
AcDbLine
 10
437.8004981792452
 20
199.9396239392966
 30
0.0
 11
437.8004981792452
 21
192.5396239392966
 31
0.0
  0
LINE
  5
586
330
1F
100
AcDbEntity
  8
0
  6
Continuous
 62
     7
100
AcDbLine
 10
438.8004981792454
 20
199.9396239392966
 30
0.0
 11
438.8004981792454
 21
192.5396239392966
 31
0.0
  0
LINE
  5
587
330
1F
100
AcDbEntity
  8
0
  6
Continuous
 62
     7
100
AcDbLine
 10
435.5004981792453
 20
199.9396239392966
 30
0.0
 11
435.5004981792453
 21
192.5396239392966
 31
0.0
  0
CIRCLE
  5
588
330
1F
100
AcDbEntity
  8
0
  6
Continuous
 62
     7
100
AcDbCircle
 10
443.8005004204709
 20
204.9396261805219
 30
0.0
 40
2.999997758775298
  0
LINE
  5
589
330
1F
100
AcDbEntity
  8
0
  6
Continuous
 62
     7
100
AcDbLine
 10
437.8004981792452
 20
208.6396239392966
 30
0.0
 11
437.8004981792452
 21
201.2396239392966
 31
0.0
  0
LINE
  5
58A
330
1F
100
AcDbEntity
  8
0
  6
Continuous
 62
     7
100
AcDbLine
 10
438.8004981792454
 20
208.6396239392966
 30
0.0
 11
438.8004981792454
 21
201.2396239392966
 31
0.0
  0
LINE
  5
58B
330
1F
100
AcDbEntity
  8
0
  6
Continuous
 62
     7
100
AcDbLine
 10
435.5004981792453
 20
208.6396239392966
 30
0.0
 11
435.5004981792453
 21
201.2396239392966
 31
0.0
  0
LINE
  5
58C
330
1F
100
AcDbEntity
  8
0
  6
Continuous
 62
     7
100
AcDbLine
 10
448.8004981792453
 20
208.6396239392966
 30
0.0
 11
448.8004981792453
 21
201.2396239392966
 31
0.0
  0
ARC
  5
58D
330
1F
100
AcDbEntity
  8
0
  6
Continuous
 62
     7
100
AcDbCircle
 10
450.6004989263207
 20
209.3896246863717
 30
0.0
 40
0.9999992529251443
100
AcDbArc
 50
359.9999571957143
 51
90.00004280428473
  0
LINE
  5
58E
330
1F
100
AcDbEntity
  8
0
  6
Continuous
 62
     7
100
AcDbLine
 10
451.1004981792456
 20
192.5396239392966
 30
0.0
 11
451.1004981792456
 21
191.2396239392966
 31
0.0
  0
LINE
  5
58F
330
1F
100
AcDbEntity
  8
0
  6
Continuous
 62
     7
100
AcDbLine
 10
451.1004981792456
 20
201.2396239392966
 30
0.0
 11
451.1004981792456
 21
199.9396239392966
 31
0.0
  0
ARC
  5
590
330
1F
100
AcDbEntity
  8
0
  6
Continuous
 62
     7
100
AcDbCircle
 10
453.5004989263206
 20
212.7896246863719
 30
0.0
 40
0.9999992529252159
100
AcDbArc
 50
359.9999571957177
 51
90.00004280428878
  0
ENDSEC
  0
SECTION
  2
OBJECTS
  0
DICTIONARY
  5
C
330
0
100
AcDbDictionary
281
     1
  3
ACAD_GROUP
350
D
  3
ACAD_LAYOUT
350
1A
  3
ACAD_MLINESTYLE
350
17
  3
ACAD_PLOTSETTINGS
350
19
  3
ACAD_PLOTSTYLENAME
350
E
  0
DICTIONARY
  5
D
102
{ACAD_REACTORS
330
C
102
}
330
C
100
AcDbDictionary
281
     1
  0
DICTIONARY
  5
1A
102
{ACAD_REACTORS
330
C
102
}
330
C
100
AcDbDictionary
281
     1
  3
Model
350
22
  3
ﾚｲｱｳﾄ1
350
1E
  0
DICTIONARY
  5
17
102
{ACAD_REACTORS
330
C
102
}
330
C
100
AcDbDictionary
281
     1
  3
Standard
350
18
  0
DICTIONARY
  5
19
102
{ACAD_REACTORS
330
C
102
}
330
C
100
AcDbDictionary
281
     1
  0
ACDBDICTIONARYWDFLT
  5
E
102
{ACAD_REACTORS
330
C
102
}
330
C
100
AcDbDictionary
281
     1
  3
Normal
350
F
100
AcDbDictionaryWithDefault
340
F
  0
LAYOUT
  5
22
102
{ACAD_REACTORS
330
1A
102
}
330
1A
100
AcDbPlotSettings
  1

  2
A2 Printer TG2 RPCS
  4

  6

 40
0.0
 41
0.0
 42
0.0
 43
0.0
 44
0.0
 45
0.0
 46
0.0
 47
0.0
 48
0.0
 49
0.0
140
0.0
141
0.0
142
1.0
143
1.0
 70
  1712
 72
     0
 73
     0
 74
     0
  7

 75
     0
147
1.0
148
0.0
149
0.0
100
AcDbLayout
  1
Model
 70
     1
 71
     0
 10
0.0
 20
0.0
 11
12.0
 21
9.0
 12
0.0
 22
0.0
 32
0.0
 14
0.0
 24
0.0
 34
0.0
 15
0.0
 25
0.0
 35
0.0
146
0.0
 13
0.0
 23
0.0
 33
0.0
 16
1.0
 26
0.0
 36
0.0
 17
0.0
 27
1.0
 37
0.0
 76
     0
330
1F
  0
LAYOUT
  5
1E
102
{ACAD_REACTORS
330
1A
102
}
330
1A
100
AcDbPlotSettings
  1

  2
A2 Printer TG2 RPCS
  4

  6

 40
0.0
 41
0.0
 42
0.0
 43
0.0
 44
0.0
 45
0.0
 46
0.0
 47
0.0
 48
0.0
 49
0.0
140
0.0
141
0.0
142
1.0
143
1.0
 70
   688
 72
     0
 73
     0
 74
     5
  7

 75
    16
147
1.0
148
0.0
149
0.0
100
AcDbLayout
  1
ﾚｲｱｳﾄ1
 70
     1
 71
     1
 10
0.0
 20
0.0
 11
420.0
 21
297.0
 12
0.0
 22
0.0
 32
0.0
 14
1.000000000000000E+20
 24
1.000000000000000E+20
 34
1.000000000000000E+20
 15
-1.000000000000000E+20
 25
-1.000000000000000E+20
 35
-1.000000000000000E+20
146
0.0
 13
0.0
 23
0.0
 33
0.0
 16
1.0
 26
0.0
 36
0.0
 17
0.0
 27
1.0
 37
0.0
 76
     0
330
1B
  0
MLINESTYLE
  5
18
102
{ACAD_REACTORS
330
17
102
}
330
17
100
AcDbMlineStyle
  2
STANDARD
 70
     0
  3

 62
   256
 51
90.0
 52
90.0
 71
     2
 49
0.5
 62
   256
  6
BYLAYER
 49
-0.5
 62
   256
  6
BYLAYER
  0
ACDBPLACEHOLDER
  5
F
102
{ACAD_REACTORS
330
E
102
}
330
E
  0
ENDSEC
  0
EOF
