  0
SECTION
  2
HEADER
  9
$ACADVER
  1
AC1015
  9
$ACADMAINTVER
 70
     6
  9
$DWGCODEPAGE
  3
ANSI_1252
  9
$INSBASE
 10
0.0
 20
0.0
 30
0.0
  9
$EXTMIN
 10
0.0
 20
0.0
 30
0.0
  9
$EXTMAX
 10
777.0672
 20
610.697937
 30
2.0
  9
$LIMMIN
 10
0.0
 20
0.0
  9
$LIMMAX
 10
420.0
 20
297.0
  9
$ORTHOMODE
 70
     0
  9
$REGENMODE
 70
     1
  9
$FILLMODE
 70
     1
  9
$QTEXTMODE
 70
     0
  9
$MIRRTEXT
 70
     1
  9
$LTSCALE
 40
1.0
  9
$ATTMODE
 70
     1
  9
$TEXTSIZE
 40
2.5
  9
$TRACEWID
 40
1.0
  9
$TEXTSTYLE
  7
Standard
  9
$CLAYER
  8
0
  9
$CELTYPE
  6
ByLayer
  9
$CECOLOR
 62
   256
  9
$CELTSCALE
 40
1.0
  9
$DISPSILH
 70
     0
  9
$DIMSCALE
 40
1.0
  9
$DIMASZ
 40
2.5
  9
$DIMEXO
 40
0.625
  9
$DIMDLI
 40
3.75
  9
$DIMRND
 40
0.0
  9
$DIMDLE
 40
0.0
  9
$DIMEXE
 40
1.25
  9
$DIMTP
 40
0.0
  9
$DIMTM
 40
0.0
  9
$DIMTXT
 40
2.5
  9
$DIMCEN
 40
2.5
  9
$DIMTSZ
 40
0.0
  9
$DIMTOL
 70
     0
  9
$DIMLIM
 70
     0
  9
$DIMTIH
 70
     0
  9
$DIMTOH
 70
     0
  9
$DIMSE1
 70
     0
  9
$DIMSE2
 70
     0
  9
$DIMTAD
 70
     1
  9
$DIMZIN
 70
     8
  9
$DIMBLK
  1

  9
$DIMASO
 70
     1
  9
$DIMSHO
 70
     1
  9
$DIMPOST
  1

  9
$DIMAPOST
  1

  9
$DIMALT
 70
     0
  9
$DIMALTD
 70
     3
  9
$DIMALTF
 40
0.03937
  9
$DIMLFAC
 40
1.0
  9
$DIMTOFL
 70
     1
  9
$DIMTVP
 40
0.0
  9
$DIMTIX
 70
     0
  9
$DIMSOXD
 70
     0
  9
$DIMSAH
 70
     0
  9
$DIMBLK1
  1

  9
$DIMBLK2
  1

  9
$DIMSTYLE
  2
Standard
  9
$DIMCLRD
 70
     0
  9
$DIMCLRE
 70
     0
  9
$DIMCLRT
 70
     0
  9
$DIMTFAC
 40
1.0
  9
$DIMGAP
 40
0.625
  9
$DIMJUST
 70
     0
  9
$DIMSD1
 70
     0
  9
$DIMSD2
 70
     0
  9
$DIMTOLJ
 70
     0
  9
$DIMTZIN
 70
     8
  9
$DIMALTZ
 70
     0
  9
$DIMALTTZ
 70
     0
  9
$DIMUPT
 70
     0
  9
$DIMDEC
 70
     2
  9
$DIMTDEC
 70
     2
  9
$DIMALTU
 70
     2
  9
$DIMALTTD
 70
     3
  9
$DIMTXSTY
  7
Standard
  9
$DIMAUNIT
 70
     0
  9
$DIMADEC
 70
     0
  9
$DIMALTRND
 40
0.0
  9
$DIMAZIN
 70
     0
  9
$DIMDSEP
 70
    44
  9
$DIMATFIT
 70
     0
  9
$DIMFRAC
 70
     0
  9
$DIMLDRBLK
  1

  9
$DIMLUNIT
 70
     2
  9
$DIMLWD
 70
    -2
  9
$DIMLWE
 70
    -2
  9
$DIMTMOVE
 70
     0
  9
$LUNITS
 70
     2
  9
$LUPREC
 70
     4
  9
$SKETCHINC
 40
1.0
  9
$FILLETRAD
 40
2.5
  9
$AUNITS
 70
     0
  9
$AUPREC
 70
     0
  9
$MENU
  1
.
  9
$ELEVATION
 40
0.0
  9
$PELEVATION
 40
0.0
  9
$THICKNESS
 40
0.0
  9
$LIMCHECK
 70
     0
  9
$CHAMFERA
 40
2.5
  9
$CHAMFERB
 40
2.5
  9
$CHAMFERC
 40
0.0
  9
$CHAMFERD
 40
0.0
  9
$SKPOLY
 70
     0
  9
$TDCREATE
 40
2447893.375
  9
$TDUCREATE
 40
0.0
  9
$TDUPDATE
 40
2459513.423428484
  9
$TDUUPDATE
 40
2459513.048428484
  9
$TDINDWG
 40
0.0
  9
$TDUSRTIMER
 40
0.0
  9
$USRTIMER
 70
     1
  9
$ANGBASE
 50
0.0
  9
$ANGDIR
 70
     0
  9
$PDMODE
 70
     0
  9
$PDSIZE
 40
0.0
  9
$PLINEWID
 40
0.0
  9
$SPLFRAME
 70
     0
  9
$SPLINETYPE
 70
     6
  9
$SPLINESEGS
 70
     8
  9
$HANDSEED
  5
2F2
  9
$SURFTAB1
 70
     6
  9
$SURFTAB2
 70
     6
  9
$SURFTYPE
 70
     6
  9
$SURFU
 70
     6
  9
$SURFV
 70
     6
  9
$UCSBASE
  2

  9
$UCSNAME
  2

  9
$UCSORG
 10
0.0
 20
0.0
 30
0.0
  9
$UCSXDIR
 10
1.0
 20
0.0
 30
0.0
  9
$UCSYDIR
 10
0.0
 20
1.0
 30
0.0
  9
$UCSORTHOREF
  2

  9
$UCSORTHOVIEW
 70
     1
  9
$UCSORGTOP
 10
0.0
 20
0.0
 30
0.0
  9
$UCSORGBOTTOM
 10
0.0
 20
0.0
 30
0.0
  9
$UCSORGLEFT
 10
0.0
 20
0.0
 30
0.0
  9
$UCSORGRIGHT
 10
0.0
 20
0.0
 30
0.0
  9
$UCSORGFRONT
 10
0.0
 20
0.0
 30
0.0
  9
$UCSORGBACK
 10
0.0
 20
0.0
 30
0.0
  9
$PUCSBASE
  2

  9
$PUCSNAME
  2

  9
$PUCSORG
 10
0.0
 20
0.0
 30
0.0
  9
$PUCSXDIR
 10
1.0
 20
0.0
 30
0.0
  9
$PUCSYDIR
 10
0.0
 20
1.0
 30
0.0
  9
$PUCSORTHOREF
  2

  9
$PUCSORTHOVIEW
 70
     0
  9
$PUCSORGTOP
 10
0.0
 20
0.0
 30
0.0
  9
$PUCSORGBOTTOM
 10
0.0
 20
0.0
 30
0.0
  9
$PUCSORGLEFT
 10
0.0
 20
0.0
 30
0.0
  9
$PUCSORGRIGHT
 10
0.0
 20
0.0
 30
0.0
  9
$PUCSORGFRONT
 10
0.0
 20
0.0
 30
0.0
  9
$PUCSORGBACK
 10
0.0
 20
0.0
 30
0.0
  9
$USERI1
 70
     0
  9
$USERI2
 70
     0
  9
$USERI3
 70
     0
  9
$USERI4
 70
     0
  9
$USERI5
 70
     0
  9
$USERR1
 40
0.0
  9
$USERR2
 40
0.0
  9
$USERR3
 40
0.0
  9
$USERR4
 40
0.0
  9
$USERR5
 40
0.0
  9
$WORLDVIEW
 70
     1
  9
$SHADEDGE
 70
     3
  9
$SHADEDIF
 70
    70
  9
$TILEMODE
 70
     1
  9
$MAXACTVP
 70
    64
  9
$PINSBASE
 10
0.0
 20
0.0
 30
0.0
  9
$PLIMCHECK
 70
     0
  9
$PEXTMIN
 10
0.0
 20
0.0
 30
0.0
  9
$PEXTMAX
 10
777.0672
 20
610.697937
 30
2.0
  9
$PLIMMIN
 10
0.0
 20
0.0
  9
$PLIMMAX
 10
420.0
 20
297.0
  9
$UNITMODE
 70
     0
  9
$VISRETAIN
 70
     0
  9
$PLINEGEN
 70
     0
  9
$PSLTSCALE
 70
     1
  9
$TREEDEPTH
 70
  3020
  9
$CMLSTYLE
  2
Standard
  9
$CMLJUST
 70
     0
  9
$CMLSCALE
 40
20.0
  9
$PROXYGRAPHICS
 70
     1
  9
$MEASUREMENT
 70
     1
  9
$CELWEIGHT
370
    -1
  9
$ENDCAPS
280
     0
  9
$JOINSTYLE
280
     0
  9
$LWDISPLAY
290
     0
  9
$INSUNITS
 70
     0
  9
$HYPERLINKBASE
  1

  9
$STYLESHEET
  1

  9
$XEDIT
290
     1
  9
$CEPSNTYPE
380
     0
  9
$PSTYLEMODE
290
     0
  9
$FINGERPRINTGUID
  2
{70AA882F-4DAB-4E15-9593-C05734E22669}
  9
$VERSIONGUID
  2
{FAEB1C32-E019-11D5-929B-00C0DF256EC4}
  9
$EXTNAMES
290
     1
  9
$PSVPSCALE
 40
0.0
  9
$OLESTARTUP
290
     0
  0
ENDSEC
  0
SECTION
  2
CLASSES
  0
CLASS
  1
ACDBDICTIONARYWDFLT
  2
AcDbDictionaryWithDefault
  3
ObjectDBX Classes
 90
        0
280
     0
281
     0
  0
CLASS
  1
VISUALSTYLE
  2
AcDbVisualStyle
  3
ObjectDBX Classes
 90
     4095
280
     0
281
     0
  0
CLASS
  1
MATERIAL
  2
AcDbMaterial
  3
ObjectDBX Classes
 90
     1153
280
     0
281
     0
  0
CLASS
  1
SCALE
  2
AcDbScale
  3
ObjectDBX Classes
 90
     1153
280
     0
281
     0
  0
CLASS
  1
TABLESTYLE
  2
AcDbTableStyle
  3
ObjectDBX Classes
 90
     4095
280
     0
281
     0
  0
CLASS
  1
MLEADERSTYLE
  2
AcDbMLeaderStyle
  3
ACDB_MLEADERSTYLE_CLASS
 90
     4095
280
     0
281
     0
  0
CLASS
  1
SUN
  2
AcDbSun
  3
SCENEOE
 90
     1153
280
     0
281
     0
  0
CLASS
  1
ACDBPLACEHOLDER
  2
AcDbPlaceHolder
  3
ObjectDBX Classes
 90
        0
280
     0
281
     0
  0
CLASS
  1
LAYOUT
  2
AcDbLayout
  3
ObjectDBX Classes
 90
        0
280
     0
281
     0
  0
ENDSEC
  0
SECTION
  2
TABLES
  0
TABLE
  2
VPORT
  5
8
330
0
100
AcDbSymbolTable
 70
     1
  0
VPORT
  5
29
330
8
100
AcDbSymbolTableRecord
100
AcDbViewportTableRecord
  2
*Active
 70
     0
 10
0.0
 20
0.0
 11
1.0
 21
1.0
 12
10.429907
 22
4.5
 13
0.0
 23
0.0
 14
0.5
 24
0.5
 15
0.5
 25
0.5
 16
0.0
 26
0.0
 36
1.0
 17
0.0
 27
0.0
 37
0.0
 40
9.0
 41
1.972973
 42
50.0
 43
0.0
 44
0.0
 50
0.0
 51
0.0
 71
     0
 72
   100
 73
     1
 74
     3
 75
     0
 76
     0
 77
     0
 78
     0
281
     0
 65
     1
110
0.0
120
0.0
130
0.0
111
1.0
121
0.0
131
0.0
112
0.0
122
1.0
132
0.0
 79
     0
146
0.0
  0
ENDTAB
  0
TABLE
  2
LTYPE
  5
5
330
0
100
AcDbSymbolTable
 70
     1
  0
LTYPE
  5
14
330
5
100
AcDbSymbolTableRecord
100
AcDbLinetypeTableRecord
  2
ByBlock
 70
     0
  3

 72
    65
 73
     0
 40
0.0
  0
LTYPE
  5
15
330
5
100
AcDbSymbolTableRecord
100
AcDbLinetypeTableRecord
  2
ByLayer
 70
     0
  3

 72
    65
 73
     0
 40
0.0
  0
LTYPE
  5
16
330
5
100
AcDbSymbolTableRecord
100
AcDbLinetypeTableRecord
  2
Continuous
 70
     0
  3
Solid line
 72
    65
 73
     0
 40
0.0
  0
ENDTAB
  0
TABLE
  2
LAYER
  5
2
330
0
100
AcDbSymbolTable
 70
     1
  0
LAYER
  5
10
330
2
100
AcDbSymbolTableRecord
100
AcDbLayerTableRecord
  2
0
 70
     0
 62
     7
  6
Continuous
370
    -3
390
F
  0
ENDTAB
  0
TABLE
  2
STYLE
  5
3
330
0
100
AcDbSymbolTable
 70
     1
  0
STYLE
  5
11
330
3
100
AcDbSymbolTableRecord
100
AcDbTextStyleTableRecord
  2
Standard
 70
     0
 40
0.0
 41
1.0
 50
0.0
 71
     0
 42
2.5
  3
txt
  4

  0
ENDTAB
  0
TABLE
  2
VIEW
  5
6
330
0
100
AcDbSymbolTable
 70
     0
  0
ENDTAB
  0
TABLE
  2
UCS
  5
7
330
0
100
AcDbSymbolTable
 70
     0
  0
ENDTAB
  0
TABLE
  2
APPID
  5
9
330
0
100
AcDbSymbolTable
 70
     1
  0
APPID
  5
12
330
9
100
AcDbSymbolTableRecord
100
AcDbRegAppTableRecord
  2
ACAD
 70
     0
  0
ENDTAB
  0
TABLE
  2
DIMSTYLE
  5
A
330
0
100
AcDbSymbolTable
 70
     1
100
AcDbDimStyleTable
  0
DIMSTYLE
105
27
330
A
100
AcDbSymbolTableRecord
100
AcDbDimStyleTableRecord
  2
Standard
 70
     0
178
     0
340
11
  0
ENDTAB
  0
TABLE
  2
BLOCK_RECORD
  5
1
330
0
100
AcDbSymbolTable
 70
     1
  0
BLOCK_RECORD
  5
1F
330
1
100
AcDbSymbolTableRecord
100
AcDbBlockTableRecord
  2
*Model_Space
340
22
  0
BLOCK_RECORD
  5
1B
330
1
100
AcDbSymbolTableRecord
100
AcDbBlockTableRecord
  2
*Paper_Space
340
1E
  0
BLOCK_RECORD
  5
23
330
1
100
AcDbSymbolTableRecord
100
AcDbBlockTableRecord
  2
*Paper_Space0
340
26
  0
ENDTAB
  0
ENDSEC
  0
SECTION
  2
BLOCKS
  0
BLOCK
  5
20
330
1F
100
AcDbEntity
  8
0
100
AcDbBlockBegin
  2
*Model_Space
 70
     0
 10
0.0
 20
0.0
 30
0.0
  3
*Model_Space
  1

  0
ENDBLK
  5
21
330
1F
100
AcDbEntity
  8
0
100
AcDbBlockEnd
  0
BLOCK
  5
1C
330
1B
100
AcDbEntity
 67
     1
  8
0
100
AcDbBlockBegin
  2
*Paper_Space
 70
     0
 10
0.0
 20
0.0
 30
0.0
  3
*Paper_Space
  1

  0
ENDBLK
  5
1D
330
1B
100
AcDbEntity
 67
     1
  8
0
100
AcDbBlockEnd
  0
BLOCK
  5
24
330
23
100
AcDbEntity
  8
0
100
AcDbBlockBegin
  2
*Paper_Space0
 70
     0
 10
0.0
 20
0.0
 30
0.0
  3
*Paper_Space0
  1

  0
ENDBLK
  5
25
330
23
100
AcDbEntity
  8
0
100
AcDbBlockEnd
  0
ENDSEC
  0
SECTION
  2
ENTITIES
  0
ARC
  5
6E
330
1F
100
AcDbEntity
  8
0
 62
     7
370
    35
100
AcDbCircle
 10
578.554993
 20
420.765015
 30
0.0
 40
0.4
100
AcDbArc
 50
160.286112
 51
245.877832
  0
ARC
  5
6F
330
1F
100
AcDbEntity
  8
0
 62
     7
370
    35
100
AcDbCircle
 10
578.554993
 20
420.765015
 30
0.0
 40
0.4
100
AcDbArc
 50
294.12217
 51
19.713886
  0
ARC
  5
70
330
1F
100
AcDbEntity
  8
0
 62
     7
370
    35
100
AcDbCircle
 10
582.36499
 20
420.765015
 30
0.0
 40
0.4
100
AcDbArc
 50
160.286112
 51
245.877832
  0
ARC
  5
71
330
1F
100
AcDbEntity
  8
0
 62
     7
370
    35
100
AcDbCircle
 10
582.36499
 20
420.765015
 30
0.0
 40
0.4
100
AcDbArc
 50
294.12217
 51
19.713886
  0
LINE
  5
72
330
1F
100
AcDbEntity
  8
0
 62
     7
370
    35
100
AcDbLine
 10
617.25
 20
403.609985
 30
0.0
 11
621.25
 21
403.609985
 31
0.0
  0
LINE
  5
73
330
1F
100
AcDbEntity
  8
0
 62
     7
370
    35
100
AcDbLine
 10
621.25
 20
403.609985
 30
0.0
 11
624.509155
 21
404.75
 31
0.0
  0
LINE
  5
74
330
1F
100
AcDbEntity
  8
0
 62
     7
370
    35
100
AcDbLine
 10
624.75
 20
405.25
 30
0.0
 11
624.509155
 21
404.75
 31
0.0
  0
LINE
  5
75
330
1F
100
AcDbEntity
  8
0
 62
     7
370
    35
100
AcDbLine
 10
624.75
 20
405.25
 30
0.0
 11
624.75
 21
405.75
 31
0.0
  0
LINE
  5
76
330
1F
100
AcDbEntity
  8
0
 62
     7
370
    35
100
AcDbLine
 10
624.75
 20
405.75
 30
0.0
 11
623.25
 21
407.25
 31
0.0
  0
LINE
  5
77
330
1F
100
AcDbEntity
  8
0
 62
     7
370
    35
100
AcDbLine
 10
623.25
 20
407.25
 30
0.0
 11
623.25
 21
421.400024
 31
0.0
  0
LINE
  5
78
330
1F
100
AcDbEntity
  8
0
 62
     7
370
    35
100
AcDbLine
 10
623.25
 20
435.549988
 30
0.0
 11
623.25
 21
421.400024
 31
0.0
  0
LINE
  5
79
330
1F
100
AcDbEntity
  8
0
 62
     7
370
    35
100
AcDbLine
 10
624.75
 20
437.049988
 30
0.0
 11
623.25
 21
435.549988
 31
0.0
  0
LINE
  5
7A
330
1F
100
AcDbEntity
  8
0
 62
     7
370
    35
100
AcDbLine
 10
624.75
 20
437.549988
 30
0.0
 11
624.75
 21
437.049988
 31
0.0
  0
LINE
  5
7B
330
1F
100
AcDbEntity
  8
0
 62
     7
370
    35
100
AcDbLine
 10
624.75
 20
437.549988
 30
0.0
 11
624.509155
 21
438.049988
 31
0.0
  0
LINE
  5
7C
330
1F
100
AcDbEntity
  8
0
 62
     7
370
    35
100
AcDbLine
 10
621.25
 20
439.190002
 30
0.0
 11
624.509155
 21
438.049988
 31
0.0
  0
LINE
  5
7D
330
1F
100
AcDbEntity
  8
0
 62
     7
370
    35
100
AcDbLine
 10
617.25
 20
439.190002
 30
0.0
 11
621.25
 21
439.190002
 31
0.0
  0
LINE
  5
7E
330
1F
100
AcDbEntity
  8
0
 62
     7
370
    35
100
AcDbLine
 10
617.25
 20
402.400024
 30
0.0
 11
617.25
 21
440.400024
 31
0.0
  0
LINE
  5
7F
330
1F
100
AcDbEntity
  8
0
 62
     7
370
    35
100
AcDbLine
 10
607.849976
 20
438.499939
 30
0.0
 11
607.849976
 21
438.199951
 31
0.0
  0
LINE
  5
80
330
1F
100
AcDbEntity
  8
0
 62
     7
370
    35
100
AcDbLine
 10
607.849976
 20
430.199951
 30
0.0
 11
607.849976
 21
429.899963
 31
0.0
  0
LINE
  5
81
330
1F
100
AcDbEntity
  8
0
 62
     7
370
    35
100
AcDbLine
 10
583.049988
 20
405.399963
 30
0.0
 11
583.049988
 21
404.899963
 31
0.0
  0
LINE
  5
82
330
1F
100
AcDbEntity
  8
0
 62
     7
370
    35
100
AcDbLine
 10
575.449951
 20
420.899963
 30
0.0
 11
575.449951
 21
420.399963
 31
0.0
  0
LINE
  5
83
330
1F
100
AcDbEntity
  8
0
 62
     7
370
    35
100
AcDbLine
 10
607.949951
 20
438.5
 30
0.0
 11
607.949951
 21
429.900024
 31
0.0
  0
LINE
  5
84
330
1F
100
AcDbEntity
  8
0
 62
     7
370
    35
100
AcDbLine
 10
605.449951
 20
434.950012
 30
0.0
 11
605.449951
 21
433.450012
 31
0.0
  0
LINE
  5
85
330
1F
100
AcDbEntity
  8
0
 62
     7
370
    35
100
AcDbLine
 10
605.449951
 20
434.950012
 30
0.0
 11
606.949951
 21
434.950012
 31
0.0
  0
LINE
  5
86
330
1F
100
AcDbEntity
  8
0
 62
     7
370
    35
100
AcDbLine
 10
606.949951
 20
433.450012
 30
0.0
 11
605.449951
 21
433.450012
 31
0.0
  0
LINE
  5
87
330
1F
100
AcDbEntity
  8
0
 62
     7
370
    35
100
AcDbLine
 10
606.949951
 20
433.450012
 30
0.0
 11
606.949951
 21
434.950012
 31
0.0
  0
LINE
  5
88
330
1F
100
AcDbEntity
  8
0
 62
     7
370
    35
100
AcDbLine
 10
607.949951
 20
430.200012
 30
0.0
 11
604.449951
 21
430.200012
 31
0.0
  0
LINE
  5
89
330
1F
100
AcDbEntity
  8
0
 62
     7
370
    35
100
AcDbLine
 10
607.949951
 20
430.200012
 30
0.0
 11
607.949951
 21
438.200012
 31
0.0
  0
LINE
  5
8A
330
1F
100
AcDbEntity
  8
0
 62
     7
370
    35
100
AcDbLine
 10
607.949951
 20
438.200012
 30
0.0
 11
604.449951
 21
438.200012
 31
0.0
  0
LINE
  5
8B
330
1F
100
AcDbEntity
  8
0
 62
     7
370
    35
100
AcDbLine
 10
604.449951
 20
430.200012
 30
0.0
 11
604.449951
 21
438.200012
 31
0.0
  0
LINE
  5
8C
330
1F
100
AcDbEntity
  8
0
 62
     7
370
    35
100
AcDbLine
 10
586.349976
 20
438.700012
 30
0.0
 11
586.349976
 21
437.049988
 31
0.0
  0
LINE
  5
8D
330
1F
100
AcDbEntity
  8
0
 62
     7
370
    35
100
AcDbLine
 10
586.349976
 20
431.549988
 30
0.0
 11
586.349976
 21
429.900024
 31
0.0
  0
LINE
  5
8E
330
1F
100
AcDbEntity
  8
0
 62
     7
370
    35
100
AcDbLine
 10
586.349976
 20
420.900024
 30
0.0
 11
586.349976
 21
404.900024
 31
0.0
  0
LINE
  5
8F
330
1F
100
AcDbEntity
  8
0
 62
     7
370
    35
100
AcDbLine
 10
586.349976
 20
405.400024
 30
0.0
 11
586.349976
 21
420.400024
 31
0.0
  0
LINE
  5
90
330
1F
100
AcDbEntity
  8
0
 62
     7
370
    35
100
AcDbLine
 10
577.849976
 20
418.400024
 30
0.0
 11
577.849976
 21
416.100006
 31
0.0
  0
LINE
  5
91
330
1F
100
AcDbEntity
  8
0
 62
     7
370
    35
100
AcDbLine
 10
584.849976
 20
418.400024
 30
0.0
 11
577.849976
 21
418.400024
 31
0.0
  0
LINE
  5
92
330
1F
100
AcDbEntity
  8
0
 62
     7
370
    35
100
AcDbLine
 10
584.849976
 20
407.400024
 30
0.0
 11
584.849976
 21
418.400024
 31
0.0
  0
LINE
  5
93
330
1F
100
AcDbEntity
  8
0
 62
     7
370
    35
100
AcDbLine
 10
577.849976
 20
407.400024
 30
0.0
 11
584.849976
 21
407.400024
 31
0.0
  0
LINE
  5
94
330
1F
100
AcDbEntity
  8
0
 62
     7
370
    35
100
AcDbLine
 10
577.849976
 20
409.700012
 30
0.0
 11
577.849976
 21
407.400024
 31
0.0
  0
LINE
  5
95
330
1F
100
AcDbEntity
  8
0
 62
     7
370
    35
100
AcDbLine
 10
586.349976
 20
405.400024
 30
0.0
 11
574.849976
 21
405.400024
 31
0.0
  0
LINE
  5
96
330
1F
100
AcDbEntity
  8
0
 62
     7
370
    35
100
AcDbLine
 10
586.349976
 20
420.400024
 30
0.0
 11
574.849976
 21
420.400024
 31
0.0
  0
LINE
  5
97
330
1F
100
AcDbEntity
  8
0
 62
     7
370
    35
100
AcDbLine
 10
575.849976
 20
409.700012
 30
0.0
 11
575.849976
 21
416.100006
 31
0.0
  0
LINE
  5
98
330
1F
100
AcDbEntity
  8
0
 62
     7
370
    35
100
AcDbLine
 10
574.849976
 20
416.100006
 30
0.0
 11
574.849976
 21
420.400024
 31
0.0
  0
LINE
  5
99
330
1F
100
AcDbEntity
  8
0
 62
     7
370
    35
100
AcDbLine
 10
574.849976
 20
405.400024
 30
0.0
 11
574.849976
 21
409.700012
 31
0.0
  0
LINE
  5
9A
330
1F
100
AcDbEntity
  8
0
 62
     7
370
    35
100
AcDbLine
 10
574.849976
 20
416.100006
 30
0.0
 11
574.849976
 21
409.700012
 31
0.0
  0
LINE
  5
9B
330
1F
100
AcDbEntity
  8
0
 62
     7
370
    35
100
AcDbLine
 10
577.849976
 20
409.700012
 30
0.0
 11
574.849976
 21
409.700012
 31
0.0
  0
LINE
  5
9C
330
1F
100
AcDbEntity
  8
0
 62
     7
370
    35
100
AcDbLine
 10
574.849976
 20
416.100006
 30
0.0
 11
577.849976
 21
416.100006
 31
0.0
  0
LINE
  5
9D
330
1F
100
AcDbEntity
  8
0
 62
     7
370
    35
100
AcDbLine
 10
577.149963
 20
417.549988
 30
0.0
 11
577.149963
 21
419.549988
 31
0.0
  0
LINE
  5
9E
330
1F
100
AcDbEntity
  8
0
 62
     7
370
    35
100
AcDbLine
 10
577.149963
 20
417.549988
 30
0.0
 11
575.649963
 21
417.549988
 31
0.0
  0
LINE
  5
9F
330
1F
100
AcDbEntity
  8
0
 62
     7
370
    35
100
AcDbLine
 10
575.649963
 20
419.549988
 30
0.0
 11
575.649963
 21
417.549988
 31
0.0
  0
LINE
  5
A0
330
1F
100
AcDbEntity
  8
0
 62
     7
370
    35
100
AcDbLine
 10
575.649963
 20
419.549988
 30
0.0
 11
577.149963
 21
419.549988
 31
0.0
  0
LINE
  5
A1
330
1F
100
AcDbEntity
  8
0
 62
     7
370
    35
100
AcDbLine
 10
577.149963
 20
408.25
 30
0.0
 11
577.149963
 21
406.25
 31
0.0
  0
LINE
  5
A2
330
1F
100
AcDbEntity
  8
0
 62
     7
370
    35
100
AcDbLine
 10
575.649963
 20
406.25
 30
0.0
 11
577.149963
 21
406.25
 31
0.0
  0
LINE
  5
A3
330
1F
100
AcDbEntity
  8
0
 62
     7
370
    35
100
AcDbLine
 10
575.649963
 20
406.25
 30
0.0
 11
575.649963
 21
408.25
 31
0.0
  0
LINE
  5
A4
330
1F
100
AcDbEntity
  8
0
 62
     7
370
    35
100
AcDbLine
 10
577.149963
 20
408.25
 30
0.0
 11
575.649963
 21
408.25
 31
0.0
  0
LINE
  5
A5
330
1F
100
AcDbEntity
  8
0
 62
     7
370
    35
100
AcDbLine
 10
584.349976
 20
437.75
 30
0.0
 11
585.849976
 21
437.75
 31
0.0
  0
LINE
  5
A6
330
1F
100
AcDbEntity
  8
0
 62
     7
370
    35
100
AcDbLine
 10
584.349976
 20
438.350006
 30
0.0
 11
584.349976
 21
437.75
 31
0.0
  0
LINE
  5
A7
330
1F
100
AcDbEntity
  8
0
 62
     7
370
    35
100
AcDbLine
 10
584.349976
 20
438.350006
 30
0.0
 11
585.849976
 21
438.350006
 31
0.0
  0
LINE
  5
A8
330
1F
100
AcDbEntity
  8
0
 62
     7
370
    35
100
AcDbLine
 10
585.849976
 20
438.350006
 30
0.0
 11
585.849976
 21
437.75
 31
0.0
  0
LINE
  5
A9
330
1F
100
AcDbEntity
  8
0
 62
     7
370
    35
100
AcDbLine
 10
585.849976
 20
438.5
 30
0.0
 11
585.849976
 21
438.350006
 31
0.0
  0
LINE
  5
AA
330
1F
100
AcDbEntity
  8
0
 62
     7
370
    35
100
AcDbLine
 10
584.349976
 20
438.5
 30
0.0
 11
584.349976
 21
438.350006
 31
0.0
  0
LINE
  5
AB
330
1F
100
AcDbEntity
  8
0
 62
     7
370
    35
100
AcDbLine
 10
584.349976
 20
438.5
 30
0.0
 11
585.849976
 21
438.5
 31
0.0
  0
LINE
  5
AC
330
1F
100
AcDbEntity
  8
0
 62
     7
370
    35
100
AcDbLine
 10
586.049988
 20
437.75
 30
0.0
 11
585.849976
 21
437.75
 31
0.0
  0
LINE
  5
AD
330
1F
100
AcDbEntity
  8
0
 62
     7
370
    35
100
AcDbLine
 10
584.349976
 20
437.75
 30
0.0
 11
584.149963
 21
437.75
 31
0.0
  0
LINE
  5
AE
330
1F
100
AcDbEntity
  8
0
 62
     7
370
    35
100
AcDbLine
 10
586.049988
 20
437.049988
 30
0.0
 11
586.049988
 21
437.75
 31
0.0
  0
LINE
  5
AF
330
1F
100
AcDbEntity
  8
0
 62
     7
370
    35
100
AcDbLine
 10
586.349976
 20
437.049988
 30
0.0
 11
586.349976
 21
438.049988
 31
0.0
  0
LINE
  5
B0
330
1F
100
AcDbEntity
  8
0
 62
     7
370
    35
100
AcDbLine
 10
586.349976
 20
438.049988
 30
0.0
 11
585.849976
 21
438.049988
 31
0.0
  0
LINE
  5
B1
330
1F
100
AcDbEntity
  8
0
 62
     7
370
    35
100
AcDbLine
 10
584.349976
 20
438.049988
 30
0.0
 11
583.849976
 21
438.049988
 31
0.0
  0
LINE
  5
B2
330
1F
100
AcDbEntity
  8
0
 62
     7
370
    35
100
AcDbLine
 10
583.849976
 20
437.049988
 30
0.0
 11
583.849976
 21
438.049988
 31
0.0
  0
LINE
  5
B3
330
1F
100
AcDbEntity
  8
0
 62
     7
370
    35
100
AcDbLine
 10
584.149963
 20
437.049988
 30
0.0
 11
584.149963
 21
437.75
 31
0.0
  0
LINE
  5
B4
330
1F
100
AcDbEntity
  8
0
 62
     7
370
    35
100
AcDbLine
 10
584.149963
 20
430.850006
 30
0.0
 11
584.149963
 21
431.549988
 31
0.0
  0
LINE
  5
B5
330
1F
100
AcDbEntity
  8
0
 62
     7
370
    35
100
AcDbLine
 10
584.149963
 20
437.049988
 30
0.0
 11
584.149963
 21
431.549988
 31
0.0
  0
LINE
  5
B6
330
1F
100
AcDbEntity
  8
0
 62
     7
370
    35
100
AcDbLine
 10
586.049988
 20
430.850006
 30
0.0
 11
586.049988
 21
431.549988
 31
0.0
  0
LINE
  5
B7
330
1F
100
AcDbEntity
  8
0
 62
     7
370
    35
100
AcDbLine
 10
586.049988
 20
431.549988
 30
0.0
 11
586.049988
 21
437.049988
 31
0.0
  0
LINE
  5
B8
330
1F
100
AcDbEntity
  8
0
 62
     7
370
    35
100
AcDbLine
 10
586.049988
 20
437.049988
 30
0.0
 11
586.364746
 21
437.049988
 31
0.0
  0
LINE
  5
B9
330
1F
100
AcDbEntity
  8
0
 62
     7
370
    35
100
AcDbLine
 10
586.364746
 20
437.049988
 30
0.0
 11
586.599976
 21
437.049988
 31
0.0
  0
LINE
  5
BA
330
1F
100
AcDbEntity
  8
0
 62
     7
370
    35
100
AcDbLine
 10
583.849976
 20
430.549988
 30
0.0
 11
583.849976
 21
431.549988
 31
0.0
  0
LINE
  5
BB
330
1F
100
AcDbEntity
  8
0
 62
     7
370
    35
100
AcDbLine
 10
583.835266
 20
437.049988
 30
0.0
 11
583.599976
 21
437.049988
 31
0.0
  0
LINE
  5
BC
330
1F
100
AcDbEntity
  8
0
 62
     7
370
    35
100
AcDbLine
 10
584.149963
 20
437.049988
 30
0.0
 11
583.835266
 21
437.049988
 31
0.0
  0
LINE
  5
BD
330
1F
100
AcDbEntity
  8
0
 62
     7
370
    35
100
AcDbLine
 10
584.349976
 20
430.850006
 30
0.0
 11
584.149963
 21
430.850006
 31
0.0
  0
LINE
  5
BE
330
1F
100
AcDbEntity
  8
0
 62
     7
370
    35
100
AcDbLine
 10
585.849976
 20
430.850006
 30
0.0
 11
584.349976
 21
430.850006
 31
0.0
  0
LINE
  5
BF
330
1F
100
AcDbEntity
  8
0
 62
     7
370
    35
100
AcDbLine
 10
586.049988
 20
430.850006
 30
0.0
 11
585.849976
 21
430.850006
 31
0.0
  0
LINE
  5
C0
330
1F
100
AcDbEntity
  8
0
 62
     7
370
    35
100
AcDbLine
 10
584.349976
 20
430.549988
 30
0.0
 11
583.849976
 21
430.549988
 31
0.0
  0
LINE
  5
C1
330
1F
100
AcDbEntity
  8
0
 62
     7
370
    35
100
AcDbLine
 10
583.835266
 20
437.049988
 30
0.0
 11
583.835266
 21
431.549988
 31
0.0
  0
LINE
  5
C2
330
1F
100
AcDbEntity
  8
0
 62
     7
370
    35
100
AcDbLine
 10
584.149963
 20
431.549988
 30
0.0
 11
583.835266
 21
431.549988
 31
0.0
  0
LINE
  5
C3
330
1F
100
AcDbEntity
  8
0
 62
     7
370
    35
100
AcDbLine
 10
586.349976
 20
430.549988
 30
0.0
 11
585.849976
 21
430.549988
 31
0.0
  0
LINE
  5
C4
330
1F
100
AcDbEntity
  8
0
 62
     7
370
    35
100
AcDbLine
 10
586.349976
 20
430.549988
 30
0.0
 11
586.349976
 21
431.549988
 31
0.0
  0
LINE
  5
C5
330
1F
100
AcDbEntity
  8
0
 62
     7
370
    35
100
AcDbLine
 10
586.364746
 20
437.049988
 30
0.0
 11
586.364746
 21
431.549988
 31
0.0
  0
LINE
  5
C6
330
1F
100
AcDbEntity
  8
0
 62
     7
370
    35
100
AcDbLine
 10
586.049988
 20
431.549988
 30
0.0
 11
586.364746
 21
431.549988
 31
0.0
  0
LINE
  5
C7
330
1F
100
AcDbEntity
  8
0
 62
     7
370
    35
100
AcDbLine
 10
586.599976
 20
437.049988
 30
0.0
 11
586.599976
 21
431.549988
 31
0.0
  0
LINE
  5
C8
330
1F
100
AcDbEntity
  8
0
 62
     7
370
    35
100
AcDbLine
 10
586.364746
 20
431.549988
 30
0.0
 11
586.599976
 21
431.549988
 31
0.0
  0
LINE
  5
C9
330
1F
100
AcDbEntity
  8
0
 62
     7
370
    35
100
AcDbLine
 10
583.599976
 20
437.049988
 30
0.0
 11
583.599976
 21
431.549988
 31
0.0
  0
LINE
  5
CA
330
1F
100
AcDbEntity
  8
0
 62
     7
370
    35
100
AcDbLine
 10
583.835266
 20
431.549988
 30
0.0
 11
583.599976
 21
431.549988
 31
0.0
  0
LINE
  5
CB
330
1F
100
AcDbEntity
  8
0
 62
     7
370
    35
100
AcDbLine
 10
584.349976
 20
430.25
 30
0.0
 11
585.849976
 21
430.25
 31
0.0
  0
LINE
  5
CC
330
1F
100
AcDbEntity
  8
0
 62
     7
370
    35
100
AcDbLine
 10
584.349976
 20
430.25
 30
0.0
 11
584.349976
 21
430.850006
 31
0.0
  0
LINE
  5
CD
330
1F
100
AcDbEntity
  8
0
 62
     7
370
    35
100
AcDbLine
 10
585.849976
 20
430.25
 30
0.0
 11
585.849976
 21
430.850006
 31
0.0
  0
LINE
  5
CE
330
1F
100
AcDbEntity
  8
0
 62
     7
370
    35
100
AcDbLine
 10
584.349976
 20
430.100006
 30
0.0
 11
584.349976
 21
430.25
 31
0.0
  0
LINE
  5
CF
330
1F
100
AcDbEntity
  8
0
 62
     7
370
    35
100
AcDbLine
 10
585.849976
 20
430.100006
 30
0.0
 11
585.849976
 21
430.25
 31
0.0
  0
LINE
  5
D0
330
1F
100
AcDbEntity
  8
0
 62
     7
370
    35
100
AcDbLine
 10
584.349976
 20
430.100006
 30
0.0
 11
585.849976
 21
430.100006
 31
0.0
  0
LINE
  5
D1
330
1F
100
AcDbEntity
  8
0
 62
     7
370
    35
100
AcDbLine
 10
602.949951
 20
472.900024
 30
0.0
 11
606.449951
 21
472.900024
 31
0.0
  0
LINE
  5
D2
330
1F
100
AcDbEntity
  8
0
 62
     7
370
    35
100
AcDbLine
 10
589.449951
 20
472.900024
 30
0.0
 11
592.949951
 21
472.900024
 31
0.0
  0
LINE
  5
D3
330
1F
100
AcDbEntity
  8
0
 62
     7
370
    35
100
AcDbLine
 10
606.449951
 20
472.900024
 30
0.0
 11
606.949951
 21
472.900024
 31
0.0
  0
LINE
  5
D4
330
1F
100
AcDbEntity
  8
0
 62
     7
370
    35
100
AcDbLine
 10
589.249756
 20
472.900024
 30
0.0
 11
589.449951
 21
472.900024
 31
0.0
  0
LINE
  5
D5
330
1F
100
AcDbEntity
  8
0
 62
     7
370
    35
100
AcDbLine
 10
606.949951
 20
472.900024
 30
0.0
 11
607.449951
 21
472.900024
 31
0.0
  0
LINE
  5
D6
330
1F
100
AcDbEntity
  8
0
 62
     7
370
    35
100
AcDbLine
 10
616.75
 20
472.900024
 30
0.0
 11
607.449951
 21
472.900024
 31
0.0
  0
LINE
  5
D7
330
1F
100
AcDbEntity
  8
0
 62
     7
370
    35
100
AcDbLine
 10
569.249939
 20
472.900024
 30
0.0
 11
567.75
 21
472.900024
 31
0.0
  0
ARC
  5
D8
330
1F
100
AcDbEntity
  8
0
 62
     7
370
    35
100
AcDbCircle
 10
567.75
 20
472.400024
 30
0.0
 40
0.5
100
AcDbArc
 50
90.000003
 51
180.000005
  0
LINE
  5
D9
330
1F
100
AcDbEntity
  8
0
 62
     7
370
    35
100
AcDbLine
 10
617.25
 20
472.400024
 30
0.0
 11
617.25
 21
466.100006
 31
0.0
  0
LINE
  5
DA
330
1F
100
AcDbEntity
  8
0
 62
     7
370
    35
100
AcDbLine
 10
617.25
 20
466.100006
 30
0.0
 11
617.25
 21
441.400024
 31
0.0
  0
LINE
  5
DB
330
1F
100
AcDbEntity
  8
0
 62
     7
370
    35
100
AcDbLine
 10
617.25
 20
441.400024
 30
0.0
 11
617.25
 21
439.190002
 31
0.0
  0
LINE
  5
DC
330
1F
100
AcDbEntity
  8
0
 62
     7
370
    35
100
AcDbLine
 10
617.25
 20
403.609985
 30
0.0
 11
617.25
 21
401.400024
 31
0.0
  0
LINE
  5
DD
330
1F
100
AcDbEntity
  8
0
 62
     7
370
    35
100
AcDbLine
 10
617.25
 20
377.100006
 30
0.0
 11
617.25
 21
401.400024
 31
0.0
  0
LINE
  5
DE
330
1F
100
AcDbEntity
  8
0
 62
     7
370
    35
100
AcDbLine
 10
617.25
 20
377.100006
 30
0.0
 11
617.25
 21
374.400024
 31
0.0
  0
LINE
  5
DF
330
1F
100
AcDbEntity
  8
0
 62
     7
370
    35
100
AcDbLine
 10
617.25
 20
373.400024
 30
0.0
 11
617.25
 21
374.400024
 31
0.0
  0
LINE
  5
E0
330
1F
100
AcDbEntity
  8
0
 62
     7
370
    35
100
AcDbLine
 10
620.649963
 20
398.900024
 30
0.0
 11
621.149963
 21
398.900024
 31
0.0
  0
LINE
  5
E1
330
1F
100
AcDbEntity
  8
0
 62
     7
370
    35
100
AcDbLine
 10
619.649963
 20
398.900024
 30
0.0
 11
617.25
 21
398.900024
 31
0.0
  0
LINE
  5
E2
330
1F
100
AcDbEntity
  8
0
 62
     7
370
    35
100
AcDbLine
 10
619.649963
 20
398.900024
 30
0.0
 11
620.649963
 21
398.900024
 31
0.0
  0
LINE
  5
E3
330
1F
100
AcDbEntity
  8
0
 62
     7
370
    35
100
AcDbLine
 10
619.149963
 20
400.900024
 30
0.0
 11
619.649963
 21
398.900024
 31
0.0
  0
LINE
  5
E4
330
1F
100
AcDbEntity
  8
0
 62
     7
370
    35
100
AcDbLine
 10
617.25
 20
400.900024
 30
0.0
 11
619.149963
 21
400.900024
 31
0.0
  0
LINE
  5
E5
330
1F
100
AcDbEntity
  8
0
 62
     7
370
    35
100
AcDbLine
 10
620.649963
 20
403.350006
 30
0.0
 11
617.25
 21
403.350006
 31
0.0
  0
LINE
  5
E6
330
1F
100
AcDbEntity
  8
0
 62
     7
370
    35
100
AcDbLine
 10
621.149963
 20
402.850006
 30
0.0
 11
621.149963
 21
398.900024
 31
0.0
  0
ARC
  5
E7
330
1F
100
AcDbEntity
  8
0
 62
     7
370
    35
100
AcDbCircle
 10
620.649963
 20
402.850006
 30
0.0
 40
0.5
100
AcDbArc
 50
0.0
 51
90.000003
  0
ARC
  5
E8
330
1F
100
AcDbEntity
  8
0
 62
     7
370
    35
100
AcDbCircle
 10
618.25
 20
390.400024
 30
0.0
 40
0.5
100
AcDbArc
 50
0.0
 51
90.000003
  0
ARC
  5
E9
330
1F
100
AcDbEntity
  8
0
 62
     7
370
    35
100
AcDbCircle
 10
618.25
 20
387.400024
 30
0.0
 40
0.5
100
AcDbArc
 50
269.999997
 51
360.0
  0
LINE
  5
EA
330
1F
100
AcDbEntity
  8
0
 62
     7
370
    35
100
AcDbLine
 10
618.75
 20
390.400024
 30
0.0
 11
618.75
 21
387.400024
 31
0.0
  0
LINE
  5
EB
330
1F
100
AcDbEntity
  8
0
 62
     7
370
    35
100
AcDbLine
 10
618.75
 20
460.400024
 30
0.0
 11
618.75
 21
457.400024
 31
0.0
  0
ARC
  5
EC
330
1F
100
AcDbEntity
  8
0
 62
     7
370
    35
100
AcDbCircle
 10
618.25
 20
457.400024
 30
0.0
 40
0.5
100
AcDbArc
 50
269.999997
 51
360.0
  0
ARC
  5
ED
330
1F
100
AcDbEntity
  8
0
 62
     7
370
    35
100
AcDbCircle
 10
618.25
 20
460.400024
 30
0.0
 40
0.5
100
AcDbArc
 50
0.0
 51
90.000003
  0
LINE
  5
EE
330
1F
100
AcDbEntity
  8
0
 62
     7
370
    35
100
AcDbLine
 10
617.25
 20
386.900024
 30
0.0
 11
618.25
 21
386.900024
 31
0.0
  0
LINE
  5
EF
330
1F
100
AcDbEntity
  8
0
 62
     7
370
    35
100
AcDbLine
 10
617.25
 20
390.900024
 30
0.0
 11
618.25
 21
390.900024
 31
0.0
  0
LINE
  5
F0
330
1F
100
AcDbEntity
  8
0
 62
     7
370
    35
100
AcDbLine
 10
617.25
 20
460.900024
 30
0.0
 11
618.25
 21
460.900024
 31
0.0
  0
LINE
  5
F1
330
1F
100
AcDbEntity
  8
0
 62
     7
370
    35
100
AcDbLine
 10
617.25
 20
456.900024
 30
0.0
 11
618.25
 21
456.900024
 31
0.0
  0
ARC
  5
F2
330
1F
100
AcDbEntity
  8
0
 62
     7
370
    35
100
AcDbCircle
 10
616.75
 20
472.400024
 30
0.0
 40
0.5
100
AcDbArc
 50
0.0
 51
90.000003
  0
LINE
  5
F3
330
1F
100
AcDbEntity
  8
0
 62
     7
370
    35
100
AcDbLine
 10
602.949951
 20
473.100006
 30
0.0
 11
602.949951
 21
472.900024
 31
0.0
  0
LINE
  5
F4
330
1F
100
AcDbEntity
  8
0
 62
     7
370
    35
100
AcDbLine
 10
567.75
 20
472.900024
 30
0.0
 11
616.75
 21
472.900024
 31
0.0
  0
ARC
  5
F5
330
1F
100
AcDbEntity
  8
0
 62
     7
370
    35
100
AcDbCircle
 10
567.75
 20
472.400024
 30
0.0
 40
0.5
100
AcDbArc
 50
90.000003
 51
180.000005
  0
LINE
  5
F6
330
1F
100
AcDbEntity
  8
0
 62
     7
370
    35
100
AcDbLine
 10
567.25
 20
472.400024
 30
0.0
 11
567.25
 21
373.400024
 31
0.0
  0
LINE
  5
F7
330
1F
100
AcDbEntity
  8
0
 62
     7
370
    35
100
AcDbLine
 10
617.25
 20
373.400024
 30
0.0
 11
617.25
 21
472.400024
 31
0.0
  0
ARC
  5
F8
330
1F
100
AcDbEntity
  8
0
 62
     7
370
    35
100
AcDbCircle
 10
567.75
 20
373.400024
 30
0.0
 40
0.5
100
AcDbArc
 50
180.000005
 51
269.999997
  0
LINE
  5
F9
330
1F
100
AcDbEntity
  8
0
 62
     7
370
    35
100
AcDbLine
 10
616.75
 20
372.900024
 30
0.0
 11
567.75
 21
372.900024
 31
0.0
  0
LINE
  5
FA
330
1F
100
AcDbEntity
  8
0
 62
     7
370
    35
100
AcDbLine
 10
583.299988
 20
438.700012
 30
0.0
 11
583.299988
 21
429.900024
 31
0.0
  0
LINE
  5
FB
330
1F
100
AcDbEntity
  8
0
 62
     7
370
    35
100
AcDbLine
 10
586.799988
 20
429.900024
 30
0.0
 11
586.799988
 21
438.700012
 31
0.0
  0
CIRCLE
  5
FC
330
1F
100
AcDbEntity
  8
0
 62
     7
370
    35
100
AcDbCircle
 10
582.949951
 20
384.900024
 30
0.0
 40
1.0
  0
CIRCLE
  5
FD
330
1F
100
AcDbEntity
  8
0
 62
     7
370
    35
100
AcDbCircle
 10
604.649963
 20
451.0
 30
0.0
 40
1.0
  0
LINE
  5
FE
330
1F
100
AcDbEntity
  8
0
 62
     7
370
    35
100
AcDbLine
 10
608.149963
 20
429.900024
 30
0.0
 11
608.149963
 21
438.5
 31
0.0
  0
LINE
  5
FF
330
1F
100
AcDbEntity
  8
0
 62
     7
370
    35
100
AcDbLine
 10
604.149963
 20
438.5
 30
0.0
 11
604.149963
 21
429.900024
 31
0.0
  0
LINE
  5
100
330
1F
100
AcDbEntity
  8
0
 62
     7
370
    35
100
AcDbLine
 10
586.799988
 20
404.900024
 30
0.0
 11
586.799988
 21
420.900024
 31
0.0
  0
LINE
  5
101
330
1F
100
AcDbEntity
  8
0
 62
     7
370
    35
100
AcDbLine
 10
574.299988
 20
420.900024
 30
0.0
 11
574.299988
 21
404.900024
 31
0.0
  0
LINE
  5
102
330
1F
100
AcDbEntity
  8
0
 62
     7
370
    35
100
AcDbLine
 10
580.549988
 20
440.299988
 30
0.0
 11
580.549988
 21
428.299988
 31
0.0
  0
LINE
  5
103
330
1F
100
AcDbEntity
  8
0
 62
     7
370
    35
100
AcDbLine
 10
589.549988
 20
428.299988
 30
0.0
 11
580.549988
 21
428.299988
 31
0.0
  0
LINE
  5
104
330
1F
100
AcDbEntity
  8
0
 62
     7
370
    35
100
AcDbLine
 10
589.549988
 20
428.299988
 30
0.0
 11
589.549988
 21
440.299988
 31
0.0
  0
LINE
  5
105
330
1F
100
AcDbEntity
  8
0
 62
     7
370
    35
100
AcDbLine
 10
580.549988
 20
440.299988
 30
0.0
 11
589.549988
 21
440.299988
 31
0.0
  0
LINE
  5
106
330
1F
100
AcDbEntity
  8
0
 62
     7
370
    35
100
AcDbLine
 10
586.799988
 20
429.900024
 30
0.0
 11
583.299988
 21
429.900024
 31
0.0
  0
LINE
  5
107
330
1F
100
AcDbEntity
  8
0
 62
     7
370
    35
100
AcDbLine
 10
583.299988
 20
438.700012
 30
0.0
 11
586.799988
 21
438.700012
 31
0.0
  0
LINE
  5
108
330
1F
100
AcDbEntity
  8
0
 62
     7
370
    35
100
AcDbLine
 10
590.549988
 20
427.299988
 30
0.0
 11
579.549988
 21
427.299988
 31
0.0
  0
LINE
  5
109
330
1F
100
AcDbEntity
  8
0
 62
     7
370
    35
100
AcDbLine
 10
579.549988
 20
441.299988
 30
0.0
 11
579.549988
 21
427.299988
 31
0.0
  0
LINE
  5
10A
330
1F
100
AcDbEntity
  8
0
 62
     7
370
    35
100
AcDbLine
 10
579.549988
 20
441.299988
 30
0.0
 11
590.549988
 21
441.299988
 31
0.0
  0
LINE
  5
10B
330
1F
100
AcDbEntity
  8
0
 62
     7
370
    35
100
AcDbLine
 10
590.549988
 20
427.299988
 30
0.0
 11
590.549988
 21
441.299988
 31
0.0
  0
LINE
  5
10C
330
1F
100
AcDbEntity
  8
0
 62
     7
370
    35
100
AcDbLine
 10
609.149963
 20
428.900024
 30
0.0
 11
609.149963
 21
439.5
 31
0.0
  0
LINE
  5
10D
330
1F
100
AcDbEntity
  8
0
 62
     7
370
    35
100
AcDbLine
 10
609.149963
 20
428.900024
 30
0.0
 11
603.149963
 21
428.900024
 31
0.0
  0
LINE
  5
10E
330
1F
100
AcDbEntity
  8
0
 62
     7
370
    35
100
AcDbLine
 10
603.149963
 20
439.5
 30
0.0
 11
603.149963
 21
428.900024
 31
0.0
  0
LINE
  5
10F
330
1F
100
AcDbEntity
  8
0
 62
     7
370
    35
100
AcDbLine
 10
603.149963
 20
439.5
 30
0.0
 11
609.149963
 21
439.5
 31
0.0
  0
LINE
  5
110
330
1F
100
AcDbEntity
  8
0
 62
     7
370
    35
100
AcDbLine
 10
586.799988
 20
404.900024
 30
0.0
 11
574.299988
 21
404.900024
 31
0.0
  0
LINE
  5
111
330
1F
100
AcDbEntity
  8
0
 62
     7
370
    35
100
AcDbLine
 10
574.299988
 20
420.900024
 30
0.0
 11
586.799988
 21
420.900024
 31
0.0
  0
LINE
  5
112
330
1F
100
AcDbEntity
  8
0
 62
     7
370
    35
100
AcDbLine
 10
577.349976
 20
462.299988
 30
0.0
 11
573.549988
 21
462.299988
 31
0.0
  0
LINE
  5
113
330
1F
100
AcDbEntity
  8
0
 62
     7
370
    35
100
AcDbLine
 10
577.349976
 20
462.299988
 30
0.0
 11
577.349976
 21
459.700012
 31
0.0
  0
LINE
  5
114
330
1F
100
AcDbEntity
  8
0
 62
     7
370
    35
100
AcDbLine
 10
573.549988
 20
459.700012
 30
0.0
 11
577.349976
 21
459.700012
 31
0.0
  0
LINE
  5
115
330
1F
100
AcDbEntity
  8
0
 62
     7
370
    35
100
AcDbLine
 10
573.549988
 20
459.700012
 30
0.0
 11
573.549988
 21
462.299988
 31
0.0
  0
LINE
  5
116
330
1F
100
AcDbEntity
  8
0
 62
     7
370
    35
100
AcDbLine
 10
577.349976
 20
457.299988
 30
0.0
 11
573.549988
 21
457.299988
 31
0.0
  0
LINE
  5
117
330
1F
100
AcDbEntity
  8
0
 62
     7
370
    35
100
AcDbLine
 10
577.349976
 20
457.299988
 30
0.0
 11
577.349976
 21
454.700012
 31
0.0
  0
LINE
  5
118
330
1F
100
AcDbEntity
  8
0
 62
     7
370
    35
100
AcDbLine
 10
573.549988
 20
454.700012
 30
0.0
 11
577.349976
 21
454.700012
 31
0.0
  0
LINE
  5
119
330
1F
100
AcDbEntity
  8
0
 62
     7
370
    35
100
AcDbLine
 10
573.549988
 20
454.700012
 30
0.0
 11
573.549988
 21
457.299988
 31
0.0
  0
LINE
  5
11A
330
1F
100
AcDbEntity
  8
0
 62
     7
370
    35
100
AcDbLine
 10
577.349976
 20
452.299988
 30
0.0
 11
573.549988
 21
452.299988
 31
0.0
  0
LINE
  5
11B
330
1F
100
AcDbEntity
  8
0
 62
     7
370
    35
100
AcDbLine
 10
577.349976
 20
452.299988
 30
0.0
 11
577.349976
 21
449.700012
 31
0.0
  0
LINE
  5
11C
330
1F
100
AcDbEntity
  8
0
 62
     7
370
    35
100
AcDbLine
 10
573.549988
 20
449.700012
 30
0.0
 11
577.349976
 21
449.700012
 31
0.0
  0
LINE
  5
11D
330
1F
100
AcDbEntity
  8
0
 62
     7
370
    35
100
AcDbLine
 10
573.549988
 20
449.700012
 30
0.0
 11
573.549988
 21
452.299988
 31
0.0
  0
LINE
  5
11E
330
1F
100
AcDbEntity
  8
0
 62
     7
370
    35
100
AcDbLine
 10
577.349976
 20
447.299988
 30
0.0
 11
573.549988
 21
447.299988
 31
0.0
  0
LINE
  5
11F
330
1F
100
AcDbEntity
  8
0
 62
     7
370
    35
100
AcDbLine
 10
577.349976
 20
447.299988
 30
0.0
 11
577.349976
 21
444.700012
 31
0.0
  0
LINE
  5
120
330
1F
100
AcDbEntity
  8
0
 62
     7
370
    35
100
AcDbLine
 10
573.549988
 20
444.700012
 30
0.0
 11
577.349976
 21
444.700012
 31
0.0
  0
LINE
  5
121
330
1F
100
AcDbEntity
  8
0
 62
     7
370
    35
100
AcDbLine
 10
573.549988
 20
444.700012
 30
0.0
 11
573.549988
 21
447.299988
 31
0.0
  0
LINE
  5
122
330
1F
100
AcDbEntity
  8
0
 62
     7
370
    35
100
AcDbLine
 10
609.149963
 20
439.5
 30
0.0
 11
608.149963
 21
438.5
 31
0.0
  0
LINE
  5
123
330
1F
100
AcDbEntity
  8
0
 62
     7
370
    35
100
AcDbLine
 10
609.149963
 20
428.900024
 30
0.0
 11
608.149963
 21
429.900024
 31
0.0
  0
LINE
  5
124
330
1F
100
AcDbEntity
  8
0
 62
     7
370
    35
100
AcDbLine
 10
603.149963
 20
428.900024
 30
0.0
 11
604.149963
 21
429.900024
 31
0.0
  0
LINE
  5
125
330
1F
100
AcDbEntity
  8
0
 62
     7
370
    35
100
AcDbLine
 10
603.149963
 20
439.5
 30
0.0
 11
604.149963
 21
438.5
 31
0.0
  0
LINE
  5
126
330
1F
100
AcDbEntity
  8
0
 62
     7
370
    35
100
AcDbLine
 10
580.549988
 20
428.299988
 30
0.0
 11
579.549988
 21
427.299988
 31
0.0
  0
LINE
  5
127
330
1F
100
AcDbEntity
  8
0
 62
     7
370
    35
100
AcDbLine
 10
580.549988
 20
440.299988
 30
0.0
 11
579.549988
 21
441.299988
 31
0.0
  0
LINE
  5
128
330
1F
100
AcDbEntity
  8
0
 62
     7
370
    35
100
AcDbLine
 10
589.549988
 20
428.299988
 30
0.0
 11
590.549988
 21
427.299988
 31
0.0
  0
LINE
  5
129
330
1F
100
AcDbEntity
  8
0
 62
     7
370
    35
100
AcDbLine
 10
589.549988
 20
440.299988
 30
0.0
 11
590.549988
 21
441.299988
 31
0.0
  0
ARC
  5
12A
330
1F
100
AcDbEntity
  8
0
 62
     7
370
    35
100
AcDbCircle
 10
616.75
 20
373.400024
 30
0.0
 40
0.5
100
AcDbArc
 50
269.999997
 51
360.0
  0
ARC
  5
12B
330
1F
100
AcDbEntity
  8
0
 62
     7
370
    35
100
AcDbCircle
 10
616.75
 20
472.400024
 30
0.0
 40
0.5
100
AcDbArc
 50
0.0
 51
90.000003
  0
LINE
  5
12C
330
1F
100
AcDbEntity
  8
0
 62
     7
370
    35
100
AcDbLine
 10
604.149963
 20
438.5
 30
0.0
 11
608.149963
 21
438.5
 31
0.0
  0
LINE
  5
12D
330
1F
100
AcDbEntity
  8
0
 62
     7
370
    35
100
AcDbLine
 10
608.149963
 20
429.900024
 30
0.0
 11
604.149963
 21
429.900024
 31
0.0
  0
ARC
  5
12E
330
1F
100
AcDbEntity
  8
0
 62
     7
370
    35
100
AcDbCircle
 10
565.25
 20
400.400024
 30
0.0
 40
1.0
100
AcDbArc
 50
180.000005
 51
269.999997
  0
LINE
  5
12F
330
1F
100
AcDbEntity
  8
0
 62
     7
370
    35
100
AcDbLine
 10
564.25
 20
400.400024
 30
0.0
 11
564.25
 21
442.400024
 31
0.0
  0
ARC
  5
130
330
1F
100
AcDbEntity
  8
0
 62
     7
370
    35
100
AcDbCircle
 10
565.25
 20
442.400024
 30
0.0
 40
1.0
100
AcDbArc
 50
90.000003
 51
180.000005
  0
LINE
  5
131
330
1F
100
AcDbEntity
  8
0
 62
     7
370
    35
100
AcDbLine
 10
567.25
 20
399.400024
 30
0.0
 11
565.25
 21
399.400024
 31
0.0
  0
LINE
  5
132
330
1F
100
AcDbEntity
  8
0
 62
     7
370
    35
100
AcDbLine
 10
567.25
 20
443.400024
 30
0.0
 11
565.25
 21
443.400024
 31
0.0
  0
LINE
  5
133
330
1F
100
AcDbEntity
  8
0
 62
     7
370
    35
100
AcDbLine
 10
592.949951
 20
473.100006
 30
0.0
 11
592.949951
 21
472.900024
 31
0.0
  0
LINE
  5
134
330
1F
100
AcDbEntity
  8
0
 62
     7
370
    35
100
AcDbLine
 10
602.949951
 20
472.900024
 30
0.0
 11
592.949951
 21
472.900024
 31
0.0
  0
LINE
  5
135
330
1F
100
AcDbEntity
  8
0
 62
     7
370
    35
100
AcDbLine
 10
602.949951
 20
473.100006
 30
0.0
 11
592.949951
 21
473.100006
 31
0.0
  0
LINE
  5
136
330
1F
100
AcDbEntity
  8
0
 62
     7
370
    35
100
AcDbLine
 10
573.849976
 20
445.0
 30
0.0
 11
573.849976
 21
447.0
 31
0.0
  0
LINE
  5
137
330
1F
100
AcDbEntity
  8
0
 62
     7
370
    35
100
AcDbLine
 10
573.849976
 20
447.299622
 30
0.0
 11
573.849976
 21
447.0
 31
0.0
  0
LINE
  5
138
330
1F
100
AcDbEntity
  8
0
 62
     7
370
    35
100
AcDbLine
 10
573.849976
 20
450.0
 30
0.0
 11
573.849976
 21
449.700378
 31
0.0
  0
LINE
  5
139
330
1F
100
AcDbEntity
  8
0
 62
     7
370
    35
100
AcDbLine
 10
573.849976
 20
450.0
 30
0.0
 11
573.849976
 21
452.0
 31
0.0
  0
LINE
  5
13A
330
1F
100
AcDbEntity
  8
0
 62
     7
370
    35
100
AcDbLine
 10
573.849976
 20
452.299622
 30
0.0
 11
573.849976
 21
452.0
 31
0.0
  0
LINE
  5
13B
330
1F
100
AcDbEntity
  8
0
 62
     7
370
    35
100
AcDbLine
 10
573.849976
 20
455.0
 30
0.0
 11
573.849976
 21
454.700378
 31
0.0
  0
LINE
  5
13C
330
1F
100
AcDbEntity
  8
0
 62
     7
370
    35
100
AcDbLine
 10
573.849976
 20
455.0
 30
0.0
 11
573.849976
 21
457.0
 31
0.0
  0
LINE
  5
13D
330
1F
100
AcDbEntity
  8
0
 62
     7
370
    35
100
AcDbLine
 10
573.849976
 20
457.299622
 30
0.0
 11
573.849976
 21
457.0
 31
0.0
  0
LINE
  5
13E
330
1F
100
AcDbEntity
  8
0
 62
     7
370
    35
100
AcDbLine
 10
573.849976
 20
460.0
 30
0.0
 11
573.849976
 21
459.700378
 31
0.0
  0
LINE
  5
13F
330
1F
100
AcDbEntity
  8
0
 62
     7
370
    35
100
AcDbLine
 10
573.849976
 20
460.0
 30
0.0
 11
573.849976
 21
462.0
 31
0.0
  0
LINE
  5
140
330
1F
100
AcDbEntity
  8
0
 62
     7
370
    35
100
AcDbLine
 10
574.349976
 20
456.5
 30
0.0
 11
573.849976
 21
457.0
 31
0.0
  0
LINE
  5
141
330
1F
100
AcDbEntity
  8
0
 62
     7
370
    35
100
AcDbLine
 10
574.349976
 20
455.5
 30
0.0
 11
573.849976
 21
455.0
 31
0.0
  0
LINE
  5
142
330
1F
100
AcDbEntity
  8
0
 62
     7
370
    35
100
AcDbLine
 10
574.349976
 20
451.5
 30
0.0
 11
573.849976
 21
452.0
 31
0.0
  0
LINE
  5
143
330
1F
100
AcDbEntity
  8
0
 62
     7
370
    35
100
AcDbLine
 10
574.349976
 20
450.5
 30
0.0
 11
573.849976
 21
450.0
 31
0.0
  0
LINE
  5
144
330
1F
100
AcDbEntity
  8
0
 62
     7
370
    35
100
AcDbLine
 10
574.349976
 20
446.5
 30
0.0
 11
573.849976
 21
447.0
 31
0.0
  0
LINE
  5
145
330
1F
100
AcDbEntity
  8
0
 62
     7
370
    35
100
AcDbLine
 10
574.349976
 20
445.5
 30
0.0
 11
573.849976
 21
445.0
 31
0.0
  0
LINE
  5
146
330
1F
100
AcDbEntity
  8
0
 62
     7
370
    35
100
AcDbLine
 10
574.349976
 20
461.5
 30
0.0
 11
573.849976
 21
462.0
 31
0.0
  0
LINE
  5
147
330
1F
100
AcDbEntity
  8
0
 62
     7
370
    35
100
AcDbLine
 10
574.349976
 20
460.5
 30
0.0
 11
573.849976
 21
460.0
 31
0.0
  0
LINE
  5
148
330
1F
100
AcDbEntity
  8
0
 62
     7
370
    35
100
AcDbLine
 10
577.049988
 20
460.0
 30
0.0
 11
577.049988
 21
462.0
 31
0.0
  0
LINE
  5
149
330
1F
100
AcDbEntity
  8
0
 62
     7
370
    35
100
AcDbLine
 10
576.549988
 20
460.5
 30
0.0
 11
577.049988
 21
460.0
 31
0.0
  0
LINE
  5
14A
330
1F
100
AcDbEntity
  8
0
 62
     7
370
    35
100
AcDbLine
 10
576.549988
 20
461.5
 30
0.0
 11
577.049988
 21
462.0
 31
0.0
  0
LINE
  5
14B
330
1F
100
AcDbEntity
  8
0
 62
     7
370
    35
100
AcDbLine
 10
577.349609
 20
462.0
 30
0.0
 11
577.049988
 21
462.0
 31
0.0
  0
LINE
  5
14C
330
1F
100
AcDbEntity
  8
0
 62
     7
370
    35
100
AcDbLine
 10
577.349609
 20
460.0
 30
0.0
 11
577.049988
 21
460.0
 31
0.0
  0
LINE
  5
14D
330
1F
100
AcDbEntity
  8
0
 62
     7
370
    35
100
AcDbLine
 10
577.049988
 20
455.0
 30
0.0
 11
577.049988
 21
457.0
 31
0.0
  0
LINE
  5
14E
330
1F
100
AcDbEntity
  8
0
 62
     7
370
    35
100
AcDbLine
 10
576.549988
 20
455.5
 30
0.0
 11
577.049988
 21
455.0
 31
0.0
  0
LINE
  5
14F
330
1F
100
AcDbEntity
  8
0
 62
     7
370
    35
100
AcDbLine
 10
576.549988
 20
456.5
 30
0.0
 11
577.049988
 21
457.0
 31
0.0
  0
LINE
  5
150
330
1F
100
AcDbEntity
  8
0
 62
     7
370
    35
100
AcDbLine
 10
577.049988
 20
450.0
 30
0.0
 11
577.049988
 21
452.0
 31
0.0
  0
LINE
  5
151
330
1F
100
AcDbEntity
  8
0
 62
     7
370
    35
100
AcDbLine
 10
576.549988
 20
450.5
 30
0.0
 11
577.049988
 21
450.0
 31
0.0
  0
LINE
  5
152
330
1F
100
AcDbEntity
  8
0
 62
     7
370
    35
100
AcDbLine
 10
576.549988
 20
451.5
 30
0.0
 11
577.049988
 21
452.0
 31
0.0
  0
LINE
  5
153
330
1F
100
AcDbEntity
  8
0
 62
     7
370
    35
100
AcDbLine
 10
577.049988
 20
445.0
 30
0.0
 11
577.049988
 21
447.0
 31
0.0
  0
LINE
  5
154
330
1F
100
AcDbEntity
  8
0
 62
     7
370
    35
100
AcDbLine
 10
576.549988
 20
445.5
 30
0.0
 11
577.049988
 21
445.0
 31
0.0
  0
LINE
  5
155
330
1F
100
AcDbEntity
  8
0
 62
     7
370
    35
100
AcDbLine
 10
576.549988
 20
446.5
 30
0.0
 11
577.049988
 21
447.0
 31
0.0
  0
LINE
  5
156
330
1F
100
AcDbEntity
  8
0
 62
     7
370
    35
100
AcDbLine
 10
577.349609
 20
447.0
 30
0.0
 11
577.049988
 21
447.0
 31
0.0
  0
LINE
  5
157
330
1F
100
AcDbEntity
  8
0
 62
     7
370
    35
100
AcDbLine
 10
577.349609
 20
445.0
 30
0.0
 11
577.049988
 21
445.0
 31
0.0
  0
LINE
  5
158
330
1F
100
AcDbEntity
  8
0
 62
     7
370
    35
100
AcDbLine
 10
573.849976
 20
460.0
 30
0.0
 11
577.049988
 21
460.0
 31
0.0
  0
LINE
  5
159
330
1F
100
AcDbEntity
  8
0
 62
     7
370
    35
100
AcDbLine
 10
573.849976
 20
457.0
 30
0.0
 11
577.049988
 21
457.0
 31
0.0
  0
LINE
  5
15A
330
1F
100
AcDbEntity
  8
0
 62
     7
370
    35
100
AcDbLine
 10
573.849976
 20
455.0
 30
0.0
 11
577.049988
 21
455.0
 31
0.0
  0
LINE
  5
15B
330
1F
100
AcDbEntity
  8
0
 62
     7
370
    35
100
AcDbLine
 10
573.849976
 20
452.0
 30
0.0
 11
577.049988
 21
452.0
 31
0.0
  0
LINE
  5
15C
330
1F
100
AcDbEntity
  8
0
 62
     7
370
    35
100
AcDbLine
 10
573.849976
 20
450.0
 30
0.0
 11
577.049988
 21
450.0
 31
0.0
  0
LINE
  5
15D
330
1F
100
AcDbEntity
  8
0
 62
     7
370
    35
100
AcDbLine
 10
573.849976
 20
447.0
 30
0.0
 11
577.049988
 21
447.0
 31
0.0
  0
LINE
  5
15E
330
1F
100
AcDbEntity
  8
0
 62
     7
370
    35
100
AcDbLine
 10
573.849976
 20
445.0
 30
0.0
 11
577.049988
 21
445.0
 31
0.0
  0
LINE
  5
15F
330
1F
100
AcDbEntity
  8
0
 62
     7
370
    35
100
AcDbLine
 10
573.849976
 20
462.0
 30
0.0
 11
577.049988
 21
462.0
 31
0.0
  0
LINE
  5
160
330
1F
100
AcDbEntity
  8
0
 62
     7
370
    35
100
AcDbLine
 10
573.849976
 20
444.900024
 30
0.0
 11
573.849976
 21
444.700012
 31
0.0
  0
LINE
  5
161
330
1F
100
AcDbEntity
  8
0
 62
     7
370
    35
100
AcDbLine
 10
573.849976
 20
462.100006
 30
0.0
 11
573.849976
 21
462.0
 31
0.0
  0
LINE
  5
162
330
1F
100
AcDbEntity
  8
0
 62
     7
370
    35
100
AcDbLine
 10
573.849976
 20
445.0
 30
0.0
 11
573.849976
 21
444.900024
 31
0.0
  0
LINE
  5
163
330
1F
100
AcDbEntity
  8
0
 62
     7
370
    35
100
AcDbLine
 10
573.849976
 20
462.299988
 30
0.0
 11
573.849976
 21
462.100006
 31
0.0
  0
LINE
  5
164
330
1F
100
AcDbEntity
  8
0
 62
     7
370
    35
100
AcDbLine
 10
573.849976
 20
462.100006
 30
0.0
 11
577.349976
 21
462.100006
 31
0.0
  0
LINE
  5
165
330
1F
100
AcDbEntity
  8
0
 62
     7
370
    35
100
AcDbLine
 10
573.849976
 20
444.900024
 30
0.0
 11
577.349976
 21
444.900024
 31
0.0
  0
LINE
  5
166
330
1F
100
AcDbEntity
  8
0
 62
     7
370
    35
100
AcDbLine
 10
577.049988
 20
462.100006
 30
0.0
 11
577.049988
 21
462.0
 31
0.0
  0
LINE
  5
167
330
1F
100
AcDbEntity
  8
0
 62
     7
370
    35
100
AcDbLine
 10
577.049988
 20
460.0
 30
0.0
 11
577.049988
 21
459.700012
 31
0.0
  0
LINE
  5
168
330
1F
100
AcDbEntity
  8
0
 62
     7
370
    35
100
AcDbLine
 10
577.049988
 20
447.299988
 30
0.0
 11
577.049988
 21
447.0
 31
0.0
  0
LINE
  5
169
330
1F
100
AcDbEntity
  8
0
 62
     7
370
    35
100
AcDbLine
 10
577.049988
 20
445.0
 30
0.0
 11
577.049988
 21
444.900024
 31
0.0
  0
LINE
  5
16A
330
1F
100
AcDbEntity
  8
0
 62
     7
370
    35
100
AcDbLine
 10
577.049988
 20
452.299988
 30
0.0
 11
577.049988
 21
449.700012
 31
0.0
  0
LINE
  5
16B
330
1F
100
AcDbEntity
  8
0
 62
     7
370
    35
100
AcDbLine
 10
577.049988
 20
457.299988
 30
0.0
 11
577.049988
 21
454.700012
 31
0.0
  0
LINE
  5
16C
330
1F
100
AcDbEntity
  8
0
 62
     7
370
    35
100
AcDbLine
 10
572.449951
 20
369.900024
 30
0.0
 11
572.449951
 21
372.899994
 31
0.0
  0
LINE
  5
16D
330
1F
100
AcDbEntity
  8
0
 62
     7
370
    35
100
AcDbLine
 10
574.449951
 20
367.900024
 30
0.0
 11
572.449951
 21
369.900024
 31
0.0
  0
LINE
  5
16E
330
1F
100
AcDbEntity
  8
0
 62
     7
370
    35
100
AcDbLine
 10
574.449951
 20
367.900024
 30
0.0
 11
593.049988
 21
367.900024
 31
0.0
  0
LINE
  5
16F
330
1F
100
AcDbEntity
  8
0
 62
     7
370
    35
100
AcDbLine
 10
595.049988
 20
369.900024
 30
0.0
 11
593.049988
 21
367.900024
 31
0.0
  0
LINE
  5
170
330
1F
100
AcDbEntity
  8
0
 62
     7
370
    35
100
AcDbLine
 10
595.049988
 20
372.899933
 30
0.0
 11
595.049988
 21
369.900024
 31
0.0
  0
LINE
  5
171
330
1F
100
AcDbEntity
  8
0
 62
     7
370
    35
100
AcDbLine
 10
591.75
 20
369.900024
 30
0.0
 11
591.75
 21
371.400024
 31
0.0
  0
LINE
  5
172
330
1F
100
AcDbEntity
  8
0
 62
     7
370
    35
100
AcDbLine
 10
591.75
 20
369.900024
 30
0.0
 11
587.066589
 21
369.900024
 31
0.0
  0
ARC
  5
173
330
1F
100
AcDbEntity
  8
0
 62
     7
370
    35
100
AcDbCircle
 10
583.75
 20
374.900024
 30
0.0
 40
6.000000000000007
100
AcDbArc
 50
236.442684
 51
303.557311
  0
LINE
  5
174
330
1F
100
AcDbEntity
  8
0
 62
     7
370
    35
100
AcDbLine
 10
580.43335
 20
369.900024
 30
0.0
 11
575.75
 21
369.900024
 31
0.0
  0
LINE
  5
175
330
1F
100
AcDbEntity
  8
0
 62
     7
370
    35
100
AcDbLine
 10
575.75
 20
371.400024
 30
0.0
 11
575.75
 21
369.900024
 31
0.0
  0
LINE
  5
176
330
1F
100
AcDbEntity
  8
0
 62
     7
370
    35
100
AcDbLine
 10
575.75
 20
371.400024
 30
0.0
 11
591.75
 21
371.400024
 31
0.0
  0
LINE
  5
177
330
1F
100
AcDbEntity
  8
0
 62
     7
370
    35
100
AcDbLine
 10
569.25
 20
472.900024
 30
0.0
 11
569.25
 21
472.950012
 31
0.0
  0
LINE
  5
178
330
1F
100
AcDbEntity
  8
0
 62
     7
370
    35
100
AcDbLine
 10
589.25
 20
472.900024
 30
0.0
 11
569.25
 21
472.900024
 31
0.0
  0
LINE
  5
179
330
1F
100
AcDbEntity
  8
0
 62
     7
370
    35
100
AcDbLine
 10
589.25
 20
472.900024
 30
0.0
 11
589.25
 21
472.950012
 31
0.0
  0
LINE
  5
17A
330
1F
100
AcDbEntity
  8
0
 62
     7
370
    35
100
AcDbLine
 10
589.25
 20
472.950012
 30
0.0
 11
569.25
 21
472.950012
 31
0.0
  0
LINE
  5
17B
330
1F
100
AcDbEntity
  8
0
 62
     7
370
    35
100
AcDbLine
 10
767.467224
 20
401.900024
 30
0.0
 11
769.0672
 21
401.900024
 31
0.0
  0
LINE
  5
17C
330
1F
100
AcDbEntity
  8
0
 62
     7
370
    35
100
AcDbLine
 10
767.467224
 20
440.900024
 30
0.0
 11
769.0672
 21
440.900024
 31
0.0
  0
LINE
  5
17D
330
1F
100
AcDbEntity
  8
0
 62
     7
370
    35
100
AcDbLine
 10
767.467224
 20
441.400024
 30
0.0
 11
767.467224
 21
440.900024
 31
0.0
  0
LINE
  5
17E
330
1F
100
AcDbEntity
  8
0
 62
     7
370
    35
100
AcDbLine
 10
767.467224
 20
440.900024
 30
0.0
 11
767.467224
 21
401.900024
 31
0.0
  0
LINE
  5
17F
330
1F
100
AcDbEntity
  8
0
 62
     7
370
    35
100
AcDbLine
 10
767.467224
 20
401.900024
 30
0.0
 11
767.467224
 21
401.400024
 31
0.0
  0
LINE
  5
180
330
1F
100
AcDbEntity
  8
0
 62
     7
370
    35
100
AcDbLine
 10
759.467224
 20
403.609985
 30
0.0
 11
765.367249
 21
403.609985
 31
0.0
  0
LINE
  5
181
330
1F
100
AcDbEntity
  8
0
 62
     7
370
    35
100
AcDbLine
 10
759.467224
 20
403.609985
 30
0.0
 11
759.467224
 21
404.75
 31
0.0
  0
LINE
  5
182
330
1F
100
AcDbEntity
  8
0
 62
     7
370
    35
100
AcDbLine
 10
759.467224
 20
405.25
 30
0.0
 11
759.467224
 21
404.75
 31
0.0
  0
LINE
  5
183
330
1F
100
AcDbEntity
  8
0
 62
     7
370
    35
100
AcDbLine
 10
759.467224
 20
405.25
 30
0.0
 11
759.467224
 21
405.75
 31
0.0
  0
LINE
  5
184
330
1F
100
AcDbEntity
  8
0
 62
     7
370
    35
100
AcDbLine
 10
759.467224
 20
405.75
 30
0.0
 11
759.467224
 21
407.25
 31
0.0
  0
LINE
  5
185
330
1F
100
AcDbEntity
  8
0
 62
     7
370
    35
100
AcDbLine
 10
759.467224
 20
407.25
 30
0.0
 11
759.467224
 21
421.400024
 31
0.0
  0
LINE
  5
186
330
1F
100
AcDbEntity
  8
0
 62
     7
370
    35
100
AcDbLine
 10
759.467224
 20
435.549988
 30
0.0
 11
759.467224
 21
421.400024
 31
0.0
  0
LINE
  5
187
330
1F
100
AcDbEntity
  8
0
 62
     7
370
    35
100
AcDbLine
 10
759.467224
 20
437.049988
 30
0.0
 11
759.467224
 21
435.549988
 31
0.0
  0
LINE
  5
188
330
1F
100
AcDbEntity
  8
0
 62
     7
370
    35
100
AcDbLine
 10
759.467224
 20
437.549988
 30
0.0
 11
759.467224
 21
437.049988
 31
0.0
  0
LINE
  5
189
330
1F
100
AcDbEntity
  8
0
 62
     7
370
    35
100
AcDbLine
 10
759.467224
 20
437.549988
 30
0.0
 11
759.467224
 21
438.049988
 31
0.0
  0
LINE
  5
18A
330
1F
100
AcDbEntity
  8
0
 62
     7
370
    35
100
AcDbLine
 10
759.467224
 20
439.190002
 30
0.0
 11
759.467224
 21
438.049988
 31
0.0
  0
LINE
  5
18B
330
1F
100
AcDbEntity
  8
0
 62
     7
370
    35
100
AcDbLine
 10
759.467224
 20
404.75
 30
0.0
 11
765.367249
 21
404.75
 31
0.0
  0
LINE
  5
18C
330
1F
100
AcDbEntity
  8
0
 62
     7
370
    35
100
AcDbLine
 10
765.367249
 20
403.609985
 30
0.0
 11
765.367249
 21
404.75
 31
0.0
  0
LINE
  5
18D
330
1F
100
AcDbEntity
  8
0
 62
     7
370
    35
100
AcDbLine
 10
765.367249
 20
405.25
 30
0.0
 11
765.367249
 21
404.75
 31
0.0
  0
LINE
  5
18E
330
1F
100
AcDbEntity
  8
0
 62
     7
370
    35
100
AcDbLine
 10
765.367249
 20
405.25
 30
0.0
 11
765.367249
 21
405.75
 31
0.0
  0
LINE
  5
18F
330
1F
100
AcDbEntity
  8
0
 62
     7
370
    35
100
AcDbLine
 10
765.367249
 20
405.75
 30
0.0
 11
765.367249
 21
407.25
 31
0.0
  0
LINE
  5
190
330
1F
100
AcDbEntity
  8
0
 62
     7
370
    35
100
AcDbLine
 10
765.367249
 20
407.25
 30
0.0
 11
765.367249
 21
421.400024
 31
0.0
  0
LINE
  5
191
330
1F
100
AcDbEntity
  8
0
 62
     7
370
    35
100
AcDbLine
 10
765.367249
 20
435.549988
 30
0.0
 11
765.367249
 21
421.400024
 31
0.0
  0
LINE
  5
192
330
1F
100
AcDbEntity
  8
0
 62
     7
370
    35
100
AcDbLine
 10
765.367249
 20
437.049988
 30
0.0
 11
765.367249
 21
435.549988
 31
0.0
  0
LINE
  5
193
330
1F
100
AcDbEntity
  8
0
 62
     7
370
    35
100
AcDbLine
 10
765.367249
 20
437.549988
 30
0.0
 11
765.367249
 21
437.049988
 31
0.0
  0
LINE
  5
194
330
1F
100
AcDbEntity
  8
0
 62
     7
370
    35
100
AcDbLine
 10
765.367249
 20
437.549988
 30
0.0
 11
765.367249
 21
438.049988
 31
0.0
  0
LINE
  5
195
330
1F
100
AcDbEntity
  8
0
 62
     7
370
    35
100
AcDbLine
 10
765.367249
 20
439.190002
 30
0.0
 11
765.367249
 21
438.049988
 31
0.0
  0
LINE
  5
196
330
1F
100
AcDbEntity
  8
0
 62
     7
370
    35
100
AcDbLine
 10
759.467224
 20
405.25
 30
0.0
 11
765.367249
 21
405.25
 31
0.0
  0
LINE
  5
197
330
1F
100
AcDbEntity
  8
0
 62
     7
370
    35
100
AcDbLine
 10
759.467224
 20
405.75
 30
0.0
 11
765.367249
 21
405.75
 31
0.0
  0
LINE
  5
198
330
1F
100
AcDbEntity
  8
0
 62
     7
370
    35
100
AcDbLine
 10
759.467224
 20
407.25
 30
0.0
 11
765.367249
 21
407.25
 31
0.0
  0
LINE
  5
199
330
1F
100
AcDbEntity
  8
0
 62
     7
370
    35
100
AcDbLine
 10
759.467224
 20
435.549988
 30
0.0
 11
765.367249
 21
435.549988
 31
0.0
  0
LINE
  5
19A
330
1F
100
AcDbEntity
  8
0
 62
     7
370
    35
100
AcDbLine
 10
759.467224
 20
437.049988
 30
0.0
 11
765.367249
 21
437.049988
 31
0.0
  0
LINE
  5
19B
330
1F
100
AcDbEntity
  8
0
 62
     7
370
    35
100
AcDbLine
 10
759.467224
 20
437.549988
 30
0.0
 11
765.367249
 21
437.549988
 31
0.0
  0
LINE
  5
19C
330
1F
100
AcDbEntity
  8
0
 62
     7
370
    35
100
AcDbLine
 10
759.467224
 20
438.049988
 30
0.0
 11
765.367249
 21
438.049988
 31
0.0
  0
LINE
  5
19D
330
1F
100
AcDbEntity
  8
0
 62
     7
370
    35
100
AcDbLine
 10
759.467224
 20
439.190002
 30
0.0
 11
765.367249
 21
439.190002
 31
0.0
  0
LINE
  5
19E
330
1F
100
AcDbEntity
  8
0
 62
     7
370
    35
100
AcDbLine
 10
767.467224
 20
402.400024
 30
0.0
 11
758.467224
 21
402.400024
 31
0.0
  0
LINE
  5
19F
330
1F
100
AcDbEntity
  8
0
 62
     7
370
    35
100
AcDbLine
 10
767.467224
 20
402.400024
 30
0.0
 11
767.467224
 21
440.400024
 31
0.0
  0
LINE
  5
1A0
330
1F
100
AcDbEntity
  8
0
 62
     7
370
    35
100
AcDbLine
 10
767.467224
 20
440.400024
 30
0.0
 11
758.467224
 21
440.400024
 31
0.0
  0
LINE
  5
1A1
330
1F
100
AcDbEntity
  8
0
 62
     7
370
    35
100
AcDbLine
 10
758.467224
 20
402.400024
 30
0.0
 11
758.467224
 21
440.400024
 31
0.0
  0
LINE
  5
1A2
330
1F
100
AcDbEntity
  8
0
 62
     7
370
    35
100
AcDbLine
 10
764.167236
 20
441.0
 30
0.0
 11
764.167236
 21
441.399994
 31
0.0
  0
LINE
  5
1A3
330
1F
100
AcDbEntity
  8
0
 62
     7
370
    35
100
AcDbLine
 10
764.167236
 20
465.899994
 30
0.0
 11
764.167236
 21
466.100006
 31
0.0
  0
LINE
  5
1A4
330
1F
100
AcDbEntity
  8
0
 62
     7
370
    35
100
AcDbLine
 10
767.467224
 20
441.0
 30
0.0
 11
764.167236
 21
441.0
 31
0.0
  0
ARC
  5
1A5
330
1F
100
AcDbEntity
  8
0
 62
     7
370
    35
100
AcDbCircle
 10
758.867249
 20
440.900024
 30
0.0
 40
1.0
100
AcDbArc
 50
150.000366
 51
180.000005
  0
LINE
  5
1A6
330
1F
100
AcDbEntity
  8
0
 62
     7
370
    35
100
AcDbLine
 10
758.0672
 20
441.399994
 30
0.0
 11
758.0672
 21
441.0
 31
0.0
  0
LINE
  5
1A7
330
1F
100
AcDbEntity
  8
0
 62
     7
370
    35
100
AcDbLine
 10
764.0672
 20
441.0
 30
0.0
 11
764.0672
 21
441.399994
 31
0.0
  0
LINE
  5
1A8
330
1F
100
AcDbEntity
  8
0
 62
     7
370
    35
100
AcDbLine
 10
764.0672
 20
465.899994
 30
0.0
 11
764.0672
 21
466.100006
 31
0.0
  0
LINE
  5
1A9
330
1F
100
AcDbEntity
  8
0
 62
     7
370
    35
100
AcDbLine
 10
758.0672
 20
441.0
 30
0.0
 11
764.0672
 21
441.0
 31
0.0
  0
LINE
  5
1AA
330
1F
100
AcDbEntity
  8
0
 62
     7
370
    35
100
AcDbLine
 10
758.0672
 20
441.0
 30
0.0
 11
757.867188
 21
441.0
 31
0.0
  0
LINE
  5
1AB
330
1F
100
AcDbEntity
  8
0
 62
     7
370
    35
100
AcDbLine
 10
752.5672
 20
472.900024
 30
0.0
 11
753.0672
 21
472.900024
 31
0.0
  0
LINE
  5
1AC
330
1F
100
AcDbEntity
  8
0
 62
     7
370
    35
100
AcDbLine
 10
753.0672
 20
472.900024
 30
0.0
 11
761.5672
 21
472.900024
 31
0.0
  0
LINE
  5
1AD
330
1F
100
AcDbEntity
  8
0
 62
     7
370
    35
100
AcDbLine
 10
761.5672
 20
472.900024
 30
0.0
 11
762.0672
 21
472.900024
 31
0.0
  0
LINE
  5
1AE
330
1F
100
AcDbEntity
  8
0
 62
     7
370
    35
100
AcDbLine
 10
777.0672
 20
472.900024
 30
0.0
 11
762.0672
 21
472.900024
 31
0.0
  0
LINE
  5
1AF
330
1F
100
AcDbEntity
  8
0
 62
     7
370
    35
100
AcDbLine
 10
777.0672
 20
440.650024
 30
0.0
 11
773.5672
 21
440.650024
 31
0.0
  0
LINE
  5
1B0
330
1F
100
AcDbEntity
  8
0
 62
     7
370
    35
100
AcDbLine
 10
777.0672
 20
472.900024
 30
0.0
 11
777.0672
 21
472.400024
 31
0.0
  0
LINE
  5
1B1
330
1F
100
AcDbEntity
  8
0
 62
     7
370
    35
100
AcDbLine
 10
777.0672
 20
440.650024
 30
0.0
 11
777.0672
 21
472.400024
 31
0.0
  0
LINE
  5
1B2
330
1F
100
AcDbEntity
  8
0
 62
     7
370
    35
100
AcDbLine
 10
777.0672
 20
440.650024
 30
0.0
 11
777.0672
 21
438.650024
 31
0.0
  0
ARC
  5
1B3
330
1F
100
AcDbEntity
  8
0
 62
     7
370
    35
100
AcDbCircle
 10
772.967224
 20
408.400024
 30
0.0
 40
0.75
100
AcDbArc
 50
323.130103
 51
36.869897
  0
LINE
  5
1B4
330
1F
100
AcDbEntity
  8
0
 62
     7
370
    35
100
AcDbLine
 10
773.5672
 20
440.650024
 30
0.0
 11
773.5672
 21
408.850006
 31
0.0
  0
LINE
  5
1B5
330
1F
100
AcDbEntity
  8
0
 62
     7
370
    35
100
AcDbLine
 10
762.0672
 20
472.400024
 30
0.0
 11
762.0672
 21
466.100006
 31
0.0
  0
LINE
  5
1B6
330
1F
100
AcDbEntity
  8
0
 62
     7
370
    35
100
AcDbLine
 10
762.0672
 20
466.100006
 30
0.0
 11
766.0672
 21
466.100006
 31
0.0
  0
LINE
  5
1B7
330
1F
100
AcDbEntity
  8
0
 62
     7
370
    35
100
AcDbLine
 10
766.0672
 20
466.100006
 30
0.0
 11
766.0672
 21
441.400024
 31
0.0
  0
LINE
  5
1B8
330
1F
100
AcDbEntity
  8
0
 62
     7
370
    35
100
AcDbLine
 10
766.0672
 20
441.400024
 30
0.0
 11
769.0672
 21
441.400024
 31
0.0
  0
LINE
  5
1B9
330
1F
100
AcDbEntity
  8
0
 62
     7
370
    35
100
AcDbLine
 10
769.0672
 20
441.400024
 30
0.0
 11
769.0672
 21
401.400024
 31
0.0
  0
LINE
  5
1BA
330
1F
100
AcDbEntity
  8
0
 62
     7
370
    35
100
AcDbLine
 10
769.0672
 20
401.400024
 30
0.0
 11
766.0672
 21
401.400024
 31
0.0
  0
LINE
  5
1BB
330
1F
100
AcDbEntity
  8
0
 62
     7
370
    35
100
AcDbLine
 10
766.0672
 20
374.400024
 30
0.0
 11
766.0672
 21
401.400024
 31
0.0
  0
LINE
  5
1BC
330
1F
100
AcDbEntity
  8
0
 62
     7
370
    35
100
AcDbLine
 10
766.0672
 20
374.400024
 30
0.0
 11
761.967224
 21
374.400024
 31
0.0
  0
ARC
  5
1BD
330
1F
100
AcDbEntity
  8
0
 62
     7
370
    35
100
AcDbCircle
 10
759.267212
 20
374.400024
 30
0.0
 40
2.7
100
AcDbArc
 50
0.0
 51
180.000005
  0
LINE
  5
1BE
330
1F
100
AcDbEntity
  8
0
 62
     7
370
    35
100
AcDbLine
 10
756.5672
 20
373.400024
 30
0.0
 11
756.5672
 21
374.400024
 31
0.0
  0
LINE
  5
1BF
330
1F
100
AcDbEntity
  8
0
 62
     7
370
    35
100
AcDbLine
 10
777.0672
 20
398.900024
 30
0.0
 11
777.0672
 21
373.400024
 31
0.0
  0
LINE
  5
1C0
330
1F
100
AcDbEntity
  8
0
 62
     7
370
    35
100
AcDbLine
 10
777.0672
 20
405.150024
 30
0.0
 11
777.0672
 21
403.350006
 31
0.0
  0
LINE
  5
1C1
330
1F
100
AcDbEntity
  8
0
 62
     7
370
    35
100
AcDbLine
 10
773.5672
 20
405.150024
 30
0.0
 11
777.0672
 21
405.150024
 31
0.0
  0
LINE
  5
1C2
330
1F
100
AcDbEntity
  8
0
 62
     7
370
    35
100
AcDbLine
 10
773.5672
 20
407.950012
 30
0.0
 11
773.5672
 21
405.150024
 31
0.0
  0
LINE
  5
1C3
330
1F
100
AcDbEntity
  8
0
 62
     7
370
    35
100
AcDbLine
 10
775.0672
 20
470.900024
 30
0.0
 11
764.0672
 21
470.900024
 31
0.0
  0
LINE
  5
1C4
330
1F
100
AcDbEntity
  8
0
 62
     7
370
    35
100
AcDbLine
 10
775.0672
 20
470.900024
 30
0.0
 11
775.0672
 21
468.100006
 31
0.0
  0
LINE
  5
1C5
330
1F
100
AcDbEntity
  8
0
 62
     7
370
    35
100
AcDbLine
 10
764.0672
 20
468.100006
 30
0.0
 11
775.0672
 21
468.100006
 31
0.0
  0
LINE
  5
1C6
330
1F
100
AcDbEntity
  8
0
 62
     7
370
    35
100
AcDbLine
 10
764.0672
 20
468.100006
 30
0.0
 11
764.0672
 21
470.900024
 31
0.0
  0
LINE
  5
1C7
330
1F
100
AcDbEntity
  8
0
 62
     7
370
    35
100
AcDbLine
 10
769.5672
 20
384.900024
 30
0.0
 11
769.5672
 21
379.400024
 31
0.0
  0
LINE
  5
1C8
330
1F
100
AcDbEntity
  8
0
 62
     7
370
    35
100
AcDbLine
 10
771.5672
 20
384.900024
 30
0.0
 11
769.5672
 21
384.900024
 31
0.0
  0
LINE
  5
1C9
330
1F
100
AcDbEntity
  8
0
 62
     7
370
    35
100
AcDbLine
 10
771.5672
 20
374.900024
 30
0.0
 11
771.5672
 21
384.900024
 31
0.0
  0
LINE
  5
1CA
330
1F
100
AcDbEntity
  8
0
 62
     7
370
    35
100
AcDbLine
 10
767.5672
 20
374.900024
 30
0.0
 11
771.5672
 21
374.900024
 31
0.0
  0
LINE
  5
1CB
330
1F
100
AcDbEntity
  8
0
 62
     7
370
    35
100
AcDbLine
 10
767.5672
 20
378.400024
 30
0.0
 11
767.5672
 21
374.900024
 31
0.0
  0
LINE
  5
1CC
330
1F
100
AcDbEntity
  8
0
 62
     7
370
    35
100
AcDbLine
 10
768.5672
 20
378.400024
 30
0.0
 11
767.5672
 21
378.400024
 31
0.0
  0
ARC
  5
1CD
330
1F
100
AcDbEntity
  8
0
 62
     7
370
    35
100
AcDbCircle
 10
768.5672
 20
379.400024
 30
0.0
 40
1.0
100
AcDbArc
 50
269.999997
 51
360.0
  0
LINE
  5
1CE
330
1F
100
AcDbEntity
  8
0
 62
     7
370
    35
100
AcDbLine
 10
760.767212
 20
374.400024
 30
0.0
 11
757.767212
 21
374.400024
 31
0.0
  0
ARC
  5
1CF
330
1F
100
AcDbEntity
  8
0
 62
     7
370
    35
100
AcDbCircle
 10
759.267212
 20
374.400024
 30
0.0
 40
1.5
100
AcDbArc
 50
0.0
 51
180.000005
  0
LINE
  5
1D0
330
1F
100
AcDbEntity
  8
0
 62
     7
370
    35
100
AcDbLine
 10
775.0672
 20
440.650024
 30
0.0
 11
775.0672
 21
439.150024
 31
0.0
  0
LINE
  5
1D1
330
1F
100
AcDbEntity
  8
0
 62
     7
370
    35
100
AcDbLine
 10
777.0672
 20
438.650024
 30
0.0
 11
775.5672
 21
438.650024
 31
0.0
  0
LINE
  5
1D2
330
1F
100
AcDbEntity
  8
0
 62
     7
370
    35
100
AcDbLine
 10
773.667236
 20
398.900024
 30
0.0
 11
774.167236
 21
398.900024
 31
0.0
  0
LINE
  5
1D3
330
1F
100
AcDbEntity
  8
0
 62
     7
370
    35
100
AcDbLine
 10
777.0672
 20
398.900024
 30
0.0
 11
774.167236
 21
398.900024
 31
0.0
  0
LINE
  5
1D4
330
1F
100
AcDbEntity
  8
0
 62
     7
370
    35
100
AcDbLine
 10
773.667236
 20
403.350006
 30
0.0
 11
773.667236
 21
398.900024
 31
0.0
  0
LINE
  5
1D5
330
1F
100
AcDbEntity
  8
0
 62
     7
370
    35
100
AcDbLine
 10
777.0672
 20
402.850006
 30
0.0
 11
777.0672
 21
398.900024
 31
0.0
  0
LINE
  5
1D6
330
1F
100
AcDbEntity
  8
0
 62
     7
370
    35
100
AcDbLine
 10
774.167236
 20
402.850006
 30
0.0
 11
773.667236
 21
403.350006
 31
0.0
  0
LINE
  5
1D7
330
1F
100
AcDbEntity
  8
0
 62
     7
370
    35
100
AcDbLine
 10
777.0672
 20
403.350006
 30
0.0
 11
777.0672
 21
402.850006
 31
0.0
  0
LINE
  5
1D8
330
1F
100
AcDbEntity
  8
0
 62
     7
370
    35
100
AcDbLine
 10
777.0672
 20
403.350006
 30
0.0
 11
773.667236
 21
403.350006
 31
0.0
  0
LINE
  5
1D9
330
1F
100
AcDbEntity
  8
0
 62
     7
370
    35
100
AcDbLine
 10
757.5672
 20
376.49762
 30
0.0
 11
757.5672
 21
376.631042
 31
0.0
  0
LINE
  5
1DA
330
1F
100
AcDbEntity
  8
0
 62
     7
370
    35
100
AcDbLine
 10
766.0672
 20
378.900024
 30
0.0
 11
765.867249
 21
378.900024
 31
0.0
  0
LINE
  5
1DB
330
1F
100
AcDbEntity
  8
0
 62
     7
370
    35
100
AcDbLine
 10
774.0672
 20
436.900024
 30
0.0
 11
774.0672
 21
437.400024
 31
0.0
  0
LINE
  5
1DC
330
1F
100
AcDbEntity
  8
0
 62
     7
370
    35
100
AcDbLine
 10
774.0672
 20
437.400024
 30
0.0
 11
774.0672
 21
437.900024
 31
0.0
  0
LINE
  5
1DD
330
1F
100
AcDbEntity
  8
0
 62
     7
370
    35
100
AcDbLine
 10
770.0672
 20
390.400024
 30
0.0
 11
770.0672
 21
390.900024
 31
0.0
  0
LINE
  5
1DE
330
1F
100
AcDbEntity
  8
0
 62
     7
370
    35
100
AcDbLine
 10
772.0672
 20
390.900024
 30
0.0
 11
772.0672
 21
390.400024
 31
0.0
  0
LINE
  5
1DF
330
1F
100
AcDbEntity
  8
0
 62
     7
370
    35
100
AcDbLine
 10
770.0672
 20
390.900024
 30
0.0
 11
772.0672
 21
390.900024
 31
0.0
  0
LINE
  5
1E0
330
1F
100
AcDbEntity
  8
0
 62
     7
370
    35
100
AcDbLine
 10
772.0672
 20
387.400024
 30
0.0
 11
772.0672
 21
386.900024
 31
0.0
  0
LINE
  5
1E1
330
1F
100
AcDbEntity
  8
0
 62
     7
370
    35
100
AcDbLine
 10
770.0672
 20
386.900024
 30
0.0
 11
770.0672
 21
387.400024
 31
0.0
  0
LINE
  5
1E2
330
1F
100
AcDbEntity
  8
0
 62
     7
370
    35
100
AcDbLine
 10
770.0672
 20
386.900024
 30
0.0
 11
772.0672
 21
386.900024
 31
0.0
  0
LINE
  5
1E3
330
1F
100
AcDbEntity
  8
0
 62
     7
370
    35
100
AcDbLine
 10
770.0672
 20
390.400024
 30
0.0
 11
770.0672
 21
387.400024
 31
0.0
  0
LINE
  5
1E4
330
1F
100
AcDbEntity
  8
0
 62
     7
370
    35
100
AcDbLine
 10
772.0672
 20
387.400024
 30
0.0
 11
772.0672
 21
390.400024
 31
0.0
  0
LINE
  5
1E5
330
1F
100
AcDbEntity
  8
0
 62
     7
370
    35
100
AcDbLine
 10
770.0672
 20
460.400024
 30
0.0
 11
770.0672
 21
457.400024
 31
0.0
  0
LINE
  5
1E6
330
1F
100
AcDbEntity
  8
0
 62
     7
370
    35
100
AcDbLine
 10
772.0672
 20
457.400024
 30
0.0
 11
772.0672
 21
460.400024
 31
0.0
  0
LINE
  5
1E7
330
1F
100
AcDbEntity
  8
0
 62
     7
370
    35
100
AcDbLine
 10
772.0672
 20
457.400024
 30
0.0
 11
772.0672
 21
456.900024
 31
0.0
  0
LINE
  5
1E8
330
1F
100
AcDbEntity
  8
0
 62
     7
370
    35
100
AcDbLine
 10
770.0672
 20
456.900024
 30
0.0
 11
770.0672
 21
457.400024
 31
0.0
  0
LINE
  5
1E9
330
1F
100
AcDbEntity
  8
0
 62
     7
370
    35
100
AcDbLine
 10
770.0672
 20
456.900024
 30
0.0
 11
772.0672
 21
456.900024
 31
0.0
  0
LINE
  5
1EA
330
1F
100
AcDbEntity
  8
0
 62
     7
370
    35
100
AcDbLine
 10
770.0672
 20
460.400024
 30
0.0
 11
770.0672
 21
460.900024
 31
0.0
  0
LINE
  5
1EB
330
1F
100
AcDbEntity
  8
0
 62
     7
370
    35
100
AcDbLine
 10
772.0672
 20
460.900024
 30
0.0
 11
772.0672
 21
460.400024
 31
0.0
  0
LINE
  5
1EC
330
1F
100
AcDbEntity
  8
0
 62
     7
370
    35
100
AcDbLine
 10
770.0672
 20
460.900024
 30
0.0
 11
772.0672
 21
460.900024
 31
0.0
  0
LINE
  5
1ED
330
1F
100
AcDbEntity
  8
0
 62
     7
370
    35
100
AcDbLine
 10
756.5672
 20
374.400024
 30
0.0
 11
756.5672
 21
375.147797
 31
0.0
  0
LINE
  5
1EE
330
1F
100
AcDbEntity
  8
0
 62
     7
370
    35
100
AcDbLine
 10
766.0672
 20
392.900024
 30
0.0
 11
765.867249
 21
392.900024
 31
0.0
  0
LINE
  5
1EF
330
1F
100
AcDbEntity
  8
0
 62
     7
370
    35
100
AcDbLine
 10
766.0672
 20
379.900024
 30
0.0
 11
765.867249
 21
379.900024
 31
0.0
  0
LINE
  5
1F0
330
1F
100
AcDbEntity
  8
0
 62
     7
370
    35
100
AcDbLine
 10
765.278687
 20
401.311462
 30
0.0
 11
765.367249
 21
401.400024
 31
0.0
  0
LINE
  5
1F1
330
1F
100
AcDbEntity
  8
0
 62
     7
370
    35
100
AcDbLine
 10
765.367249
 20
401.266052
 30
0.0
 11
765.367249
 21
401.400024
 31
0.0
  0
LINE
  5
1F2
330
1F
100
AcDbEntity
  8
0
 62
     7
370
    35
100
AcDbLine
 10
766.0672
 20
394.400024
 30
0.0
 11
765.867249
 21
394.400024
 31
0.0
  0
LINE
  5
1F3
330
1F
100
AcDbEntity
  8
0
 62
     7
370
    35
100
AcDbLine
 10
766.0672
 20
401.400024
 30
0.0
 11
765.367249
 21
401.400024
 31
0.0
  0
LINE
  5
1F4
330
1F
100
AcDbEntity
  8
0
 62
     7
370
    35
100
AcDbLine
 10
765.0672
 20
441.400024
 30
0.0
 11
765.0672
 21
441.420227
 31
0.0
  0
LINE
  5
1F5
330
1F
100
AcDbEntity
  8
0
 62
     7
370
    35
100
AcDbLine
 10
765.0672
 20
441.400024
 30
0.0
 11
765.367249
 21
441.400024
 31
0.0
  0
LINE
  5
1F6
330
1F
100
AcDbEntity
  8
0
 62
     7
370
    35
100
AcDbLine
 10
765.367249
 20
441.400024
 30
0.0
 11
765.367249
 21
441.533997
 31
0.0
  0
LINE
  5
1F7
330
1F
100
AcDbEntity
  8
0
 62
     7
370
    35
100
AcDbLine
 10
766.0672
 20
441.400024
 30
0.0
 11
765.367249
 21
441.400024
 31
0.0
  0
LINE
  5
1F8
330
1F
100
AcDbEntity
  8
0
 62
     7
370
    35
100
AcDbLine
 10
766.0672
 20
453.400024
 30
0.0
 11
765.867249
 21
453.400024
 31
0.0
  0
LINE
  5
1F9
330
1F
100
AcDbEntity
  8
0
 62
     7
370
    35
100
AcDbLine
 10
766.0672
 20
454.900024
 30
0.0
 11
765.867249
 21
454.900024
 31
0.0
  0
LINE
  5
1FA
330
1F
100
AcDbEntity
  8
0
 62
     7
370
    35
100
AcDbLine
 10
777.0672
 20
372.900024
 30
0.0
 11
756.5672
 21
372.900024
 31
0.0
  0
LINE
  5
1FB
330
1F
100
AcDbEntity
  8
0
 62
     7
370
    35
100
AcDbLine
 10
775.0672
 20
439.150024
 30
0.0
 11
775.5672
 21
438.650024
 31
0.0
  0
LINE
  5
1FC
330
1F
100
AcDbEntity
  8
0
 62
     7
370
    35
100
AcDbLine
 10
777.0672
 20
373.400024
 30
0.0
 11
777.0672
 21
372.900024
 31
0.0
  0
LINE
  5
1FD
330
1F
100
AcDbEntity
  8
0
 62
     7
370
    35
100
AcDbLine
 10
756.5672
 20
373.400024
 30
0.0
 11
756.5672
 21
372.900024
 31
0.0
  0
LINE
  5
1FE
330
1F
100
AcDbEntity
  8
0
 62
     7
370
    35
100
AcDbLine
 10
762.0672
 20
472.900024
 30
0.0
 11
762.0672
 21
472.400024
 31
0.0
  0
ARC
  5
1FF
330
1F
100
AcDbEntity
  8
0
 62
     7
370
    35
100
AcDbCircle
 10
773.5672
 20
436.900024
 30
0.0
 40
0.5000000000000078
100
AcDbArc
 50
269.999997
 51
360.0
  0
ARC
  5
200
330
1F
100
AcDbEntity
  8
0
 62
     7
370
    35
100
AcDbCircle
 10
773.5672
 20
437.900024
 30
0.0
 40
0.4999999999999988
100
AcDbArc
 50
0.0
 51
90.000003
  0
ARC
  5
201
330
1F
100
AcDbEntity
  8
0
 62
     7
370
    35
100
AcDbCircle
 10
773.5672
 20
436.900024
 30
0.0
 40
0.4999999999999961
100
AcDbArc
 50
269.999997
 51
360.0
  0
ARC
  5
202
330
1F
100
AcDbEntity
  8
0
 62
     7
370
    35
100
AcDbCircle
 10
773.5672
 20
437.900024
 30
0.0
 40
0.4999999999999963
100
AcDbArc
 50
0.0
 51
90.000003
  0
ARC
  5
203
330
1F
100
AcDbEntity
  8
0
 62
     7
370
    35
100
AcDbCircle
 10
773.5672
 20
436.900024
 30
0.0
 40
0.4999999999999989
100
AcDbArc
 50
269.999997
 51
360.0
  0
ARC
  5
204
330
1F
100
AcDbEntity
  8
0
 62
     7
370
    35
100
AcDbCircle
 10
773.5672
 20
437.900024
 30
0.0
 40
0.4999999999999989
100
AcDbArc
 50
0.0
 51
90.000003
  0
LINE
  5
205
330
1F
100
AcDbEntity
  8
0
 62
     7
370
    35
100
AcDbLine
 10
749.767212
 20
472.900024
 30
0.0
 11
748.367249
 21
472.900024
 31
0.0
  0
LINE
  5
206
330
1F
100
AcDbEntity
  8
0
 62
     7
370
    35
100
AcDbLine
 10
756.0672
 20
473.100006
 30
0.0
 11
756.0672
 21
472.900024
 31
0.0
  0
LINE
  5
207
330
1F
100
AcDbEntity
  8
0
 62
     7
370
    35
100
AcDbLine
 10
757.0672
 20
473.100006
 30
0.0
 11
756.0672
 21
473.100006
 31
0.0
  0
LINE
  5
208
330
1F
100
AcDbEntity
  8
0
 62
     7
370
    35
100
AcDbLine
 10
757.298767
 20
472.899994
 30
0.0
 11
757.0672
 21
473.100006
 31
0.0
  0
LINE
  5
209
330
1F
100
AcDbEntity
  8
0
 62
     7
370
    35
100
AcDbLine
 10
762.0672
 20
472.900024
 30
0.0
 11
671.567261
 21
472.900024
 31
0.0
  0
LINE
  5
20A
330
1F
100
AcDbEntity
  8
0
 62
     7
370
    35
100
AcDbLine
 10
762.0672
 20
472.900024
 30
0.0
 11
762.0672
 21
472.400024
 31
0.0
  0
LINE
  5
20B
330
1F
100
AcDbEntity
  8
0
 62
     7
370
    35
100
AcDbLine
 10
762.0672
 20
472.400024
 30
0.0
 11
762.0672
 21
465.900024
 31
0.0
  0
LINE
  5
20C
330
1F
100
AcDbEntity
  8
0
 62
     7
370
    35
100
AcDbLine
 10
764.867249
 20
465.900024
 30
0.0
 11
762.0672
 21
465.900024
 31
0.0
  0
LINE
  5
20D
330
1F
100
AcDbEntity
  8
0
 62
     7
370
    35
100
AcDbLine
 10
756.467224
 20
373.400024
 30
0.0
 11
756.467224
 21
374.406158
 31
0.0
  0
ARC
  5
20E
330
1F
100
AcDbEntity
  8
0
 62
     7
370
    35
100
AcDbCircle
 10
759.267212
 20
374.406158
 30
0.0
 40
2.800000370875307
100
AcDbArc
 50
359.873883
 51
180.000005
  0
LINE
  5
20F
330
1F
100
AcDbEntity
  8
0
 62
     7
370
    35
100
AcDbLine
 10
765.867249
 20
374.400024
 30
0.0
 11
762.0672
 21
374.400024
 31
0.0
  0
LINE
  5
210
330
1F
100
AcDbEntity
  8
0
 62
     7
370
    35
100
AcDbLine
 10
765.867249
 20
374.400024
 30
0.0
 11
765.867249
 21
400.400024
 31
0.0
  0
ARC
  5
211
330
1F
100
AcDbEntity
  8
0
 62
     7
370
    35
100
AcDbCircle
 10
764.867249
 20
400.400024
 30
0.0
 40
0.9999999999999998
100
AcDbArc
 50
0.0
 51
90.000003
  0
LINE
  5
212
330
1F
100
AcDbEntity
  8
0
 62
     7
370
    35
100
AcDbLine
 10
764.867249
 20
401.400024
 30
0.0
 11
757.867249
 21
401.400024
 31
0.0
  0
LINE
  5
213
330
1F
100
AcDbEntity
  8
0
 62
     7
370
    35
100
AcDbLine
 10
757.867249
 20
401.400024
 30
0.0
 11
757.867249
 21
441.400024
 31
0.0
  0
LINE
  5
214
330
1F
100
AcDbEntity
  8
0
 62
     7
370
    35
100
AcDbLine
 10
764.867249
 20
441.400024
 30
0.0
 11
757.867249
 21
441.400024
 31
0.0
  0
ARC
  5
215
330
1F
100
AcDbEntity
  8
0
 62
     7
370
    35
100
AcDbCircle
 10
764.867249
 20
442.400024
 30
0.0
 40
1.0
100
AcDbArc
 50
269.999997
 51
360.0
  0
LINE
  5
216
330
1F
100
AcDbEntity
  8
0
 62
     7
370
    35
100
AcDbLine
 10
765.867249
 20
442.400024
 30
0.0
 11
765.867249
 21
464.900024
 31
0.0
  0
ARC
  5
217
330
1F
100
AcDbEntity
  8
0
 62
     7
370
    35
100
AcDbCircle
 10
764.867249
 20
464.900024
 30
0.0
 40
0.9999999999999998
100
AcDbArc
 50
0.0
 51
90.000003
  0
LINE
  5
218
330
1F
100
AcDbEntity
  8
0
 62
     7
370
    35
100
AcDbLine
 10
765.867249
 20
401.400024
 30
0.0
 11
765.867249
 21
402.399994
 31
0.0
  0
LINE
  5
219
330
1F
100
AcDbEntity
  8
0
 62
     7
370
    35
100
AcDbLine
 10
765.867249
 20
440.399994
 30
0.0
 11
765.867249
 21
440.999969
 31
0.0
  0
LINE
  5
21A
330
1F
100
AcDbEntity
  8
0
 62
     7
370
    35
100
AcDbLine
 10
756.467224
 20
372.900024
 30
0.0
 11
671.567261
 21
372.900024
 31
0.0
  0
LINE
  5
21B
330
1F
100
AcDbEntity
  8
0
 62
     7
370
    35
100
AcDbLine
 10
671.067261
 20
373.400024
 30
0.0
 11
671.067261
 21
472.400024
 31
0.0
  0
ARC
  5
21C
330
1F
100
AcDbEntity
  8
0
 62
     7
370
    35
100
AcDbCircle
 10
671.567261
 20
373.400024
 30
0.0
 40
0.5
100
AcDbArc
 50
180.000005
 51
269.999997
  0
ARC
  5
21D
330
1F
100
AcDbEntity
  8
0
 62
     7
370
    35
100
AcDbCircle
 10
671.567261
 20
472.400024
 30
0.0
 40
0.5
100
AcDbArc
 50
90.000003
 51
180.000005
  0
LINE
  5
21E
330
1F
100
AcDbEntity
  8
0
 62
     7
370
    35
100
AcDbLine
 10
765.867249
 20
380.900024
 30
0.0
 11
766.0672
 21
380.900024
 31
0.0
  0
LINE
  5
21F
330
1F
100
AcDbEntity
  8
0
 62
     7
370
    35
100
AcDbLine
 10
765.867249
 20
390.400024
 30
0.0
 11
766.0672
 21
390.400024
 31
0.0
  0
LINE
  5
220
330
1F
100
AcDbEntity
  8
0
 62
     7
370
    35
100
AcDbLine
 10
756.467224
 20
373.400024
 30
0.0
 11
756.467224
 21
372.900024
 31
0.0
  0
LINE
  5
221
330
1F
100
AcDbEntity
  8
0
 62
     7
370
    35
100
AcDbLine
 10
773.5672
 20
369.900024
 30
0.0
 11
773.5672
 21
367.900024
 31
0.0
  0
LINE
  5
222
330
1F
100
AcDbEntity
  8
0
 62
     7
370
    35
100
AcDbLine
 10
773.5672
 20
372.899994
 30
0.0
 11
773.5672
 21
369.900024
 31
0.0
  0
LINE
  5
223
330
1F
100
AcDbEntity
  8
0
 62
     7
370
    35
100
AcDbLine
 10
776.777954
 20
405.149994
 30
0.0
 11
775.867249
 21
407.700012
 31
0.0
  0
LINE
  5
224
330
1F
100
AcDbEntity
  8
0
 62
     7
370
    35
100
AcDbLine
 10
776.867249
 20
371.400024
 30
0.0
 11
776.867249
 21
369.900024
 31
0.0
  0
LINE
  5
225
330
1F
100
AcDbEntity
  8
0
 62
     7
370
    35
100
AcDbLine
 10
776.867249
 20
371.400024
 30
0.0
 11
775.5672
 21
371.400024
 31
0.0
  0
LINE
  5
226
330
1F
100
AcDbEntity
  8
0
 62
     7
370
    35
100
AcDbLine
 10
775.5672
 20
372.899994
 30
0.0
 11
775.5672
 21
371.400024
 31
0.0
  0
LINE
  5
227
330
1F
100
AcDbEntity
  8
0
 62
     7
370
    35
100
AcDbLine
 10
773.5672
 20
369.900024
 30
0.0
 11
776.867249
 21
369.900024
 31
0.0
  0
LINE
  5
228
330
1F
100
AcDbEntity
  8
0
 62
     7
370
    35
100
AcDbLine
 10
773.5672
 20
367.900024
 30
0.0
 11
776.867249
 21
367.900024
 31
0.0
  0
LINE
  5
229
330
1F
100
AcDbEntity
  8
0
 62
     7
370
    35
100
AcDbLine
 10
775.867249
 20
407.700012
 30
0.0
 11
775.0672
 21
407.700012
 31
0.0
  0
LINE
  5
22A
330
1F
100
AcDbEntity
  8
0
 62
     7
370
    35
100
AcDbLine
 10
775.0672
 20
407.700012
 30
0.0
 11
774.767212
 21
407.100006
 31
0.0
  0
LINE
  5
22B
330
1F
100
AcDbEntity
  8
0
 62
     7
370
    35
100
AcDbLine
 10
774.767212
 20
407.100006
 30
0.0
 11
774.767212
 21
405.149994
 31
0.0
  0
LINE
  5
22C
330
1F
100
AcDbEntity
  8
0
 62
     7
370
    35
100
AcDbLine
 10
776.867249
 20
369.900024
 30
0.0
 11
776.867249
 21
367.900024
 31
0.0
  0
LINE
  5
22D
330
1F
100
AcDbEntity
  8
0
 62
     7
370
    35
100
AcDbLine
 10
776.867249
 20
371.400024
 30
0.0
 11
776.867249
 21
372.899994
 31
0.0
  0
LINE
  5
22E
330
1F
100
AcDbEntity
  8
0
 62
     7
370
    35
100
AcDbLine
 10
671.057251
 20
469.631561
 30
0.0
 11
671.037231
 21
469.631561
 31
0.0
  0
LINE
  5
22F
330
1F
100
AcDbEntity
  8
0
 62
     7
370
    35
100
AcDbLine
 10
671.057251
 20
469.996063
 30
0.0
 11
671.057251
 21
469.631561
 31
0.0
  0
LINE
  5
230
330
1F
100
AcDbEntity
  8
0
 62
     7
370
    35
100
AcDbLine
 10
671.037231
 20
469.996063
 30
0.0
 11
671.037231
 21
469.631561
 31
0.0
  0
LINE
  5
231
330
1F
100
AcDbEntity
  8
0
 62
     7
370
    35
100
AcDbLine
 10
671.057251
 20
467.668335
 30
0.0
 11
671.057251
 21
467.303864
 31
0.0
  0
LINE
  5
232
330
1F
100
AcDbEntity
  8
0
 62
     7
370
    35
100
AcDbLine
 10
671.057251
 20
467.668335
 30
0.0
 11
671.037231
 21
467.668335
 31
0.0
  0
LINE
  5
233
330
1F
100
AcDbEntity
  8
0
 62
     7
370
    35
100
AcDbLine
 10
671.037231
 20
467.668335
 30
0.0
 11
671.037231
 21
467.303864
 31
0.0
  0
LINE
  5
234
330
1F
100
AcDbEntity
  8
0
 62
     7
370
    35
100
AcDbLine
 10
671.057251
 20
469.631561
 30
0.0
 11
671.057251
 21
467.668335
 31
0.0
  0
LINE
  5
235
330
1F
100
AcDbEntity
  8
0
 62
     7
370
    35
100
AcDbLine
 10
671.037231
 20
469.631561
 30
0.0
 11
671.037231
 21
467.668335
 31
0.0
  0
LINE
  5
236
330
1F
100
AcDbEntity
  8
0
 62
     7
370
    35
100
AcDbLine
 10
671.057251
 20
469.996063
 30
0.0
 11
671.037231
 21
469.996063
 31
0.0
  0
LINE
  5
237
330
1F
100
AcDbEntity
  8
0
 62
     7
370
    35
100
AcDbLine
 10
671.057251
 20
467.303864
 30
0.0
 11
671.037231
 21
467.303864
 31
0.0
  0
LINE
  5
238
330
1F
100
AcDbEntity
  8
0
 62
     7
370
    35
100
AcDbLine
 10
671.057251
 20
469.996063
 30
0.0
 11
671.037231
 21
469.996063
 31
0.0
  0
LINE
  5
239
330
1F
100
AcDbEntity
  8
0
 62
     7
370
    35
100
AcDbLine
 10
673.067261
 20
472.900024
 30
0.0
 11
673.067261
 21
472.950012
 31
0.0
  0
LINE
  5
23A
330
1F
100
AcDbEntity
  8
0
 62
     7
370
    35
100
AcDbLine
 10
673.067261
 20
472.900024
 30
0.0
 11
683.067261
 21
472.900024
 31
0.0
  0
LINE
  5
23B
330
1F
100
AcDbEntity
  8
0
 62
     7
370
    35
100
AcDbLine
 10
683.067261
 20
472.900024
 30
0.0
 11
683.067261
 21
472.950012
 31
0.0
  0
LINE
  5
23C
330
1F
100
AcDbEntity
  8
0
 62
     7
370
    35
100
AcDbLine
 10
673.067261
 20
472.950012
 30
0.0
 11
683.067261
 21
472.950012
 31
0.0
  0
LINE
  5
23D
330
1F
100
AcDbEntity
  8
0
 62
     7
370
    35
100
AcDbLine
 10
624.75
 20
593.097961
 30
0.0
 11
624.509155
 21
593.097961
 31
0.0
  0
LINE
  5
23E
330
1F
100
AcDbEntity
  8
0
 62
     7
370
    35
100
AcDbLine
 10
621.25
 20
593.097961
 30
0.0
 11
624.509155
 21
593.097961
 31
0.0
  0
LINE
  5
23F
330
1F
100
AcDbEntity
  8
0
 62
     7
370
    35
100
AcDbLine
 10
617.25
 20
593.097961
 30
0.0
 11
621.25
 21
593.097961
 31
0.0
  0
LINE
  5
240
330
1F
100
AcDbEntity
  8
0
 62
     7
370
    35
100
AcDbLine
 10
624.75
 20
598.997986
 30
0.0
 11
624.509155
 21
598.997986
 31
0.0
  0
LINE
  5
241
330
1F
100
AcDbEntity
  8
0
 62
     7
370
    35
100
AcDbLine
 10
621.25
 20
598.997986
 30
0.0
 11
624.509155
 21
598.997986
 31
0.0
  0
LINE
  5
242
330
1F
100
AcDbEntity
  8
0
 62
     7
370
    35
100
AcDbLine
 10
617.25
 20
598.997986
 30
0.0
 11
621.25
 21
598.997986
 31
0.0
  0
LINE
  5
243
330
1F
100
AcDbEntity
  8
0
 62
     7
370
    35
100
AcDbLine
 10
624.75
 20
593.097961
 30
0.0
 11
624.75
 21
598.997986
 31
0.0
  0
LINE
  5
244
330
1F
100
AcDbEntity
  8
0
 62
     7
370
    35
100
AcDbLine
 10
624.509155
 20
593.097961
 30
0.0
 11
624.509155
 21
598.997986
 31
0.0
  0
LINE
  5
245
330
1F
100
AcDbEntity
  8
0
 62
     7
370
    35
100
AcDbLine
 10
621.25
 20
593.097961
 30
0.0
 11
621.25
 21
598.997986
 31
0.0
  0
LINE
  5
246
330
1F
100
AcDbEntity
  8
0
 62
     7
370
    35
100
AcDbLine
 10
567.25
 20
601.097961
 30
0.0
 11
567.25
 21
599.497986
 31
0.0
  0
LINE
  5
247
330
1F
100
AcDbEntity
  8
0
 62
     7
370
    35
100
AcDbLine
 10
592.450073
 20
590.797974
 30
0.0
 11
592.959961
 21
590.797974
 31
0.0
  0
LINE
  5
248
330
1F
100
AcDbEntity
  8
0
 62
     7
370
    35
100
AcDbLine
 10
609.5
 20
576.146667
 30
0.0
 11
609.5
 21
576.896545
 31
0.0
  0
LINE
  5
249
330
1F
100
AcDbEntity
  8
0
 62
     7
370
    35
100
AcDbLine
 10
607.949951
 20
576.146667
 30
0.0
 11
607.949951
 21
576.896545
 31
0.0
  0
LINE
  5
24A
330
1F
100
AcDbEntity
  8
0
 62
     7
370
    35
100
AcDbLine
 10
607.949951
 20
576.097961
 30
0.0
 11
607.949951
 21
576.146667
 31
0.0
  0
LINE
  5
24B
330
1F
100
AcDbEntity
  8
0
 62
     7
370
    35
100
AcDbLine
 10
609.5
 20
576.097961
 30
0.0
 11
609.5
 21
576.146667
 31
0.0
  0
LINE
  5
24C
330
1F
100
AcDbEntity
  8
0
 62
     7
370
    35
100
AcDbLine
 10
609.5
 20
577.921509
 30
0.0
 11
609.5
 21
576.896545
 31
0.0
  0
LINE
  5
24D
330
1F
100
AcDbEntity
  8
0
 62
     7
370
    35
100
AcDbLine
 10
607.949951
 20
577.921509
 30
0.0
 11
607.949951
 21
576.896545
 31
0.0
  0
LINE
  5
24E
330
1F
100
AcDbEntity
  8
0
 62
     7
370
    35
100
AcDbLine
 10
607.949951
 20
577.921509
 30
0.0
 11
609.5
 21
577.921509
 31
0.0
  0
LINE
  5
24F
330
1F
100
AcDbEntity
  8
0
 62
     7
370
    35
100
AcDbLine
 10
609.5
 20
581.097961
 30
0.0
 11
609.5
 21
577.921509
 31
0.0
  0
LINE
  5
250
330
1F
100
AcDbEntity
  8
0
 62
     7
370
    35
100
AcDbLine
 10
607.949951
 20
577.921509
 30
0.0
 11
607.949951
 21
581.097961
 31
0.0
  0
LINE
  5
251
330
1F
100
AcDbEntity
  8
0
 62
     7
370
    35
100
AcDbLine
 10
609.549988
 20
581.097961
 30
0.0
 11
609.549988
 21
576.097961
 31
0.0
  0
LINE
  5
252
330
1F
100
AcDbEntity
  8
0
 62
     7
370
    35
100
AcDbLine
 10
604.949951
 20
585.997986
 30
0.0
 11
602.949951
 21
585.997986
 31
0.0
  0
LINE
  5
253
330
1F
100
AcDbEntity
  8
0
 62
     7
370
    35
100
AcDbLine
 10
587.949951
 20
581.097961
 30
0.0
 11
587.949951
 21
576.097961
 31
0.0
  0
LINE
  5
254
330
1F
100
AcDbEntity
  8
0
 62
     7
370
    35
100
AcDbLine
 10
586.349976
 20
578.097961
 30
0.0
 11
587.899963
 21
578.097961
 31
0.0
  0
LINE
  5
255
330
1F
100
AcDbEntity
  8
0
 62
     7
370
    35
100
AcDbLine
 10
586.349976
 20
578.097961
 30
0.0
 11
586.349976
 21
581.097961
 31
0.0
  0
LINE
  5
256
330
1F
100
AcDbEntity
  8
0
 62
     7
370
    35
100
AcDbLine
 10
587.899963
 20
578.097961
 30
0.0
 11
587.899963
 21
581.097961
 31
0.0
  0
LINE
  5
257
330
1F
100
AcDbEntity
  8
0
 62
     7
370
    35
100
AcDbLine
 10
586.349976
 20
576.597961
 30
0.0
 11
587.899963
 21
576.597961
 31
0.0
  0
LINE
  5
258
330
1F
100
AcDbEntity
  8
0
 62
     7
370
    35
100
AcDbLine
 10
586.349976
 20
576.597961
 30
0.0
 11
586.349976
 21
578.097961
 31
0.0
  0
LINE
  5
259
330
1F
100
AcDbEntity
  8
0
 62
     7
370
    35
100
AcDbLine
 10
587.899963
 20
576.597961
 30
0.0
 11
587.899963
 21
578.097961
 31
0.0
  0
LINE
  5
25A
330
1F
100
AcDbEntity
  8
0
 62
     7
370
    35
100
AcDbLine
 10
586.299988
 20
579.827942
 30
0.0
 11
586.299988
 21
578.62793
 31
0.0
  0
LINE
  5
25B
330
1F
100
AcDbEntity
  8
0
 62
     7
370
    35
100
AcDbLine
 10
586.349976
 20
579.827942
 30
0.0
 11
586.299988
 21
579.827942
 31
0.0
  0
LINE
  5
25C
330
1F
100
AcDbEntity
  8
0
 62
     7
370
    35
100
AcDbLine
 10
586.349976
 20
578.62793
 30
0.0
 11
586.299988
 21
578.62793
 31
0.0
  0
LINE
  5
25D
330
1F
100
AcDbEntity
  8
0
 62
     7
370
    35
100
AcDbLine
 10
586.349976
 20
576.097961
 30
0.0
 11
586.349976
 21
576.597961
 31
0.0
  0
LINE
  5
25E
330
1F
100
AcDbEntity
  8
0
 62
     7
370
    35
100
AcDbLine
 10
587.899963
 20
576.097961
 30
0.0
 11
587.899963
 21
576.597961
 31
0.0
  0
LINE
  5
25F
330
1F
100
AcDbEntity
  8
0
 62
     7
370
    35
100
AcDbLine
 10
586.299988
 20
581.097961
 30
0.0
 11
586.299988
 21
576.097961
 31
0.0
  0
LINE
  5
260
330
1F
100
AcDbEntity
  8
0
 62
     7
370
    35
100
AcDbLine
 10
607.049988
 20
586.197937
 30
0.0
 11
606.449951
 21
586.197937
 31
0.0
  0
LINE
  5
261
330
1F
100
AcDbEntity
  8
0
 62
     7
370
    35
100
AcDbLine
 10
589.449951
 20
586.197937
 30
0.0
 11
606.449951
 21
586.197937
 31
0.0
  0
LINE
  5
262
330
1F
100
AcDbEntity
  8
0
 62
     7
370
    35
100
AcDbLine
 10
607.149963
 20
588.697937
 30
0.0
 11
606.949951
 21
588.697937
 31
0.0
  0
ARC
  5
263
330
1F
100
AcDbEntity
  8
0
 62
     7
370
    35
100
AcDbCircle
 10
606.449951
 20
586.697937
 30
0.0
 40
0.5
100
AcDbArc
 50
269.999997
 51
360.0
  0
ARC
  5
264
330
1F
100
AcDbEntity
  8
0
 62
     7
370
    35
100
AcDbCircle
 10
589.449951
 20
586.697937
 30
0.0
 40
0.5
100
AcDbArc
 50
180.000005
 51
269.999997
  0
LINE
  5
265
330
1F
100
AcDbEntity
  8
0
 62
     7
370
    35
100
AcDbLine
 10
606.949951
 20
586.697937
 30
0.0
 11
606.949951
 21
595.197937
 31
0.0
  0
ARC
  5
266
330
1F
100
AcDbEntity
  8
0
 62
     7
370
    35
100
AcDbCircle
 10
607.449951
 20
595.197937
 30
0.0
 40
0.5
100
AcDbArc
 50
90.000003
 51
180.000005
  0
LINE
  5
267
330
1F
100
AcDbEntity
  8
0
 62
     7
370
    35
100
AcDbLine
 10
616.75
 20
595.697937
 30
0.0
 11
607.449951
 21
595.697937
 31
0.0
  0
LINE
  5
268
330
1F
100
AcDbEntity
  8
0
 62
     7
370
    35
100
AcDbLine
 10
567.75
 20
610.697937
 30
0.0
 11
616.75
 21
610.697937
 31
0.0
  0
LINE
  5
269
330
1F
100
AcDbEntity
  8
0
 62
     7
370
    35
100
AcDbLine
 10
588.449951
 20
595.697937
 30
0.0
 11
567.75
 21
595.697937
 31
0.0
  0
ARC
  5
26A
330
1F
100
AcDbEntity
  8
0
 62
     7
370
    35
100
AcDbCircle
 10
588.449951
 20
595.197937
 30
0.0
 40
0.5
100
AcDbArc
 50
0.0
 51
90.000003
  0
LINE
  5
26B
330
1F
100
AcDbEntity
  8
0
 62
     7
370
    35
100
AcDbLine
 10
588.949951
 20
595.197937
 30
0.0
 11
588.949951
 21
586.697937
 31
0.0
  0
LINE
  5
26C
330
1F
100
AcDbEntity
  8
0
 62
     7
370
    35
100
AcDbLine
 10
569.25
 20
597.697937
 30
0.0
 11
615.25
 21
597.697937
 31
0.0
  0
LINE
  5
26D
330
1F
100
AcDbEntity
  8
0
 62
     7
370
    35
100
AcDbLine
 10
569.25
 20
597.697937
 30
0.0
 11
569.25
 21
608.697937
 31
0.0
  0
LINE
  5
26E
330
1F
100
AcDbEntity
  8
0
 62
     7
370
    35
100
AcDbLine
 10
615.25
 20
608.697937
 30
0.0
 11
569.25
 21
608.697937
 31
0.0
  0
LINE
  5
26F
330
1F
100
AcDbEntity
  8
0
 62
     7
370
    35
100
AcDbLine
 10
615.25
 20
608.697937
 30
0.0
 11
615.25
 21
597.697937
 31
0.0
  0
LINE
  5
270
330
1F
100
AcDbEntity
  8
0
 62
     7
370
    35
100
AcDbLine
 10
592.449951
 20
589.697937
 30
0.0
 11
592.949951
 21
589.697937
 31
0.0
  0
LINE
  5
271
330
1F
100
AcDbEntity
  8
0
 62
     7
370
    35
100
AcDbLine
 10
602.949951
 20
589.697937
 30
0.0
 11
603.449951
 21
589.697937
 31
0.0
  0
LINE
  5
272
330
1F
100
AcDbEntity
  8
0
 62
     7
370
    35
100
AcDbLine
 10
592.449951
 20
589.697937
 30
0.0
 11
592.449951
 21
592.697937
 31
0.0
  0
LINE
  5
273
330
1F
100
AcDbEntity
  8
0
 62
     7
370
    35
100
AcDbLine
 10
603.449951
 20
592.697937
 30
0.0
 11
592.449951
 21
592.697937
 31
0.0
  0
LINE
  5
274
330
1F
100
AcDbEntity
  8
0
 62
     7
370
    35
100
AcDbLine
 10
603.449951
 20
592.697937
 30
0.0
 11
603.449951
 21
589.697937
 31
0.0
  0
LINE
  5
275
330
1F
100
AcDbEntity
  8
0
 62
     7
370
    35
100
AcDbLine
 10
567.25
 20
595.697937
 30
0.0
 11
567.75
 21
595.697937
 31
0.0
  0
LINE
  5
276
330
1F
100
AcDbEntity
  8
0
 62
     7
370
    35
100
AcDbLine
 10
567.25
 20
610.697937
 30
0.0
 11
567.75
 21
610.697937
 31
0.0
  0
LINE
  5
277
330
1F
100
AcDbEntity
  8
0
 62
     7
370
    35
100
AcDbLine
 10
567.25
 20
610.697937
 30
0.0
 11
567.25
 21
595.697937
 31
0.0
  0
LINE
  5
278
330
1F
100
AcDbEntity
  8
0
 62
     7
370
    35
100
AcDbLine
 10
616.75
 20
610.697937
 30
0.0
 11
617.25
 21
610.697937
 31
0.0
  0
LINE
  5
279
330
1F
100
AcDbEntity
  8
0
 62
     7
370
    35
100
AcDbLine
 10
617.25
 20
610.697937
 30
0.0
 11
617.25
 21
595.697937
 31
0.0
  0
LINE
  5
27A
330
1F
100
AcDbEntity
  8
0
 62
     7
370
    35
100
AcDbLine
 10
620.649963
 20
607.297974
 30
0.0
 11
617.25
 21
607.297974
 31
0.0
  0
LINE
  5
27B
330
1F
100
AcDbEntity
  8
0
 62
     7
370
    35
100
AcDbLine
 10
621.149963
 20
610.697937
 30
0.0
 11
621.149963
 21
607.797974
 31
0.0
  0
ARC
  5
27C
330
1F
100
AcDbEntity
  8
0
 62
     7
370
    35
100
AcDbCircle
 10
620.649963
 20
607.797974
 30
0.0
 40
0.5
100
AcDbArc
 50
269.999997
 51
360.0
  0
LINE
  5
27D
330
1F
100
AcDbEntity
  8
0
 62
     7
370
    35
100
AcDbLine
 10
620.649963
 20
610.697937
 30
0.0
 11
621.149963
 21
610.697937
 31
0.0
  0
LINE
  5
27E
330
1F
100
AcDbEntity
  8
0
 62
     7
370
    35
100
AcDbLine
 10
618.75
 20
603.697937
 30
0.0
 11
618.75
 21
605.697937
 31
0.0
  0
LINE
  5
27F
330
1F
100
AcDbEntity
  8
0
 62
     7
370
    35
100
AcDbLine
 10
618.75
 20
603.697937
 30
0.0
 11
618.25
 21
603.697937
 31
0.0
  0
LINE
  5
280
330
1F
100
AcDbEntity
  8
0
 62
     7
370
    35
100
AcDbLine
 10
618.25
 20
605.697937
 30
0.0
 11
618.75
 21
605.697937
 31
0.0
  0
LINE
  5
281
330
1F
100
AcDbEntity
  8
0
 62
     7
370
    35
100
AcDbLine
 10
617.25
 20
603.697937
 30
0.0
 11
618.25
 21
603.697937
 31
0.0
  0
LINE
  5
282
330
1F
100
AcDbEntity
  8
0
 62
     7
370
    35
100
AcDbLine
 10
617.25
 20
605.697937
 30
0.0
 11
618.25
 21
605.697937
 31
0.0
  0
LINE
  5
283
330
1F
100
AcDbEntity
  8
0
 62
     7
370
    35
100
AcDbLine
 10
620.649963
 20
610.697937
 30
0.0
 11
617.25
 21
610.697937
 31
0.0
  0
LINE
  5
284
330
1F
100
AcDbEntity
  8
0
 62
     7
370
    35
100
AcDbLine
 10
588.75
 20
589.697937
 30
0.0
 11
588.949951
 21
589.697937
 31
0.0
  0
LINE
  5
285
330
1F
100
AcDbEntity
  8
0
 62
     7
370
    35
100
AcDbLine
 10
616.75
 20
595.697937
 30
0.0
 11
617.25
 21
595.697937
 31
0.0
  0
ARC
  5
286
330
1F
100
AcDbEntity
  8
0
 62
     7
370
    35
100
AcDbCircle
 10
603.899963
 20
572.647949
 30
0.0
 40
0.9499999999999993
100
AcDbArc
 50
180.000005
 51
269.999997
  0
LINE
  5
287
330
1F
100
AcDbEntity
  8
0
 62
     7
370
    35
100
AcDbLine
 10
602.949951
 20
583.397949
 30
0.0
 11
602.949951
 21
581.997986
 31
0.0
  0
LINE
  5
288
330
1F
100
AcDbEntity
  8
0
 62
     7
370
    35
100
AcDbLine
 10
602.949951
 20
583.697937
 30
0.0
 11
602.949951
 21
583.397949
 31
0.0
  0
LINE
  5
289
330
1F
100
AcDbEntity
  8
0
 62
     7
370
    35
100
AcDbLine
 10
602.949951
 20
586.197937
 30
0.0
 11
602.949951
 21
583.697937
 31
0.0
  0
LINE
  5
28A
330
1F
100
AcDbEntity
  8
0
 62
     7
370
    35
100
AcDbLine
 10
602.949951
 20
590.697937
 30
0.0
 11
602.949951
 21
589.697937
 31
0.0
  0
LINE
  5
28B
330
1F
100
AcDbEntity
  8
0
 62
     7
370
    35
100
AcDbLine
 10
602.949951
 20
592.697937
 30
0.0
 11
602.949951
 21
590.697937
 31
0.0
  0
LINE
  5
28C
330
1F
100
AcDbEntity
  8
0
 62
     7
370
    35
100
AcDbLine
 10
602.949951
 20
581.697937
 30
0.0
 11
602.949951
 21
572.647949
 31
0.0
  0
LINE
  5
28D
330
1F
100
AcDbEntity
  8
0
 62
     7
370
    35
100
AcDbLine
 10
602.949951
 20
581.997986
 30
0.0
 11
602.949951
 21
581.697937
 31
0.0
  0
LINE
  5
28E
330
1F
100
AcDbEntity
  8
0
 62
     7
370
    35
100
AcDbLine
 10
604.449951
 20
571.697937
 30
0.0
 11
591.449951
 21
571.697937
 31
0.0
  0
ARC
  5
28F
330
1F
100
AcDbEntity
  8
0
 62
     7
370
    35
100
AcDbCircle
 10
592.0
 20
572.647949
 30
0.0
 40
0.9499999999999997
100
AcDbArc
 50
269.999997
 51
360.0
  0
LINE
  5
290
330
1F
100
AcDbEntity
  8
0
 62
     7
370
    35
100
AcDbLine
 10
604.449951
 20
585.497986
 30
0.0
 11
604.449951
 21
571.697937
 31
0.0
  0
LINE
  5
291
330
1F
100
AcDbEntity
  8
0
 62
     7
370
    35
100
AcDbLine
 10
616.75
 20
595.697937
 30
0.0
 11
607.649963
 21
595.697937
 31
0.0
  0
ARC
  5
292
330
1F
100
AcDbEntity
  8
0
 62
     7
370
    35
100
AcDbCircle
 10
607.649963
 20
595.197937
 30
0.0
 40
0.4999999999999996
100
AcDbArc
 50
90.000003
 51
180.000005
  0
LINE
  5
293
330
1F
100
AcDbEntity
  8
0
 62
     7
370
    35
100
AcDbLine
 10
607.149963
 20
595.197937
 30
0.0
 11
607.149963
 21
586.497986
 31
0.0
  0
ARC
  5
294
330
1F
100
AcDbEntity
  8
0
 62
     7
370
    35
100
AcDbCircle
 10
606.649963
 20
586.497986
 30
0.0
 40
0.5
100
AcDbArc
 50
269.999997
 51
360.0
  0
LINE
  5
295
330
1F
100
AcDbEntity
  8
0
 62
     7
370
    35
100
AcDbLine
 10
606.649963
 20
585.997986
 30
0.0
 11
604.949951
 21
585.997986
 31
0.0
  0
ARC
  5
296
330
1F
100
AcDbEntity
  8
0
 62
     7
370
    35
100
AcDbCircle
 10
604.949951
 20
585.497986
 30
0.0
 40
0.5
100
AcDbArc
 50
90.000003
 51
180.000005
  0
LINE
  5
297
330
1F
100
AcDbEntity
  8
0
 62
     7
370
    35
100
AcDbLine
 10
591.449951
 20
571.697937
 30
0.0
 11
591.449951
 21
585.497986
 31
0.0
  0
ARC
  5
298
330
1F
100
AcDbEntity
  8
0
 62
     7
370
    35
100
AcDbCircle
 10
590.949951
 20
585.497986
 30
0.0
 40
0.5
100
AcDbArc
 50
0.0
 51
90.000003
  0
LINE
  5
299
330
1F
100
AcDbEntity
  8
0
 62
     7
370
    35
100
AcDbLine
 10
590.949951
 20
585.997986
 30
0.0
 11
589.25
 21
585.997986
 31
0.0
  0
ARC
  5
29A
330
1F
100
AcDbEntity
  8
0
 62
     7
370
    35
100
AcDbCircle
 10
589.25
 20
586.497986
 30
0.0
 40
0.5
100
AcDbArc
 50
180.000005
 51
269.999997
  0
LINE
  5
29B
330
1F
100
AcDbEntity
  8
0
 62
     7
370
    35
100
AcDbLine
 10
588.75
 20
586.497986
 30
0.0
 11
588.75
 21
595.197937
 31
0.0
  0
ARC
  5
29C
330
1F
100
AcDbEntity
  8
0
 62
     7
370
    35
100
AcDbCircle
 10
588.25
 20
595.197937
 30
0.0
 40
0.5
100
AcDbArc
 50
0.0
 51
90.000003
  0
LINE
  5
29D
330
1F
100
AcDbEntity
  8
0
 62
     7
370
    35
100
AcDbLine
 10
588.25
 20
595.697937
 30
0.0
 11
567.75
 21
595.697937
 31
0.0
  0
LINE
  5
29E
330
1F
100
AcDbEntity
  8
0
 62
     7
370
    35
100
AcDbLine
 10
607.849976
 20
576.097961
 30
0.0
 11
607.849976
 21
581.097961
 31
0.0
  0
LINE
  5
29F
330
1F
100
AcDbEntity
  8
0
 62
     7
370
    35
100
AcDbLine
 10
607.849976
 20
581.097961
 30
0.0
 11
609.649963
 21
581.097961
 31
0.0
  0
LINE
  5
2A0
330
1F
100
AcDbEntity
  8
0
 62
     7
370
    35
100
AcDbLine
 10
609.649963
 20
581.097961
 30
0.0
 11
609.649963
 21
576.097961
 31
0.0
  0
LINE
  5
2A1
330
1F
100
AcDbEntity
  8
0
 62
     7
370
    35
100
AcDbLine
 10
609.649963
 20
576.097961
 30
0.0
 11
607.849976
 21
576.097961
 31
0.0
  0
LINE
  5
2A2
330
1F
100
AcDbEntity
  8
0
 62
     7
370
    35
100
AcDbLine
 10
586.25
 20
576.097961
 30
0.0
 11
586.25
 21
581.097961
 31
0.0
  0
LINE
  5
2A3
330
1F
100
AcDbEntity
  8
0
 62
     7
370
    35
100
AcDbLine
 10
586.25
 20
581.097961
 30
0.0
 11
588.049988
 21
581.097961
 31
0.0
  0
LINE
  5
2A4
330
1F
100
AcDbEntity
  8
0
 62
     7
370
    35
100
AcDbLine
 10
588.049988
 20
581.097961
 30
0.0
 11
588.049988
 21
576.097961
 31
0.0
  0
LINE
  5
2A5
330
1F
100
AcDbEntity
  8
0
 62
     7
370
    35
100
AcDbLine
 10
588.049988
 20
576.097961
 30
0.0
 11
586.25
 21
576.097961
 31
0.0
  0
LINE
  5
2A6
330
1F
100
AcDbEntity
  8
0
 62
     7
370
    35
100
AcDbLine
 10
567.25
 20
595.697937
 30
0.0
 11
567.75
 21
595.697937
 31
0.0
  0
LINE
  5
2A7
330
1F
100
AcDbEntity
  8
0
 62
     7
370
    35
100
AcDbLine
 10
567.25
 20
595.697937
 30
0.0
 11
567.25
 21
505.197968
 31
0.0
  0
LINE
  5
2A8
330
1F
100
AcDbEntity
  8
0
 62
     7
370
    35
100
AcDbLine
 10
616.75
 20
595.697937
 30
0.0
 11
617.25
 21
595.697937
 31
0.0
  0
LINE
  5
2A9
330
1F
100
AcDbEntity
  8
0
 62
     7
370
    35
100
AcDbLine
 10
567.25
 20
598.497986
 30
0.0
 11
567.25
 21
595.697937
 31
0.0
  0
LINE
  5
2AA
330
1F
100
AcDbEntity
  8
0
 62
     7
370
    35
100
AcDbLine
 10
567.25
 20
599.497986
 30
0.0
 11
567.25
 21
598.497986
 31
0.0
  0
LINE
  5
2AB
330
1F
100
AcDbEntity
  8
0
 62
     7
370
    35
100
AcDbLine
 10
617.25
 20
595.697937
 30
0.0
 11
617.25
 21
505.197968
 31
0.0
  0
LINE
  5
2AC
330
1F
100
AcDbEntity
  8
0
 62
     7
370
    35
100
AcDbLine
 10
564.25
 20
599.497986
 30
0.0
 11
565.25
 21
599.497986
 31
0.0
  0
LINE
  5
2AD
330
1F
100
AcDbEntity
  8
0
 62
     7
370
    35
100
AcDbLine
 10
567.25
 20
599.497986
 30
0.0
 11
565.25
 21
599.497986
 31
0.0
  0
LINE
  5
2AE
330
1F
100
AcDbEntity
  8
0
 62
     7
370
    35
100
AcDbLine
 10
592.450073
 20
590.097961
 30
0.0
 11
592.950073
 21
590.097961
 31
0.0
  0
LINE
  5
2AF
330
1F
100
AcDbEntity
  8
0
 62
     7
370
    35
100
AcDbLine
 10
604.450073
 20
585.497986
 30
0.0
 11
603.75
 21
585.497986
 31
0.0
  0
LINE
  5
2B0
330
1F
100
AcDbEntity
  8
0
 62
     7
370
    35
100
AcDbLine
 10
603.75
 20
585.497986
 30
0.0
 11
603.75
 21
571.7099
 31
0.0
  0
LINE
  5
2B1
330
1F
100
AcDbEntity
  8
0
 62
     7
370
    35
100
AcDbLine
 10
592.149963
 20
571.7099
 30
0.0
 11
592.149963
 21
585.497986
 31
0.0
  0
LINE
  5
2B2
330
1F
100
AcDbEntity
  8
0
 62
     7
370
    35
100
AcDbLine
 10
592.149963
 20
585.497986
 30
0.0
 11
591.450073
 21
585.497986
 31
0.0
  0
LINE
  5
2B3
330
1F
100
AcDbEntity
  8
0
 62
     7
370
    35
100
AcDbLine
 10
567.75
 20
504.697968
 30
0.0
 11
616.75
 21
504.697968
 31
0.0
  0
ARC
  5
2B4
330
1F
100
AcDbEntity
  8
0
 62
     7
370
    35
100
AcDbCircle
 10
616.75
 20
505.197968
 30
0.0
 40
0.5
100
AcDbArc
 50
269.999997
 51
360.0
  0
LINE
  5
2B5
330
1F
100
AcDbEntity
  8
0
 62
     7
370
    35
100
AcDbLine
 10
564.25
 20
599.497986
 30
0.0
 11
564.25
 21
589.497986
 31
0.0
  0
LINE
  5
2B6
330
1F
100
AcDbEntity
  8
0
 62
     7
370
    35
100
AcDbLine
 10
564.25
 20
589.497986
 30
0.0
 11
565.25
 21
589.497986
 31
0.0
  0
ARC
  5
2B7
330
1F
100
AcDbEntity
  8
0
 62
     7
370
    35
100
AcDbCircle
 10
567.75
 20
505.197968
 30
0.0
 40
0.4999999999999988
100
AcDbArc
 50
180.000005
 51
269.999997
  0
LINE
  5
2B8
330
1F
100
AcDbEntity
  8
0
 62
     7
370
    35
100
AcDbLine
 10
567.25
 20
589.497986
 30
0.0
 11
565.25
 21
589.497986
 31
0.0
  0
LINE
  5
2B9
330
1F
100
AcDbEntity
  8
0
 62
     7
370
    35
100
AcDbLine
 10
592.949951
 20
583.397949
 30
0.0
 11
592.949951
 21
581.997986
 31
0.0
  0
LINE
  5
2BA
330
1F
100
AcDbEntity
  8
0
 62
     7
370
    35
100
AcDbLine
 10
592.949951
 20
583.697937
 30
0.0
 11
592.949951
 21
583.397949
 31
0.0
  0
LINE
  5
2BB
330
1F
100
AcDbEntity
  8
0
 62
     7
370
    35
100
AcDbLine
 10
592.949951
 20
586.197937
 30
0.0
 11
592.949951
 21
583.697937
 31
0.0
  0
LINE
  5
2BC
330
1F
100
AcDbEntity
  8
0
 62
     7
370
    35
100
AcDbLine
 10
592.949951
 20
590.697937
 30
0.0
 11
592.949951
 21
589.697937
 31
0.0
  0
LINE
  5
2BD
330
1F
100
AcDbEntity
  8
0
 62
     7
370
    35
100
AcDbLine
 10
592.949951
 20
592.697937
 30
0.0
 11
592.949951
 21
590.697937
 31
0.0
  0
LINE
  5
2BE
330
1F
100
AcDbEntity
  8
0
 62
     7
370
    35
100
AcDbLine
 10
592.949951
 20
581.697937
 30
0.0
 11
592.949951
 21
572.647949
 31
0.0
  0
LINE
  5
2BF
330
1F
100
AcDbEntity
  8
0
 62
     7
370
    35
100
AcDbLine
 10
592.949951
 20
581.997986
 30
0.0
 11
592.949951
 21
581.697937
 31
0.0
  0
LINE
  5
2C0
330
1F
100
AcDbEntity
  8
0
 62
     7
370
    35
100
AcDbLine
 10
602.949951
 20
581.697937
 30
0.0
 11
592.949951
 21
581.697937
 31
0.0
  0
LINE
  5
2C1
330
1F
100
AcDbEntity
  8
0
 62
     7
370
    35
100
AcDbLine
 10
602.949951
 20
590.697937
 30
0.0
 11
592.949951
 21
590.697937
 31
0.0
  0
LINE
  5
2C2
330
1F
100
AcDbEntity
  8
0
 62
     7
370
    35
100
AcDbLine
 10
602.949951
 20
589.697937
 30
0.0
 11
592.949951
 21
589.697937
 31
0.0
  0
LINE
  5
2C3
330
1F
100
AcDbEntity
  8
0
 62
     7
370
    35
100
AcDbLine
 10
602.949951
 20
583.697937
 30
0.0
 11
592.949951
 21
583.697937
 31
0.0
  0
LINE
  5
2C4
330
1F
100
AcDbEntity
  8
0
 62
     7
370
    35
100
AcDbLine
 10
604.788452
 20
504.687958
 30
0.0
 11
604.788452
 21
504.667969
 31
0.0
  0
LINE
  5
2C5
330
1F
100
AcDbEntity
  8
0
 62
     7
370
    35
100
AcDbLine
 10
604.788452
 20
504.687958
 30
0.0
 11
602.788513
 21
504.687958
 31
0.0
  0
LINE
  5
2C6
330
1F
100
AcDbEntity
  8
0
 62
     7
370
    35
100
AcDbLine
 10
602.788513
 20
504.687958
 30
0.0
 11
602.788513
 21
504.667969
 31
0.0
  0
LINE
  5
2C7
330
1F
100
AcDbEntity
  8
0
 62
     7
370
    35
100
AcDbLine
 10
604.788452
 20
504.667969
 30
0.0
 11
602.788513
 21
504.667969
 31
0.0
  0
LINE
  5
2C8
330
1F
100
AcDbEntity
  8
0
 62
     7
370
    35
100
AcDbLine
 10
601.827026
 20
504.687958
 30
0.0
 11
601.827026
 21
504.667969
 31
0.0
  0
LINE
  5
2C9
330
1F
100
AcDbEntity
  8
0
 62
     7
370
    35
100
AcDbLine
 10
601.827026
 20
504.687958
 30
0.0
 11
599.903992
 21
504.687958
 31
0.0
  0
LINE
  5
2CA
330
1F
100
AcDbEntity
  8
0
 62
     7
370
    35
100
AcDbLine
 10
599.903992
 20
504.687958
 30
0.0
 11
599.903992
 21
504.667969
 31
0.0
  0
LINE
  5
2CB
330
1F
100
AcDbEntity
  8
0
 62
     7
370
    35
100
AcDbLine
 10
601.827026
 20
504.667969
 30
0.0
 11
599.903992
 21
504.667969
 31
0.0
  0
LINE
  5
2CC
330
1F
100
AcDbEntity
  8
0
 62
     7
370
    35
100
AcDbLine
 10
599.903992
 20
504.687958
 30
0.0
 11
599.134827
 21
504.687958
 31
0.0
  0
LINE
  5
2CD
330
1F
100
AcDbEntity
  8
0
 62
     7
370
    35
100
AcDbLine
 10
599.903992
 20
504.667969
 30
0.0
 11
599.134827
 21
504.667969
 31
0.0
  0
LINE
  5
2CE
330
1F
100
AcDbEntity
  8
0
 62
     7
370
    35
100
AcDbLine
 10
599.134827
 20
504.687958
 30
0.0
 11
599.134827
 21
504.667969
 31
0.0
  0
LINE
  5
2CF
330
1F
100
AcDbEntity
  8
0
 62
     7
370
    35
100
AcDbLine
 10
599.134827
 20
504.687958
 30
0.0
 11
597.211792
 21
504.687958
 31
0.0
  0
LINE
  5
2D0
330
1F
100
AcDbEntity
  8
0
 62
     7
370
    35
100
AcDbLine
 10
597.211792
 20
504.687958
 30
0.0
 11
597.211792
 21
504.667969
 31
0.0
  0
LINE
  5
2D1
330
1F
100
AcDbEntity
  8
0
 62
     7
370
    35
100
AcDbLine
 10
599.134827
 20
504.667969
 30
0.0
 11
597.211792
 21
504.667969
 31
0.0
  0
LINE
  5
2D2
330
1F
100
AcDbEntity
  8
0
 62
     7
370
    35
100
AcDbLine
 10
610.172852
 20
504.687958
 30
0.0
 11
610.172852
 21
504.667969
 31
0.0
  0
LINE
  5
2D3
330
1F
100
AcDbEntity
  8
0
 62
     7
370
    35
100
AcDbLine
 10
608.519043
 20
504.687958
 30
0.0
 11
610.172852
 21
504.687958
 31
0.0
  0
LINE
  5
2D4
330
1F
100
AcDbEntity
  8
0
 62
     7
370
    35
100
AcDbLine
 10
608.519043
 20
504.687958
 30
0.0
 11
608.519043
 21
504.667969
 31
0.0
  0
LINE
  5
2D5
330
1F
100
AcDbEntity
  8
0
 62
     7
370
    35
100
AcDbLine
 10
608.519043
 20
504.667969
 30
0.0
 11
610.172852
 21
504.667969
 31
0.0
  0
LINE
  5
2D6
330
1F
100
AcDbEntity
  8
0
 62
     7
370
    35
100
AcDbLine
 10
607.057556
 20
504.687958
 30
0.0
 11
609.057495
 21
504.687958
 31
0.0
  0
LINE
  5
2D7
330
1F
100
AcDbEntity
  8
0
 62
     7
370
    35
100
AcDbLine
 10
607.057556
 20
504.687958
 30
0.0
 11
607.057556
 21
504.667969
 31
0.0
  0
LINE
  5
2D8
330
1F
100
AcDbEntity
  8
0
 62
     7
370
    35
100
AcDbLine
 10
607.057556
 20
504.667969
 30
0.0
 11
608.519043
 21
504.667969
 31
0.0
  0
LINE
  5
2D9
330
1F
100
AcDbEntity
  8
0
 62
     7
370
    35
100
AcDbLine
 10
605.749939
 20
504.687958
 30
0.0
 11
607.057556
 21
504.687958
 31
0.0
  0
LINE
  5
2DA
330
1F
100
AcDbEntity
  8
0
 62
     7
370
    35
100
AcDbLine
 10
605.749939
 20
504.687958
 30
0.0
 11
605.749939
 21
504.667969
 31
0.0
  0
LINE
  5
2DB
330
1F
100
AcDbEntity
  8
0
 62
     7
370
    35
100
AcDbLine
 10
605.749939
 20
504.667969
 30
0.0
 11
607.057556
 21
504.667969
 31
0.0
  0
LINE
  5
2DC
330
1F
100
AcDbEntity
  8
0
 62
     7
370
    35
100
AcDbLine
 10
614.586853
 20
504.687958
 30
0.0
 11
614.586853
 21
504.667969
 31
0.0
  0
LINE
  5
2DD
330
1F
100
AcDbEntity
  8
0
 62
     7
370
    35
100
AcDbLine
 10
611.33551
 20
504.687958
 30
0.0
 11
614.586853
 21
504.687958
 31
0.0
  0
LINE
  5
2DE
330
1F
100
AcDbEntity
  8
0
 62
     7
370
    35
100
AcDbLine
 10
611.33551
 20
504.687958
 30
0.0
 11
611.33551
 21
504.667969
 31
0.0
  0
LINE
  5
2DF
330
1F
100
AcDbEntity
  8
0
 62
     7
370
    35
100
AcDbLine
 10
611.33551
 20
504.667969
 30
0.0
 11
614.586853
 21
504.667969
 31
0.0
  0
LINE
  5
2E0
330
1F
100
AcDbEntity
  8
0
 62
     7
370
    35
100
AcDbLine
 10
610.749756
 20
504.687958
 30
0.0
 11
611.33551
 21
504.687958
 31
0.0
  0
LINE
  5
2E1
330
1F
100
AcDbEntity
  8
0
 62
     7
370
    35
100
AcDbLine
 10
610.749756
 20
504.667969
 30
0.0
 11
611.33551
 21
504.667969
 31
0.0
  0
LINE
  5
2E2
330
1F
100
AcDbEntity
  8
0
 62
     7
370
    35
100
AcDbLine
 10
614.586853
 20
504.687958
 30
0.0
 11
615.172607
 21
504.687958
 31
0.0
  0
LINE
  5
2E3
330
1F
100
AcDbEntity
  8
0
 62
     7
370
    35
100
AcDbLine
 10
614.586853
 20
504.667969
 30
0.0
 11
615.172607
 21
504.667969
 31
0.0
  0
LINE
  5
2E4
330
1F
100
AcDbEntity
  8
0
 62
     7
370
    35
100
AcDbLine
 10
596.42334
 20
504.687958
 30
0.0
 11
596.42334
 21
504.667969
 31
0.0
  0
LINE
  5
2E5
330
1F
100
AcDbEntity
  8
0
 62
     7
370
    35
100
AcDbLine
 10
596.42334
 20
504.687958
 30
0.0
 11
596.000305
 21
504.687958
 31
0.0
  0
LINE
  5
2E6
330
1F
100
AcDbEntity
  8
0
 62
     7
370
    35
100
AcDbLine
 10
596.000305
 20
504.687958
 30
0.0
 11
596.000305
 21
504.667969
 31
0.0
  0
LINE
  5
2E7
330
1F
100
AcDbEntity
  8
0
 62
     7
370
    35
100
AcDbLine
 10
596.42334
 20
504.667969
 30
0.0
 11
596.000305
 21
504.667969
 31
0.0
  0
LINE
  5
2E8
330
1F
100
AcDbEntity
  8
0
 62
     7
370
    35
100
AcDbLine
 10
595.559448
 20
504.687958
 30
0.0
 11
596.000305
 21
504.687958
 31
0.0
  0
LINE
  5
2E9
330
1F
100
AcDbEntity
  8
0
 62
     7
370
    35
100
AcDbLine
 10
595.559448
 20
504.667969
 30
0.0
 11
596.000305
 21
504.667969
 31
0.0
  0
LINE
  5
2EA
330
1F
100
AcDbEntity
  8
0
 62
     7
370
    35
100
AcDbLine
 10
592.66333
 20
504.687958
 30
0.0
 11
595.559448
 21
504.687958
 31
0.0
  0
LINE
  5
2EB
330
1F
100
AcDbEntity
  8
0
 62
     7
370
    35
100
AcDbLine
 10
592.66333
 20
504.687958
 30
0.0
 11
592.66333
 21
504.667969
 31
0.0
  0
LINE
  5
2EC
330
1F
100
AcDbEntity
  8
0
 62
     7
370
    35
100
AcDbLine
 10
592.66333
 20
504.667969
 30
0.0
 11
595.559448
 21
504.667969
 31
0.0
  0
LINE
  5
2ED
330
1F
100
AcDbEntity
  8
0
 62
     7
370
    35
100
AcDbLine
 10
592.094543
 20
504.687958
 30
0.0
 11
592.66333
 21
504.687958
 31
0.0
  0
LINE
  5
2EE
330
1F
100
AcDbEntity
  8
0
 62
     7
370
    35
100
AcDbLine
 10
592.094543
 20
504.667969
 30
0.0
 11
592.66333
 21
504.667969
 31
0.0
  0
LINE
  5
2EF
330
1F
100
AcDbEntity
  8
0
 62
     7
370
    35
100
AcDbLine
 10
610.749756
 20
504.687958
 30
0.0
 11
610.749756
 21
504.667969
 31
0.0
  0
LINE
  5
2F0
330
1F
100
AcDbEntity
  8
0
 62
     7
370
    35
100
AcDbLine
 10
615.172607
 20
504.687958
 30
0.0
 11
615.172607
 21
504.667969
 31
0.0
  0
LINE
  5
2F1
330
1F
100
AcDbEntity
  8
0
 62
     7
370
    35
100
AcDbLine
 10
592.094543
 20
504.687958
 30
0.0
 11
592.094543
 21
504.667969
 31
0.0
  0
ENDSEC
  0
SECTION
  2
OBJECTS
  0
DICTIONARY
  5
C
330
0
100
AcDbDictionary
281
     1
  3
ACAD_GROUP
350
D
  3
ACAD_LAYOUT
350
1A
  3
ACAD_MLINESTYLE
350
17
  3
ACAD_PLOTSETTINGS
350
19
  3
ACAD_PLOTSTYLENAME
350
E
  3
ACAD_SCALELIST
350
47
  0
DICTIONARY
  5
D
102
{ACAD_REACTORS
330
C
102
}
330
C
100
AcDbDictionary
281
     1
  0
DICTIONARY
  5
1A
102
{ACAD_REACTORS
330
C
102
}
330
C
100
AcDbDictionary
281
     1
  3
Layout1
350
1E
  3
Layout2
350
26
  3
Model
350
22
  0
DICTIONARY
  5
17
102
{ACAD_REACTORS
330
C
102
}
330
C
100
AcDbDictionary
281
     1
  3
Standard
350
18
  0
DICTIONARY
  5
19
102
{ACAD_REACTORS
330
C
102
}
330
C
100
AcDbDictionary
281
     1
  0
ACDBDICTIONARYWDFLT
  5
E
102
{ACAD_REACTORS
330
C
102
}
330
C
100
AcDbDictionary
281
     1
  3
Normal
350
F
100
AcDbDictionaryWithDefault
340
F
  0
DICTIONARY
  5
47
102
{ACAD_REACTORS
330
C
102
}
330
C
100
AcDbDictionary
281
     1
  3
A0
350
48
  3
A1
350
49
  3
A2
350
4A
  3
A3
350
4B
  3
A4
350
4C
  3
A5
350
4D
  3
A6
350
4E
  3
A7
350
4F
  3
A8
350
50
  3
A9
350
51
  3
B0
350
52
  3
B1
350
53
  3
B2
350
54
  3
B3
350
55
  3
B4
350
56
  3
B5
350
57
  3
B6
350
58
  3
B7
350
59
  3
B8
350
5A
  3
B9
350
5B
  3
C0
350
5C
  3
C1
350
5D
  3
C2
350
5E
  3
C3
350
5F
  3
C4
350
60
  3
C5
350
61
  3
C6
350
62
  3
C7
350
63
  3
C8
350
64
  3
C9
350
65
  3
D0
350
66
  3
D1
350
67
  3
D2
350
68
  0
LAYOUT
  5
1E
102
{ACAD_REACTORS
330
1A
102
}
330
1A
100
AcDbPlotSettings
  1

  2
none_device
  4

  6

 40
0.0
 41
0.0
 42
0.0
 43
0.0
 44
0.0
 45
0.0
 46
0.0
 47
0.0
 48
0.0
 49
0.0
140
0.0
141
0.0
142
1.0
143
1.0
 70
  4784
 72
     0
 73
     0
 74
     5
  7

 75
    16
147
1.0
148
0.0
149
0.0
100
AcDbLayout
  1
Layout1
 70
     1
 71
     1
 10
0.0
 20
0.0
 11
420.0
 21
297.0
 12
0.0
 22
0.0
 32
0.0
 14
0.0
 24
0.0
 34
0.0
 15
777.0672
 25
610.697937
 35
2.0
146
0.0
 13
0.0
 23
0.0
 33
0.0
 16
1.0
 26
0.0
 36
0.0
 17
0.0
 27
1.0
 37
0.0
 76
     0
330
1B
  0
LAYOUT
  5
26
102
{ACAD_REACTORS
330
1A
102
}
330
1A
100
AcDbPlotSettings
  1

  2
none_device
  4

  6

 40
0.0
 41
0.0
 42
0.0
 43
0.0
 44
0.0
 45
0.0
 46
0.0
 47
0.0
 48
0.0
 49
0.0
140
0.0
141
0.0
142
1.0
143
1.0
 70
  4784
 72
     0
 73
     0
 74
     5
  7

 75
    16
147
1.0
148
0.0
149
0.0
100
AcDbLayout
  1
Layout2
 70
     1
 71
     2
 10
0.0
 20
0.0
 11
0.0
 21
0.0
 12
0.0
 22
0.0
 32
0.0
 14
0.0
 24
0.0
 34
0.0
 15
0.0
 25
0.0
 35
0.0
146
0.0
 13
0.0
 23
0.0
 33
0.0
 16
1.0
 26
0.0
 36
0.0
 17
0.0
 27
1.0
 37
0.0
 76
     0
330
23
  0
LAYOUT
  5
22
102
{ACAD_REACTORS
330
1A
102
}
330
1A
100
AcDbPlotSettings
  1

  2
none_device
  4
Letter_(8.50_x_11.00_Inches)
  6

 40
6.35
 41
6.35
 42
6.350005
 43
6.350005
 44
215.9
 45
279.4
 46
0.0
 47
0.0
 48
0.0
 49
0.0
140
0.0
141
0.0
142
1.0
143
1.0
 70
  5808
 72
     0
 73
     0
 74
     0
  7

 75
     0
147
1.0
148
0.0
149
0.0
100
AcDbLayout
  1
Model
 70
     1
 71
     0
 10
0.0
 20
0.0
 11
420.0
 21
297.0
 12
0.0
 22
0.0
 32
0.0
 14
0.0
 24
0.0
 34
0.0
 15
777.0672
 25
610.697937
 35
2.0
146
0.0
 13
0.0
 23
0.0
 33
0.0
 16
1.0
 26
0.0
 36
0.0
 17
0.0
 27
1.0
 37
0.0
 76
     0
330
1F
331
29
  0
MLINESTYLE
  5
18
102
{ACAD_REACTORS
330
17
102
}
330
17
100
AcDbMlineStyle
  2
Standard
 70
     0
  3

 62
   256
 51
90.0
 52
90.0
 71
     2
 49
0.5
 62
   256
  6
BYLAYER
 49
-0.5
 62
   256
  6
BYLAYER
  0
ACDBPLACEHOLDER
  5
F
102
{ACAD_REACTORS
330
E
102
}
330
E
  0
SCALE
  5
48
102
{ACAD_REACTORS
330
47
102
}
330
47
100
AcDbScale
 70
     0
300
1:1
140
1.0
141
1.0
290
     1
  0
SCALE
  5
49
102
{ACAD_REACTORS
330
47
102
}
330
47
100
AcDbScale
 70
     0
300
1:2
140
1.0
141
2.0
290
     0
  0
SCALE
  5
4A
102
{ACAD_REACTORS
330
47
102
}
330
47
100
AcDbScale
 70
     0
300
1:4
140
1.0
141
4.0
290
     0
  0
SCALE
  5
4B
102
{ACAD_REACTORS
330
47
102
}
330
47
100
AcDbScale
 70
     0
300
1:5
140
1.0
141
5.0
290
     0
  0
SCALE
  5
4C
102
{ACAD_REACTORS
330
47
102
}
330
47
100
AcDbScale
 70
     0
300
1:8
140
1.0
141
8.0
290
     0
  0
SCALE
  5
4D
102
{ACAD_REACTORS
330
47
102
}
330
47
100
AcDbScale
 70
     0
300
1:10
140
1.0
141
10.0
290
     0
  0
SCALE
  5
4E
102
{ACAD_REACTORS
330
47
102
}
330
47
100
AcDbScale
 70
     0
300
1:16
140
1.0
141
16.0
290
     0
  0
SCALE
  5
4F
102
{ACAD_REACTORS
330
47
102
}
330
47
100
AcDbScale
 70
     0
300
1:20
140
1.0
141
20.0
290
     0
  0
SCALE
  5
50
102
{ACAD_REACTORS
330
47
102
}
330
47
100
AcDbScale
 70
     0
300
1:30
140
1.0
141
30.0
290
     0
  0
SCALE
  5
51
102
{ACAD_REACTORS
330
47
102
}
330
47
100
AcDbScale
 70
     0
300
1:40
140
1.0
141
40.0
290
     0
  0
SCALE
  5
52
102
{ACAD_REACTORS
330
47
102
}
330
47
100
AcDbScale
 70
     0
300
1:50
140
1.0
141
50.0
290
     0
  0
SCALE
  5
53
102
{ACAD_REACTORS
330
47
102
}
330
47
100
AcDbScale
 70
     0
300
1:100
140
1.0
141
100.0
290
     0
  0
SCALE
  5
54
102
{ACAD_REACTORS
330
47
102
}
330
47
100
AcDbScale
 70
     0
300
2:1
140
2.0
141
1.0
290
     0
  0
SCALE
  5
55
102
{ACAD_REACTORS
330
47
102
}
330
47
100
AcDbScale
 70
     0
300
4:1
140
4.0
141
1.0
290
     0
  0
SCALE
  5
56
102
{ACAD_REACTORS
330
47
102
}
330
47
100
AcDbScale
 70
     0
300
8:1
140
8.0
141
1.0
290
     0
  0
SCALE
  5
57
102
{ACAD_REACTORS
330
47
102
}
330
47
100
AcDbScale
 70
     0
300
10:1
140
10.0
141
1.0
290
     0
  0
SCALE
  5
58
102
{ACAD_REACTORS
330
47
102
}
330
47
100
AcDbScale
 70
     0
300
100:1
140
100.0
141
1.0
290
     0
  0
SCALE
  5
59
102
{ACAD_REACTORS
330
47
102
}
330
47
100
AcDbScale
 70
     0
300
1/128" = 1'-0"
140
0.007812
141
12.0
290
     0
  0
SCALE
  5
5A
102
{ACAD_REACTORS
330
47
102
}
330
47
100
AcDbScale
 70
     0
300
1/64" = 1'-0"
140
0.015625
141
12.0
290
     0
  0
SCALE
  5
5B
102
{ACAD_REACTORS
330
47
102
}
330
47
100
AcDbScale
 70
     0
300
1/32" = 1'-0"
140
0.03125
141
12.0
290
     0
  0
SCALE
  5
5C
102
{ACAD_REACTORS
330
47
102
}
330
47
100
AcDbScale
 70
     0
300
1/16" = 1'-0"
140
0.0625
141
12.0
290
     0
  0
SCALE
  5
5D
102
{ACAD_REACTORS
330
47
102
}
330
47
100
AcDbScale
 70
     0
300
3/32" = 1'-0"
140
0.09375
141
12.0
290
     0
  0
SCALE
  5
5E
102
{ACAD_REACTORS
330
47
102
}
330
47
100
AcDbScale
 70
     0
300
1/8" = 1'-0"
140
0.125
141
12.0
290
     0
  0
SCALE
  5
5F
102
{ACAD_REACTORS
330
47
102
}
330
47
100
AcDbScale
 70
     0
300
3/16" = 1'-0"
140
0.1875
141
12.0
290
     0
  0
SCALE
  5
60
102
{ACAD_REACTORS
330
47
102
}
330
47
100
AcDbScale
 70
     0
300
1/4" = 1'-0"
140
0.25
141
12.0
290
     0
  0
SCALE
  5
61
102
{ACAD_REACTORS
330
47
102
}
330
47
100
AcDbScale
 70
     0
300
3/8" = 1'-0"
140
0.375
141
12.0
290
     0
  0
SCALE
  5
62
102
{ACAD_REACTORS
330
47
102
}
330
47
100
AcDbScale
 70
     0
300
1/2" = 1'-0"
140
0.5
141
12.0
290
     0
  0
SCALE
  5
63
102
{ACAD_REACTORS
330
47
102
}
330
47
100
AcDbScale
 70
     0
300
3/4" = 1'-0"
140
0.75
141
12.0
290
     0
  0
SCALE
  5
64
102
{ACAD_REACTORS
330
47
102
}
330
47
100
AcDbScale
 70
     0
300
1" = 1'-0"
140
1.0
141
12.0
290
     0
  0
SCALE
  5
65
102
{ACAD_REACTORS
330
47
102
}
330
47
100
AcDbScale
 70
     0
300
1-1/2" = 1'-0"
140
1.5
141
12.0
290
     0
  0
SCALE
  5
66
102
{ACAD_REACTORS
330
47
102
}
330
47
100
AcDbScale
 70
     0
300
3" = 1'-0"
140
3.0
141
12.0
290
     0
  0
SCALE
  5
67
102
{ACAD_REACTORS
330
47
102
}
330
47
100
AcDbScale
 70
     0
300
6" = 1'-0"
140
6.0
141
12.0
290
     0
  0
SCALE
  5
68
102
{ACAD_REACTORS
330
47
102
}
330
47
100
AcDbScale
 70
     0
300
1'-0" = 1'-0"
140
12.0
141
12.0
290
     0
  0
ENDSEC
  0
EOF
